999
DXF file: C:\Users\sesa63760\Dev\_Creo\CAD\MCADPD0004077_3D-CAD\drw0001_3.dxf
999
Pro/ENGINEER 2019471 by Parametric Technology Corporation
  0
SECTION
  2
HEADER
  9
$ACADVER
  1
AC1024
  9
$DWGCODEPAGE
  3
ANSI_1252
  9
$EXTMAX
 10
132.3473907566
 20
187.17702407
 30
0.0
  9
$EXTMIN
 10
0.0
 20
0.0
 30
0.0
  9
$LIMMIN
 10
0.0
 20
0.0
  9
$LIMMAX
 10
132.3473907566
 20
187.17702407
  9
$VIEWCTR
 10
66.1736953783
 20
93.588512035
  9
$VIEWSIZE
 40
187.17702407
  9
$CLAYER
  8
0
  9
$LTSCALE
 40
12.2011689764
  9
$CELTYPE
  6
BYLAYER
  9
$DIMSCALE
 40
1.0
  9
$DIMASZ
 40
1.5755641757
  9
$DIMEXO
 40
1.0
  9
$DIMDLI
 40
8.4298985655
  9
$DIMEXE
 40
1.0
  9
$DIMCEN
 40
1.9965549234
  9
$DIMLFAC
 40
1.0
  9
$DIMBLK
  1
_FILLED
  9
$DIMALT
 70
0
  9
$DIMALTF
 40
0.0393700787
  9
$DIMTXT
 40
2.2057898459
  9
$DIMTOL
 70
1
  9
$DIMLIM
 70
0
  9
$DIMTFAC
 40
1.0
  9
$DIMTP
 40
0.01
  9
$DIMTM
 40
0.01
  9
$DIMGAP
 40
0.625
  9
$DIMDSEP
 70
46
  9
$AUNITS
 70
0
  9
$PDMODE
 70
3
  9
$PDSIZE
 40
0.3125
  9
$HANDSEED
  5
320
  9
$TILEMODE
 70
1
  9
$MEASUREMENT
 70
1
  9
$INSUNITS
 70
4
  0
ENDSEC
  0
SECTION
  2
CLASSES
  0
CLASS
  1
ACDBDICTIONARYWDFLT
  2
AcDbDictionaryWithDefault
  3
AutoCAD 2000
 90
0
 91
1
280
0
281
0
  0
CLASS
  1
ACDBPLACEHOLDER
  2
AcDbPlaceHolder
  3
AutoCAD 2000
 90
0
 91
1
280
0
281
0
  0
CLASS
  1
LAYOUT
  2
AcDbLayout
  3
AutoCAD 2000
 90
0
 91
0
280
0
281
0
  0
ENDSEC
  0
SECTION
  2
TABLES
  0
TABLE
  2
VPORT
  5
8
100
AcDbSymbolTable
 70
2
  0
VPORT
  5
1F4
100
AcDbSymbolTableRecord
100
AcDbViewportTableRecord
  2
*ACTIVE
 70
0
 10
0.0
 20
0.0
 11
1.0
 21
1.0
 12
66.1736953783
 22
93.588512035
 13
0.0
 23
0.0
 14
1.0
 24
1.0
 15
0.0
 25
0.0
 16
0.0
 26
0.0
 36
1.0
 17
0.0
 27
0.0
 37
0.0
 40
187.17702407
 41
0.7070707071
 42
50.0
 43
0.0
 44
0.0
 50
0.0
 51
0.0
 71
0
 72
100
 73
1
 74
1
 75
0
 76
0
 77
0
 78
0
  0
ENDTAB
  0
TABLE
  2
LTYPE
  5
5
100
AcDbSymbolTable
 70
6
  0
LTYPE
  5
14
100
AcDbSymbolTableRecord
100
AcDbLinetypeTableRecord
  2
BYBLOCK
 70
0
  3

 72
65
 73
0
 40
0.0
  0
LTYPE
  5
15
100
AcDbSymbolTableRecord
100
AcDbLinetypeTableRecord
  2
BYLAYER
 70
0
  3

 72
65
 73
0
 40
0.0
  0
LTYPE
  5
16
100
AcDbSymbolTableRecord
100
AcDbLinetypeTableRecord
  2
CONTINUOUS
 70
64
  3
Solid line
 72
65
 73
0
 40
0.0
  0
LTYPE
  5
1F5
100
AcDbSymbolTableRecord
100
AcDbLinetypeTableRecord
  2
CENTER
 70
64
  3
____ _ ____ _ ____ _ ____ _ ____ _ ____ _ ____
 72
65
 73
4
 40
0.6
 49
0.375
 74
0
 49
-0.075
 74
0
 49
0.075
 74
0
 49
-0.075
 74
0
  0
LTYPE
  5
1F6
100
AcDbSymbolTableRecord
100
AcDbLinetypeTableRecord
  2
HIDDEN
 70
64
  3
- - - - - - - - - - - - - - - - - - - -
 72
65
 73
2
 40
0.2
 49
0.1
 74
0
 49
-0.1
 74
0
  0
LTYPE
  5
1F7
100
AcDbSymbolTableRecord
100
AcDbLinetypeTableRecord
  2
PHANTOM
 70
64
  3
_____ _ _ _____ _ _ _____ _ _ _____
 72
65
 73
6
 40
0.8
 49
0.45
 74
0
 49
-0.05
 74
0
 49
0.1
 74
0
 49
-0.05
 74
0
 49
0.1
 74
0
 49
-0.05
 74
0
  0
LTYPE
  5
1F8
100
AcDbSymbolTableRecord
100
AcDbLinetypeTableRecord
  2
DOT
 70
64
  3
. . . . . . . . . . . . . . . . . . . .
 72
65
 73
2
 40
0.2
 49
0.1
 74
0
 49
-0.1
 74
0
  0
LTYPE
  5
1F9
100
AcDbSymbolTableRecord
100
AcDbLinetypeTableRecord
  2
DASHED
 70
64
  3
- - - - - - - - - - - - - - - - - - - -
 72
65
 73
2
 40
0.2
 49
0.1
 74
0
 49
-0.1
 74
0
  0
ENDTAB
  0
TABLE
  2
LAYER
  5
2
100
AcDbSymbolTable
 70
36
  0
LAYER
  5
10
100
AcDbSymbolTableRecord
100
AcDbLayerTableRecord
  2
0
 70
0
 62
7
  6
CONTINUOUS
370
-3
390
F
  0
LAYER
  5
1FA
100
AcDbSymbolTableRecord
100
AcDbLayerTableRecord
  2
DEFAULT_1
 70
0
 62
7
  6
CENTER
370
-3
390
F
  0
LAYER
  5
1FB
100
AcDbSymbolTableRecord
100
AcDbLayerTableRecord
  2
DEFAULT_2
 70
0
 62
7
  6
HIDDEN
370
-3
390
F
  0
LAYER
  5
1FC
100
AcDbSymbolTableRecord
100
AcDbLayerTableRecord
  2
DEFAULT_3
 70
0
 62
7
  6
PHANTOM
370
-3
390
F
  0
LAYER
  5
1FD
100
AcDbSymbolTableRecord
100
AcDbLayerTableRecord
  2
00_COMPONENTS
 70
0
 62
7
  6
CONTINUOUS
370
-3
390
F
  0
LAYER
  5
1FE
100
AcDbSymbolTableRecord
100
AcDbLayerTableRecord
  2
01_1_DEFAULT_DATUMS
 70
0
 62
7
  6
CONTINUOUS
370
-3
390
F
  0
LAYER
  5
1FF
100
AcDbSymbolTableRecord
100
AcDbLayerTableRecord
  2
01_PLANES
 70
0
 62
7
  6
CONTINUOUS
370
-3
390
F
  0
LAYER
  5
200
100
AcDbSymbolTableRecord
100
AcDbLayerTableRecord
  2
02_COORD_SYS
 70
0
 62
7
  6
CONTINUOUS
370
-3
390
F
  0
LAYER
  5
201
100
AcDbSymbolTableRecord
100
AcDbLayerTableRecord
  2
03_AXES
 70
0
 62
7
  6
CONTINUOUS
370
-3
390
F
  0
LAYER
  5
202
100
AcDbSymbolTableRecord
100
AcDbLayerTableRecord
  2
04_POINTS
 70
0
 62
7
  6
CONTINUOUS
370
-3
390
F
  0
LAYER
  5
203
100
AcDbSymbolTableRecord
100
AcDbLayerTableRecord
  2
05_CURVES
 70
0
 62
7
  6
CONTINUOUS
370
-3
390
F
  0
LAYER
  5
204
100
AcDbSymbolTableRecord
100
AcDbLayerTableRecord
  2
06_SURFS
 70
0
 62
7
  6
CONTINUOUS
370
-3
390
F
  0
LAYER
  5
205
100
AcDbSymbolTableRecord
100
AcDbLayerTableRecord
  2
07_COSMETICS
 70
0
 62
7
  6
CONTINUOUS
370
-3
390
F
  0
LAYER
  5
206
100
AcDbSymbolTableRecord
100
AcDbLayerTableRecord
  2
10_NOTES
 70
0
 62
7
  6
CONTINUOUS
370
-3
390
F
  0
LAYER
  5
207
100
AcDbSymbolTableRecord
100
AcDbLayerTableRecord
  2
11_NOTES_PUB
 70
0
 62
7
  6
CONTINUOUS
370
-3
390
F
  0
LAYER
  5
208
100
AcDbSymbolTableRecord
100
AcDbLayerTableRecord
  2
13_REF_GTOL
 70
0
 62
7
  6
CONTINUOUS
370
-3
390
F
  0
LAYER
  5
209
100
AcDbSymbolTableRecord
100
AcDbLayerTableRecord
  2
16_MISC
 70
0
 62
7
  6
CONTINUOUS
370
-3
390
F
  0
LAYER
  5
20A
100
AcDbSymbolTableRecord
100
AcDbLayerTableRecord
  2
17_NO_PRINT
 70
0
 62
7
  6
CONTINUOUS
370
-3
390
F
  0
LAYER
  5
20B
100
AcDbSymbolTableRecord
100
AcDbLayerTableRecord
  2
18_DATUM_CAMS_JOINTS
 70
0
 62
7
  6
CONTINUOUS
370
-3
390
F
  0
LAYER
  5
20C
100
AcDbSymbolTableRecord
100
AcDbLayerTableRecord
  2
19_DATUM_FUNCTIONAL
 70
0
 62
7
  6
CONTINUOUS
370
-3
390
F
  0
LAYER
  5
20D
100
AcDbSymbolTableRecord
100
AcDbLayerTableRecord
  2
20_DATUM_KINEMATIC_SCHEME
 70
0
 62
7
  6
CONTINUOUS
370
-3
390
F
  0
ENDTAB
  0
TABLE
  2
STYLE
  5
3
100
AcDbSymbolTable
 70
1
  0
STYLE
  5
11
100
AcDbSymbolTableRecord
100
AcDbTextStyleTableRecord
  2
STANDARD
 70
0
 40
0.0
 41
1.0
 50
0.0
 71
0
 42
0.2
  3
ARIAL.TTF
  4

  0
STYLE
  5
20E
100
AcDbSymbolTableRecord
100
AcDbTextStyleTableRecord
  2
TEXTSTYLE_1
 70
0
 40
0.0
 41
0.8
 50
0.0
 71
0
 42
0.2
  3
gdt
  4

  0
ENDTAB
  0
TABLE
  2
VIEW
  5
6
100
AcDbSymbolTable
 70
0
  0
ENDTAB
  0
TABLE
  2
UCS
  5
7
100
AcDbSymbolTable
 70
0
  0
ENDTAB
  0
TABLE
  2
APPID
  5
9
100
AcDbSymbolTable
 70
1
  0
APPID
  5
20F
100
AcDbSymbolTableRecord
100
AcDbRegAppTableRecord
  2
ACAD
 70
0
  0
ENDTAB
  0
TABLE
  2
BLOCK_RECORD
  5
1
100
AcDbSymbolTable
 70
0
  0
BLOCK_RECORD
  5
210
100
AcDbSymbolTableRecord
100
AcDbBlockTableRecord
  2
*Model_Space
  0
BLOCK_RECORD
  5
211
100
AcDbSymbolTableRecord
100
AcDbBlockTableRecord
  2
*Paper_Space
  0
BLOCK_RECORD
  5
212
100
AcDbSymbolTableRecord
100
AcDbBlockTableRecord
  2
_FILLED
  0
ENDTAB
  0
TABLE
  2
DIMSTYLE
  5
A
100
AcDbSymbolTable
 70
1
100
AcDbDimStyleTable
 71
0
  0
DIMSTYLE
105
213
100
AcDbSymbolTableRecord
100
AcDbDimStyleTableRecord
  2
STANDARD
 70
0
  3

  4

 40
1.0
 41
1.5755641757
 42
1.0
 43
0.38
 44
1.0
 45
0.0
 46
0.0
 47
0.01
 48
0.01
140
2.2057898459
141
0.09
142
0.0
143
25.4
144
1.0
145
0.0
146
1.0
147
0.625
 71
1
 72
0
 73
0
 74
0
 75
0
 76
0
 77
1
 78
8
 79
2
170
0
171
1
172
0
173
0
174
0
175
0
176
0
177
0
178
0
270
2
179
2
271
2
272
2
273
2
274
2
275
0
280
0
281
0
282
0
283
1
284
8
285
0
286
0
287
3
288
0
340
11
278
46
341
212
342
212
343
212
344
212
  0
ENDTAB
  0
ENDSEC
  0
SECTION
  2
BLOCKS
  0
BLOCK
  5
20
100
AcDbEntity
  8
0
100
AcDbBlockBegin
  2
*Model_Space
 70
0
 10
0.0
 20
0.0
 30
0.0
  3
*Model_Space
  1

  0
ENDBLK
  5
21
100
AcDbEntity
  8
0
100
AcDbBlockEnd
  0
BLOCK
  5
1C
100
AcDbEntity
  8
0
100
AcDbBlockBegin
  2
*Paper_Space
 70
0
 10
0.0
 20
0.0
 30
0.0
  3
*Paper_Space
  1

  0
ENDBLK
  5
1D
100
AcDbEntity
  8
0
100
AcDbBlockEnd
  0
BLOCK
  5
214
100
AcDbEntity
  8
0
100
AcDbBlockBegin
  2
_FILLED
 70
64
 10
0.0
 20
0.0
  3
_FILLED
  1

  0
SOLID
  5
215
100
AcDbEntity
  8
0
  6
BYBLOCK
 62
0
100
AcDbTrace
 10
0.0
 20
0.0
 11
-1.0
 21
0.25
 12
-1.0
 22
-0.25
 13
-1.0
 23
-0.25
  0
ENDBLK
  5
216
100
AcDbEntity
  8
0
  6
BYBLOCK
 62
0
100
AcDbBlockEnd
  0
ENDSEC
  0
SECTION
  2
ENTITIES
  0
LINE
  5
217
100
AcDbEntity
  8
0
100
AcDbLine
 62
7
  6
BYLAYER
 10
15.6565181354
 20
47.5599463313
 11
15.6565181354
 21
142.2099463313
  0
LINE
  5
218
100
AcDbEntity
  8
0
100
AcDbLine
 62
7
  6
BYLAYER
 10
17.1065181354
 20
63.5599463313
 11
17.1065181354
 21
59.3125742755
  0
LINE
  5
219
100
AcDbEntity
  8
0
100
AcDbLine
 62
7
  6
BYLAYER
 10
17.6565181354
 20
140.2382808122
 11
17.6565181354
 21
63.5599463313
  0
LINE
  5
21A
100
AcDbEntity
  8
0
100
AcDbLine
 62
7
  6
BYLAYER
 10
17.6612846624
 20
142.2099463313
 11
17.6612846624
 21
145.2334550657
  0
LINE
  5
21B
100
AcDbEntity
  8
0
100
AcDbLine
 62
7
  6
BYLAYER
 10
18.1264199537
 20
100.2815561716
 11
18.1264199537
 21
101.5688248495
  0
LINE
  5
21C
100
AcDbEntity
  8
0
100
AcDbLine
 62
7
  6
BYLAYER
 10
18.1612846624
 20
140.2382808122
 11
18.1612846624
 21
142.7599463313
  0
LINE
  5
21D
100
AcDbEntity
  8
0
100
AcDbLine
 62
7
  6
BYLAYER
 10
18.5065181354
 20
99.9014579899
 11
18.5065181354
 21
101.9489230312
  0
LINE
  5
21E
100
AcDbEntity
  8
0
100
AcDbLine
 62
7
  6
BYLAYER
 10
18.5568608278
 20
139.8427046468
 11
18.5568608278
 21
142.7599463313
  0
LINE
  5
21F
100
AcDbEntity
  8
0
100
AcDbLine
 62
7
  6
BYLAYER
 10
20.9163420704
 20
101.9904207158
 11
20.9163420704
 21
99.8599603052
  0
LINE
  5
220
100
AcDbEntity
  8
0
100
AcDbLine
 62
7
  6
BYLAYER
 10
47.4561770402
 20
139.842706244
 11
47.8517516084
 21
140.2382808122
  0
LINE
  5
221
100
AcDbEntity
  8
0
100
AcDbLine
 62
7
  6
BYLAYER
 10
49.7565181354
 20
140.2251905105
 11
49.1412739562
 21
139.6099463313
  0
LINE
  5
222
100
AcDbEntity
  8
0
100
AcDbLine
 62
7
  6
BYLAYER
 10
15.6565181354
 20
47.5599463313
 11
46.1065181354
 21
47.5599463313
  0
LINE
  5
223
100
AcDbEntity
  8
0
100
AcDbLine
 62
7
  6
BYLAYER
 10
54.9065181354
 20
47.5599463313
 11
120.3565181354
 21
47.5599463313
  0
LINE
  5
224
100
AcDbEntity
  8
0
100
AcDbLine
 62
7
  6
BYLAYER
 10
27.5565181354
 20
142.7599463313
 11
27.5565181354
 21
139.7648482346
  0
LINE
  5
225
100
AcDbEntity
  8
0
100
AcDbLine
 62
7
  6
BYLAYER
 10
29.416570532
 20
99.8045671957
 11
29.416570532
 21
102.0458138254
  0
LINE
  5
226
100
AcDbEntity
  8
0
100
AcDbLine
 62
7
  6
BYLAYER
 10
17.1065181354
 20
59.3125742755
 11
16.5565181354
 21
57.2599463313
  0
LINE
  5
227
100
AcDbEntity
  8
0
100
AcDbLine
 62
7
  6
BYLAYER
 10
18.1264199537
 20
101.5688248495
 11
18.5065181354
 21
101.9489230312
  0
LINE
  5
228
100
AcDbEntity
  8
0
100
AcDbLine
 62
7
  6
BYLAYER
 10
62.5065181354
 20
57.1599463313
 11
53.5065181354
 21
57.1599463313
  0
LINE
  5
229
100
AcDbEntity
  8
0
100
AcDbLine
 62
7
  6
BYLAYER
 10
47.5065181354
 20
57.1599463313
 11
38.5065181354
 21
57.1599463313
  0
LINE
  5
22A
100
AcDbEntity
  8
0
100
AcDbLine
 62
7
  6
BYLAYER
 10
120.3565181354
 20
57.2599463313
 11
119.4565181354
 21
57.2599463313
  0
LINE
  5
22B
100
AcDbEntity
  8
0
100
AcDbLine
 62
7
  6
BYLAYER
 10
16.5565181354
 20
57.2599463313
 11
15.6565181354
 21
57.2599463313
  0
LINE
  5
22C
100
AcDbEntity
  8
0
100
AcDbLine
 62
7
  6
BYLAYER
 10
36.5964657388
 20
102.0458138254
 11
36.5964657388
 21
99.8045671957
  0
LINE
  5
22D
100
AcDbEntity
  8
0
100
AcDbLine
 62
7
  6
BYLAYER
 10
38.4565181354
 20
139.7648482346
 11
38.4565181354
 21
142.7599463313
  0
LINE
  5
22E
100
AcDbEntity
  8
0
100
AcDbLine
 62
7
  6
BYLAYER
 10
38.5065181354
 20
57.1599463313
 11
38.5065181354
 21
62.3599463313
  0
LINE
  5
22F
100
AcDbEntity
  8
0
100
AcDbLine
 62
7
  6
BYLAYER
 10
86.2579714699
 20
60.5599463313
 11
84.7550648009
 21
60.5599463313
  0
LINE
  5
230
100
AcDbEntity
  8
0
100
AcDbLine
 62
7
  6
BYLAYER
 10
51.2579714699
 20
60.5599463313
 11
49.7550648009
 21
60.5599463313
  0
LINE
  5
231
100
AcDbEntity
  8
0
100
AcDbLine
 62
7
  6
BYLAYER
 10
38.5065181354
 20
62.3599463313
 11
47.5065181354
 21
62.3599463313
  0
LINE
  5
232
100
AcDbEntity
  8
0
100
AcDbLine
 62
7
  6
BYLAYER
 10
53.5065181354
 20
62.3599463313
 11
62.5065181354
 21
62.3599463313
  0
LINE
  5
233
100
AcDbEntity
  8
0
100
AcDbLine
 62
7
  6
BYLAYER
 10
118.8565181354
 20
63.5599463313
 11
118.3065181354
 21
63.5599463313
  0
LINE
  5
234
100
AcDbEntity
  8
0
100
AcDbLine
 62
7
  6
BYLAYER
 10
17.6565181354
 20
63.5599463313
 11
17.1065181354
 21
63.5599463313
  0
LINE
  5
235
100
AcDbEntity
  8
0
100
AcDbLine
 62
7
  6
BYLAYER
 10
49.1412739562
 20
63.5599463313
 11
49.7565181354
 21
63.5599463313
  0
LINE
  5
236
100
AcDbEntity
  8
0
100
AcDbLine
 62
7
  6
BYLAYER
 10
51.2565181354
 20
63.5599463313
 11
51.8717623147
 21
63.5599463313
  0
LINE
  5
237
100
AcDbEntity
  8
0
100
AcDbLine
 62
7
  6
BYLAYER
 10
84.1412739562
 20
63.5599463313
 11
84.7565181354
 21
63.5599463313
  0
LINE
  5
238
100
AcDbEntity
  8
0
100
AcDbLine
 62
7
  6
BYLAYER
 10
86.2565181354
 20
63.5599463313
 11
86.8717623147
 21
63.5599463313
  0
LINE
  5
239
100
AcDbEntity
  8
0
100
AcDbLine
 62
7
  6
BYLAYER
 10
18.1264199537
 20
100.2815561716
 11
18.5065181354
 21
99.9014579899
  0
LINE
  5
23A
100
AcDbEntity
  8
0
100
AcDbLine
 62
7
  6
BYLAYER
 10
45.0966942004
 20
99.8599603052
 11
45.0966942004
 21
101.9904207158
  0
LINE
  5
23B
100
AcDbEntity
  8
0
100
AcDbLine
 62
7
  6
BYLAYER
 10
46.1065181354
 20
47.2599463313
 11
46.1065181354
 21
47.5599463313
  0
LINE
  5
23C
100
AcDbEntity
  8
0
100
AcDbLine
 62
7
  6
BYLAYER
 10
46.2565181354
 20
114.2599463313
 11
46.2565181354
 21
115.2599463313
  0
LINE
  5
23D
100
AcDbEntity
  8
0
100
AcDbLine
 62
7
  6
BYLAYER
 10
47.456175443
 20
142.7599463313
 11
47.456175443
 21
139.8427046468
  0
LINE
  5
23E
100
AcDbEntity
  8
0
100
AcDbLine
 62
7
  6
BYLAYER
 10
47.5065181354
 20
101.9489230312
 11
47.5065181354
 21
99.9014579899
  0
LINE
  5
23F
100
AcDbEntity
  8
0
100
AcDbLine
 62
7
  6
BYLAYER
 10
47.5065181354
 20
62.3599463313
 11
47.5065181354
 21
57.1599463313
  0
LINE
  5
240
100
AcDbEntity
  8
0
100
AcDbLine
 62
7
  6
BYLAYER
 10
47.6065181354
 20
114.2599463313
 11
47.6065181354
 21
115.2599463313
  0
LINE
  5
241
100
AcDbEntity
  8
0
100
AcDbLine
 62
7
  6
BYLAYER
 10
47.8517516084
 20
140.2382808122
 11
47.8517516084
 21
142.7599463313
  0
LINE
  5
242
100
AcDbEntity
  8
0
100
AcDbLine
 62
7
  6
BYLAYER
 10
47.9302506561
 20
101.5251905105
 11
47.9302506561
 21
100.3251905105
  0
LINE
  5
243
100
AcDbEntity
  8
0
100
AcDbLine
 62
7
  6
BYLAYER
 10
48.0857205001
 20
114.2599463313
 11
48.0857205001
 21
115.2599463313
  0
LINE
  5
244
100
AcDbEntity
  8
0
100
AcDbLine
 62
7
  6
BYLAYER
 10
48.3517516084
 20
142.2099463313
 11
48.3517516084
 21
145.2334550657
  0
LINE
  5
245
100
AcDbEntity
  8
0
100
AcDbLine
 62
7
  6
BYLAYER
 10
48.7565181354
 20
115.2599463313
 11
48.7565181354
 21
114.2599463313
  0
LINE
  5
246
100
AcDbEntity
  8
0
100
AcDbLine
 62
7
  6
BYLAYER
 10
82.4561770402
 20
139.842706244
 11
82.8517516084
 21
140.2382808122
  0
LINE
  5
247
100
AcDbEntity
  8
0
100
AcDbLine
 62
7
  6
BYLAYER
 10
84.7565181354
 20
140.2251905105
 11
84.1412739562
 21
139.6099463313
  0
LINE
  5
248
100
AcDbEntity
  8
0
100
AcDbLine
 62
7
  6
BYLAYER
 10
49.8065759111
 20
56.5509528517
 11
49.7165181354
 21
63.5599463313
  0
LINE
  5
249
100
AcDbEntity
  8
0
100
AcDbLine
 62
7
  6
BYLAYER
 10
49.1412739562
 20
63.5599463313
 11
49.1412739562
 21
99.7099463313
  0
LINE
  5
24A
100
AcDbEntity
  8
0
100
AcDbLine
 62
7
  6
BYLAYER
 10
49.1412739562
 20
102.1404346898
 11
49.1412739562
 21
110.235196857
  0
LINE
  5
24B
100
AcDbEntity
  8
0
100
AcDbLine
 62
7
  6
BYLAYER
 10
49.1412739562
 20
119.2846958056
 11
49.1412739562
 21
139.6099463313
  0
LINE
  5
24C
100
AcDbEntity
  8
0
100
AcDbLine
 62
7
  6
BYLAYER
 10
49.7565181354
 20
140.2251905105
 11
49.7565181354
 21
119.443246464
  0
LINE
  5
24D
100
AcDbEntity
  8
0
100
AcDbLine
 62
7
  6
BYLAYER
 10
49.7565181354
 20
110.0766461986
 11
49.7565181354
 21
101.5251905105
  0
LINE
  5
24E
100
AcDbEntity
  8
0
100
AcDbLine
 62
7
  6
BYLAYER
 10
49.7565181354
 20
100.3251905105
 11
49.7565181354
 21
63.5599463313
  0
LINE
  5
24F
100
AcDbEntity
  8
0
100
AcDbLine
 62
7
  6
BYLAYER
 10
51.2565181354
 20
140.2251905105
 11
51.2565181354
 21
119.443246464
  0
LINE
  5
250
100
AcDbEntity
  8
0
100
AcDbLine
 62
7
  6
BYLAYER
 10
51.2565181354
 20
110.0766461986
 11
51.2565181354
 21
101.5251905105
  0
LINE
  5
251
100
AcDbEntity
  8
0
100
AcDbLine
 62
7
  6
BYLAYER
 10
51.2565181354
 20
100.3251905105
 11
51.2565181354
 21
63.5599463313
  0
LINE
  5
252
100
AcDbEntity
  8
0
100
AcDbLine
 62
7
  6
BYLAYER
 10
51.8717623147
 20
63.5599463313
 11
51.8717623147
 21
99.7099463313
  0
LINE
  5
253
100
AcDbEntity
  8
0
100
AcDbLine
 62
7
  6
BYLAYER
 10
51.8717623147
 20
102.1404346898
 11
51.8717623147
 21
110.235196857
  0
LINE
  5
254
100
AcDbEntity
  8
0
100
AcDbLine
 62
7
  6
BYLAYER
 10
51.8717623147
 20
119.2846958056
 11
51.8717623147
 21
139.6099463313
  0
LINE
  5
255
100
AcDbEntity
  8
0
100
AcDbLine
 62
7
  6
BYLAYER
 10
52.2565181354
 20
114.2599463313
 11
52.2565181354
 21
115.2599463313
  0
LINE
  5
256
100
AcDbEntity
  8
0
100
AcDbLine
 62
7
  6
BYLAYER
 10
52.6612846624
 20
142.2099463313
 11
52.6612846624
 21
145.2334550657
  0
LINE
  5
257
100
AcDbEntity
  8
0
100
AcDbLine
 62
7
  6
BYLAYER
 10
52.9273157707
 20
115.2599463313
 11
52.9273157707
 21
114.2599463313
  0
LINE
  5
258
100
AcDbEntity
  8
0
100
AcDbLine
 62
7
  6
BYLAYER
 10
53.0827856147
 20
101.5251905105
 11
53.0827856147
 21
100.3251905105
  0
LINE
  5
259
100
AcDbEntity
  8
0
100
AcDbLine
 62
7
  6
BYLAYER
 10
53.1612846624
 20
140.2382808122
 11
53.1612846624
 21
142.7599463313
  0
LINE
  5
25A
100
AcDbEntity
  8
0
100
AcDbLine
 62
7
  6
BYLAYER
 10
53.4065181354
 20
115.2599463313
 11
53.4065181354
 21
114.2599463313
  0
LINE
  5
25B
100
AcDbEntity
  8
0
100
AcDbLine
 62
7
  6
BYLAYER
 10
53.5065181354
 20
57.1599463313
 11
53.5065181354
 21
62.3599463313
  0
LINE
  5
25C
100
AcDbEntity
  8
0
100
AcDbLine
 62
7
  6
BYLAYER
 10
53.5065181354
 20
99.9014579899
 11
53.5065181354
 21
101.9489230312
  0
LINE
  5
25D
100
AcDbEntity
  8
0
100
AcDbLine
 62
7
  6
BYLAYER
 10
53.5568608278
 20
139.8427046468
 11
53.5568608278
 21
142.7599463313
  0
LINE
  5
25E
100
AcDbEntity
  8
0
100
AcDbLine
 62
7
  6
BYLAYER
 10
51.2965181354
 20
63.5599463313
 11
51.2064603597
 21
56.5509528517
  0
LINE
  5
25F
100
AcDbEntity
  8
0
100
AcDbLine
 62
7
  6
BYLAYER
 10
47.5065181354
 20
99.9014579899
 11
47.9302506561
 21
100.3251905105
  0
LINE
  5
260
100
AcDbEntity
  8
0
100
AcDbLine
 62
7
  6
BYLAYER
 10
49.1412739562
 20
99.7099463313
 11
49.7565181354
 21
100.3251905105
  0
LINE
  5
261
100
AcDbEntity
  8
0
100
AcDbLine
 62
7
  6
BYLAYER
 10
51.2565181354
 20
101.5251905105
 11
51.8717623147
 21
102.1404346898
  0
LINE
  5
262
100
AcDbEntity
  8
0
100
AcDbLine
 62
7
  6
BYLAYER
 10
53.5065181354
 20
101.9489230312
 11
53.0827856147
 21
101.5251905105
  0
LINE
  5
263
100
AcDbEntity
  8
0
100
AcDbLine
 62
7
  6
BYLAYER
 10
54.7565181354
 20
115.2599463313
 11
54.7565181354
 21
114.2599463313
  0
LINE
  5
264
100
AcDbEntity
  8
0
100
AcDbLine
 62
7
  6
BYLAYER
 10
54.9065181354
 20
47.5599463313
 11
54.9065181354
 21
47.2599463313
  0
LINE
  5
265
100
AcDbEntity
  8
0
100
AcDbLine
 62
7
  6
BYLAYER
 10
55.9163420704
 20
101.9904207158
 11
55.9163420704
 21
99.8599603052
  0
LINE
  5
266
100
AcDbEntity
  8
0
100
AcDbLine
 62
7
  6
BYLAYER
 10
62.5065181354
 20
62.3599463313
 11
62.5065181354
 21
57.1599463313
  0
LINE
  5
267
100
AcDbEntity
  8
0
100
AcDbLine
 62
7
  6
BYLAYER
 10
62.5565181354
 20
142.7599463313
 11
62.5565181354
 21
139.7648482346
  0
LINE
  5
268
100
AcDbEntity
  8
0
100
AcDbLine
 62
7
  6
BYLAYER
 10
47.5065181354
 20
101.9489230312
 11
47.9302506561
 21
101.5251905105
  0
LINE
  5
269
100
AcDbEntity
  8
0
100
AcDbLine
 62
7
  6
BYLAYER
 10
49.1412739562
 20
102.1404346898
 11
49.7565181354
 21
101.5251905105
  0
LINE
  5
26A
100
AcDbEntity
  8
0
100
AcDbLine
 62
7
  6
BYLAYER
 10
51.2565181354
 20
100.3251905105
 11
51.8717623147
 21
99.7099463313
  0
LINE
  5
26B
100
AcDbEntity
  8
0
100
AcDbLine
 62
7
  6
BYLAYER
 10
53.5065181354
 20
99.9014579899
 11
53.0827856147
 21
100.3251905105
  0
LINE
  5
26C
100
AcDbEntity
  8
0
100
AcDbLine
 62
7
  6
BYLAYER
 10
64.416570532
 20
99.8045671957
 11
64.416570532
 21
102.0458138254
  0
LINE
  5
26D
100
AcDbEntity
  8
0
100
AcDbLine
 62
7
  6
BYLAYER
 10
18.5568608278
 20
139.8427046468
 11
18.1612846624
 21
140.2382808122
  0
LINE
  5
26E
100
AcDbEntity
  8
0
100
AcDbLine
 62
7
  6
BYLAYER
 10
71.5964657388
 20
102.0458138254
 11
71.5964657388
 21
99.8045671957
  0
LINE
  5
26F
100
AcDbEntity
  8
0
100
AcDbLine
 62
7
  6
BYLAYER
 10
73.4565181354
 20
139.7648482346
 11
73.4565181354
 21
142.7599463313
  0
LINE
  5
270
100
AcDbEntity
  8
0
100
AcDbLine
 62
7
  6
BYLAYER
 10
117.4561770402
 20
139.842706244
 11
117.8517516084
 21
140.2382808122
  0
LINE
  5
271
100
AcDbEntity
  8
0
100
AcDbLine
 62
7
  6
BYLAYER
 10
106.5964657389
 20
99.8045671957
 11
115.0966942004
 21
99.8599603052
  0
LINE
  5
272
100
AcDbEntity
  8
0
100
AcDbLine
 62
7
  6
BYLAYER
 10
20.9163420704
 20
99.8599603052
 11
29.416570532
 21
99.8045671957
  0
LINE
  5
273
100
AcDbEntity
  8
0
100
AcDbLine
 62
7
  6
BYLAYER
 10
82.5065181354
 20
99.9014579899
 11
82.9302506561
 21
100.3251905105
  0
LINE
  5
274
100
AcDbEntity
  8
0
100
AcDbLine
 62
7
  6
BYLAYER
 10
84.1412739562
 20
99.7099463313
 11
84.7565181354
 21
100.3251905105
  0
LINE
  5
275
100
AcDbEntity
  8
0
100
AcDbLine
 62
7
  6
BYLAYER
 10
86.2565181354
 20
101.5251905105
 11
86.8717623147
 21
102.1404346898
  0
LINE
  5
276
100
AcDbEntity
  8
0
100
AcDbLine
 62
7
  6
BYLAYER
 10
88.5065181354
 20
101.9489230312
 11
88.0827856147
 21
101.5251905105
  0
LINE
  5
277
100
AcDbEntity
  8
0
100
AcDbLine
 62
7
  6
BYLAYER
 10
71.5964657389
 20
99.8045671957
 11
80.0966942004
 21
99.8599603052
  0
LINE
  5
278
100
AcDbEntity
  8
0
100
AcDbLine
 62
7
  6
BYLAYER
 10
36.5964657388
 20
99.8045671957
 11
45.0966942004
 21
99.8599603052
  0
LINE
  5
279
100
AcDbEntity
  8
0
100
AcDbLine
 62
7
  6
BYLAYER
 10
90.9163420704
 20
101.9904207158
 11
99.416570532
 21
102.0458138254
  0
LINE
  5
27A
100
AcDbEntity
  8
0
100
AcDbLine
 62
7
  6
BYLAYER
 10
55.9163420704
 20
101.9904207158
 11
64.416570532
 21
102.0458138254
  0
LINE
  5
27B
100
AcDbEntity
  8
0
100
AcDbLine
 62
7
  6
BYLAYER
 10
20.9163420704
 20
101.9904207158
 11
29.416570532
 21
102.0458138254
  0
LINE
  5
27C
100
AcDbEntity
  8
0
100
AcDbLine
 62
7
  6
BYLAYER
 10
17.6565181354
 20
99.7099463313
 11
49.1412739562
 21
99.7099463313
  0
LINE
  5
27D
100
AcDbEntity
  8
0
100
AcDbLine
 62
7
  6
BYLAYER
 10
51.8717623147
 20
99.7099463313
 11
84.1412739562
 21
99.7099463313
  0
LINE
  5
27E
100
AcDbEntity
  8
0
100
AcDbLine
 62
7
  6
BYLAYER
 10
86.8717623147
 20
99.7099463313
 11
118.3065181354
 21
99.7099463313
  0
LINE
  5
27F
100
AcDbEntity
  8
0
100
AcDbLine
 62
7
  6
BYLAYER
 10
18.1264199537
 20
100.2815561716
 11
17.6565181354
 21
100.2815561716
  0
LINE
  5
280
100
AcDbEntity
  8
0
100
AcDbLine
 62
7
  6
BYLAYER
 10
117.8866163171
 20
100.2815561716
 11
118.3065181354
 21
100.2815561716
  0
LINE
  5
281
100
AcDbEntity
  8
0
100
AcDbLine
 62
7
  6
BYLAYER
 10
47.9302506561
 20
100.3251905105
 11
49.7565181354
 21
100.3251905105
  0
LINE
  5
282
100
AcDbEntity
  8
0
100
AcDbLine
 62
7
  6
BYLAYER
 10
51.2565181354
 20
100.3251905105
 11
53.0827856147
 21
100.3251905105
  0
LINE
  5
283
100
AcDbEntity
  8
0
100
AcDbLine
 62
7
  6
BYLAYER
 10
82.9302506561
 20
100.3251905105
 11
84.7565181354
 21
100.3251905105
  0
LINE
  5
284
100
AcDbEntity
  8
0
100
AcDbLine
 62
7
  6
BYLAYER
 10
86.2565181354
 20
100.3251905105
 11
88.0827856147
 21
100.3251905105
  0
LINE
  5
285
100
AcDbEntity
  8
0
100
AcDbLine
 62
7
  6
BYLAYER
 10
47.9302506561
 20
101.5251905105
 11
49.7565181354
 21
101.5251905105
  0
LINE
  5
286
100
AcDbEntity
  8
0
100
AcDbLine
 62
7
  6
BYLAYER
 10
51.2565181354
 20
101.5251905105
 11
53.0827856147
 21
101.5251905105
  0
LINE
  5
287
100
AcDbEntity
  8
0
100
AcDbLine
 62
7
  6
BYLAYER
 10
82.9302506561
 20
101.5251905105
 11
84.7565181354
 21
101.5251905105
  0
LINE
  5
288
100
AcDbEntity
  8
0
100
AcDbLine
 62
7
  6
BYLAYER
 10
86.2565181354
 20
101.5251905105
 11
88.0827856147
 21
101.5251905105
  0
LINE
  5
289
100
AcDbEntity
  8
0
100
AcDbLine
 62
7
  6
BYLAYER
 10
18.1264199537
 20
101.5688248495
 11
17.6565181354
 21
101.5688248495
  0
LINE
  5
28A
100
AcDbEntity
  8
0
100
AcDbLine
 62
7
  6
BYLAYER
 10
117.8866163171
 20
101.5688248495
 11
118.3065181354
 21
101.5688248495
  0
LINE
  5
28B
100
AcDbEntity
  8
0
100
AcDbLine
 62
7
  6
BYLAYER
 10
17.6565181354
 20
102.1404346898
 11
49.1412739562
 21
102.1404346898
  0
LINE
  5
28C
100
AcDbEntity
  8
0
100
AcDbLine
 62
7
  6
BYLAYER
 10
51.8717623147
 20
102.1404346898
 11
84.1412739562
 21
102.1404346898
  0
LINE
  5
28D
100
AcDbEntity
  8
0
100
AcDbLine
 62
7
  6
BYLAYER
 10
86.8717623147
 20
102.1404346898
 11
118.3065181354
 21
102.1404346898
  0
LINE
  5
28E
100
AcDbEntity
  8
0
100
AcDbLine
 62
7
  6
BYLAYER
 10
55.9163420703
 20
99.8599603052
 11
64.416570532
 21
99.8045671957
  0
LINE
  5
28F
100
AcDbEntity
  8
0
100
AcDbLine
 62
7
  6
BYLAYER
 10
90.9163420703
 20
99.8599603052
 11
99.4165703294
 21
99.804567197
  0
LINE
  5
290
100
AcDbEntity
  8
0
100
AcDbLine
 62
7
  6
BYLAYER
 10
36.5964657388
 20
102.0458138254
 11
45.0966942004
 21
101.9904207158
  0
LINE
  5
291
100
AcDbEntity
  8
0
100
AcDbLine
 62
7
  6
BYLAYER
 10
71.5964657388
 20
102.0458138254
 11
80.0966942004
 21
101.9904207158
  0
LINE
  5
292
100
AcDbEntity
  8
0
100
AcDbLine
 62
7
  6
BYLAYER
 10
106.5964657388
 20
102.0458138254
 11
115.0966942004
 21
101.9904207158
  0
LINE
  5
293
100
AcDbEntity
  8
0
100
AcDbLine
 62
7
  6
BYLAYER
 10
80.0966942004
 20
99.8599603052
 11
80.0966942004
 21
101.9904207158
  0
LINE
  5
294
100
AcDbEntity
  8
0
100
AcDbLine
 62
7
  6
BYLAYER
 10
81.2565181354
 20
114.2599463313
 11
81.2565181354
 21
115.2599463313
  0
LINE
  5
295
100
AcDbEntity
  8
0
100
AcDbLine
 62
7
  6
BYLAYER
 10
82.456175443
 20
142.7599463313
 11
82.456175443
 21
139.8427046468
  0
LINE
  5
296
100
AcDbEntity
  8
0
100
AcDbLine
 62
7
  6
BYLAYER
 10
82.5065181354
 20
101.9489230312
 11
82.5065181354
 21
99.9014579899
  0
LINE
  5
297
100
AcDbEntity
  8
0
100
AcDbLine
 62
7
  6
BYLAYER
 10
82.6065181354
 20
114.2599463313
 11
82.6065181354
 21
115.2599463313
  0
LINE
  5
298
100
AcDbEntity
  8
0
100
AcDbLine
 62
7
  6
BYLAYER
 10
82.8517516084
 20
140.2382808122
 11
82.8517516084
 21
142.7599463313
  0
LINE
  5
299
100
AcDbEntity
  8
0
100
AcDbLine
 62
7
  6
BYLAYER
 10
82.9302506561
 20
101.5251905105
 11
82.9302506561
 21
100.3251905105
  0
LINE
  5
29A
100
AcDbEntity
  8
0
100
AcDbLine
 62
7
  6
BYLAYER
 10
83.0857205001
 20
114.2599463313
 11
83.0857205001
 21
115.2599463313
  0
LINE
  5
29B
100
AcDbEntity
  8
0
100
AcDbLine
 62
7
  6
BYLAYER
 10
84.8065759111
 20
56.5509528517
 11
84.7165181354
 21
63.5599463313
  0
LINE
  5
29C
100
AcDbEntity
  8
0
100
AcDbLine
 62
7
  6
BYLAYER
 10
83.3517516084
 20
142.2099463313
 11
83.3517516084
 21
145.2334550657
  0
LINE
  5
29D
100
AcDbEntity
  8
0
100
AcDbLine
 62
7
  6
BYLAYER
 10
83.7565181354
 20
115.2599463313
 11
83.7565181354
 21
114.2599463313
  0
LINE
  5
29E
100
AcDbEntity
  8
0
100
AcDbLine
 62
7
  6
BYLAYER
 10
84.1412739562
 20
63.5599463313
 11
84.1412739562
 21
99.7099463313
  0
LINE
  5
29F
100
AcDbEntity
  8
0
100
AcDbLine
 62
7
  6
BYLAYER
 10
84.1412739562
 20
102.1404346898
 11
84.1412739562
 21
110.235196857
  0
LINE
  5
2A0
100
AcDbEntity
  8
0
100
AcDbLine
 62
7
  6
BYLAYER
 10
84.1412739562
 20
119.2846958056
 11
84.1412739562
 21
139.6099463313
  0
LINE
  5
2A1
100
AcDbEntity
  8
0
100
AcDbLine
 62
7
  6
BYLAYER
 10
84.7565181354
 20
140.2251905105
 11
84.7565181354
 21
119.443246464
  0
LINE
  5
2A2
100
AcDbEntity
  8
0
100
AcDbLine
 62
7
  6
BYLAYER
 10
84.7565181354
 20
110.0766461986
 11
84.7565181354
 21
101.5251905105
  0
LINE
  5
2A3
100
AcDbEntity
  8
0
100
AcDbLine
 62
7
  6
BYLAYER
 10
84.7565181354
 20
100.3251905105
 11
84.7565181354
 21
63.5599463313
  0
LINE
  5
2A4
100
AcDbEntity
  8
0
100
AcDbLine
 62
7
  6
BYLAYER
 10
86.2565181354
 20
140.2251905105
 11
86.2565181354
 21
119.443246464
  0
LINE
  5
2A5
100
AcDbEntity
  8
0
100
AcDbLine
 62
7
  6
BYLAYER
 10
86.2565181354
 20
110.0766461986
 11
86.2565181354
 21
101.5251905105
  0
LINE
  5
2A6
100
AcDbEntity
  8
0
100
AcDbLine
 62
7
  6
BYLAYER
 10
86.2565181354
 20
100.3251905105
 11
86.2565181354
 21
63.5599463313
  0
LINE
  5
2A7
100
AcDbEntity
  8
0
100
AcDbLine
 62
7
  6
BYLAYER
 10
86.8717623147
 20
63.5599463313
 11
86.8717623147
 21
99.7099463313
  0
LINE
  5
2A8
100
AcDbEntity
  8
0
100
AcDbLine
 62
7
  6
BYLAYER
 10
86.8717623147
 20
102.1404346898
 11
86.8717623147
 21
110.235196857
  0
LINE
  5
2A9
100
AcDbEntity
  8
0
100
AcDbLine
 62
7
  6
BYLAYER
 10
86.8717623147
 20
119.2846958056
 11
86.8717623147
 21
139.6099463313
  0
LINE
  5
2AA
100
AcDbEntity
  8
0
100
AcDbLine
 62
7
  6
BYLAYER
 10
87.2565181354
 20
114.2599463313
 11
87.2565181354
 21
115.2599463313
  0
LINE
  5
2AB
100
AcDbEntity
  8
0
100
AcDbLine
 62
7
  6
BYLAYER
 10
87.6612846624
 20
142.2099463313
 11
87.6612846624
 21
145.2334550657
  0
LINE
  5
2AC
100
AcDbEntity
  8
0
100
AcDbLine
 62
7
  6
BYLAYER
 10
87.9273157707
 20
115.2599463313
 11
87.9273157707
 21
114.2599463313
  0
LINE
  5
2AD
100
AcDbEntity
  8
0
100
AcDbLine
 62
7
  6
BYLAYER
 10
88.0827856147
 20
101.5251905105
 11
88.0827856147
 21
100.3251905105
  0
LINE
  5
2AE
100
AcDbEntity
  8
0
100
AcDbLine
 62
7
  6
BYLAYER
 10
88.1612846624
 20
140.2382808122
 11
88.1612846624
 21
142.7599463313
  0
LINE
  5
2AF
100
AcDbEntity
  8
0
100
AcDbLine
 62
7
  6
BYLAYER
 10
86.2965181354
 20
63.5599463313
 11
86.2064603597
 21
56.5509528517
  0
LINE
  5
2B0
100
AcDbEntity
  8
0
100
AcDbLine
 62
7
  6
BYLAYER
 10
82.5065181354
 20
101.9489230312
 11
82.9302506561
 21
101.5251905105
  0
LINE
  5
2B1
100
AcDbEntity
  8
0
100
AcDbLine
 62
7
  6
BYLAYER
 10
84.1412739562
 20
102.1404346898
 11
84.7565181354
 21
101.5251905105
  0
LINE
  5
2B2
100
AcDbEntity
  8
0
100
AcDbLine
 62
7
  6
BYLAYER
 10
86.2565181354
 20
100.3251905105
 11
86.8717623147
 21
99.7099463313
  0
LINE
  5
2B3
100
AcDbEntity
  8
0
100
AcDbLine
 62
7
  6
BYLAYER
 10
88.5065181354
 20
99.9014579899
 11
88.0827856147
 21
100.3251905105
  0
LINE
  5
2B4
100
AcDbEntity
  8
0
100
AcDbLine
 62
7
  6
BYLAYER
 10
88.4065181354
 20
115.2599463313
 11
88.4065181354
 21
114.2599463313
  0
LINE
  5
2B5
100
AcDbEntity
  8
0
100
AcDbLine
 62
7
  6
BYLAYER
 10
88.5065181354
 20
99.9014579899
 11
88.5065181354
 21
101.9489230312
  0
LINE
  5
2B6
100
AcDbEntity
  8
0
100
AcDbLine
 62
7
  6
BYLAYER
 10
88.5568608278
 20
139.8427046468
 11
88.5568608278
 21
142.7599463313
  0
LINE
  5
2B7
100
AcDbEntity
  8
0
100
AcDbLine
 62
7
  6
BYLAYER
 10
89.7565181354
 20
115.2599463313
 11
89.7565181354
 21
114.2599463313
  0
LINE
  5
2B8
100
AcDbEntity
  8
0
100
AcDbLine
 62
7
  6
BYLAYER
 10
90.9163420704
 20
101.9904207158
 11
90.9163420704
 21
99.8599603052
  0
LINE
  5
2B9
100
AcDbEntity
  8
0
100
AcDbLine
 62
7
  6
BYLAYER
 10
47.6065181354
 20
114.2599463313
 11
48.0857205001
 21
114.2599463313
  0
LINE
  5
2BA
100
AcDbEntity
  8
0
100
AcDbLine
 62
7
  6
BYLAYER
 10
52.9273157707
 20
114.2599463313
 11
53.4065181354
 21
114.2599463313
  0
LINE
  5
2BB
100
AcDbEntity
  8
0
100
AcDbLine
 62
7
  6
BYLAYER
 10
82.6065181354
 20
114.2599463313
 11
83.0857205001
 21
114.2599463313
  0
LINE
  5
2BC
100
AcDbEntity
  8
0
100
AcDbLine
 62
7
  6
BYLAYER
 10
87.9273157707
 20
114.2599463313
 11
88.4065181354
 21
114.2599463313
  0
LINE
  5
2BD
100
AcDbEntity
  8
0
100
AcDbLine
 62
7
  6
BYLAYER
 10
88.4065181354
 20
115.2599463313
 11
87.9273157707
 21
115.2599463313
  0
LINE
  5
2BE
100
AcDbEntity
  8
0
100
AcDbLine
 62
7
  6
BYLAYER
 10
83.0857205001
 20
115.2599463313
 11
82.6065181354
 21
115.2599463313
  0
LINE
  5
2BF
100
AcDbEntity
  8
0
100
AcDbLine
 62
7
  6
BYLAYER
 10
53.4065181354
 20
115.2599463313
 11
52.9273157707
 21
115.2599463313
  0
LINE
  5
2C0
100
AcDbEntity
  8
0
100
AcDbLine
 62
7
  6
BYLAYER
 10
48.0857205001
 20
115.2599463313
 11
47.6065181354
 21
115.2599463313
  0
LINE
  5
2C1
100
AcDbEntity
  8
0
100
AcDbLine
 62
7
  6
BYLAYER
 10
51.2565181354
 20
140.2251905105
 11
51.8717623147
 21
139.6099463313
  0
LINE
  5
2C2
100
AcDbEntity
  8
0
100
AcDbLine
 62
7
  6
BYLAYER
 10
53.5568608278
 20
139.8427046468
 11
53.1612846624
 21
140.2382808122
  0
LINE
  5
2C3
100
AcDbEntity
  8
0
100
AcDbLine
 62
7
  6
BYLAYER
 10
97.5565181354
 20
142.7599463313
 11
97.5565181354
 21
139.7648482346
  0
LINE
  5
2C4
100
AcDbEntity
  8
0
100
AcDbLine
 62
7
  6
BYLAYER
 10
99.4165703294
 20
99.804567197
 11
99.416570532
 21
102.0458138254
  0
LINE
  5
2C5
100
AcDbEntity
  8
0
100
AcDbLine
 62
7
  6
BYLAYER
 10
117.5065181354
 20
99.9014579899
 11
117.8866163171
 21
100.2815561716
  0
LINE
  5
2C6
100
AcDbEntity
  8
0
100
AcDbLine
 62
7
  6
BYLAYER
 10
106.5964657388
 20
102.0458138254
 11
106.5964657388
 21
99.8045671957
  0
LINE
  5
2C7
100
AcDbEntity
  8
0
100
AcDbLine
 62
7
  6
BYLAYER
 10
119.4565181354
 20
57.2599463313
 11
118.8565181354
 21
59.2985197239
  0
LINE
  5
2C8
100
AcDbEntity
  8
0
100
AcDbLine
 62
7
  6
BYLAYER
 10
108.4565181354
 20
139.7648482346
 11
108.4565181354
 21
142.7599463313
  0
LINE
  5
2C9
100
AcDbEntity
  8
0
100
AcDbLine
 62
7
  6
BYLAYER
 10
117.5065181354
 20
101.9489230312
 11
117.8866163171
 21
101.5688248495
  0
LINE
  5
2CA
100
AcDbEntity
  8
0
100
AcDbLine
 62
7
  6
BYLAYER
 10
115.0966942004
 20
99.8599603052
 11
115.0966942004
 21
101.9904207158
  0
LINE
  5
2CB
100
AcDbEntity
  8
0
100
AcDbLine
 62
7
  6
BYLAYER
 10
117.456175443
 20
142.7599463313
 11
117.456175443
 21
139.8427046468
  0
LINE
  5
2CC
100
AcDbEntity
  8
0
100
AcDbLine
 62
7
  6
BYLAYER
 10
17.6565181354
 20
139.6099463313
 11
49.1412739562
 21
139.6099463313
  0
LINE
  5
2CD
100
AcDbEntity
  8
0
100
AcDbLine
 62
7
  6
BYLAYER
 10
51.8717623147
 20
139.6099463313
 11
84.1412739562
 21
139.6099463313
  0
LINE
  5
2CE
100
AcDbEntity
  8
0
100
AcDbLine
 62
7
  6
BYLAYER
 10
86.8717623147
 20
139.6099463313
 11
118.3065181354
 21
139.6099463313
  0
LINE
  5
2CF
100
AcDbEntity
  8
0
100
AcDbLine
 62
7
  6
BYLAYER
 10
108.4565181354
 20
139.7648482346
 11
97.5565181354
 21
139.7648482346
  0
LINE
  5
2D0
100
AcDbEntity
  8
0
100
AcDbLine
 62
7
  6
BYLAYER
 10
73.4565181354
 20
139.7648482346
 11
62.5565181354
 21
139.7648482346
  0
LINE
  5
2D1
100
AcDbEntity
  8
0
100
AcDbLine
 62
7
  6
BYLAYER
 10
38.4565181354
 20
139.7648482346
 11
27.5565181354
 21
139.7648482346
  0
LINE
  5
2D2
100
AcDbEntity
  8
0
100
AcDbLine
 62
7
  6
BYLAYER
 10
49.7565181354
 20
140.2251905105
 11
51.2565181354
 21
140.2251905105
  0
LINE
  5
2D3
100
AcDbEntity
  8
0
100
AcDbLine
 62
7
  6
BYLAYER
 10
84.7565181354
 20
140.2251905105
 11
86.2565181354
 21
140.2251905105
  0
LINE
  5
2D4
100
AcDbEntity
  8
0
100
AcDbLine
 62
7
  6
BYLAYER
 10
17.6565181354
 20
140.2382808122
 11
18.1612846624
 21
140.2382808122
  0
LINE
  5
2D5
100
AcDbEntity
  8
0
100
AcDbLine
 62
7
  6
BYLAYER
 10
47.8517516084
 20
140.2382808122
 11
53.1612846624
 21
140.2382808122
  0
LINE
  5
2D6
100
AcDbEntity
  8
0
100
AcDbLine
 62
7
  6
BYLAYER
 10
82.8517516084
 20
140.2382808122
 11
88.1612846624
 21
140.2382808122
  0
LINE
  5
2D7
100
AcDbEntity
  8
0
100
AcDbLine
 62
7
  6
BYLAYER
 10
117.8517516084
 20
140.2382808122
 11
118.3065181354
 21
140.2382808122
  0
LINE
  5
2D8
100
AcDbEntity
  8
0
100
AcDbLine
 62
7
  6
BYLAYER
 10
120.3565181354
 20
142.2099463313
 11
118.3517516084
 21
142.2099463313
  0
LINE
  5
2D9
100
AcDbEntity
  8
0
100
AcDbLine
 62
7
  6
BYLAYER
 10
87.6612846624
 20
142.2099463313
 11
83.3517516084
 21
142.2099463313
  0
LINE
  5
2DA
100
AcDbEntity
  8
0
100
AcDbLine
 62
7
  6
BYLAYER
 10
52.6612846624
 20
142.2099463313
 11
48.3517516084
 21
142.2099463313
  0
LINE
  5
2DB
100
AcDbEntity
  8
0
100
AcDbLine
 62
7
  6
BYLAYER
 10
17.6612846624
 20
142.2099463313
 11
15.6565181354
 21
142.2099463313
  0
LINE
  5
2DC
100
AcDbEntity
  8
0
100
AcDbLine
 62
7
  6
BYLAYER
 10
18.1612846624
 20
142.7599463313
 11
47.8517516084
 21
142.7599463313
  0
LINE
  5
2DD
100
AcDbEntity
  8
0
100
AcDbLine
 62
7
  6
BYLAYER
 10
53.1612846624
 20
142.7599463313
 11
82.8517516084
 21
142.7599463313
  0
LINE
  5
2DE
100
AcDbEntity
  8
0
100
AcDbLine
 62
7
  6
BYLAYER
 10
88.1612846624
 20
142.7599463313
 11
117.8517516084
 21
142.7599463313
  0
LINE
  5
2DF
100
AcDbEntity
  8
0
100
AcDbLine
 62
7
  6
BYLAYER
 10
86.2565181354
 20
140.2251905105
 11
86.8717623147
 21
139.6099463313
  0
LINE
  5
2E0
100
AcDbEntity
  8
0
100
AcDbLine
 62
7
  6
BYLAYER
 10
88.5568608278
 20
139.8427046468
 11
88.1612846624
 21
140.2382808122
  0
LINE
  5
2E1
100
AcDbEntity
  8
0
100
AcDbLine
 62
7
  6
BYLAYER
 10
117.5065181354
 20
101.9489230312
 11
117.5065181354
 21
99.9014579899
  0
LINE
  5
2E2
100
AcDbEntity
  8
0
100
AcDbLine
 62
7
  6
BYLAYER
 10
117.8517516084
 20
140.2382808122
 11
117.8517516084
 21
142.7599463313
  0
LINE
  5
2E3
100
AcDbEntity
  8
0
100
AcDbLine
 62
7
  6
BYLAYER
 10
117.8866163171
 20
100.2815561716
 11
117.8866163171
 21
101.5688248495
  0
LINE
  5
2E4
100
AcDbEntity
  8
0
100
AcDbLine
 62
7
  6
BYLAYER
 10
118.3065181354
 20
63.5599463313
 11
118.3065181354
 21
140.2382808122
  0
LINE
  5
2E5
100
AcDbEntity
  8
0
100
AcDbLine
 62
7
  6
BYLAYER
 10
118.3517516084
 20
142.2099463313
 11
118.3517516084
 21
145.2334550657
  0
LINE
  5
2E6
100
AcDbEntity
  8
0
100
AcDbLine
 62
7
  6
BYLAYER
 10
118.8565181354
 20
59.2985197239
 11
118.8565181354
 21
63.5599463313
  0
LINE
  5
2E7
100
AcDbEntity
  8
0
100
AcDbLine
 62
7
  6
BYLAYER
 10
120.3565181354
 20
47.5599463313
 11
120.3565181354
 21
142.2099463313
  0
LINE
  5
2E8
100
AcDbEntity
  8
0
100
AcDbLine
 62
7
  6
BYLAYER
 10
17.6612846624
 20
145.2334550657
 11
48.3517516084
 21
145.2334550657
  0
LINE
  5
2E9
100
AcDbEntity
  8
0
100
AcDbLine
 62
7
  6
BYLAYER
 10
52.6612846624
 20
145.2334550657
 11
83.3517516084
 21
145.2334550657
  0
LINE
  5
2EA
100
AcDbEntity
  8
0
100
AcDbLine
 62
7
  6
BYLAYER
 10
87.6612846624
 20
145.2334550657
 11
118.3517516084
 21
145.2334550657
  0
ARC
  5
2EB
100
AcDbEntity
  8
0
100
AcDbCircle
 62
7
  6
BYLAYER
 10
50.5065181354
 20
47.2599463313
 40
4.4
100
AcDbArc
 50
180.0
 51
360.0
  0
ARC
  5
2EC
100
AcDbEntity
  8
0
100
AcDbCircle
 62
7
  6
BYLAYER
 10
85.5065181354
 20
115.2599463313
 40
4.25
100
AcDbArc
 50
0.0
 51
79.8357513783
  0
ARC
  5
2ED
100
AcDbEntity
  8
0
100
AcDbCircle
 62
7
  6
BYLAYER
 10
85.5065181354
 20
114.2599463313
 40
4.25
100
AcDbArc
 50
280.1642486217
 51
360.0
  0
ARC
  5
2EE
100
AcDbEntity
  8
0
100
AcDbCircle
 62
7
  6
BYLAYER
 10
85.5065181354
 20
114.2599463313
 40
4.25
100
AcDbArc
 50
180.0
 51
259.8357513783
  0
ARC
  5
2EF
100
AcDbEntity
  8
0
100
AcDbCircle
 62
7
  6
BYLAYER
 10
85.5065181354
 20
115.2599463313
 40
4.25
100
AcDbArc
 50
100.1642486217
 51
180.0
  0
ARC
  5
2F0
100
AcDbEntity
  8
0
100
AcDbCircle
 62
7
  6
BYLAYER
 10
50.5065181354
 20
115.2599463313
 40
4.25
100
AcDbArc
 50
0.0
 51
79.8357513783
  0
ARC
  5
2F1
100
AcDbEntity
  8
0
100
AcDbCircle
 62
7
  6
BYLAYER
 10
50.5065181354
 20
115.2599463313
 40
4.25
100
AcDbArc
 50
100.1642486217
 51
180.0
  0
ARC
  5
2F2
100
AcDbEntity
  8
0
100
AcDbCircle
 62
7
  6
BYLAYER
 10
50.5065181354
 20
114.2599463313
 40
4.25
100
AcDbArc
 50
180.0
 51
259.8357513783
  0
ARC
  5
2F3
100
AcDbEntity
  8
0
100
AcDbCircle
 62
7
  6
BYLAYER
 10
50.5065181354
 20
114.2599463313
 40
4.25
100
AcDbArc
 50
280.1642486217
 51
360.0
  0
ARC
  5
2F4
100
AcDbEntity
  8
0
100
AcDbCircle
 62
7
  6
BYLAYER
 10
85.5065181354
 20
115.2599463313
 40
2.9
100
AcDbArc
 50
0.0
 51
180.0
  0
ARC
  5
2F5
100
AcDbEntity
  8
0
100
AcDbCircle
 62
7
  6
BYLAYER
 10
85.5065181354
 20
114.2599463313
 40
2.9
100
AcDbArc
 50
180.0
 51
360.0
  0
ARC
  5
2F6
100
AcDbEntity
  8
0
100
AcDbCircle
 62
7
  6
BYLAYER
 10
50.5065181354
 20
114.2599463313
 40
2.9
100
AcDbArc
 50
180.0
 51
360.0
  0
ARC
  5
2F7
100
AcDbEntity
  8
0
100
AcDbCircle
 62
7
  6
BYLAYER
 10
50.5065181354
 20
115.2599463313
 40
2.9
100
AcDbArc
 50
0.0
 51
180.0
  0
ARC
  5
2F8
100
AcDbEntity
  8
0
100
AcDbCircle
 62
7
  6
BYLAYER
 10
50.5065181354
 20
115.2599463313
 40
2.4207976353
100
AcDbArc
 50
0.0
 51
180.0
  0
ARC
  5
2F9
100
AcDbEntity
  8
0
100
AcDbCircle
 62
7
  6
BYLAYER
 10
50.5065181354
 20
114.2599463313
 40
2.4207976353
100
AcDbArc
 50
180.0
 51
360.0
  0
ARC
  5
2FA
100
AcDbEntity
  8
0
100
AcDbCircle
 62
7
  6
BYLAYER
 10
85.5065181354
 20
114.2599463313
 40
2.4207976353
100
AcDbArc
 50
180.0000000007
 51
359.9999999993
  0
ARC
  5
2FB
100
AcDbEntity
  8
0
100
AcDbCircle
 62
7
  6
BYLAYER
 10
85.5065181354
 20
115.2599463313
 40
2.4207976353
100
AcDbArc
 50
0.0000000007
 51
179.9999999993
  0
ARC
  5
2FC
100
AcDbEntity
  8
0
100
AcDbCircle
 62
7
  6
BYLAYER
 10
50.5065181354
 20
57.7599463313
 40
2.35
100
AcDbArc
 50
108.4601976591
 51
71.5398023409
  0
ARC
  5
2FD
100
AcDbEntity
  8
0
100
AcDbCircle
 62
7
  6
BYLAYER
 10
85.5065181354
 20
57.7599463313
 40
2.35
100
AcDbArc
 50
108.4601976591
 51
71.5398023409
  0
ARC
  5
2FE
100
AcDbEntity
  8
0
100
AcDbCircle
 62
7
  6
BYLAYER
 10
85.5065181354
 20
115.2599463313
 40
1.75
100
AcDbArc
 50
0.0
 51
180.0
  0
ARC
  5
2FF
100
AcDbEntity
  8
0
100
AcDbCircle
 62
7
  6
BYLAYER
 10
85.5065181354
 20
114.2599463313
 40
1.75
100
AcDbArc
 50
180.0
 51
360.0
  0
ARC
  5
300
100
AcDbEntity
  8
0
100
AcDbCircle
 62
7
  6
BYLAYER
 10
50.5065181354
 20
115.2599463313
 40
1.75
100
AcDbArc
 50
0.0
 51
180.0
  0
ARC
  5
301
100
AcDbEntity
  8
0
100
AcDbCircle
 62
7
  6
BYLAYER
 10
50.5065181354
 20
114.2599463313
 40
1.75
100
AcDbArc
 50
180.0
 51
360.0
  0
CIRCLE
  5
302
100
AcDbEntity
  8
0
100
AcDbCircle
 62
7
  6
BYLAYER
 10
20.1565181354
 20
60.5599463313
 40
1.1
  0
CIRCLE
  5
303
100
AcDbEntity
  8
0
100
AcDbCircle
 62
7
  6
BYLAYER
 10
115.8565181354
 20
60.5599463313
 40
1.1
  0
ARC
  5
304
100
AcDbEntity
  8
0
100
AcDbCircle
 62
7
  6
BYLAYER
 10
50.5065181354
 20
56.5599463313
 40
0.7
100
AcDbArc
 50
180.7361465732
 51
359.2638534268
  0
ARC
  5
305
100
AcDbEntity
  8
0
100
AcDbCircle
 62
7
  6
BYLAYER
 10
85.5065181354
 20
56.5599463313
 40
0.7
100
AcDbArc
 50
180.7361465717
 51
359.2638534283
  0
ELLIPSE
  5
306
100
AcDbEntity
  8
0
100
AcDbEllipse
 62
7
  6
BYLAYER
 10
94.5062896738
 20
99.9019149218
 30
0.0
 11
6.0
 21
0.0
 31
0.0
 40
0.0087268678
 41
-3.1328660073
 42
-2.2122048269
  0
ELLIPSE
  5
307
100
AcDbEntity
  8
0
100
AcDbEllipse
 62
7
  6
BYLAYER
 10
103.0065181354
 20
99.8465218122
 30
0.0
 11
6.0
 21
0.0
 31
0.0
 40
0.0087268678
 41
-2.212204869
 42
-0.9293878267
  0
ELLIPSE
  5
308
100
AcDbEntity
  8
0
100
AcDbEllipse
 62
7
  6
BYLAYER
 10
111.506746597
 20
99.9019149218
 30
0.0
 11
6.0
 21
0.0
 31
0.0
 40
0.0087268678
 41
-0.9293878267
 42
-0.0087266463
  0
ELLIPSE
  5
309
100
AcDbEntity
  8
0
100
AcDbEllipse
 62
7
  6
BYLAYER
 10
111.506746597
 20
101.9484660993
 30
0.0
 11
6.0
 21
-0.0
 31
0.0
 40
0.0087268678
 41
0.0087266463
 42
0.9293878267
  0
ELLIPSE
  5
30A
100
AcDbEntity
  8
0
100
AcDbEllipse
 62
7
  6
BYLAYER
 10
103.0065181354
 20
102.0038592089
 30
0.0
 11
6.0
 21
-0.0
 31
0.0
 40
0.0087268678
 41
0.9293878267
 42
2.2122048269
  0
ELLIPSE
  5
30B
100
AcDbEntity
  8
0
100
AcDbEllipse
 62
7
  6
BYLAYER
 10
94.5062896738
 20
101.9484660993
 30
0.0
 11
6.0
 21
-0.0
 31
0.0
 40
0.0087268678
 41
2.2122048269
 42
3.1328660073
  0
ELLIPSE
  5
30C
100
AcDbEntity
  8
0
100
AcDbEllipse
 62
7
  6
BYLAYER
 10
76.506746597
 20
99.9019149218
 30
0.0
 11
6.0
 21
0.0
 31
0.0
 40
0.0087268678
 41
-0.9293878267
 42
-0.0087266463
  0
ELLIPSE
  5
30D
100
AcDbEntity
  8
0
100
AcDbEllipse
 62
7
  6
BYLAYER
 10
68.0065181354
 20
99.8465218122
 30
0.0
 11
6.0
 21
-0.0
 31
0.0
 40
0.0087268678
 41
-2.2122048269
 42
-0.9293878267
  0
ELLIPSE
  5
30E
100
AcDbEntity
  8
0
100
AcDbEllipse
 62
7
  6
BYLAYER
 10
59.5062896738
 20
99.9019149218
 30
0.0
 11
6.0
 21
-0.0
 31
0.0
 40
0.0087268678
 41
-3.1328660073
 42
-2.2122048269
  0
ELLIPSE
  5
30F
100
AcDbEntity
  8
0
100
AcDbEllipse
 62
7
  6
BYLAYER
 10
108.4565181354
 20
139.8433900447
 30
0.0
 11
9.0
 21
-0.0
 31
0.0
 40
0.0087268678
 41
-1.5707759944
 42
-0.00870631
  0
ELLIPSE
  5
310
100
AcDbEntity
  8
0
100
AcDbEllipse
 62
7
  6
BYLAYER
 10
97.5565181354
 20
139.8433900447
 30
0.0
 11
9.0
 21
0.0
 31
0.0
 40
0.0087268678
 41
-3.1328660073
 42
-1.5707963268
  0
ELLIPSE
  5
311
100
AcDbEntity
  8
0
100
AcDbEllipse
 62
7
  6
BYLAYER
 10
76.506746597
 20
101.9484660993
 30
0.0
 11
6.0
 21
0.0
 31
0.0
 40
0.0087268678
 41
0.0087266463
 42
0.9293878267
  0
ELLIPSE
  5
312
100
AcDbEntity
  8
0
100
AcDbEllipse
 62
7
  6
BYLAYER
 10
68.0065181354
 20
102.0038592089
 30
0.0
 11
6.0
 21
-0.0
 31
0.0
 40
0.0087268678
 41
0.9293878267
 42
2.2122048269
  0
ELLIPSE
  5
313
100
AcDbEntity
  8
0
100
AcDbEllipse
 62
7
  6
BYLAYER
 10
59.5062896738
 20
101.9484660993
 30
0.0
 11
6.0
 21
-0.0
 31
0.0
 40
0.0087268678
 41
2.2122048269
 42
3.1328660073
  0
ELLIPSE
  5
314
100
AcDbEntity
  8
0
100
AcDbEllipse
 62
7
  6
BYLAYER
 10
41.506746597
 20
101.9484660993
 30
0.0
 11
6.0
 21
0.0
 31
0.0
 40
0.0087268678
 41
0.0087266463
 42
0.9293878267
  0
ELLIPSE
  5
315
100
AcDbEntity
  8
0
100
AcDbEllipse
 62
7
  6
BYLAYER
 10
33.0065181354
 20
102.0038592089
 30
0.0
 11
6.0
 21
-0.0
 31
0.0
 40
0.0087268678
 41
0.9293878267
 42
2.2122048269
  0
ELLIPSE
  5
316
100
AcDbEntity
  8
0
100
AcDbEllipse
 62
7
  6
BYLAYER
 10
24.5062896738
 20
101.9484660993
 30
0.0
 11
6.0
 21
0.0
 31
0.0
 40
0.0087268678
 41
2.2122048269
 42
3.1328660073
  0
ELLIPSE
  5
317
100
AcDbEntity
  8
0
100
AcDbEllipse
 62
7
  6
BYLAYER
 10
41.506746597
 20
99.9019149218
 30
0.0
 11
6.0
 21
0.0
 31
0.0
 40
0.0087268678
 41
-0.9293878267
 42
-0.0087266463
  0
ELLIPSE
  5
318
100
AcDbEntity
  8
0
100
AcDbEllipse
 62
7
  6
BYLAYER
 10
33.0065181354
 20
99.8465218122
 30
0.0
 11
6.0
 21
-0.0
 31
0.0
 40
0.0087268678
 41
-2.2122048269
 42
-0.9293878267
  0
ELLIPSE
  5
319
100
AcDbEntity
  8
0
100
AcDbEllipse
 62
7
  6
BYLAYER
 10
24.5062896738
 20
99.9019149218
 30
0.0
 11
6.0
 21
-0.0
 31
0.0
 40
0.0087268678
 41
-3.1328660073
 42
-2.2122048269
  0
ELLIPSE
  5
31A
100
AcDbEntity
  8
0
100
AcDbEllipse
 62
7
  6
BYLAYER
 10
73.4565181354
 20
139.8433900447
 30
0.0
 11
9.0
 21
-0.0
 31
0.0
 40
0.0087268678
 41
-1.5707759944
 42
-0.00870631
  0
ELLIPSE
  5
31B
100
AcDbEntity
  8
0
100
AcDbEllipse
 62
7
  6
BYLAYER
 10
62.5565181354
 20
139.8433900447
 30
0.0
 11
9.0
 21
0.0
 31
0.0
 40
0.0087268678
 41
-3.1328660073
 42
-1.5707963268
  0
ELLIPSE
  5
31C
100
AcDbEntity
  8
0
100
AcDbEllipse
 62
7
  6
BYLAYER
 10
38.4565181354
 20
139.8433900447
 30
0.0
 11
9.0
 21
0.0
 31
0.0
 40
0.0087268678
 41
-1.5707759944
 42
-0.00870631
  0
ELLIPSE
  5
31D
100
AcDbEntity
  8
0
100
AcDbEllipse
 62
7
  6
BYLAYER
 10
27.5565181354
 20
139.8433900447
 30
0.0
 11
9.0
 21
-0.0
 31
0.0
 40
0.0087268678
 41
-3.1328660073
 42
-1.5707963268
  0
ENDSEC
  0
SECTION
  2
OBJECTS
  0
DICTIONARY
  5
C
100
AcDbDictionary
280
0
281
1
  3
ACAD_GROUP
350
D
  3
ACAD_MLINESTYLE
350
17
  3
ACAD_LAYOUT
350
1A
  3
ACAD_PLOTSETTINGS
350
19
  3
ACAD_PLOTSTYLENAME
350
E
  0
DICTIONARY
  5
D
102
{ACAD_REACTORS
330
C
102
}
100
AcDbDictionary
280
0
281
1
  0
ACDBDICTIONARYWDFLT
  5
E
102
{ACAD_REACTORS
330
C
102
}
100
AcDbDictionary
281
1
  3
Normal
350
F
100
AcDbDictionaryWithDefault
340
F
  0
DICTIONARY
  5
17
102
{ACAD_REACTORS
330
C
102
}
100
AcDbDictionary
280
0
281
1
  3
Standard
350
18
  0
DICTIONARY
  5
19
102
{ACAD_REACTORS
330
C
102
}
100
AcDbDictionary
281
1
  0
DICTIONARY
  5
1A
102
{ACAD_REACTORS
330
C
102
}
100
AcDbDictionary
281
1
  3
Model
350
31E
  3
Layout1
350
31F
  0
ACDBPLACEHOLDER
  5
F
102
{ACAD_REACTORS
330
E
102
}
  0
MLINESTYLE
  5
18
102
{ACAD_REACTORS
330
17
102
}
100
AcDbMlineStyle
  2
STANDARD
 70
0
  3

 62
256
 51
90.0
 52
90.0
 71
2
 49
0.5
 62
256
  6
BYLAYER
 49
-0.5
 62
256
  6
BYLAYER
  0
LAYOUT
  5
31E
102
{ACAD_REACTORS
330
1A
102
}
100
AcDbPlotSettings
  1

  2
none_device
  4

  6

 40
0.0
 41
0.0
 42
0.0
 43
0.0
 44
210.0
 45
297.0
 46
0.0
 47
0.0
 48
0.0
 49
0.0
140
0.0
141
0.0
142
1.0
143
1.0
 70
1024
 72
1
 73
0
 74
0
  7

 75
0
147
1.0
148
0.0
149
0.0
100
AcDbLayout
  1
Model
 70
0
 71
0
 10
0.0
 20
0.0
 11
210.0
 21
297.0
 12
0.0
 22
0.0
 32
0.0
 14
0.0
 24
0.0
 34
0.0
 15
0.0
 25
0.0
 35
0.0
146
0.0
 13
0.0
 23
0.0
 33
0.0
 16
1.0
 26
0.0
 36
0.0
 17
0.0
 27
1.0
 37
0.0
 76
0
330
210
345
0
346
0
  0
LAYOUT
  5
31F
102
{ACAD_REACTORS
330
1A
102
}
100
AcDbPlotSettings
  1

  2
none_device
  4

  6

 40
0.0
 41
0.0
 42
0.0
 43
0.0
 44
210.0
 45
297.0
 46
0.0
 47
0.0
 48
0.0
 49
0.0
140
0.0
141
0.0
142
1.0
143
1.0
 70
0
 72
1
 73
0
 74
0
  7

 75
0
147
1.0
148
0.0
149
0.0
100
AcDbLayout
  1
Layout1
 70
0
 71
1
 10
0.0
 20
0.0
 11
210.0
 21
297.0
 12
0.0
 22
0.0
 32
0.0
 14
0.0
 24
0.0
 34
0.0
 15
0.0
 25
0.0
 35
0.0
146
0.0
 13
0.0
 23
0.0
 33
0.0
 16
1.0
 26
0.0
 36
0.0
 17
0.0
 27
1.0
 37
0.0
 76
0
330
211
345
0
346
0
  0
ENDSEC
  0
EOF
