999
DXF file: C:\Users\sesa63760\Dev\_Creo\CAD\MCADID0004083_3D-CAD\drw0001_1.dxf
999
Pro/ENGINEER 2019471 by Parametric Technology Corporation
  0
SECTION
  2
HEADER
  9
$ACADVER
  1
AC1024
  9
$DWGCODEPAGE
  3
ANSI_1252
  9
$EXTMAX
 10
49.8070273027
 20
70.4413671852
 30
0.0
  9
$EXTMIN
 10
0.0
 20
0.0
 30
0.0
  9
$LIMMIN
 10
0.0
 20
0.0
  9
$LIMMAX
 10
49.8070273027
 20
70.4413671852
  9
$VIEWCTR
 10
24.9035136513
 20
35.2206835926
  9
$VIEWSIZE
 40
70.4413671852
  9
$CLAYER
  8
0
  9
$LTSCALE
 40
4.5917335647
  9
$CELTYPE
  6
BYLAYER
  9
$DIMSCALE
 40
1.0
  9
$DIMASZ
 40
0.5929408012
  9
$DIMEXO
 40
1.0
  9
$DIMDLI
 40
3.1724704629
  9
$DIMEXE
 40
1.0
  9
$DIMCEN
 40
0.7513745833
  9
$DIMLFAC
 40
1.0
  9
$DIMBLK
  1
_FILLED
  9
$DIMALT
 70
0
  9
$DIMALTF
 40
0.0393700787
  9
$DIMTXT
 40
0.8301171217
  9
$DIMTOL
 70
1
  9
$DIMLIM
 70
0
  9
$DIMTFAC
 40
1.0
  9
$DIMTP
 40
0.01
  9
$DIMTM
 40
0.01
  9
$DIMGAP
 40
0.625
  9
$DIMDSEP
 70
46
  9
$AUNITS
 70
0
  9
$PDMODE
 70
3
  9
$PDSIZE
 40
0.3125
  9
$HANDSEED
  5
28E
  9
$TILEMODE
 70
1
  9
$MEASUREMENT
 70
1
  9
$INSUNITS
 70
4
  0
ENDSEC
  0
SECTION
  2
CLASSES
  0
CLASS
  1
ACDBDICTIONARYWDFLT
  2
AcDbDictionaryWithDefault
  3
AutoCAD 2000
 90
0
 91
1
280
0
281
0
  0
CLASS
  1
ACDBPLACEHOLDER
  2
AcDbPlaceHolder
  3
AutoCAD 2000
 90
0
 91
1
280
0
281
0
  0
CLASS
  1
LAYOUT
  2
AcDbLayout
  3
AutoCAD 2000
 90
0
 91
0
280
0
281
0
  0
ENDSEC
  0
SECTION
  2
TABLES
  0
TABLE
  2
VPORT
  5
8
100
AcDbSymbolTable
 70
2
  0
VPORT
  5
1F4
100
AcDbSymbolTableRecord
100
AcDbViewportTableRecord
  2
*ACTIVE
 70
0
 10
0.0
 20
0.0
 11
1.0
 21
1.0
 12
24.9035136513
 22
35.2206835926
 13
0.0
 23
0.0
 14
1.0
 24
1.0
 15
0.0
 25
0.0
 16
0.0
 26
0.0
 36
1.0
 17
0.0
 27
0.0
 37
0.0
 40
70.4413671852
 41
0.7070707071
 42
50.0
 43
0.0
 44
0.0
 50
0.0
 51
0.0
 71
0
 72
100
 73
1
 74
1
 75
0
 76
0
 77
0
 78
0
  0
ENDTAB
  0
TABLE
  2
LTYPE
  5
5
100
AcDbSymbolTable
 70
6
  0
LTYPE
  5
14
100
AcDbSymbolTableRecord
100
AcDbLinetypeTableRecord
  2
BYBLOCK
 70
0
  3

 72
65
 73
0
 40
0.0
  0
LTYPE
  5
15
100
AcDbSymbolTableRecord
100
AcDbLinetypeTableRecord
  2
BYLAYER
 70
0
  3

 72
65
 73
0
 40
0.0
  0
LTYPE
  5
16
100
AcDbSymbolTableRecord
100
AcDbLinetypeTableRecord
  2
CONTINUOUS
 70
64
  3
Solid line
 72
65
 73
0
 40
0.0
  0
LTYPE
  5
1F5
100
AcDbSymbolTableRecord
100
AcDbLinetypeTableRecord
  2
CENTER
 70
64
  3
____ _ ____ _ ____ _ ____ _ ____ _ ____ _ ____
 72
65
 73
4
 40
0.6
 49
0.375
 74
0
 49
-0.075
 74
0
 49
0.075
 74
0
 49
-0.075
 74
0
  0
LTYPE
  5
1F6
100
AcDbSymbolTableRecord
100
AcDbLinetypeTableRecord
  2
HIDDEN
 70
64
  3
- - - - - - - - - - - - - - - - - - - -
 72
65
 73
2
 40
0.2
 49
0.1
 74
0
 49
-0.1
 74
0
  0
LTYPE
  5
1F7
100
AcDbSymbolTableRecord
100
AcDbLinetypeTableRecord
  2
PHANTOM
 70
64
  3
_____ _ _ _____ _ _ _____ _ _ _____
 72
65
 73
6
 40
0.8
 49
0.45
 74
0
 49
-0.05
 74
0
 49
0.1
 74
0
 49
-0.05
 74
0
 49
0.1
 74
0
 49
-0.05
 74
0
  0
LTYPE
  5
1F8
100
AcDbSymbolTableRecord
100
AcDbLinetypeTableRecord
  2
DOT
 70
64
  3
. . . . . . . . . . . . . . . . . . . .
 72
65
 73
2
 40
0.2
 49
0.1
 74
0
 49
-0.1
 74
0
  0
LTYPE
  5
1F9
100
AcDbSymbolTableRecord
100
AcDbLinetypeTableRecord
  2
DASHED
 70
64
  3
- - - - - - - - - - - - - - - - - - - -
 72
65
 73
2
 40
0.2
 49
0.1
 74
0
 49
-0.1
 74
0
  0
ENDTAB
  0
TABLE
  2
LAYER
  5
2
100
AcDbSymbolTable
 70
36
  0
LAYER
  5
10
100
AcDbSymbolTableRecord
100
AcDbLayerTableRecord
  2
0
 70
0
 62
7
  6
CONTINUOUS
370
-3
390
F
  0
LAYER
  5
1FA
100
AcDbSymbolTableRecord
100
AcDbLayerTableRecord
  2
DEFAULT_1
 70
0
 62
7
  6
CENTER
370
-3
390
F
  0
LAYER
  5
1FB
100
AcDbSymbolTableRecord
100
AcDbLayerTableRecord
  2
DEFAULT_2
 70
0
 62
7
  6
HIDDEN
370
-3
390
F
  0
LAYER
  5
1FC
100
AcDbSymbolTableRecord
100
AcDbLayerTableRecord
  2
DEFAULT_3
 70
0
 62
7
  6
PHANTOM
370
-3
390
F
  0
LAYER
  5
1FD
100
AcDbSymbolTableRecord
100
AcDbLayerTableRecord
  2
00_COMPONENTS
 70
0
 62
7
  6
CONTINUOUS
370
-3
390
F
  0
LAYER
  5
1FE
100
AcDbSymbolTableRecord
100
AcDbLayerTableRecord
  2
01_1_DEFAULT_DATUMS
 70
0
 62
7
  6
CONTINUOUS
370
-3
390
F
  0
LAYER
  5
1FF
100
AcDbSymbolTableRecord
100
AcDbLayerTableRecord
  2
01_PLANES
 70
0
 62
7
  6
CONTINUOUS
370
-3
390
F
  0
LAYER
  5
200
100
AcDbSymbolTableRecord
100
AcDbLayerTableRecord
  2
02_COORD_SYS
 70
0
 62
7
  6
CONTINUOUS
370
-3
390
F
  0
LAYER
  5
201
100
AcDbSymbolTableRecord
100
AcDbLayerTableRecord
  2
03_AXES
 70
0
 62
7
  6
CONTINUOUS
370
-3
390
F
  0
LAYER
  5
202
100
AcDbSymbolTableRecord
100
AcDbLayerTableRecord
  2
04_POINTS
 70
0
 62
7
  6
CONTINUOUS
370
-3
390
F
  0
LAYER
  5
203
100
AcDbSymbolTableRecord
100
AcDbLayerTableRecord
  2
05_CURVES
 70
0
 62
7
  6
CONTINUOUS
370
-3
390
F
  0
LAYER
  5
204
100
AcDbSymbolTableRecord
100
AcDbLayerTableRecord
  2
06_SURFS
 70
0
 62
7
  6
CONTINUOUS
370
-3
390
F
  0
LAYER
  5
205
100
AcDbSymbolTableRecord
100
AcDbLayerTableRecord
  2
07_COSMETICS
 70
0
 62
7
  6
CONTINUOUS
370
-3
390
F
  0
LAYER
  5
206
100
AcDbSymbolTableRecord
100
AcDbLayerTableRecord
  2
10_NOTES
 70
0
 62
7
  6
CONTINUOUS
370
-3
390
F
  0
LAYER
  5
207
100
AcDbSymbolTableRecord
100
AcDbLayerTableRecord
  2
11_NOTES_PUB
 70
0
 62
7
  6
CONTINUOUS
370
-3
390
F
  0
LAYER
  5
208
100
AcDbSymbolTableRecord
100
AcDbLayerTableRecord
  2
13_REF_GTOL
 70
0
 62
7
  6
CONTINUOUS
370
-3
390
F
  0
LAYER
  5
209
100
AcDbSymbolTableRecord
100
AcDbLayerTableRecord
  2
16_MISC
 70
0
 62
7
  6
CONTINUOUS
370
-3
390
F
  0
LAYER
  5
20A
100
AcDbSymbolTableRecord
100
AcDbLayerTableRecord
  2
17_NO_PRINT
 70
0
 62
7
  6
CONTINUOUS
370
-3
390
F
  0
LAYER
  5
20B
100
AcDbSymbolTableRecord
100
AcDbLayerTableRecord
  2
18_DATUM_CAMS_JOINTS
 70
0
 62
7
  6
CONTINUOUS
370
-3
390
F
  0
LAYER
  5
20C
100
AcDbSymbolTableRecord
100
AcDbLayerTableRecord
  2
19_DATUM_FUNCTIONAL
 70
0
 62
7
  6
CONTINUOUS
370
-3
390
F
  0
LAYER
  5
20D
100
AcDbSymbolTableRecord
100
AcDbLayerTableRecord
  2
20_DATUM_KINEMATIC_SCHEME
 70
0
 62
7
  6
CONTINUOUS
370
-3
390
F
  0
ENDTAB
  0
TABLE
  2
STYLE
  5
3
100
AcDbSymbolTable
 70
1
  0
STYLE
  5
11
100
AcDbSymbolTableRecord
100
AcDbTextStyleTableRecord
  2
STANDARD
 70
0
 40
0.0
 41
1.0
 50
0.0
 71
0
 42
0.2
  3
ARIAL.TTF
  4

  0
STYLE
  5
20E
100
AcDbSymbolTableRecord
100
AcDbTextStyleTableRecord
  2
TEXTSTYLE_1
 70
0
 40
0.0
 41
0.8
 50
0.0
 71
0
 42
0.2
  3
gdt
  4

  0
ENDTAB
  0
TABLE
  2
VIEW
  5
6
100
AcDbSymbolTable
 70
0
  0
ENDTAB
  0
TABLE
  2
UCS
  5
7
100
AcDbSymbolTable
 70
0
  0
ENDTAB
  0
TABLE
  2
APPID
  5
9
100
AcDbSymbolTable
 70
1
  0
APPID
  5
20F
100
AcDbSymbolTableRecord
100
AcDbRegAppTableRecord
  2
ACAD
 70
0
  0
ENDTAB
  0
TABLE
  2
BLOCK_RECORD
  5
1
100
AcDbSymbolTable
 70
0
  0
BLOCK_RECORD
  5
210
100
AcDbSymbolTableRecord
100
AcDbBlockTableRecord
  2
*Model_Space
  0
BLOCK_RECORD
  5
211
100
AcDbSymbolTableRecord
100
AcDbBlockTableRecord
  2
*Paper_Space
  0
BLOCK_RECORD
  5
212
100
AcDbSymbolTableRecord
100
AcDbBlockTableRecord
  2
_FILLED
  0
ENDTAB
  0
TABLE
  2
DIMSTYLE
  5
A
100
AcDbSymbolTable
 70
1
100
AcDbDimStyleTable
 71
0
  0
DIMSTYLE
105
213
100
AcDbSymbolTableRecord
100
AcDbDimStyleTableRecord
  2
STANDARD
 70
0
  3

  4

 40
1.0
 41
0.5929408012
 42
1.0
 43
0.38
 44
1.0
 45
0.0
 46
0.0
 47
0.01
 48
0.01
140
0.8301171217
141
0.09
142
0.0
143
25.4
144
1.0
145
0.0
146
1.0
147
0.625
 71
1
 72
0
 73
0
 74
0
 75
0
 76
0
 77
1
 78
8
 79
2
170
0
171
1
172
0
173
0
174
0
175
0
176
0
177
0
178
0
270
2
179
2
271
2
272
2
273
2
274
2
275
0
280
0
281
0
282
0
283
1
284
8
285
0
286
0
287
3
288
0
340
11
278
46
341
212
342
212
343
212
344
212
  0
ENDTAB
  0
ENDSEC
  0
SECTION
  2
BLOCKS
  0
BLOCK
  5
20
100
AcDbEntity
  8
0
100
AcDbBlockBegin
  2
*Model_Space
 70
0
 10
0.0
 20
0.0
 30
0.0
  3
*Model_Space
  1

  0
ENDBLK
  5
21
100
AcDbEntity
  8
0
100
AcDbBlockEnd
  0
BLOCK
  5
1C
100
AcDbEntity
  8
0
100
AcDbBlockBegin
  2
*Paper_Space
 70
0
 10
0.0
 20
0.0
 30
0.0
  3
*Paper_Space
  1

  0
ENDBLK
  5
1D
100
AcDbEntity
  8
0
100
AcDbBlockEnd
  0
BLOCK
  5
214
100
AcDbEntity
  8
0
100
AcDbBlockBegin
  2
_FILLED
 70
64
 10
0.0
 20
0.0
  3
_FILLED
  1

  0
SOLID
  5
215
100
AcDbEntity
  8
0
  6
BYBLOCK
 62
0
100
AcDbTrace
 10
0.0
 20
0.0
 11
-1.0
 21
0.25
 12
-1.0
 22
-0.25
 13
-1.0
 23
-0.25
  0
ENDBLK
  5
216
100
AcDbEntity
  8
0
  6
BYBLOCK
 62
0
100
AcDbBlockEnd
  0
ENDSEC
  0
SECTION
  2
ENTITIES
  0
LINE
  5
217
100
AcDbEntity
  8
0
100
AcDbLine
 62
7
  6
BYLAYER
 10
20.1455233191
 20
7.4894874343
 11
19.677814713
 21
8.2039314264
  0
LINE
  5
218
100
AcDbEntity
  8
0
100
AcDbLine
 62
7
  6
BYLAYER
 10
11.9060720576
 20
51.7988370917
 11
11.9060720576
 21
50.2830767295
  0
LINE
  5
219
100
AcDbEntity
  8
0
100
AcDbLine
 62
7
  6
BYLAYER
 10
11.9060720576
 20
48.5328274232
 11
11.9060720576
 21
47.017067061
  0
LINE
  5
21A
100
AcDbEntity
  8
0
100
AcDbLine
 62
7
  6
BYLAYER
 10
18.5283565263
 20
23.4889190055
 11
17.8686529692
 21
24.0441518546
  0
LINE
  5
21B
100
AcDbEntity
  8
0
100
AcDbLine
 62
7
  6
BYLAYER
 10
16.2903179861
 20
26.9834344947
 11
16.2903179861
 21
43.6492106298
  0
LINE
  5
21C
100
AcDbEntity
  8
0
100
AcDbLine
 62
7
  6
BYLAYER
 10
17.0903179861
 20
19.6349127406
 11
17.0903179861
 21
25.0200364032
  0
LINE
  5
21D
100
AcDbEntity
  8
0
100
AcDbLine
 62
7
  6
BYLAYER
 10
17.0903179861
 20
54.7445166771
 11
17.0903179861
 21
60.4600335971
  0
LINE
  5
21E
100
AcDbEntity
  8
0
100
AcDbLine
 62
7
  6
BYLAYER
 10
19.2903179861
 20
9.4286325265
 11
19.2903179861
 21
14.3276470292
  0
LINE
  5
21F
100
AcDbEntity
  8
0
100
AcDbLine
 62
7
  6
BYLAYER
 10
19.7903179861
 20
15.1441494464
 11
19.7903179861
 21
16.2168333584
  0
LINE
  5
220
100
AcDbEntity
  8
0
100
AcDbLine
 62
7
  6
BYLAYER
 10
30.7903179861
 20
15.7242014723
 11
30.9028212592
 21
15.5523481293
  0
LINE
  5
221
100
AcDbEntity
  8
0
100
AcDbLine
 62
7
  6
BYLAYER
 10
21.7040718215
 20
46.1420872633
 11
21.7040718215
 21
44.6263269011
  0
LINE
  5
222
100
AcDbEntity
  8
0
100
AcDbLine
 62
7
  6
BYLAYER
 10
21.7040718215
 20
42.8760775948
 11
21.7040718215
 21
41.3603172326
  0
LINE
  5
223
100
AcDbEntity
  8
0
100
AcDbLine
 62
7
  6
BYLAYER
 10
30.7903179861
 20
15.1441494464
 11
30.7903179861
 21
16.1667470588
  0
LINE
  5
224
100
AcDbEntity
  8
0
100
AcDbLine
 62
7
  6
BYLAYER
 10
31.2903179861
 20
9.4286325265
 11
31.2903179861
 21
14.3276470292
  0
LINE
  5
225
100
AcDbEntity
  8
0
100
AcDbLine
 62
7
  6
BYLAYER
 10
19.7903179861
 20
15.7242014723
 11
19.677814713
 21
15.5523481293
  0
LINE
  5
226
100
AcDbEntity
  8
0
100
AcDbLine
 62
7
  6
BYLAYER
 10
33.4903179861
 20
19.6349127406
 11
33.4903179861
 21
24.8806102133
  0
LINE
  5
227
100
AcDbEntity
  8
0
100
AcDbLine
 62
7
  6
BYLAYER
 10
33.4903179861
 20
54.7445166771
 11
33.4903179861
 21
60.4600335971
  0
LINE
  5
228
100
AcDbEntity
  8
0
100
AcDbLine
 62
7
  6
BYLAYER
 10
34.2903179861
 20
26.9834344947
 11
34.2903179861
 21
43.1458605086
  0
LINE
  5
229
100
AcDbEntity
  8
0
100
AcDbLine
 62
7
  6
BYLAYER
 10
35.08831775
 20
48.2126421956
 11
35.08831775
 21
46.6968818334
  0
LINE
  5
22A
100
AcDbEntity
  8
0
100
AcDbLine
 62
7
  6
BYLAYER
 10
35.08831775
 20
44.9466325271
 11
35.08831775
 21
43.4308721649
  0
LINE
  5
22B
100
AcDbEntity
  8
0
100
AcDbLine
 62
7
  6
BYLAYER
 10
38.6745639146
 20
55.9399469563
 11
38.6745639146
 21
54.424186594
  0
LINE
  5
22C
100
AcDbEntity
  8
0
100
AcDbLine
 62
7
  6
BYLAYER
 10
38.6745639146
 20
52.6739372877
 11
38.6745639146
 21
51.1581769255
  0
LINE
  5
22D
100
AcDbEntity
  8
0
100
AcDbLine
 62
7
  6
BYLAYER
 10
32.0522794459
 20
23.4889190055
 11
32.711983003
 21
24.0441518546
  0
LINE
  5
22E
100
AcDbEntity
  8
0
100
AcDbLine
 62
7
  6
BYLAYER
 10
32.711983003
 20
24.0441518546
 11
31.6543055124
 21
23.3092677041
  0
LINE
  5
22F
100
AcDbEntity
  8
0
100
AcDbLine
 62
7
  6
BYLAYER
 10
31.0886177323
 20
22.8193578905
 11
32.0522794459
 21
23.4889190055
  0
LWPOLYLINE
  5
230
100
AcDbEntity
  8
0
100
AcDbPolyline
 62
7
  6
BYLAYER
 90
5
 70
0
 10
33.5365587781
 20
56.8261060471
 10
34.2325918551
 20
55.3320629444
 10
34.1354759422
 20
53.784819681
 10
33.2518540231
 20
52.3214728772
 10
31.6543055124
 20
51.0703498865
  0
LINE
  5
231
100
AcDbEntity
  8
0
100
AcDbLine
 62
7
  6
BYLAYER
 10
30.4351126531
 20
7.4894874343
 11
30.9028212592
 21
8.2039314264
  0
LINE
  5
232
100
AcDbEntity
  8
0
100
AcDbLine
 62
7
  6
BYLAYER
 10
30.9028212592
 20
8.2039314264
 11
30.7790912871
 21
8.0294423176
  0
LINE
  5
233
100
AcDbEntity
  8
0
100
AcDbLine
 62
7
  6
BYLAYER
 10
21.0906006924
 20
56.0738430562
 11
23.6165953549
 21
56.5839412319
  0
LINE
  5
234
100
AcDbEntity
  8
0
100
AcDbLine
 62
7
  6
BYLAYER
 10
23.6165953549
 20
56.5839412319
 11
26.2997926945
 21
56.6417941113
  0
LINE
  5
235
100
AcDbEntity
  8
0
100
AcDbLine
 62
7
  6
BYLAYER
 10
26.2997926945
 20
56.6417941113
 11
28.888688571
 21
56.2411983838
  0
LINE
  5
236
100
AcDbEntity
  8
0
100
AcDbLine
 62
7
  6
BYLAYER
 10
28.888688571
 20
56.2411983838
 11
31.0928433395
 21
55.4420176612
  0
LINE
  5
237
100
AcDbEntity
  8
0
100
AcDbLine
 62
7
  6
BYLAYER
 10
31.1582398778
 20
55.4183062352
 11
31.1622535572
 21
55.4163124507
  0
LINE
  5
238
100
AcDbEntity
  8
0
100
AcDbLine
 62
7
  6
BYLAYER
 10
31.1582398778
 20
55.4183062352
 11
31.161995891
 21
55.4161396564
  0
LINE
  5
239
100
AcDbEntity
  8
0
100
AcDbLine
 62
7
  6
BYLAYER
 10
33.4903179861
 20
56.8685333817
 11
33.5365587781
 21
56.8261060471
  0
LINE
  5
23A
100
AcDbEntity
  8
0
100
AcDbLine
 62
7
  6
BYLAYER
 10
30.4350710271
 20
7.4894964997
 11
29.1794214744
 21
6.3668059595
  0
LINE
  5
23B
100
AcDbEntity
  8
0
100
AcDbLine
 62
7
  6
BYLAYER
 10
30.7790912871
 20
8.0294423176
 11
29.532976337
 21
6.9791879993
  0
ARC
  5
23C
100
AcDbEntity
  8
0
100
AcDbCircle
 62
7
  6
BYLAYER
 10
79.7508273034
 20
26.467759215
 40
71.3426804192
100
AcDbArc
 50
160.8180952831
 51
161.9839823981
  0
ARC
  5
23D
100
AcDbEntity
  8
0
100
AcDbCircle
 62
7
  6
BYLAYER
 10
7.2708426652
 20
18.1941619403
 40
46.6374164841
100
AcDbArc
 50
47.6731583605
 51
48.4337673661
  0
ARC
  5
23E
100
AcDbEntity
  8
0
100
AcDbCircle
 62
7
  6
BYLAYER
 10
30.3851390358
 20
22.3025859683
 40
40.0922589091
100
AcDbArc
 50
109.377880001
 51
111.80591885
  0
ARC
  5
23F
100
AcDbEntity
  8
0
100
AcDbCircle
 62
7
  6
BYLAYER
 10
24.0763769876
 20
42.844210822
 40
19.3981584047
100
AcDbArc
 50
59.9996321904
 51
60.9688478422
  0
ARC
  5
240
100
AcDbEntity
  8
0
100
AcDbCircle
 62
7
  6
BYLAYER
 10
22.6027758296
 20
49.5978187761
 40
11.5986209074
100
AcDbArc
 50
118.5371602821
 51
119.9912394411
  0
ARC
  5
241
100
AcDbEntity
  8
0
100
AcDbCircle
 62
7
  6
BYLAYER
 10
28.022247716
 20
49.6770166488
 40
11.507839636
100
AcDbArc
 50
60.0034695159
 51
61.468653259
  0
ARC
  5
242
100
AcDbEntity
  8
0
100
AcDbCircle
 62
7
  6
BYLAYER
 10
26.9352693488
 20
46.9118429328
 40
9.4970204803
100
AcDbArc
 50
63.598241184
 51
63.9894849932
  0
ARC
  5
243
100
AcDbEntity
  8
0
100
AcDbCircle
 62
7
  6
BYLAYER
 10
23.5374193879
 20
47.1275001626
 40
9.2558476254
100
AcDbArc
 50
116.1630751199
 51
117.8791631051
  0
ARC
  5
244
100
AcDbEntity
  8
0
100
AcDbCircle
 62
7
  6
BYLAYER
 10
27.0985048353
 20
47.2373507146
 40
9.1328784485
100
AcDbArc
 50
60.8781449361
 51
63.5793385901
  0
ARC
  5
245
100
AcDbEntity
  8
0
100
AcDbCircle
 62
7
  6
BYLAYER
 10
25.2903388031
 20
14.7069466204
 40
0.5
100
AcDbArc
 50
196.5494072433
 51
342.2854786806
  0
ARC
  5
246
100
AcDbEntity
  8
0
100
AcDbCircle
 62
7
  6
BYLAYER
 10
25.3731238116
 20
14.7533083099
 40
0.4306822699
100
AcDbArc
 50
314.1963934397
 51
319.0468259854
  0
ARC
  5
247
100
AcDbEntity
  8
0
100
AcDbCircle
 62
7
  6
BYLAYER
 10
25.2075511741
 20
14.7533052897
 40
0.430679598
100
AcDbArc
 50
220.9535697735
 51
225.8037471755
  0
ARC
  5
248
100
AcDbEntity
  8
0
100
AcDbCircle
 62
7
  6
BYLAYER
 10
25.1896954765
 20
14.3856519965
 40
0.4139990539
100
AcDbArc
 50
132.3205325231
 51
137.5303974479
  0
ARC
  5
249
100
AcDbEntity
  8
0
100
AcDbCircle
 62
7
  6
BYLAYER
 10
25.3936318371
 20
14.3882706183
 40
0.4102825291
100
AcDbArc
 50
42.4618835376
 51
47.6058016799
  0
SPLINE
  5
24A
100
AcDbEntity
  8
0
100
AcDbSpline
 62
7
  6
BYLAYER
 70
0
 71
3
 72
11
 73
7
 74
0
 42
0.0000001
 43
0.0000001
 44
0.0000000001
 40
0.0
 40
0.0
 40
0.0
 40
0.0
 40
0.25169685
 40
0.5026626495
 40
0.7523296886
 40
1.0
 40
1.0
 40
1.0
 40
1.0
 10
35.08831775
 20
43.4308721649
 30
0.0
 10
34.5448442893
 20
43.2141785052
 30
0.0
 10
33.4510408933
 20
42.8020438459
 30
0.0
 10
31.7860567961
 20
42.2644362239
 30
0.0
 10
30.1017753705
 20
41.825539727
 30
0.0
 10
28.9651477722
 20
41.6084875864
 30
0.0
 10
28.3961947857
 20
41.5204700456
 30
0.0
  0
SPLINE
  5
24B
100
AcDbEntity
  8
0
100
AcDbSpline
 62
7
  6
BYLAYER
 70
0
 71
3
 72
11
 73
7
 74
0
 42
0.0000001
 43
0.0000001
 44
0.0000000001
 40
0.0
 40
0.0
 40
0.0
 40
0.0
 40
0.2936016986
 40
0.5559374547
 40
0.7899377057
 40
1.0
 40
1.0
 40
1.0
 40
1.0
 10
36.8814408323
 20
46.419399892
 30
0.0
 10
36.7375170436
 20
46.109286496
 30
0.0
 10
36.4518891262
 20
45.5279719224
 30
0.0
 10
36.000084185
 20
44.7261117805
 30
0.0
 10
35.5517676258
 20
44.0357879874
 30
0.0
 10
35.2415701619
 20
43.6215183732
 30
0.0
 10
35.08831775
 20
43.4308721649
 30
0.0
  0
SPLINE
  5
24C
100
AcDbEntity
  8
0
100
AcDbSpline
 62
7
  6
BYLAYER
 70
0
 71
3
 72
11
 73
7
 74
0
 42
0.0000001
 43
0.0000001
 44
0.0000000001
 40
0.0
 40
0.0
 40
0.0
 40
0.0
 40
0.2727720738
 40
0.5326331127
 40
0.7761317916
 40
1.0
 40
1.0
 40
1.0
 40
1.0
 10
38.6745639146
 20
51.1581769255
 30
0.0
 10
38.5316137651
 20
50.7199761247
 30
0.0
 10
38.2458761862
 20
49.8664392008
 30
0.0
 10
37.8030347858
 20
48.631822732
 30
0.0
 10
37.3555651101
 20
47.4871181322
 30
0.0
 10
37.040691048
 20
46.7625372267
 30
0.0
 10
36.8814408323
 20
46.419399892
 30
0.0
  0
SPLINE
  5
24D
100
AcDbEntity
  8
0
100
AcDbSpline
 62
7
  6
BYLAYER
 70
0
 71
3
 72
12
 73
8
 74
0
 42
0.0000001
 43
0.0000001
 44
0.0000000001
 40
0.0
 40
0.0
 40
0.0
 40
0.0
 40
0.2359053548
 40
0.480141844
 40
0.6059504969
 40
0.7344642466
 40
1.0
 40
1.0
 40
1.0
 40
1.0
 10
21.7040718215
 20
41.3603172326
 30
0.0
 10
21.2998240778
 20
41.4589548463
 30
0.0
 10
20.4826452367
 20
41.6837341561
 30
0.0
 10
19.4727026508
 20
42.0365037124
 30
0.0
 10
18.6595102263
 20
42.3717573301
 30
0.0
 10
17.8255194581
 20
42.7533283113
 30
0.0
 10
17.2106963152
 20
43.0793854491
 30
0.0
 10
16.8050719395
 20
43.3135674936
 30
0.0
  0
SPLINE
  5
24E
100
AcDbEntity
  8
0
100
AcDbSpline
 62
7
  6
BYLAYER
 70
0
 71
3
 72
13
 73
9
 74
0
 42
0.0000001
 43
0.0000001
 44
0.0000000001
 40
0.0
 40
0.0
 40
0.0
 40
0.0
 40
0.1277130851
 40
0.254682184
 40
0.3808516675
 40
0.5062128281
 40
0.7545510597
 40
1.0
 40
1.0
 40
1.0
 40
1.0
 10
28.3961947857
 20
41.5204700456
 30
0.0
 10
28.1138841119
 20
41.4767963294
 30
0.0
 10
27.5493416837
 20
41.3994860081
 30
0.0
 10
26.7016391811
 20
41.3134959062
 30
0.0
 10
25.8567224551
 20
41.2570917428
 30
0.0
 10
24.7390755157
 20
41.2195212222
 30
0.0
 10
23.3534259685
 20
41.2375161805
 30
0.0
 10
22.2509155493
 20
41.3114742176
 30
0.0
 10
21.7040718215
 20
41.3603172326
 30
0.0
  0
SPLINE
  5
24F
100
AcDbEntity
  8
0
100
AcDbSpline
 62
7
  6
BYLAYER
 70
0
 71
3
 72
11
 73
7
 74
0
 42
0.0000001
 43
0.0000001
 44
0.0000000001
 40
0.0
 40
0.0
 40
0.0
 40
0.0
 40
0.2381644744
 40
0.4852570595
 40
0.7397461291
 40
1.0
 40
1.0
 40
1.0
 40
1.0
 10
16.8050719395
 20
43.3135674936
 30
0.0
 10
16.3820743557
 20
43.5577797377
 30
0.0
 10
15.5386213363
 20
44.0877684341
 30
0.0
 10
14.3086450845
 20
44.9772794985
 30
0.0
 10
13.0928843206
 20
45.9595460469
 30
0.0
 10
12.3006927554
 20
46.6576972239
 30
0.0
 10
11.9060720576
 20
47.017067061
 30
0.0
  0
SPLINE
  5
250
100
AcDbEntity
  8
0
100
AcDbSpline
 62
7
  6
BYLAYER
 70
0
 71
3
 72
11
 73
7
 74
0
 42
0.0000001
 43
0.0000001
 44
0.0000000001
 40
0.0
 40
0.0
 40
0.0
 40
0.0
 40
0.25169685
 40
0.5026626495
 40
0.7523296886
 40
1.0
 40
1.0
 40
1.0
 40
1.0
 10
21.7040718215
 20
42.8760775948
 30
0.0
 10
22.2475452821
 20
43.0927712545
 30
0.0
 10
23.3413486781
 20
43.5049059137
 30
0.0
 10
25.0063327753
 20
44.0425135358
 30
0.0
 10
26.6906142009
 20
44.4814100327
 30
0.0
 10
27.8272417992
 20
44.6984621733
 30
0.0
 10
28.3961947857
 20
44.7864797141
 30
0.0
  0
SPLINE
  5
251
100
AcDbEntity
  8
0
100
AcDbSpline
 62
7
  6
BYLAYER
 70
0
 71
3
 72
11
 73
7
 74
0
 42
0.0000001
 43
0.0000001
 44
0.0000000001
 40
0.0
 40
0.0
 40
0.0
 40
0.0
 40
0.2381644744
 40
0.4852570595
 40
0.7397461291
 40
1.0
 40
1.0
 40
1.0
 40
1.0
 10
16.8050719395
 20
46.5795771622
 30
0.0
 10
17.2280695234
 20
46.3353649181
 30
0.0
 10
18.0715225428
 20
45.8053762218
 30
0.0
 10
19.3014987946
 20
44.9158651573
 30
0.0
 10
20.5172595585
 20
43.9335986089
 30
0.0
 10
21.3094511237
 20
43.2354474319
 30
0.0
 10
21.7040718215
 20
42.8760775948
 30
0.0
  0
SPLINE
  5
252
100
AcDbEntity
  8
0
100
AcDbSpline
 62
7
  6
BYLAYER
 70
0
 71
3
 72
12
 73
8
 74
0
 42
0.0000001
 43
0.0000001
 44
0.0000000001
 40
0.0
 40
0.0
 40
0.0
 40
0.0
 40
0.2359053548
 40
0.480141844
 40
0.6059504969
 40
0.7344642466
 40
1.0
 40
1.0
 40
1.0
 40
1.0
 10
11.9060720576
 20
48.5328274232
 30
0.0
 10
12.3103198013
 20
48.4341898096
 30
0.0
 10
13.1274986424
 20
48.2094104997
 30
0.0
 10
14.1374412282
 20
47.8566409434
 30
0.0
 10
14.9506336527
 20
47.5213873257
 30
0.0
 10
15.784624421
 20
47.1398163445
 30
0.0
 10
16.3994475639
 20
46.8137592067
 30
0.0
 10
16.8050719395
 20
46.5795771622
 30
0.0
  0
SPLINE
  5
253
100
AcDbEntity
  8
0
100
AcDbSpline
 62
7
  6
BYLAYER
 70
0
 71
3
 72
9
 73
5
 74
0
 42
0.0000001
 43
0.0000001
 44
0.0000000001
 40
0.0
 40
0.0
 40
0.0
 40
0.0
 40
0.4893176887
 40
1.0
 40
1.0
 40
1.0
 40
1.0
 10
19.4562615104
 20
55.4350187839
 30
0.0
 10
19.713312119
 20
55.561359576
 30
0.0
 10
20.2504204541
 20
55.7960382007
 30
0.0
 10
20.8044075899
 20
55.9869991301
 30
0.0
 10
21.0903619729
 20
56.0741042766
 30
0.0
  0
SPLINE
  5
254
100
AcDbEntity
  8
0
100
AcDbSpline
 62
7
  6
BYLAYER
 70
0
 71
3
 72
13
 73
9
 74
0
 42
0.0000001
 43
0.0000001
 44
0.0000000001
 40
0.0
 40
0.0
 40
0.0
 40
0.0
 40
0.1277130851
 40
0.254682184
 40
0.3808516675
 40
0.5062128281
 40
0.7545510597
 40
1.0
 40
1.0
 40
1.0
 40
1.0
 10
28.3961947857
 20
44.7864797141
 30
0.0
 10
28.6785054595
 20
44.8301534303
 30
0.0
 10
29.2430478877
 20
44.9074637515
 30
0.0
 10
30.0907503903
 20
44.9934538535
 30
0.0
 10
30.9356671163
 20
45.0498580169
 30
0.0
 10
32.0533140557
 20
45.0874285375
 30
0.0
 10
33.4389636029
 20
45.0694335791
 30
0.0
 10
34.5414740221
 20
44.9954755421
 30
0.0
 10
35.08831775
 20
44.9466325271
 30
0.0
  0
SPLINE
  5
255
100
AcDbEntity
  8
0
100
AcDbSpline
 62
7
  6
BYLAYER
 70
0
 71
3
 72
11
 73
7
 74
0
 42
0.0000001
 43
0.0000001
 44
0.0000000001
 40
0.0
 40
0.0
 40
0.0
 40
0.0
 40
0.2727720738
 40
0.5326331127
 40
0.7761317916
 40
1.0
 40
1.0
 40
1.0
 40
1.0
 10
35.08831775
 20
44.9466325271
 30
0.0
 10
35.2312678995
 20
45.3848333279
 30
0.0
 10
35.5170054783
 20
46.2383702518
 30
0.0
 10
35.9598468788
 20
47.4729867206
 30
0.0
 10
36.4073165544
 20
48.6176913204
 30
0.0
 10
36.7221906165
 20
49.3422722259
 30
0.0
 10
36.8814408323
 20
49.6854095606
 30
0.0
  0
SPLINE
  5
256
100
AcDbEntity
  8
0
100
AcDbSpline
 62
7
  6
BYLAYER
 70
0
 71
3
 72
11
 73
7
 74
0
 42
0.0000001
 43
0.0000001
 44
0.0000000001
 40
0.0
 40
0.0
 40
0.0
 40
0.0
 40
0.2936016986
 40
0.5559374547
 40
0.7899377057
 40
1.0
 40
1.0
 40
1.0
 40
1.0
 10
36.8814408323
 20
49.6854095606
 30
0.0
 10
37.0253646209
 20
49.9955229566
 30
0.0
 10
37.3109925384
 20
50.5768375302
 30
0.0
 10
37.7627974796
 20
51.3786976721
 30
0.0
 10
38.2111140388
 20
52.0690214652
 30
0.0
 10
38.5213115026
 20
52.4832910794
 30
0.0
 10
38.6745639146
 20
52.6739372877
 30
0.0
  0
SPLINE
  5
257
100
AcDbEntity
  8
0
100
AcDbSpline
 62
7
  6
BYLAYER
 70
0
 71
3
 72
11
 73
7
 74
0
 42
0.0000001
 43
0.0000001
 44
0.0000000001
 40
0.0
 40
0.0
 40
0.0
 40
0.0
 40
0.2602539388
 40
0.5147430699
 40
0.7618356451
 40
1.0
 40
1.0
 40
1.0
 40
1.0
 10
38.6745639146
 20
55.9399469563
 30
0.0
 10
38.2799431146
 20
56.2993168864
 30
0.0
 10
37.4877511138
 20
56.997467965
 30
0.0
 10
36.2719903394
 20
57.9797348737
 30
0.0
 10
35.0420142257
 20
58.8692458985
 30
0.0
 10
34.1985614032
 20
59.3992344027
 30
0.0
 10
33.7755640327
 20
59.6434465236
 30
0.0
  0
SPLINE
  5
258
100
AcDbEntity
  8
0
100
AcDbSpline
 62
7
  6
BYLAYER
 70
0
 71
3
 72
11
 73
7
 74
0
 42
0.0000001
 43
0.0000001
 44
0.0000000001
 40
0.0
 40
0.0
 40
0.0
 40
0.0
 40
0.25169685
 40
0.5026626495
 40
0.7523296886
 40
1.0
 40
1.0
 40
1.0
 40
1.0
 10
35.08831775
 20
46.6968818334
 30
0.0
 10
34.5448442893
 20
46.4801881737
 30
0.0
 10
33.4510408933
 20
46.0680535145
 30
0.0
 10
31.7860567961
 20
45.5304458924
 30
0.0
 10
30.1017753705
 20
45.0915493955
 30
0.0
 10
28.9651477722
 20
44.8744972549
 30
0.0
 10
28.3961947857
 20
44.7864797141
 30
0.0
  0
SPLINE
  5
259
100
AcDbEntity
  8
0
100
AcDbSpline
 62
7
  6
BYLAYER
 70
0
 71
3
 72
11
 73
7
 74
0
 42
0.0000001
 43
0.0000001
 44
0.0000000001
 40
0.0
 40
0.0
 40
0.0
 40
0.0
 40
0.2936016986
 40
0.5559374547
 40
0.7899377057
 40
1.0
 40
1.0
 40
1.0
 40
1.0
 10
36.8814408323
 20
49.6854095606
 30
0.0
 10
36.7375170436
 20
49.3752961645
 30
0.0
 10
36.4518891262
 20
48.7939815909
 30
0.0
 10
36.000084185
 20
47.992121449
 30
0.0
 10
35.5517676258
 20
47.3017976559
 30
0.0
 10
35.2415701619
 20
46.8875280417
 30
0.0
 10
35.08831775
 20
46.6968818334
 30
0.0
  0
SPLINE
  5
25A
100
AcDbEntity
  8
0
100
AcDbSpline
 62
7
  6
BYLAYER
 70
0
 71
3
 72
11
 73
7
 74
0
 42
0.0000001
 43
0.0000001
 44
0.0000000001
 40
0.0
 40
0.0
 40
0.0
 40
0.0
 40
0.2727720738
 40
0.5326331127
 40
0.7761317916
 40
1.0
 40
1.0
 40
1.0
 40
1.0
 10
38.6745639146
 20
54.424186594
 30
0.0
 10
38.5316137651
 20
53.9859857932
 30
0.0
 10
38.2458761862
 20
53.1324488693
 30
0.0
 10
37.8030347858
 20
51.8978324005
 30
0.0
 10
37.3555651101
 20
50.7531278007
 30
0.0
 10
37.040691048
 20
50.0285468952
 30
0.0
 10
36.8814408323
 20
49.6854095606
 30
0.0
  0
SPLINE
  5
25B
100
AcDbEntity
  8
0
100
AcDbSpline
 62
7
  6
BYLAYER
 70
0
 71
3
 72
11
 73
7
 74
0
 42
0.0000001
 43
0.0000001
 44
0.0000000001
 40
0.0
 40
0.0
 40
0.0
 40
0.0
 40
0.2238683258
 40
0.4673670085
 40
0.7272279746
 40
1.0
 40
1.0
 40
1.0
 40
1.0
 10
13.6991951399
 20
56.5376141252
 30
0.0
 10
13.5399448406
 20
56.1944766106
 30
0.0
 10
13.2250707225
 20
55.4698955052
 30
0.0
 10
12.777600992
 20
54.3251908402
 30
0.0
 10
12.3347595509
 20
53.0905745941
 30
0.0
 10
12.0490221819
 20
52.2370378152
 30
0.0
 10
11.9060720576
 20
51.7988370917
 30
0.0
  0
SPLINE
  5
25C
100
AcDbEntity
  8
0
100
AcDbSpline
 62
7
  6
BYLAYER
 70
0
 71
3
 72
11
 73
7
 74
0
 42
0.0000001
 43
0.0000001
 44
0.0000000001
 40
0.0
 40
0.0
 40
0.0
 40
0.0
 40
0.2100624446
 40
0.4440627095
 40
0.7063984317
 40
1.0
 40
1.0
 40
1.0
 40
1.0
 10
15.4923182223
 20
59.5261418524
 30
0.0
 10
15.3390657013
 20
59.3354955085
 30
0.0
 10
15.0288683586
 20
58.9212255682
 30
0.0
 10
14.5805515258
 20
58.2309017873
 30
0.0
 10
14.1287466752
 20
57.4290417899
 30
0.0
 10
13.8431188642
 20
56.8477273824
 30
0.0
 10
13.6991951399
 20
56.5376141252
 30
0.0
  0
SPLINE
  5
25D
100
AcDbEntity
  8
0
100
AcDbSpline
 62
7
  6
BYLAYER
 70
0
 71
3
 72
23
 73
19
 74
0
 42
0.0000001
 43
0.0000001
 44
0.0000000001
 40
0.0
 40
0.0
 40
0.0
 40
0.0
 40
0.0558296087
 40
0.11418294
 40
0.1747835664
 40
0.2373535156
 40
0.3015497079
 40
0.3669933065
 40
0.4332837898
 40
0.5000016867
 40
0.5667195711
 40
0.6330097886
 40
0.6984536091
 40
0.7626488998
 40
0.8252186654
 40
0.8858220974
 40
0.9441625648
 40
1.0
 40
1.0
 40
1.0
 40
1.0
 10
31.6543055124
 20
51.0703498865
 30
0.0
 10
31.4411191694
 20
50.9472674286
 30
0.0
 10
30.9940077766
 20
50.7144025074
 30
0.0
 10
30.2845112686
 20
50.4118395589
 30
0.0
 10
29.5272131205
 20
50.1508074594
 30
0.0
 10
28.7294948249
 20
49.933792836
 30
0.0
 10
27.8988869111
 20
49.7627938657
 30
0.0
 10
27.0433265354
 20
49.6394763702
 30
0.0
 10
26.1709956206
 20
49.565028642
 30
0.0
 10
25.2902364711
 20
49.5401259209
 30
0.0
 10
24.4094777212
 20
49.5650262891
 30
0.0
 10
23.5371500035
 20
49.6395086572
 30
0.0
 10
22.6815942224
 20
49.7628234955
 30
0.0
 10
21.8509882658
 20
49.9338164669
 30
0.0
 10
21.0532719551
 20
50.1508691786
 30
0.0
 10
20.2960218104
 20
50.4118969649
 30
0.0
 10
19.5865197501
 20
50.7144246654
 30
0.0
 10
19.1394474939
 20
50.9473178084
 30
0.0
 10
18.9262330633
 20
51.0704206347
 30
0.0
  0
SPLINE
  5
25E
100
AcDbEntity
  8
0
100
AcDbSpline
 62
7
  6
BYLAYER
 70
0
 71
3
 72
12
 73
8
 74
0
 42
0.0000001
 43
0.0000001
 44
0.0000000001
 40
0.0
 40
0.0
 40
0.0
 40
0.0
 40
0.2359053548
 40
0.480141844
 40
0.6059504969
 40
0.7344642466
 40
1.0
 40
1.0
 40
1.0
 40
1.0
 10
21.7040718215
 20
44.6263269011
 30
0.0
 10
21.2998240778
 20
44.7249645148
 30
0.0
 10
20.4826452367
 20
44.9497438246
 30
0.0
 10
19.4727026508
 20
45.3025133809
 30
0.0
 10
18.6595102263
 20
45.6377669987
 30
0.0
 10
17.8255194581
 20
46.0193379798
 30
0.0
 10
17.2106963152
 20
46.3453951176
 30
0.0
 10
16.8050719395
 20
46.5795771622
 30
0.0
  0
SPLINE
  5
25F
100
AcDbEntity
  8
0
100
AcDbSpline
 62
7
  6
BYLAYER
 70
0
 71
3
 72
13
 73
9
 74
0
 42
0.0000001
 43
0.0000001
 44
0.0000000001
 40
0.0
 40
0.0
 40
0.0
 40
0.0
 40
0.1277130851
 40
0.254682184
 40
0.3808516675
 40
0.5062128281
 40
0.7545510597
 40
1.0
 40
1.0
 40
1.0
 40
1.0
 10
28.3961947857
 20
44.7864797141
 30
0.0
 10
28.1138841119
 20
44.7428059979
 30
0.0
 10
27.5493416837
 20
44.6654956767
 30
0.0
 10
26.7016391811
 20
44.5795055747
 30
0.0
 10
25.8567224551
 20
44.5231014113
 30
0.0
 10
24.7390755157
 20
44.4855308907
 30
0.0
 10
23.3534259685
 20
44.5035258491
 30
0.0
 10
22.2509155493
 20
44.5774838861
 30
0.0
 10
21.7040718215
 20
44.6263269011
 30
0.0
  0
SPLINE
  5
260
100
AcDbEntity
  8
0
100
AcDbSpline
 62
7
  6
BYLAYER
 70
0
 71
3
 72
11
 73
7
 74
0
 42
0.0000001
 43
0.0000001
 44
0.0000000001
 40
0.0
 40
0.0
 40
0.0
 40
0.0
 40
0.2381644744
 40
0.4852570595
 40
0.7397461291
 40
1.0
 40
1.0
 40
1.0
 40
1.0
 10
16.8050719395
 20
46.5795771622
 30
0.0
 10
16.3820743557
 20
46.8237894062
 30
0.0
 10
15.5386213363
 20
47.3537781026
 30
0.0
 10
14.3086450845
 20
48.243289167
 30
0.0
 10
13.0928843206
 20
49.2255557154
 30
0.0
 10
12.3006927554
 20
49.9237068925
 30
0.0
 10
11.9060720576
 20
50.2830767295
 30
0.0
  0
SPLINE
  5
261
100
AcDbEntity
  8
0
100
AcDbSpline
 62
7
  6
BYLAYER
 70
0
 71
3
 72
11
 73
7
 74
0
 42
0.0000001
 43
0.0000001
 44
0.0000000001
 40
0.0
 40
0.0
 40
0.0
 40
0.0
 40
0.25169685
 40
0.5026626495
 40
0.7523296886
 40
1.0
 40
1.0
 40
1.0
 40
1.0
 10
21.7040718215
 20
46.1420872633
 30
0.0
 10
22.2475452821
 20
46.358780923
 30
0.0
 10
23.3413486781
 20
46.7709155823
 30
0.0
 10
25.0063327753
 20
47.3085232043
 30
0.0
 10
26.6906142009
 20
47.7474197012
 30
0.0
 10
27.8272417992
 20
47.9644718418
 30
0.0
 10
28.3961947857
 20
48.0524893826
 30
0.0
  0
SPLINE
  5
262
100
AcDbEntity
  8
0
100
AcDbSpline
 62
7
  6
BYLAYER
 70
0
 71
3
 72
11
 73
7
 74
0
 42
0.0000001
 43
0.0000001
 44
0.0000000001
 40
0.0
 40
0.0
 40
0.0
 40
0.0
 40
0.2381644744
 40
0.4852570595
 40
0.7397461291
 40
1.0
 40
1.0
 40
1.0
 40
1.0
 10
16.8050719395
 20
49.8455868307
 30
0.0
 10
17.2280695234
 20
49.6013745866
 30
0.0
 10
18.0715225428
 20
49.0713858903
 30
0.0
 10
19.3014987946
 20
48.1818748258
 30
0.0
 10
20.5172595585
 20
47.1996082774
 30
0.0
 10
21.3094511237
 20
46.5014571004
 30
0.0
 10
21.7040718215
 20
46.1420872633
 30
0.0
  0
SPLINE
  5
263
100
AcDbEntity
  8
0
100
AcDbSpline
 62
7
  6
BYLAYER
 70
0
 71
3
 72
12
 73
8
 74
0
 42
0.0000001
 43
0.0000001
 44
0.0000000001
 40
0.0
 40
0.0
 40
0.0
 40
0.0
 40
0.2359053548
 40
0.480141844
 40
0.6059504969
 40
0.7344642466
 40
1.0
 40
1.0
 40
1.0
 40
1.0
 10
11.9060720576
 20
51.7988370917
 30
0.0
 10
12.3103198013
 20
51.7001994781
 30
0.0
 10
13.1274986424
 20
51.4754201682
 30
0.0
 10
14.1374412282
 20
51.1226506119
 30
0.0
 10
14.9506336527
 20
50.7873969942
 30
0.0
 10
15.784624421
 20
50.405826013
 30
0.0
 10
16.3994475639
 20
50.0797688753
 30
0.0
 10
16.8050719395
 20
49.8455868307
 30
0.0
  0
SPLINE
  5
264
100
AcDbEntity
  8
0
100
AcDbSpline
 62
7
  6
BYLAYER
 70
0
 71
3
 72
22
 73
18
 74
0
 42
0.0000001
 43
0.0000001
 44
0.0000000001
 40
0.0
 40
0.0
 40
0.0
 40
0.0
 40
0.151403476
 40
0.2226209091
 40
0.2908574778
 40
0.3562407577
 40
0.4189772069
 40
0.4793677947
 40
0.537799751
 40
0.5947493066
 40
0.650761369
 40
0.7064313324
 40
0.7623723261
 40
0.8191820575
 40
0.8774144002
 40
0.9375529167
 40
1.0
 40
1.0
 40
1.0
 40
1.0
 10
18.9262330633
 20
51.0704206347
 30
0.0
 10
18.6228604328
 20
51.2455777672
 30
0.0
 10
18.1915549104
 20
51.5312495673
 30
0.0
 10
17.6763419256
 20
51.9650537763
 30
0.0
 10
17.3396330797
 20
52.2994438752
 30
0.0
 10
17.0466793205
 20
52.6475448214
 30
0.0
 10
16.7992210367
 20
53.0076213731
 30
0.0
 10
16.5986373801
 20
53.3776741709
 30
0.0
 10
16.4462916486
 20
53.7557544594
 30
0.0
 10
16.3430746389
 20
54.1396896124
 30
0.0
 10
16.2898423106
 20
54.5272817902
 30
0.0
 10
16.2868544871
 20
54.9161881803
 30
0.0
 10
16.3342705716
 20
55.3040483649
 30
0.0
 10
16.4316002232
 20
55.6885435491
 30
0.0
 10
16.5782885046
 20
56.0674076445
 30
0.0
 10
16.7732129944
 20
56.4385117439
 30
0.0
 10
16.9314147587
 20
56.6746222621
 30
0.0
 10
17.0175137762
 20
56.7906528549
 30
0.0
  0
SPLINE
  5
265
100
AcDbEntity
  8
0
100
AcDbSpline
 62
7
  6
BYLAYER
 70
0
 71
3
 72
11
 73
7
 74
0
 42
0.0000001
 43
0.0000001
 44
0.0000000001
 40
0.0
 40
0.0
 40
0.0
 40
0.0
 40
0.2657245992
 40
0.5225190472
 40
0.7679342133
 40
1.0
 40
1.0
 40
1.0
 40
1.0
 10
28.3961947857
 20
48.0524893826
 30
0.0
 10
28.8951417469
 20
48.1296769281
 30
0.0
 10
29.8708657573
 20
48.3197243829
 30
0.0
 10
31.276581886
 20
48.7173634269
 30
0.0
 10
32.5812485723
 20
49.2170362761
 30
0.0
 10
33.3937777772
 20
49.6251637487
 30
0.0
 10
33.7756346879
 20
49.8456276229
 30
0.0
  0
SPLINE
  5
266
100
AcDbEntity
  8
0
100
AcDbSpline
 62
7
  6
BYLAYER
 70
0
 71
3
 72
15
 73
11
 74
0
 42
0.0000001
 43
0.0000001
 44
0.0000000001
 40
0.0
 40
0.0
 40
0.0
 40
0.0
 40
0.1108404742
 40
0.2280569066
 40
0.3507083478
 40
0.4776249447
 40
0.6074729148
 40
0.7388125607
 40
0.8701521652
 40
1.0
 40
1.0
 40
1.0
 40
1.0
 10
16.8050719395
 20
49.8455868307
 30
0.0
 10
17.1869317869
 20
49.6251249325
 30
0.0
 10
17.9994698819
 20
49.2170001563
 30
0.0
 10
19.30412506
 20
48.7173361547
 30
0.0
 10
20.7099213574
 20
48.3196952327
 30
0.0
 10
22.1930231462
 20
48.030817397
 30
0.0
 10
23.7284854639
 20
47.8555128678
 30
0.0
 10
25.2903852115
 20
47.7967532314
 30
0.0
 10
26.852182507
 20
47.8555104461
 30
0.0
 10
27.8857231596
 20
47.9735189611
 30
0.0
 10
28.3961947857
 20
48.0524893826
 30
0.0
  0
SPLINE
  5
267
100
AcDbEntity
  8
0
100
AcDbSpline
 62
7
  6
BYLAYER
 70
0
 71
3
 72
15
 73
11
 74
0
 42
0.0000001
 43
0.0000001
 44
0.0000000001
 40
0.0
 40
0.0
 40
0.0
 40
0.0
 40
0.1289739449
 40
0.2552350989
 40
0.3794647031
 40
0.5024840026
 40
0.6251801157
 40
0.7484367134
 40
0.8731069845
 40
1.0
 40
1.0
 40
1.0
 40
1.0
 10
13.6991951399
 20
56.5376141252
 30
0.0
 10
13.6379601039
 20
56.4056706489
 30
0.0
 10
13.5285419389
 20
56.1388779308
 30
0.0
 10
13.4046830773
 20
55.7285324903
 30
0.0
 10
13.3237393216
 20
55.3143802489
 30
0.0
 10
13.2860436333
 20
54.8981039922
 30
0.0
 10
13.291776824
 20
54.4812553287
 30
0.0
 10
13.3408699831
 20
54.0653951653
 30
0.0
 10
13.4331158918
 20
53.6521464607
 30
0.0
 10
13.5222160975
 20
53.3822269436
 30
0.0
 10
13.5734038959
 20
53.2485805648
 30
0.0
  0
SPLINE
  5
268
100
AcDbEntity
  8
0
100
AcDbSpline
 62
7
  6
BYLAYER
 70
0
 71
3
 72
15
 73
11
 74
0
 42
0.0000001
 43
0.0000001
 44
0.0000000001
 40
0.0
 40
0.0
 40
0.0
 40
0.0
 40
0.1090615971
 40
0.2218117116
 40
0.3388606658
 40
0.4606684372
 40
0.5875501561
 40
0.7197113708
 40
0.8572396303
 40
1.0
 40
1.0
 40
1.0
 40
1.0
 10
13.5734038959
 20
53.2485805648
 30
0.0
 10
13.6355798187
 20
53.0862452586
 30
0.0
 10
13.7810160182
 20
52.7630741201
 30
0.0
 10
14.0539636981
 20
52.2959750247
 30
0.0
 10
14.3834449617
 20
51.8415706171
 30
0.0
 10
14.7676463494
 20
51.4021518827
 30
0.0
 10
15.2046036323
 20
50.9798168755
 30
0.0
 10
15.6921318035
 20
50.5765691324
 30
0.0
 10
16.22771986
 20
50.1944905467
 30
0.0
 10
16.6080085052
 20
49.9593588837
 30
0.0
 10
16.8050719395
 20
49.8455868307
 30
0.0
  0
SPLINE
  5
269
100
AcDbEntity
  8
0
100
AcDbSpline
 62
7
  6
BYLAYER
 70
0
 71
3
 72
14
 73
10
 74
0
 42
0.0000001
 43
0.0000001
 44
0.0000000001
 40
0.0
 40
0.0
 40
0.0
 40
0.0
 40
0.1414112691
 40
0.278066298
 40
0.4098282509
 40
0.536740263
 40
0.6589500342
 40
0.776705965
 40
1.0
 40
1.0
 40
1.0
 40
1.0
 10
16.8050012843
 20
59.6434057314
 30
0.0
 10
16.6230099231
 20
59.5383335972
 30
0.0
 10
16.2708122983
 20
59.3216816785
 30
0.0
 10
15.7719719007
 20
58.9716278881
 30
0.0
 10
15.3136959167
 20
58.6033164275
 30
0.0
 10
14.8980116337
 20
58.2184597427
 30
0.0
 10
14.5266165257
 20
57.818443018
 30
0.0
 10
14.1004288981
 20
57.277272028
 30
0.0
 10
13.8388856645
 20
56.8386060833
 30
0.0
 10
13.6991951399
 20
56.5376141252
 30
0.0
  0
SPLINE
  5
26A
100
AcDbEntity
  8
0
100
AcDbSpline
 62
7
  6
BYLAYER
 70
0
 71
3
 72
23
 73
19
 74
0
 42
0.0000001
 43
0.0000001
 44
0.0000000001
 40
0.0
 40
0.0
 40
0.0
 40
0.0
 40
0.0583030167
 40
0.1152944982
 40
0.1713525301
 40
0.2269324753
 40
0.2825149268
 40
0.3385704183
 40
0.3955491388
 40
0.4538654478
 40
0.5138862358
 40
0.5759184159
 40
0.6402096804
 40
0.706939583
 40
0.7762344392
 40
0.8481756931
 40
0.9227892487
 40
1.0
 40
1.0
 40
1.0
 40
1.0
 10
36.8814408323
 20
52.9514192291
 30
0.0
 10
36.9482429042
 20
53.0953580287
 30
0.0
 10
37.0663624905
 20
53.386778219
 30
0.0
 10
37.1953592014
 20
53.8358609709
 30
0.0
 10
37.2730050126
 20
54.289186052
 30
0.0
 10
37.298941442
 20
54.7445520586
 30
0.0
 10
37.2729758619
 20
55.1999115631
 30
0.0
 10
37.1953504514
 20
55.6531935827
 30
0.0
 10
37.0663586925
 20
56.1023118319
 30
0.0
 10
36.8867742126
 20
56.5452984812
 30
0.0
 10
36.6573942084
 20
56.9802019737
 30
0.0
 10
36.3793853228
 20
57.4052290396
 30
0.0
 10
36.0539382267
 20
57.818541418
 30
0.0
 10
35.6825912114
 20
58.2184898024
 30
0.0
 10
35.2668836615
 20
58.6033748153
 30
0.0
 10
34.8086025576
 20
58.971673059
 30
0.0
 10
34.3097575284
 20
59.3217243504
 30
0.0
 10
33.9575573408
 20
59.5383750152
 30
0.0
 10
33.7755640327
 20
59.6434465236
 30
0.0
  0
SPLINE
  5
26B
100
AcDbEntity
  8
0
100
AcDbSpline
 62
7
  6
BYLAYER
 70
0
 71
3
 72
14
 73
10
 74
0
 42
0.0000001
 43
0.0000001
 44
0.0000000001
 40
0.0
 40
0.0
 40
0.0
 40
0.0
 40
0.1414112691
 40
0.278066298
 40
0.4098282509
 40
0.536740263
 40
0.6589500342
 40
0.776705965
 40
1.0
 40
1.0
 40
1.0
 40
1.0
 10
33.7756346879
 20
49.8456276229
 30
0.0
 10
33.9576260491
 20
49.9506997571
 30
0.0
 10
34.3098236739
 20
50.1673516758
 30
0.0
 10
34.8086640715
 20
50.5174054662
 30
0.0
 10
35.2669400555
 20
50.8857169268
 30
0.0
 10
35.6826243385
 20
51.2705736116
 30
0.0
 10
36.0540194465
 20
51.6705903363
 30
0.0
 10
36.4802070741
 20
52.2117613263
 30
0.0
 10
36.7417503077
 20
52.650427271
 30
0.0
 10
36.8814408323
 20
52.9514192291
 30
0.0
  0
SPLINE
  5
26C
100
AcDbEntity
  8
0
100
AcDbSpline
 62
7
  6
BYLAYER
 70
0
 71
3
 72
13
 73
9
 74
0
 42
0.0000001
 43
0.0000001
 44
0.0000000001
 40
0.0
 40
0.0
 40
0.0
 40
0.0
 40
0.1277130851
 40
0.254682184
 40
0.3808516675
 40
0.5062128281
 40
0.7545510597
 40
1.0
 40
1.0
 40
1.0
 40
1.0
 10
28.3961947857
 20
48.0524893826
 30
0.0
 10
28.6785054595
 20
48.0961630988
 30
0.0
 10
29.2430478877
 20
48.1734734201
 30
0.0
 10
30.0907503903
 20
48.259463522
 30
0.0
 10
30.9356671163
 20
48.3158676854
 30
0.0
 10
32.0533140557
 20
48.353438206
 30
0.0
 10
33.4389636029
 20
48.3354432477
 30
0.0
 10
34.5414740221
 20
48.2614852106
 30
0.0
 10
35.08831775
 20
48.2126421956
 30
0.0
  0
SPLINE
  5
26D
100
AcDbEntity
  8
0
100
AcDbSpline
 62
7
  6
BYLAYER
 70
0
 71
3
 72
11
 73
7
 74
0
 42
0.0000001
 43
0.0000001
 44
0.0000000001
 40
0.0
 40
0.0
 40
0.0
 40
0.0
 40
0.2727720738
 40
0.5326331127
 40
0.7761317916
 40
1.0
 40
1.0
 40
1.0
 40
1.0
 10
35.08831775
 20
48.2126421956
 30
0.0
 10
35.2312678995
 20
48.6508429964
 30
0.0
 10
35.5170054783
 20
49.5043799204
 30
0.0
 10
35.9598468788
 20
50.7389963892
 30
0.0
 10
36.4073165544
 20
51.8837009889
 30
0.0
 10
36.7221906165
 20
52.6082818944
 30
0.0
 10
36.8814408323
 20
52.9514192291
 30
0.0
  0
SPLINE
  5
26E
100
AcDbEntity
  8
0
100
AcDbSpline
 62
7
  6
BYLAYER
 70
0
 71
3
 72
11
 73
7
 74
0
 42
0.0000001
 43
0.0000001
 44
0.0000000001
 40
0.0
 40
0.0
 40
0.0
 40
0.0
 40
0.2936016986
 40
0.5559374547
 40
0.7899377057
 40
1.0
 40
1.0
 40
1.0
 40
1.0
 10
36.8814408323
 20
52.9514192291
 30
0.0
 10
37.0253646209
 20
53.2615326251
 30
0.0
 10
37.3109925384
 20
53.8428471987
 30
0.0
 10
37.7627974796
 20
54.6447073406
 30
0.0
 10
38.2111140388
 20
55.3350311338
 30
0.0
 10
38.5213115026
 20
55.7493007479
 30
0.0
 10
38.6745639146
 20
55.9399469563
 30
0.0
  0
SPLINE
  5
26F
100
AcDbEntity
  8
0
100
AcDbSpline
 62
7
  6
BYLAYER
 70
0
 71
3
 72
26
 73
22
 74
0
 42
0.0000001
 43
0.0000001
 44
0.0000000001
 40
0.0
 40
0.0
 40
0.0
 40
0.0
 40
0.0213310729
 40
0.0428906361
 40
0.0648949885
 40
0.0875385636
 40
0.1353114128
 40
0.1607338007
 40
0.1872577634
 40
0.2436927635
 40
0.3046374491
 40
0.3697215458
 40
0.4383150265
 40
0.5095978542
 40
0.5826188495
 40
0.6563473441
 40
0.729719707
 40
0.8016934871
 40
0.8712799058
 40
0.9376234253
 40
1.0
 40
1.0
 40
1.0
 40
1.0
 10
33.4902903932
 20
60.4600336409
 30
0.0
 10
33.4902904262
 20
60.5763611253
 30
0.0
 10
33.4753094885
 20
60.8105354145
 30
0.0
 10
33.4079961375
 20
61.158862731
 30
0.0
 10
33.296396048
 20
61.5031857398
 30
0.0
 10
33.085879295
 20
61.9621569294
 30
0.0
 10
32.789724864
 20
62.3980117243
 30
0.0
 10
32.425112034
 20
62.8020404125
 30
0.0
 10
31.9926167418
 20
63.2059056807
 30
0.0
 10
31.3564910317
 20
63.6706728004
 30
0.0
 10
30.4802605711
 20
64.1472319225
 30
0.0
 10
29.4938377832
 20
64.5446298859
 30
0.0
 10
28.4181228951
 20
64.8546492716
 30
0.0
 10
27.2757985505
 20
65.0708546935
 30
0.0
 10
26.09114464
 20
65.188663497
 30
0.0
 10
24.889413079
 20
65.2055622193
 30
0.0
 10
23.6962254757
 20
65.1212204984
 30
0.0
 10
22.5370676271
 20
64.9373915228
 30
0.0
 10
21.4364393331
 20
64.6580280782
 30
0.0
 10
20.4179915221
 20
64.2889711165
 30
0.0
 10
19.786611251
 20
63.9776901231
 30
0.0
 10
19.4920182399
 20
63.8076077841
 30
0.0
  0
SPLINE
  5
270
100
AcDbEntity
  8
0
100
AcDbSpline
 62
7
  6
BYLAYER
 70
0
 71
3
 72
26
 73
22
 74
0
 42
0.0000001
 43
0.0000001
 44
0.0000000001
 40
0.0
 40
0.0
 40
0.0
 40
0.0
 40
0.0623760196
 40
0.1287184444
 40
0.198304287
 40
0.2702785553
 40
0.3436519814
 40
0.4173804554
 40
0.4904017301
 40
0.561685085
 40
0.6302791634
 40
0.6953638038
 40
0.7563088614
 40
0.8127439705
 40
0.8392678549
 40
0.8646901204
 40
0.912462548
 40
0.9351058824
 40
0.9571099593
 40
0.9786692246
 40
1.0
 40
1.0
 40
1.0
 40
1.0
 10
31.0886177323
 20
16.2873385535
 30
0.0
 10
30.7940271381
 20
16.1172576099
 30
0.0
 10
30.162655343
 20
15.8059787126
 30
0.0
 10
29.1442185174
 20
15.4369251628
 30
0.0
 10
28.0435972109
 20
15.1575571605
 30
0.0
 10
26.8844331824
 20
14.9737276539
 30
0.0
 10
25.6912368005
 20
14.889380289
 30
0.0
 10
24.4894971088
 20
14.9062789497
 30
0.0
 10
23.3048379652
 20
15.0240864695
 30
0.0
 10
22.1625051646
 20
15.2402931296
 30
0.0
 10
21.0867809565
 20
15.5503159538
 30
0.0
 10
20.1003502852
 20
15.9477186031
 30
0.0
 10
19.2241155433
 20
16.4242830418
 30
0.0
 10
18.5879891328
 20
16.8890541294
 30
0.0
 10
18.1554969072
 20
17.2929225443
 30
0.0
 10
17.7908883389
 20
17.6969510451
 30
0.0
 10
17.4947397124
 20
18.1328049149
 30
0.0
 10
17.2842267509
 20
18.5917725941
 30
0.0
 10
17.172630683
 20
18.9360925263
 30
0.0
 10
17.1053198618
 20
19.2844156284
 30
0.0
 10
17.0903388539
 20
19.5185867973
 30
0.0
 10
17.090338997
 20
19.6349127406
 30
0.0
  0
SPLINE
  5
271
100
AcDbEntity
  8
0
100
AcDbSpline
 62
7
  6
BYLAYER
 70
0
 71
3
 72
23
 73
19
 74
0
 42
0.0000001
 43
0.0000001
 44
0.0000000001
 40
0.0
 40
0.0
 40
0.0
 40
0.0
 40
0.0589555405
 40
0.1212070677
 40
0.1862403973
 40
0.2535319224
 40
0.3224477727
 40
0.3922957958
 40
0.4623614944
 40
0.5319220799
 40
0.6002673056
 40
0.6667281432
 40
0.7307009778
 40
0.7916688237
 40
0.8492405523
 40
0.8766831007
 40
0.9032045068
 40
1.0
 40
1.0
 40
1.0
 40
1.0
 10
29.1794214744
 20
6.3668059595
 30
0.0
 10
29.0130019972
 20
6.270724203
 30
0.0
 10
28.6597148379
 20
6.0920820157
 30
0.0
 10
28.0936643082
 20
5.8706585641
 30
0.0
 10
27.4845070722
 20
5.6914607545
 30
0.0
 10
26.841784884
 20
5.5572098194
 30
0.0
 10
26.1752387719
 20
5.4698292595
 30
0.0
 10
25.4950916096
 20
5.4307684279
 30
0.0
 10
24.8118002035
 20
5.440603775
 30
0.0
 10
24.1358513174
 20
5.4991212713
 30
0.0
 10
23.4776338785
 20
5.6055161736
 30
0.0
 10
22.8472416521
 20
5.7581074468
 30
0.0
 10
22.2542934038
 20
5.9545546991
 30
0.0
 10
21.7078904685
 20
6.1919831251
 30
0.0
 10
21.291701001
 20
6.4245728804
 30
0.0
 10
20.9905826706
 20
6.6288195636
 30
0.0
 10
20.6015470648
 20
6.9285040177
 30
0.0
 10
20.3183243416
 20
7.2255076773
 30
0.0
 10
20.1455380761
 20
7.4894906312
 30
0.0
  0
SPLINE
  5
272
100
AcDbEntity
  8
0
100
AcDbSpline
 62
7
  6
BYLAYER
 70
0
 71
3
 72
9
 73
5
 74
0
 42
0.0000001
 43
0.0000001
 44
0.0000000001
 40
0.0
 40
0.0
 40
0.0
 40
0.0
 40
0.492277687
 40
1.0
 40
1.0
 40
1.0
 40
1.0
 10
25.79034079
 20
14.431425447
 30
0.0
 10
25.79034079
 20
14.4735171549
 30
0.0
 10
25.7734909053
 20
14.5598546496
 30
0.0
 10
25.7256094634
 20
14.6332199907
 30
0.0
 10
25.6963081786
 20
14.6652521809
 30
0.0
  0
SPLINE
  5
273
100
AcDbEntity
  8
0
100
AcDbSpline
 62
7
  6
BYLAYER
 70
0
 71
3
 72
13
 73
9
 74
0
 42
0.0000001
 43
0.0000001
 44
0.0000000001
 40
0.0
 40
0.0
 40
0.0
 40
0.0
 40
0.2408285266
 40
0.3691328692
 40
0.4999288957
 40
0.6307313765
 40
0.7590587763
 40
1.0
 40
1.0
 40
1.0
 40
1.0
 10
25.6702556458
 20
14.6912739552
 30
0.0
 10
25.6216151891
 20
14.7357317024
 30
0.0
 10
25.5304874382
 20
14.7868704534
 30
0.0
 10
25.3976207143
 20
14.8206268367
 30
0.0
 10
25.2907590992
 20
14.8294696732
 30
0.0
 10
25.1838805032
 20
14.820761303
 30
0.0
 10
25.0509309844
 20
14.7871742616
 30
0.0
 10
24.9596966304
 20
14.7361559429
 30
0.0
 10
24.9109592184
 20
14.6917587017
 30
0.0
  0
SPLINE
  5
274
100
AcDbEntity
  8
0
100
AcDbSpline
 62
7
  6
BYLAYER
 70
0
 71
3
 72
9
 73
5
 74
0
 42
0.0000001
 43
0.0000001
 44
0.0000000001
 40
0.0
 40
0.0
 40
0.0
 40
0.0
 40
0.5077679342
 40
1.0
 40
1.0
 40
1.0
 40
1.0
 10
24.8843150122
 20
14.6651837274
 30
0.0
 10
24.8550297033
 20
14.6331513718
 30
0.0
 10
24.8071707302
 20
14.5598070981
 30
0.0
 10
24.79034079
 20
14.4734967357
 30
0.0
 10
24.79034079
 20
14.4314230433
 30
0.0
  0
SPLINE
  5
275
100
AcDbEntity
  8
0
100
AcDbSpline
 62
7
  6
BYLAYER
 70
0
 71
3
 72
9
 73
5
 74
0
 42
0.0000001
 43
0.0000001
 44
0.0000000001
 40
0.0
 40
0.0
 40
0.0
 40
0.0
 40
0.2462678825
 40
1.0
 40
1.0
 40
1.0
 40
1.0
 10
24.8250092906
 20
14.5575624556
 30
0.0
 10
24.8287099551
 20
14.5498730323
 30
0.0
 10
24.8448289865
 20
14.5191816676
 30
0.0
 10
24.8651741388
 20
14.4907506579
 30
0.0
 10
24.882284294
 20
14.4710175415
 30
0.0
  0
SPLINE
  5
276
100
AcDbEntity
  8
0
100
AcDbSpline
 62
7
  6
BYLAYER
 70
0
 71
3
 72
9
 73
5
 74
0
 42
0.0000001
 43
0.0000001
 44
0.0000000001
 40
0.0
 40
0.0
 40
0.0
 40
0.0
 40
0.2545089904
 40
1.0
 40
1.0
 40
1.0
 40
1.0
 10
25.6983946596
 20
14.4710210571
 30
0.0
 10
25.7041834587
 20
14.4776973644
 30
0.0
 10
25.7260960227
 20
14.5046347081
 30
0.0
 10
25.7445489734
 20
14.534425824
 30
0.0
 10
25.7557598957
 20
14.5577551243
 30
0.0
  0
SPLINE
  5
277
100
AcDbEntity
  8
0
100
AcDbSpline
 62
7
  6
BYLAYER
 70
0
 71
3
 72
15
 73
11
 74
0
 42
0.0000001
 43
0.0000001
 44
0.0000000001
 40
0.0
 40
0.0
 40
0.0
 40
0.0
 40
0.1485549138
 40
0.2895090008
 40
0.4227326381
 40
0.5486407048
 40
0.6680017825
 40
0.7819397698
 40
0.891987469
 40
1.0
 40
1.0
 40
1.0
 40
1.0
 10
19.4920182399
 20
63.8076077841
 30
0.0
 10
19.3071185112
 20
63.7008565132
 30
0.0
 10
18.9551618362
 20
63.4777293947
 30
0.0
 10
18.47391921
 20
63.1053218745
 30
0.0
 10
18.0576864577
 20
62.706889737
 30
0.0
 10
17.7106377393
 20
62.2861977846
 30
0.0
 10
17.4362317656
 20
61.8469699134
 30
0.0
 10
17.2376290779
 20
61.3931226687
 30
0.0
 10
17.1172685642
 20
60.9293002352
 30
0.0
 10
17.090345623
 20
60.6152694358
 30
0.0
 10
17.090345579
 20
60.4600335532
 30
0.0
  0
SPLINE
  5
278
100
AcDbEntity
  8
0
100
AcDbSpline
 62
7
  6
BYLAYER
 70
0
 71
3
 72
14
 73
10
 74
0
 42
0.0000001
 43
0.0000001
 44
0.0000000001
 40
0.0
 40
0.0
 40
0.0
 40
0.0
 40
0.113541855
 40
0.2283496544
 40
0.3456208732
 40
0.4664292874
 40
0.591677345
 40
0.7220676909
 40
1.0
 40
1.0
 40
1.0
 40
1.0
 10
34.2902949253
 20
26.9834344947
 30
0.0
 10
34.290294765
 20
26.8531089504
 30
0.0
 10
34.2731546286
 20
26.5906874353
 30
0.0
 10
34.1961560677
 20
26.2004791737
 30
0.0
 10
34.0685547423
 20
25.8149776218
 30
0.0
 10
33.8911469689
 20
25.4365579847
 30
0.0
 10
33.6651121333
 20
25.0673014914
 30
0.0
 10
33.2931717775
 20
24.579729446
 30
0.0
 10
32.9560682939
 20
24.24956532
 30
0.0
 10
32.7119862312
 20
24.044150576
 30
0.0
  0
SPLINE
  5
279
100
AcDbEntity
  8
0
100
AcDbSpline
 62
7
  6
BYLAYER
 70
0
 71
3
 72
14
 73
10
 74
0
 42
0.0000001
 43
0.0000001
 44
0.0000000001
 40
0.0
 40
0.0
 40
0.0
 40
0.0
 40
0.2779332984
 40
0.4083309445
 40
0.533575373
 40
0.6543799173
 40
0.7716505243
 40
0.8864585269
 40
1.0
 40
1.0
 40
1.0
 40
1.0
 10
17.8686537495
 20
24.0441521636
 30
0.0
 10
17.6245822744
 20
24.2495815388
 30
0.0
 10
17.2874663249
 20
24.5797423715
 30
0.0
 10
16.9155046953
 20
25.0673068467
 30
0.0
 10
16.6894780264
 20
25.4365689824
 30
0.0
 10
16.5120834593
 20
25.8149843651
 30
0.0
 10
16.3844823816
 20
26.2004806963
 30
0.0
 10
16.3074802437
 20
26.5906876972
 30
0.0
 10
16.2903408866
 20
26.853109313
 30
0.0
 10
16.2903410469
 20
26.9834344947
 30
0.0
  0
SPLINE
  5
27A
100
AcDbEntity
  8
0
100
AcDbSpline
 62
7
  6
BYLAYER
 70
0
 71
3
 72
15
 73
11
 74
0
 42
0.0000001
 43
0.0000001
 44
0.0000000001
 40
0.0
 40
0.0
 40
0.0
 40
0.0
 40
0.1080118028
 40
0.2180606495
 40
0.3319995088
 40
0.4513602297
 40
0.5772675643
 40
0.7104907695
 40
0.8514450638
 40
1.0
 40
1.0
 40
1.0
 40
1.0
 10
33.4902969752
 20
19.6349127406
 30
0.0
 10
33.4902967842
 20
19.4796778175
 30
0.0
 10
33.4633712748
 20
19.1656463612
 30
0.0
 10
33.3430084941
 20
18.7018225705
 30
0.0
 10
33.1444062655
 20
18.2479721532
 30
0.0
 10
32.8699981664
 20
17.8087454919
 30
0.0
 10
32.5229497292
 20
17.388055903
 30
0.0
 10
32.1067176728
 20
16.9896245476
 30
0.0
 10
31.6254745291
 20
16.617217629
 30
0.0
 10
31.2735175925
 20
16.3940899004
 30
0.0
 10
31.0886177323
 20
16.2873385535
 30
0.0
  0
SPLINE
  5
27B
100
AcDbEntity
  8
0
100
AcDbSpline
 62
7
  6
BYLAYER
 70
0
 71
3
 72
11
 73
7
 74
0
 42
0.0000001
 43
0.0000001
 44
0.0000000001
 40
0.0
 40
0.0
 40
0.0
 40
0.0
 40
0.2625049124
 40
0.5145674189
 40
0.7592111992
 40
1.0
 40
1.0
 40
1.0
 40
1.0
 10
19.6778221014
 20
8.2039330388
 30
0.0
 10
19.6154220582
 20
8.2992368996
 30
0.0
 10
19.5043975026
 20
8.4938372444
 30
0.0
 10
19.3813760862
 20
8.8006452326
 30
0.0
 10
19.3069714106
 20
9.1131282033
 30
0.0
 10
19.2903384757
 20
9.3241414608
 30
0.0
 10
19.2903291925
 20
9.4286325268
 30
0.0
  0
SPLINE
  5
27C
100
AcDbEntity
  8
0
100
AcDbSpline
 62
7
  6
BYLAYER
 70
0
 71
3
 72
11
 73
7
 74
0
 42
0.0000001
 43
0.0000001
 44
0.0000000001
 40
0.0
 40
0.0
 40
0.0
 40
0.0
 40
0.2407888008
 40
0.4854325811
 40
0.7374950876
 40
1.0
 40
1.0
 40
1.0
 40
1.0
 10
31.2903067797
 20
14.3276470289
 30
0.0
 10
31.2902974965
 20
14.4321380949
 30
0.0
 10
31.2736645616
 20
14.6431513524
 30
0.0
 10
31.199259886
 20
14.9556343231
 30
0.0
 10
31.0762384696
 20
15.2624423113
 30
0.0
 10
30.965213914
 20
15.4570426561
 30
0.0
 10
30.9028138708
 20
15.5523465168
 30
0.0
  0
SPLINE
  5
27D
100
AcDbEntity
  8
0
100
AcDbSpline
 62
7
  6
BYLAYER
 70
0
 71
3
 72
11
 73
7
 74
0
 42
0.0000001
 43
0.0000001
 44
0.0000000001
 40
0.0
 40
0.0
 40
0.0
 40
0.0
 40
0.2407830478
 40
0.4854253993
 40
0.7374885305
 40
1.0
 40
1.0
 40
1.0
 40
1.0
 10
31.2903067797
 20
9.4286325261
 30
0.0
 10
31.2903160628
 20
9.3241436397
 30
0.0
 10
31.2736631384
 20
9.1131317725
 30
0.0
 10
31.1992603548
 20
8.8006538894
 30
0.0
 10
31.0762498156
 20
8.493834048
 30
0.0
 10
30.9651900526
 20
8.2992512903
 30
0.0
 10
30.9028023155
 20
8.2039355594
 30
0.0
  0
SPLINE
  5
27E
100
AcDbEntity
  8
0
100
AcDbSpline
 62
7
  6
BYLAYER
 70
0
 71
3
 72
11
 73
7
 74
0
 42
0.0000001
 43
0.0000001
 44
0.0000000001
 40
0.0
 40
0.0
 40
0.0
 40
0.0
 40
0.2625114695
 40
0.5145746007
 40
0.7592169522
 40
1.0
 40
1.0
 40
1.0
 40
1.0
 10
19.6778336567
 20
15.5523439963
 30
0.0
 10
19.6154459196
 20
15.4570282654
 30
0.0
 10
19.5043861566
 20
15.2624455076
 30
0.0
 10
19.3813756174
 20
14.9556256663
 30
0.0
 10
19.3069728338
 20
14.6431477832
 30
0.0
 10
19.2903199094
 20
14.432135916
 30
0.0
 10
19.2903291925
 20
14.3276470296
 30
0.0
  0
SPLINE
  5
27F
100
AcDbEntity
  8
0
100
AcDbSpline
 62
7
  6
BYLAYER
 70
0
 71
3
 72
15
 73
11
 74
0
 42
0.0000001
 43
0.0000001
 44
0.0000000001
 40
0.0
 40
0.0
 40
0.0
 40
0.0
 40
0.1080118028
 40
0.2180606495
 40
0.3319995088
 40
0.4513602297
 40
0.5772675643
 40
0.7104907695
 40
0.8514450638
 40
1.0
 40
1.0
 40
1.0
 40
1.0
 10
33.4902969752
 20
54.7445166772
 30
0.0
 10
33.4902967842
 20
54.5892817541
 30
0.0
 10
33.4633712748
 20
54.2752502978
 30
0.0
 10
33.3430084941
 20
53.811426507
 30
0.0
 10
33.1444062655
 20
53.3575760897
 30
0.0
 10
32.8699981664
 20
52.9183494285
 30
0.0
 10
32.5229497292
 20
52.4976598396
 30
0.0
 10
32.1067176728
 20
52.0992284841
 30
0.0
 10
31.6254745291
 20
51.7268215656
 30
0.0
 10
31.2735175925
 20
51.5036938369
 30
0.0
 10
31.0886177323
 20
51.3969424901
 30
0.0
  0
SPLINE
  5
280
100
AcDbEntity
  8
0
100
AcDbSpline
 62
7
  6
BYLAYER
 70
0
 71
3
 72
21
 73
17
 74
0
 42
0.0000001
 43
0.0000001
 44
0.0000000001
 40
0.0
 40
0.0
 40
0.0
 40
0.0
 40
0.0572998909
 40
0.1175301474
 40
0.1802903506
 40
0.2451842548
 40
0.3793328945
 40
0.5157374288
 40
0.5833973513
 40
0.6499250312
 40
0.7147925395
 40
0.7775187105
 40
0.8376855224
 40
0.8949541545
 40
0.9490942001
 40
1.0
 40
1.0
 40
1.0
 40
1.0
 10
29.532976337
 20
6.9791879993
 30
0.0
 10
29.3698679156
 20
6.8850178705
 30
0.0
 10
29.0255184123
 20
6.7084759477
 30
0.0
 10
28.4761320388
 20
6.484652055
 30
0.0
 10
27.8868773553
 20
6.2977086212
 30
0.0
 10
27.0490413325
 20
6.0985929567
 30
0.0
 10
25.9520185511
 20
5.9569388003
 30
0.0
 10
24.8370829917
 20
5.95745171
 30
0.0
 10
23.9513849548
 20
6.044508771
 30
0.0
 10
23.305449437
 20
6.1519299467
 30
0.0
 10
22.6843284652
 20
6.3003399588
 30
0.0
 10
22.095715412
 20
6.4878591424
 30
0.0
 10
21.5469307385
 20
6.7121698123
 30
0.0
 10
21.0447729578
 20
6.970625345
 30
0.0
 10
20.5954833955
 20
7.2599439787
 30
0.0
 10
20.3265865106
 20
7.4780323485
 30
0.0
 10
20.203620507
 20
7.5915080127
 30
0.0
  0
SPLINE
  5
281
100
AcDbEntity
  8
0
100
AcDbSpline
 62
7
  6
BYLAYER
 70
0
 71
3
 72
9
 73
5
 74
0
 42
0.0000001
 43
0.0000001
 44
0.0000000001
 40
0.0
 40
0.0
 40
0.0
 40
0.0
 40
0.2609381942
 40
1.0
 40
1.0
 40
1.0
 40
1.0
 10
20.203620507
 20
7.5915080127
 30
0.0
 10
20.1519542577
 20
7.6391867352
 30
0.0
 10
19.9589478859
 20
7.8271541851
 30
0.0
 10
19.7868978331
 20
8.0373411935
 30
0.0
 10
19.6778221014
 20
8.2039330388
 30
0.0
  0
SPLINE
  5
282
100
AcDbEntity
  8
0
100
AcDbSpline
 62
7
  6
BYLAYER
 70
0
 71
3
 72
26
 73
22
 74
0
 42
0.0000001
 43
0.0000001
 44
0.0000000001
 40
0.0
 40
0.0
 40
0.0
 40
0.0
 40
0.0623760196
 40
0.1287184444
 40
0.198304287
 40
0.2702785553
 40
0.3436519814
 40
0.4173804554
 40
0.4904017301
 40
0.561685085
 40
0.6302791634
 40
0.6953638038
 40
0.7563088614
 40
0.8127439705
 40
0.8392678549
 40
0.8646901204
 40
0.912462548
 40
0.9351058824
 40
0.9571099593
 40
0.9786692246
 40
1.0
 40
1.0
 40
1.0
 40
1.0
 10
31.0886177323
 20
51.3969424901
 30
0.0
 10
30.7940271381
 20
51.2268615465
 30
0.0
 10
30.162655343
 20
50.9155826492
 30
0.0
 10
29.1442185174
 20
50.5465290994
 30
0.0
 10
28.0435972109
 20
50.2671610971
 30
0.0
 10
26.8844331824
 20
50.0833315905
 30
0.0
 10
25.6912368005
 20
49.9989842256
 30
0.0
 10
24.4894971088
 20
50.0158828863
 30
0.0
 10
23.3048379652
 20
50.1336904061
 30
0.0
 10
22.1625051646
 20
50.3498970662
 30
0.0
 10
21.0867809565
 20
50.6599198904
 30
0.0
 10
20.1003502852
 20
51.0573225397
 30
0.0
 10
19.2241155433
 20
51.5338869784
 30
0.0
 10
18.5879891328
 20
51.998658066
 30
0.0
 10
18.1554969072
 20
52.4025264809
 30
0.0
 10
17.7908883389
 20
52.8065549816
 30
0.0
 10
17.4947397124
 20
53.2424088514
 30
0.0
 10
17.2842267509
 20
53.7013765306
 30
0.0
 10
17.172630683
 20
54.0456964629
 30
0.0
 10
17.1053198618
 20
54.394019565
 30
0.0
 10
17.0903388539
 20
54.6281907339
 30
0.0
 10
17.090338997
 20
54.7445166771
 30
0.0
  0
SPLINE
  5
283
100
AcDbEntity
  8
0
100
AcDbSpline
 62
7
  6
BYLAYER
 70
0
 71
3
 72
15
 73
11
 74
0
 42
0.0000001
 43
0.0000001
 44
0.0000000001
 40
0.0
 40
0.0
 40
0.0
 40
0.0
 40
0.1485549138
 40
0.2895090008
 40
0.4227326381
 40
0.5486407048
 40
0.6680017825
 40
0.7819397698
 40
0.891987469
 40
1.0
 40
1.0
 40
1.0
 40
1.0
 10
31.0886177323
 20
57.11245941
 30
0.0
 10
31.2735174611
 20
57.2192106809
 30
0.0
 10
31.625474136
 20
57.4423377994
 30
0.0
 10
32.1067167622
 20
57.8147453196
 30
0.0
 10
32.5229495145
 20
58.2131774571
 30
0.0
 10
32.8699982329
 20
58.6338694095
 30
0.0
 10
33.1444042066
 20
59.0730972807
 30
0.0
 10
33.3430068944
 20
59.5269445254
 30
0.0
 10
33.463367408
 20
59.9907669589
 30
0.0
 10
33.4902903492
 20
60.3047977583
 30
0.0
 10
33.4902903932
 20
60.4600336409
 30
0.0
  0
SPLINE
  5
284
100
AcDbEntity
  8
0
100
AcDbSpline
 62
7
  6
BYLAYER
 70
0
 71
3
 72
23
 73
19
 74
0
 42
0.0000001
 43
0.0000001
 44
0.0000000001
 40
0.0
 40
0.0
 40
0.0
 40
0.0
 40
0.051828634
 40
0.1067788065
 40
0.1647089675
 40
0.2253638866
 40
0.2883981992
 40
0.3533981174
 40
0.4198933349
 40
0.4873768091
 40
0.555316324
 40
0.6231678754
 40
0.6903913059
 40
0.7564611858
 40
0.8208766678
 40
0.8831857546
 40
0.9430173472
 40
1.0
 40
1.0
 40
1.0
 40
1.0
 10
18.5283572372
 20
23.488919287
 30
0.0
 10
18.7031684206
 20
23.3417847143
 30
0.0
 10
19.0816120258
 20
23.0599532325
 30
0.0
 10
19.7060326578
 20
22.6872983072
 30
0.0
 10
20.3968730307
 20
22.3563417811
 30
0.0
 10
21.1458642484
 20
22.0709866377
 30
0.0
 10
21.9441600799
 20
21.8344761582
 30
0.0
 10
22.7823060349
 20
21.6496842504
 30
0.0
 10
23.6503298433
 20
21.5187441613
 30
0.0
 10
24.5378986115
 20
21.4432007687
 30
0.0
 10
25.4344385193
 20
21.4240236359
 30
0.0
 10
26.3292598948
 20
21.4613567271
 30
0.0
 10
27.2117023175
 20
21.5547969333
 30
0.0
 10
28.0712329425
 20
21.7032729843
 30
0.0
 10
28.8976288246
 20
21.904905375
 30
0.0
 10
29.6811755039
 20
22.1574334847
 30
0.0
 10
30.4123416277
 20
22.457871992
 30
0.0
 10
30.8710618831
 20
22.6937527122
 30
0.0
 10
31.0886177323
 20
22.8193578905
 30
0.0
  0
SPLINE
  5
285
100
AcDbEntity
  8
0
100
AcDbSpline
 62
7
  6
BYLAYER
 70
0
 71
3
 72
26
 73
22
 74
0
 42
0.0000001
 43
0.0000001
 44
0.0000000001
 40
0.0
 40
0.0
 40
0.0
 40
0.0
 40
0.0213310729
 40
0.0428906361
 40
0.0648949885
 40
0.0875385636
 40
0.1353114128
 40
0.1607338007
 40
0.1872577634
 40
0.2436927635
 40
0.3046374491
 40
0.3697215458
 40
0.4383150265
 40
0.5095978542
 40
0.5826188495
 40
0.6563473441
 40
0.729719707
 40
0.8016934871
 40
0.8712799058
 40
0.9376234253
 40
1.0
 40
1.0
 40
1.0
 40
1.0
 10
17.090345579
 20
60.4600335532
 30
0.0
 10
17.090345546
 20
60.3437060688
 30
0.0
 10
17.1053264837
 20
60.1095317796
 30
0.0
 10
17.1726398347
 20
59.7612044631
 30
0.0
 10
17.2842399242
 20
59.4168814543
 30
0.0
 10
17.4947566772
 20
58.9579102647
 30
0.0
 10
17.7909111082
 20
58.5220554698
 30
0.0
 10
18.1555239382
 20
58.1180267816
 30
0.0
 10
18.5880192304
 20
57.7141615134
 30
0.0
 10
19.2241449405
 20
57.2493943937
 30
0.0
 10
20.1003754011
 20
56.7728352716
 30
0.0
 10
21.086798189
 20
56.3754373082
 30
0.0
 10
22.1625130772
 20
56.0654179225
 30
0.0
 10
23.3048374217
 20
55.8492125006
 30
0.0
 10
24.4894913322
 20
55.7314036971
 30
0.0
 10
25.6912228932
 20
55.7145049748
 30
0.0
 10
26.8844104965
 20
55.7988466957
 30
0.0
 10
28.0435683451
 20
55.9826756713
 30
0.0
 10
29.1441966391
 20
56.2620391159
 30
0.0
 10
30.1626444501
 20
56.6310960776
 30
0.0
 10
30.7940247212
 20
56.942377071
 30
0.0
 10
31.0886177323
 20
57.11245941
 30
0.0
  0
SPLINE
  5
286
100
AcDbEntity
  8
0
100
AcDbSpline
 62
7
  6
BYLAYER
 70
0
 71
3
 72
23
 73
19
 74
0
 42
0.0000001
 43
0.0000001
 44
0.0000000001
 40
0.0
 40
0.0
 40
0.0
 40
0.0
 40
0.0569826528
 40
0.1168142454
 40
0.1791233322
 40
0.2435388142
 40
0.3096086941
 40
0.3768321246
 40
0.444683676
 40
0.5126231909
 40
0.5801066651
 40
0.6466018826
 40
0.7116018008
 40
0.7746361134
 40
0.8352910325
 40
0.8932211935
 40
0.948171366
 40
1.0
 40
1.0
 40
1.0
 40
1.0
 10
31.6543055124
 20
23.3092677041
 30
0.0
 10
31.4155247023
 20
23.171408362
 30
0.0
 10
30.9120512513
 20
22.9125148886
 30
0.0
 10
30.1095518471
 20
22.5827653074
 30
0.0
 10
29.2495615893
 20
22.3056003089
 30
0.0
 10
28.3425417188
 20
22.0842964655
 30
0.0
 10
27.3991544474
 20
21.9213349461
 30
0.0
 10
26.430620081
 20
21.8187786222
 30
0.0
 10
25.4484990591
 20
21.7778032782
 30
0.0
 10
24.4644918432
 20
21.7988513508
 30
0.0
 10
23.4903310001
 20
21.8817648305
 30
0.0
 10
22.5376219421
 20
22.0254795624
 30
0.0
 10
21.61770565
 20
22.228299949
 30
0.0
 10
20.7415272983
 20
22.4878846217
 30
0.0
 10
19.9194637667
 20
22.8010792913
 30
0.0
 10
19.1612243331
 20
23.1643242589
 30
0.0
 10
18.475884615
 20
23.5733357624
 30
0.0
 10
18.0605196825
 20
23.8826629984
 30
0.0
 10
17.8686537495
 20
24.0441521636
 30
0.0
  0
SPLINE
  5
287
100
AcDbEntity
  8
0
100
AcDbSpline
 62
7
  6
BYLAYER
 70
0
 71
3
 72
15
 73
11
 74
0
 42
0.0000001
 43
0.0000001
 44
0.0000000001
 40
0.0
 40
0.0
 40
0.0
 40
0.0
 40
0.1485422169
 40
0.2895065925
 40
0.4227365852
 40
0.5486414656
 40
0.6679983291
 40
0.7819398679
 40
0.8919885884
 40
1.0
 40
1.0
 40
1.0
 40
1.0
 10
29.532976337
 20
11.8782025021
 30
0.0
 10
29.6682572424
 20
11.9563065031
 30
0.0
 10
29.9257776963
 20
12.1195782803
 30
0.0
 10
30.2779218467
 20
12.3920591049
 30
0.0
 10
30.582484958
 20
12.6836112901
 30
0.0
 10
30.8364410829
 20
12.9914209454
 30
0.0
 10
31.0371865977
 20
13.31282429
 30
0.0
 10
31.182551454
 20
13.6448897171
 30
0.0
 10
31.270572666
 20
13.9842866536
 30
0.0
 10
31.290316871
 20
14.2140609885
 30
0.0
 10
31.2903067797
 20
14.3276470289
 30
0.0
  0
SPLINE
  5
288
100
AcDbEntity
  8
0
100
AcDbSpline
 62
7
  6
BYLAYER
 70
0
 71
3
 72
19
 73
15
 74
0
 42
0.0000001
 43
0.0000001
 44
0.0000000001
 40
0.0
 40
0.0
 40
0.0
 40
0.0
 40
0.0559780477
 40
0.1137005894
 40
0.1734773637
 40
0.2355243199
 40
0.365238443
 40
0.4999909663
 40
0.6347391933
 40
0.7644652777
 40
0.8265240618
 40
0.8863090101
 40
0.9440267836
 40
1.0
 40
1.0
 40
1.0
 40
1.0
 10
24.79034079
 20
14.4314230433
 30
0.0
 10
24.79034079
 20
14.4045306367
 30
0.0
 10
24.7971328337
 20
14.3497241215
 30
0.0
 10
24.8261119626
 20
14.2708842147
 30
0.0
 10
24.8730631137
 20
14.1977399719
 30
0.0
 10
24.957767206
 20
14.1106182291
 30
0.0
 10
25.0976549327
 20
14.0316539856
 30
0.0
 10
25.2903264865
 20
13.9990606904
 30
0.0
 10
25.483005652
 20
14.031643617
 30
0.0
 10
25.6229049117
 20
14.11060923
 30
0.0
 10
25.7076184222
 20
14.197743838
 30
0.0
 10
25.7545719061
 20
14.2708946511
 30
0.0
 10
25.7835565033
 20
14.3497324426
 30
0.0
 10
25.79034079
 20
14.4045353614
 30
0.0
 10
25.79034079
 20
14.431425447
 30
0.0
  0
SPLINE
  5
289
100
AcDbEntity
  8
0
100
AcDbSpline
 62
7
  6
BYLAYER
 70
0
 71
3
 72
15
 73
11
 74
0
 42
0.0000001
 43
0.0000001
 44
0.0000000001
 40
0.0
 40
0.0
 40
0.0
 40
0.0
 40
0.1080119537
 40
0.2180605635
 40
0.3320045986
 40
0.4513554287
 40
0.5772590366
 40
0.7104993881
 40
0.8514739062
 40
1.0
 40
1.0
 40
1.0
 40
1.0
 10
30.7903179862
 20
15.1441494464
 30
0.0
 10
30.7903190339
 20
15.040028444
 30
0.0
 10
30.7721979564
 20
14.8294060454
 30
0.0
 10
30.6915470713
 20
14.5182793846
 30
0.0
 10
30.5582589062
 20
14.2139058546
 30
0.0
 10
30.3742804172
 20
13.9192700012
 30
0.0
 10
30.1414690239
 20
13.6371200892
 30
0.0
 10
29.8622763782
 20
13.3698487082
 30
0.0
 10
29.5394641893
 20
13.1200850963
 30
0.0
 10
29.3034154423
 20
12.9704128199
 30
0.0
 10
29.1794214744
 20
12.8988252965
 30
0.0
  0
SPLINE
  5
28A
100
AcDbEntity
  8
0
100
AcDbSpline
 62
7
  6
BYLAYER
 70
0
 71
3
 72
25
 73
21
 74
0
 42
0.0000001
 43
0.0000001
 44
0.0000000001
 40
0.0
 40
0.0
 40
0.0
 40
0.0
 40
0.0623730635
 40
0.1287276196
 40
0.1983132297
 40
0.2702912068
 40
0.3436690239
 40
0.4174003911
 40
0.4904250401
 40
0.5617122542
 40
0.6303096623
 40
0.6953970774
 40
0.7563451545
 40
0.8127833063
 40
0.8646836757
 40
0.9124580464
 40
0.9351030586
 40
0.957107957
 40
0.9786682203
 40
1.0
 40
1.0
 40
1.0
 40
1.0
 10
29.1794214744
 20
12.8988252965
 30
0.0
 10
28.9818491807
 20
12.7847575604
 30
0.0
 10
28.5583491398
 20
12.5759889108
 30
0.0
 10
27.8752657909
 20
12.3284214426
 30
0.0
 10
27.1370203509
 20
12.1410494617
 30
0.0
 10
26.3595446356
 20
12.0177347718
 30
0.0
 10
25.5592268763
 20
11.9611715831
 30
0.0
 10
24.7531829723
 20
11.972521843
 30
0.0
 10
23.958595416
 20
12.0515291542
 30
0.0
 10
23.1923940738
 20
12.1965297779
 30
0.0
 10
22.4708675379
 20
12.4044826974
 30
0.0
 10
21.8092620735
 20
12.6710308193
 30
0.0
 10
21.2214731261
 20
12.9907052703
 30
0.0
 10
20.7197927239
 20
13.3572965861
 30
0.0
 10
20.314993438
 20
13.7637304204
 30
0.0
 10
20.0616144504
 20
14.1366283207
 30
0.0
 10
19.9203704009
 20
14.4444816695
 30
0.0
 10
19.8455228111
 20
14.6754277684
 30
0.0
 10
19.8004190333
 20
14.9090645693
 30
0.0
 10
19.790318771
 20
15.0661260632
 30
0.0
 10
19.790317986
 20
15.1441494464
 30
0.0
  0
SPLINE
  5
28B
100
AcDbEntity
  8
0
100
AcDbSpline
 62
7
  6
BYLAYER
 70
0
 71
3
 72
25
 73
21
 74
0
 42
0.0000001
 43
0.0000001
 44
0.0000000001
 40
0.0
 40
0.0
 40
0.0
 40
0.0
 40
0.0213319025
 40
0.0428919457
 40
0.0648973843
 40
0.0875416961
 40
0.1353167895
 40
0.1872174294
 40
0.2436545993
 40
0.304602289
 40
0.3696905114
 40
0.4382882868
 40
0.5095749344
 40
0.5825994469
 40
0.6563313808
 40
0.7297086177
 40
0.8016865587
 40
0.8712739706
 40
0.9376235182
 40
1.0
 40
1.0
 40
1.0
 40
1.0
 10
19.2903291925
 20
14.3276470296
 30
0.0
 10
19.2903367545
 20
14.2425300964
 30
0.0
 10
19.30132641
 20
14.0711906479
 30
0.0
 10
19.3505182901
 20
13.8163055954
 30
0.0
 10
19.4322231437
 20
13.5643851468
 30
0.0
 10
19.5862343089
 20
13.2285105364
 30
0.0
 10
19.8627071303
 20
12.8217404332
 30
0.0
 10
20.3043032129
 20
12.3783656998
 30
0.0
 10
20.851575677
 20
11.9784320363
 30
0.0
 10
21.492790279
 20
11.6296815698
 30
0.0
 10
22.2145518957
 20
11.3389149975
 30
0.0
 10
23.0016792619
 20
11.1120765508
 30
0.0
 10
23.8375311747
 20
10.9538822163
 30
0.0
 10
24.7043525605
 20
10.8676772487
 30
0.0
 10
25.5836735603
 20
10.8552994083
 30
0.0
 10
26.4567461133
 20
10.9170189423
 30
0.0
 10
27.3049074224
 20
11.0515385507
 30
0.0
 10
28.1102519585
 20
11.2559463709
 30
0.0
 10
28.8554425485
 20
11.5260000673
 30
0.0
 10
29.3174310488
 20
11.7537581148
 30
0.0
 10
29.532976337
 20
11.8782025021
 30
0.0
  0
ENDSEC
  0
SECTION
  2
OBJECTS
  0
DICTIONARY
  5
C
100
AcDbDictionary
280
0
281
1
  3
ACAD_GROUP
350
D
  3
ACAD_MLINESTYLE
350
17
  3
ACAD_LAYOUT
350
1A
  3
ACAD_PLOTSETTINGS
350
19
  3
ACAD_PLOTSTYLENAME
350
E
  0
DICTIONARY
  5
D
102
{ACAD_REACTORS
330
C
102
}
100
AcDbDictionary
280
0
281
1
  0
ACDBDICTIONARYWDFLT
  5
E
102
{ACAD_REACTORS
330
C
102
}
100
AcDbDictionary
281
1
  3
Normal
350
F
100
AcDbDictionaryWithDefault
340
F
  0
DICTIONARY
  5
17
102
{ACAD_REACTORS
330
C
102
}
100
AcDbDictionary
280
0
281
1
  3
Standard
350
18
  0
DICTIONARY
  5
19
102
{ACAD_REACTORS
330
C
102
}
100
AcDbDictionary
281
1
  0
DICTIONARY
  5
1A
102
{ACAD_REACTORS
330
C
102
}
100
AcDbDictionary
281
1
  3
Model
350
28C
  3
Layout1
350
28D
  0
ACDBPLACEHOLDER
  5
F
102
{ACAD_REACTORS
330
E
102
}
  0
MLINESTYLE
  5
18
102
{ACAD_REACTORS
330
17
102
}
100
AcDbMlineStyle
  2
STANDARD
 70
0
  3

 62
256
 51
90.0
 52
90.0
 71
2
 49
0.5
 62
256
  6
BYLAYER
 49
-0.5
 62
256
  6
BYLAYER
  0
LAYOUT
  5
28C
102
{ACAD_REACTORS
330
1A
102
}
100
AcDbPlotSettings
  1

  2
none_device
  4

  6

 40
0.0
 41
0.0
 42
0.0
 43
0.0
 44
210.0
 45
297.0
 46
0.0
 47
0.0
 48
0.0
 49
0.0
140
0.0
141
0.0
142
1.0
143
1.0
 70
1024
 72
1
 73
0
 74
0
  7

 75
0
147
1.0
148
0.0
149
0.0
100
AcDbLayout
  1
Model
 70
0
 71
0
 10
0.0
 20
0.0
 11
210.0
 21
297.0
 12
0.0
 22
0.0
 32
0.0
 14
0.0
 24
0.0
 34
0.0
 15
0.0
 25
0.0
 35
0.0
146
0.0
 13
0.0
 23
0.0
 33
0.0
 16
1.0
 26
0.0
 36
0.0
 17
0.0
 27
1.0
 37
0.0
 76
0
330
210
345
0
346
0
  0
LAYOUT
  5
28D
102
{ACAD_REACTORS
330
1A
102
}
100
AcDbPlotSettings
  1

  2
none_device
  4

  6

 40
0.0
 41
0.0
 42
0.0
 43
0.0
 44
210.0
 45
297.0
 46
0.0
 47
0.0
 48
0.0
 49
0.0
140
0.0
141
0.0
142
1.0
143
1.0
 70
0
 72
1
 73
0
 74
0
  7

 75
0
147
1.0
148
0.0
149
0.0
100
AcDbLayout
  1
Layout1
 70
0
 71
1
 10
0.0
 20
0.0
 11
210.0
 21
297.0
 12
0.0
 22
0.0
 32
0.0
 14
0.0
 24
0.0
 34
0.0
 15
0.0
 25
0.0
 35
0.0
146
0.0
 13
0.0
 23
0.0
 33
0.0
 16
1.0
 26
0.0
 36
0.0
 17
0.0
 27
1.0
 37
0.0
 76
0
330
211
345
0
346
0
  0
ENDSEC
  0
EOF
