999
DXF file: C:\Users\sesa63760\Dev\_Creo\CAD\MCADID0002109_3D-CAD\drw0001_2.dxf
999
Pro/ENGINEER 2019471 by Parametric Technology Corporation
  0
SECTION
  2
HEADER
  9
$ACADVER
  1
AC1024
  9
$DWGCODEPAGE
  3
ANSI_1252
  9
$EXTMAX
 10
37.9371763311
 20
53.6540065255
 30
0.0
  9
$EXTMIN
 10
0.0
 20
0.0
 30
0.0
  9
$LIMMIN
 10
0.0
 20
0.0
  9
$LIMMAX
 10
37.9371763311
 20
53.6540065255
  9
$VIEWCTR
 10
18.9685881656
 20
26.8270032627
  9
$VIEWSIZE
 40
53.6540065255
  9
$CLAYER
  8
0
  9
$LTSCALE
 40
3.4974463513
  9
$CELTYPE
  6
BYLAYER
  9
$DIMSCALE
 40
1.0
  9
$DIMASZ
 40
0.4516330516
  9
$DIMEXO
 40
1.0
  9
$DIMDLI
 40
2.4164174791
  9
$DIMEXE
 40
1.0
  9
$DIMCEN
 40
0.5723094029
  9
$DIMLFAC
 40
1.0
  9
$DIMBLK
  1
_FILLED
  9
$DIMALT
 70
0
  9
$DIMALTF
 40
0.0393700787
  9
$DIMTXT
 40
0.6322862722
  9
$DIMTOL
 70
1
  9
$DIMLIM
 70
0
  9
$DIMTFAC
 40
1.0
  9
$DIMTP
 40
0.01
  9
$DIMTM
 40
0.01
  9
$DIMGAP
 40
0.625
  9
$DIMDSEP
 70
46
  9
$AUNITS
 70
0
  9
$PDMODE
 70
3
  9
$PDSIZE
 40
0.3125
  9
$HANDSEED
  5
33C
  9
$TILEMODE
 70
1
  9
$MEASUREMENT
 70
1
  9
$INSUNITS
 70
4
  0
ENDSEC
  0
SECTION
  2
CLASSES
  0
CLASS
  1
ACDBDICTIONARYWDFLT
  2
AcDbDictionaryWithDefault
  3
AutoCAD 2000
 90
0
 91
1
280
0
281
0
  0
CLASS
  1
ACDBPLACEHOLDER
  2
AcDbPlaceHolder
  3
AutoCAD 2000
 90
0
 91
1
280
0
281
0
  0
CLASS
  1
LAYOUT
  2
AcDbLayout
  3
AutoCAD 2000
 90
0
 91
0
280
0
281
0
  0
ENDSEC
  0
SECTION
  2
TABLES
  0
TABLE
  2
VPORT
  5
8
100
AcDbSymbolTable
 70
2
  0
VPORT
  5
1F4
100
AcDbSymbolTableRecord
100
AcDbViewportTableRecord
  2
*ACTIVE
 70
0
 10
0.0
 20
0.0
 11
1.0
 21
1.0
 12
18.9685881656
 22
26.8270032627
 13
0.0
 23
0.0
 14
1.0
 24
1.0
 15
0.0
 25
0.0
 16
0.0
 26
0.0
 36
1.0
 17
0.0
 27
0.0
 37
0.0
 40
53.6540065255
 41
0.7070707071
 42
50.0
 43
0.0
 44
0.0
 50
0.0
 51
0.0
 71
0
 72
100
 73
1
 74
1
 75
0
 76
0
 77
0
 78
0
  0
ENDTAB
  0
TABLE
  2
LTYPE
  5
5
100
AcDbSymbolTable
 70
6
  0
LTYPE
  5
14
100
AcDbSymbolTableRecord
100
AcDbLinetypeTableRecord
  2
BYBLOCK
 70
0
  3

 72
65
 73
0
 40
0.0
  0
LTYPE
  5
15
100
AcDbSymbolTableRecord
100
AcDbLinetypeTableRecord
  2
BYLAYER
 70
0
  3

 72
65
 73
0
 40
0.0
  0
LTYPE
  5
16
100
AcDbSymbolTableRecord
100
AcDbLinetypeTableRecord
  2
CONTINUOUS
 70
64
  3
Solid line
 72
65
 73
0
 40
0.0
  0
LTYPE
  5
1F5
100
AcDbSymbolTableRecord
100
AcDbLinetypeTableRecord
  2
CENTER
 70
64
  3
____ _ ____ _ ____ _ ____ _ ____ _ ____ _ ____
 72
65
 73
4
 40
0.6
 49
0.375
 74
0
 49
-0.075
 74
0
 49
0.075
 74
0
 49
-0.075
 74
0
  0
LTYPE
  5
1F6
100
AcDbSymbolTableRecord
100
AcDbLinetypeTableRecord
  2
HIDDEN
 70
64
  3
- - - - - - - - - - - - - - - - - - - -
 72
65
 73
2
 40
0.2
 49
0.1
 74
0
 49
-0.1
 74
0
  0
LTYPE
  5
1F7
100
AcDbSymbolTableRecord
100
AcDbLinetypeTableRecord
  2
PHANTOM
 70
64
  3
_____ _ _ _____ _ _ _____ _ _ _____
 72
65
 73
6
 40
0.8
 49
0.45
 74
0
 49
-0.05
 74
0
 49
0.1
 74
0
 49
-0.05
 74
0
 49
0.1
 74
0
 49
-0.05
 74
0
  0
LTYPE
  5
1F8
100
AcDbSymbolTableRecord
100
AcDbLinetypeTableRecord
  2
DOT
 70
64
  3
. . . . . . . . . . . . . . . . . . . .
 72
65
 73
2
 40
0.2
 49
0.1
 74
0
 49
-0.1
 74
0
  0
LTYPE
  5
1F9
100
AcDbSymbolTableRecord
100
AcDbLinetypeTableRecord
  2
DASHED
 70
64
  3
- - - - - - - - - - - - - - - - - - - -
 72
65
 73
2
 40
0.2
 49
0.1
 74
0
 49
-0.1
 74
0
  0
ENDTAB
  0
TABLE
  2
LAYER
  5
2
100
AcDbSymbolTable
 70
36
  0
LAYER
  5
10
100
AcDbSymbolTableRecord
100
AcDbLayerTableRecord
  2
0
 70
0
 62
7
  6
CONTINUOUS
370
-3
390
F
  0
LAYER
  5
1FA
100
AcDbSymbolTableRecord
100
AcDbLayerTableRecord
  2
DEFAULT_1
 70
0
 62
7
  6
CENTER
370
-3
390
F
  0
LAYER
  5
1FB
100
AcDbSymbolTableRecord
100
AcDbLayerTableRecord
  2
DEFAULT_2
 70
0
 62
8
  6
HIDDEN
370
-3
390
F
  0
LAYER
  5
1FC
100
AcDbSymbolTableRecord
100
AcDbLayerTableRecord
  2
DEFAULT_3
 70
0
 62
7
  6
PHANTOM
370
-3
390
F
  0
LAYER
  5
1FD
100
AcDbSymbolTableRecord
100
AcDbLayerTableRecord
  2
00_COMPONENTS
 70
0
 62
7
  6
CONTINUOUS
370
-3
390
F
  0
LAYER
  5
1FE
100
AcDbSymbolTableRecord
100
AcDbLayerTableRecord
  2
01_1_DEFAULT_DATUMS
 70
0
 62
7
  6
CONTINUOUS
370
-3
390
F
  0
LAYER
  5
1FF
100
AcDbSymbolTableRecord
100
AcDbLayerTableRecord
  2
01_PLANES
 70
0
 62
7
  6
CONTINUOUS
370
-3
390
F
  0
LAYER
  5
200
100
AcDbSymbolTableRecord
100
AcDbLayerTableRecord
  2
02_COORD_SYS
 70
0
 62
7
  6
CONTINUOUS
370
-3
390
F
  0
LAYER
  5
201
100
AcDbSymbolTableRecord
100
AcDbLayerTableRecord
  2
03_AXES
 70
0
 62
7
  6
CONTINUOUS
370
-3
390
F
  0
LAYER
  5
202
100
AcDbSymbolTableRecord
100
AcDbLayerTableRecord
  2
04_POINTS
 70
0
 62
7
  6
CONTINUOUS
370
-3
390
F
  0
LAYER
  5
203
100
AcDbSymbolTableRecord
100
AcDbLayerTableRecord
  2
05_CURVES
 70
0
 62
7
  6
CONTINUOUS
370
-3
390
F
  0
LAYER
  5
204
100
AcDbSymbolTableRecord
100
AcDbLayerTableRecord
  2
06_SURFS
 70
0
 62
7
  6
CONTINUOUS
370
-3
390
F
  0
LAYER
  5
205
100
AcDbSymbolTableRecord
100
AcDbLayerTableRecord
  2
07_COSMETICS
 70
0
 62
7
  6
CONTINUOUS
370
-3
390
F
  0
LAYER
  5
206
100
AcDbSymbolTableRecord
100
AcDbLayerTableRecord
  2
10_NOTES
 70
0
 62
7
  6
CONTINUOUS
370
-3
390
F
  0
LAYER
  5
207
100
AcDbSymbolTableRecord
100
AcDbLayerTableRecord
  2
11_NOTES_PUB
 70
0
 62
7
  6
CONTINUOUS
370
-3
390
F
  0
LAYER
  5
208
100
AcDbSymbolTableRecord
100
AcDbLayerTableRecord
  2
13_REF_GTOL
 70
0
 62
7
  6
CONTINUOUS
370
-3
390
F
  0
LAYER
  5
209
100
AcDbSymbolTableRecord
100
AcDbLayerTableRecord
  2
16_MISC
 70
0
 62
7
  6
CONTINUOUS
370
-3
390
F
  0
LAYER
  5
20A
100
AcDbSymbolTableRecord
100
AcDbLayerTableRecord
  2
17_NO_PRINT
 70
0
 62
7
  6
CONTINUOUS
370
-3
390
F
  0
LAYER
  5
20B
100
AcDbSymbolTableRecord
100
AcDbLayerTableRecord
  2
18_DATUM_CAMS_JOINTS
 70
0
 62
7
  6
CONTINUOUS
370
-3
390
F
  0
LAYER
  5
20C
100
AcDbSymbolTableRecord
100
AcDbLayerTableRecord
  2
19_DATUM_FUNCTIONAL
 70
0
 62
7
  6
CONTINUOUS
370
-3
390
F
  0
LAYER
  5
20D
100
AcDbSymbolTableRecord
100
AcDbLayerTableRecord
  2
20_DATUM_KINEMATIC_SCHEME
 70
0
 62
7
  6
CONTINUOUS
370
-3
390
F
  0
ENDTAB
  0
TABLE
  2
STYLE
  5
3
100
AcDbSymbolTable
 70
1
  0
STYLE
  5
11
100
AcDbSymbolTableRecord
100
AcDbTextStyleTableRecord
  2
STANDARD
 70
0
 40
0.0
 41
0.8
 50
0.0
 71
0
 42
0.2
  3
txt
  4

  0
STYLE
  5
20E
100
AcDbSymbolTableRecord
100
AcDbTextStyleTableRecord
  2
TEXTSTYLE_1
 70
0
 40
0.0
 41
0.8
 50
0.0
 71
0
 42
0.2
  3
gdt
  4

  0
ENDTAB
  0
TABLE
  2
VIEW
  5
6
100
AcDbSymbolTable
 70
0
  0
ENDTAB
  0
TABLE
  2
UCS
  5
7
100
AcDbSymbolTable
 70
0
  0
ENDTAB
  0
TABLE
  2
APPID
  5
9
100
AcDbSymbolTable
 70
1
  0
APPID
  5
20F
100
AcDbSymbolTableRecord
100
AcDbRegAppTableRecord
  2
ACAD
 70
0
  0
ENDTAB
  0
TABLE
  2
BLOCK_RECORD
  5
1
100
AcDbSymbolTable
 70
0
  0
BLOCK_RECORD
  5
210
100
AcDbSymbolTableRecord
100
AcDbBlockTableRecord
  2
*Model_Space
  0
BLOCK_RECORD
  5
211
100
AcDbSymbolTableRecord
100
AcDbBlockTableRecord
  2
*Paper_Space
  0
BLOCK_RECORD
  5
212
100
AcDbSymbolTableRecord
100
AcDbBlockTableRecord
  2
_FILLED
  0
ENDTAB
  0
TABLE
  2
DIMSTYLE
  5
A
100
AcDbSymbolTable
 70
1
100
AcDbDimStyleTable
 71
0
  0
DIMSTYLE
105
213
100
AcDbSymbolTableRecord
100
AcDbDimStyleTableRecord
  2
STANDARD
 70
0
  3

  4

 40
1.0
 41
0.4516330516
 42
1.0
 43
0.38
 44
1.0
 45
0.0
 46
0.0
 47
0.01
 48
0.01
140
0.6322862722
141
0.09
142
0.0
143
25.4
144
1.0
145
0.0
146
1.0
147
0.625
 71
1
 72
0
 73
0
 74
0
 75
0
 76
0
 77
1
 78
8
 79
2
170
0
171
1
172
0
173
0
174
0
175
0
176
0
177
0
178
0
270
2
179
2
271
2
272
2
273
2
274
2
275
0
280
0
281
0
282
0
283
1
284
8
285
0
286
0
287
3
288
0
340
11
278
46
341
212
342
212
343
212
344
212
  0
ENDTAB
  0
ENDSEC
  0
SECTION
  2
BLOCKS
  0
BLOCK
  5
20
100
AcDbEntity
  8
0
100
AcDbBlockBegin
  2
*Model_Space
 70
0
 10
0.0
 20
0.0
 30
0.0
  3
*Model_Space
  1

  0
ENDBLK
  5
21
100
AcDbEntity
  8
0
100
AcDbBlockEnd
  0
BLOCK
  5
1C
100
AcDbEntity
  8
0
100
AcDbBlockBegin
  2
*Paper_Space
 70
0
 10
0.0
 20
0.0
 30
0.0
  3
*Paper_Space
  1

  0
ENDBLK
  5
1D
100
AcDbEntity
  8
0
100
AcDbBlockEnd
  0
BLOCK
  5
214
100
AcDbEntity
  8
0
100
AcDbBlockBegin
  2
_FILLED
 70
64
 10
0.0
 20
0.0
  3
_FILLED
  1

  0
SOLID
  5
215
100
AcDbEntity
  8
0
  6
BYBLOCK
 62
0
100
AcDbTrace
 10
0.0
 20
0.0
 11
-1.0
 21
0.25
 12
-1.0
 22
-0.25
 13
-1.0
 23
-0.25
  0
ENDBLK
  5
216
100
AcDbEntity
  8
0
  6
BYBLOCK
 62
0
100
AcDbBlockEnd
  0
ENDSEC
  0
SECTION
  2
ENTITIES
  0
LINE
  5
217
100
AcDbEntity
  8
0
100
AcDbLine
 62
7
  6
CONTINUOUS
 10
6.73127608
 20
3.5791228343
 11
11.73127608
 21
3.5791228343
  0
LINE
  5
218
100
AcDbEntity
  8
0
100
AcDbLine
 62
7
  6
CONTINUOUS
 10
4.56627608
 20
3.6778677553
 11
6.4340842323
 21
3.6778677553
  0
LINE
  5
219
100
AcDbEntity
  8
0
100
AcDbLine
 62
7
  6
CONTINUOUS
 10
31.39627608
 20
3.6778677553
 11
33.89627608
 21
3.6778677553
  0
LINE
  5
21A
100
AcDbEntity
  8
0
100
AcDbLine
 62
7
  6
CONTINUOUS
 10
9.8664414144
 20
5.2791228343
 11
6.73127608
 21
5.2791228343
  0
LINE
  5
21B
100
AcDbEntity
  8
0
100
AcDbLine
 62
7
  6
CONTINUOUS
 10
16.4472819921
 20
46.0709115251
 11
14.48127608
 21
45.1597212064
  0
LINE
  5
21C
100
AcDbEntity
  8
0
100
AcDbLine
 62
7
  6
CONTINUOUS
 10
4.58127608
 20
7.7791228343
 11
14.48127608
 21
7.7791228343
  0
LINE
  5
21D
100
AcDbEntity
  8
0
100
AcDbLine
 62
7
  6
CONTINUOUS
 10
23.98127608
 20
7.7791228343
 11
33.88127608
 21
7.7791228343
  0
LINE
  5
21E
100
AcDbEntity
  8
0
100
AcDbLine
 62
7
  6
CONTINUOUS
 10
12.18127608
 20
7.8877143592
 11
13.38127608
 21
7.8877143592
  0
LINE
  5
21F
100
AcDbEntity
  8
0
100
AcDbLine
 62
7
  6
CONTINUOUS
 10
31.58127608
 20
7.8877143592
 11
32.78127608
 21
7.8877143592
  0
LINE
  5
220
100
AcDbEntity
  8
0
100
AcDbLine
 62
7
  6
CONTINUOUS
 10
33.88127608
 20
8.0791228343
 11
34.18127608
 21
8.0791228343
  0
LINE
  5
221
100
AcDbEntity
  8
0
100
AcDbLine
 62
7
  6
CONTINUOUS
 10
4.56627608
 20
8.6791228343
 11
4.58127608
 21
8.6791228343
  0
LINE
  5
222
100
AcDbEntity
  8
0
100
AcDbLine
 62
7
  6
CONTINUOUS
 10
33.88127608
 20
8.8127076787
 11
32.78127608
 21
8.8127076787
  0
LINE
  5
223
100
AcDbEntity
  8
0
100
AcDbLine
 62
7
  6
CONTINUOUS
 10
25.73127608
 20
8.8127076787
 11
23.98127608
 21
8.8127076787
  0
LINE
  5
224
100
AcDbEntity
  8
0
100
AcDbLine
 62
7
  6
CONTINUOUS
 10
14.48127608
 20
8.8127076787
 11
13.38127608
 21
8.8127076787
  0
LINE
  5
225
100
AcDbEntity
  8
0
100
AcDbLine
 62
7
  6
CONTINUOUS
 10
6.33127608
 20
8.8127076787
 11
4.58127608
 21
8.8127076787
  0
LINE
  5
226
100
AcDbEntity
  8
0
100
AcDbLine
 62
7
  6
CONTINUOUS
 10
24.98127608
 20
9.0791228343
 11
23.98127608
 21
9.0791228343
  0
LINE
  5
227
100
AcDbEntity
  8
0
100
AcDbLine
 62
7
  6
CONTINUOUS
 10
5.58127608
 20
9.0791228343
 11
4.58127608
 21
9.0791228343
  0
LINE
  5
228
100
AcDbEntity
  8
0
100
AcDbLine
 62
7
  6
CONTINUOUS
 10
13.48127608
 20
9.0791228343
 11
14.48127608
 21
9.0791228343
  0
LINE
  5
229
100
AcDbEntity
  8
0
100
AcDbLine
 62
7
  6
CONTINUOUS
 10
32.88127608
 20
9.0791228343
 11
33.88127608
 21
9.0791228343
  0
LINE
  5
22A
100
AcDbEntity
  8
0
100
AcDbLine
 62
7
  6
CONTINUOUS
 10
32.78127608
 20
9.3791228343
 11
31.58127608
 21
9.3791228343
  0
LINE
  5
22B
100
AcDbEntity
  8
0
100
AcDbLine
 62
7
  6
CONTINUOUS
 10
13.38127608
 20
9.3791228343
 11
12.18127608
 21
9.3791228343
  0
LINE
  5
22C
100
AcDbEntity
  8
0
100
AcDbLine
 62
7
  6
CONTINUOUS
 10
31.58127608
 20
9.5008211165
 11
25.73127608
 21
9.5008211165
  0
LINE
  5
22D
100
AcDbEntity
  8
0
100
AcDbLine
 62
7
  6
CONTINUOUS
 10
12.18127608
 20
9.5008211165
 11
6.33127608
 21
9.5008211165
  0
LINE
  5
22E
100
AcDbEntity
  8
0
100
AcDbLine
 62
7
  6
CONTINUOUS
 10
13.48127608
 20
9.5791228343
 11
14.48127608
 21
9.5791228343
  0
LINE
  5
22F
100
AcDbEntity
  8
0
100
AcDbLine
 62
7
  6
CONTINUOUS
 10
32.88127608
 20
9.5791228343
 11
33.88127608
 21
9.5791228343
  0
LINE
  5
230
100
AcDbEntity
  8
0
100
AcDbLine
 62
7
  6
CONTINUOUS
 10
6.33127608
 20
9.9995260696
 11
12.18127608
 21
9.9995260696
  0
LINE
  5
231
100
AcDbEntity
  8
0
100
AcDbLine
 62
7
  6
CONTINUOUS
 10
25.73127608
 20
9.9995260696
 11
31.58127608
 21
9.9995260696
  0
LINE
  5
232
100
AcDbEntity
  8
0
100
AcDbLine
 62
7
  6
CONTINUOUS
 10
23.98127608
 20
10.0291228343
 11
14.48127608
 21
10.0291228343
  0
LINE
  5
233
100
AcDbEntity
  8
0
100
AcDbLine
 62
7
  6
CONTINUOUS
 10
4.58127608
 20
10.0291228343
 11
4.28127608
 21
10.0291228343
  0
LINE
  5
234
100
AcDbEntity
  8
0
100
AcDbLine
 62
7
  6
CONTINUOUS
 10
15.43127608
 20
10.2791228343
 11
23.03127608
 21
10.2791228343
  0
LINE
  5
235
100
AcDbEntity
  8
0
100
AcDbLine
 62
7
  6
CONTINUOUS
 10
4.28127608
 20
10.0291228343
 11
4.28127608
 21
42.7791228343
  0
LINE
  5
236
100
AcDbEntity
  8
0
100
AcDbLine
 62
7
  6
CONTINUOUS
 10
4.56627608
 20
3.6778677553
 11
4.56627608
 21
10.0291228343
  0
LINE
  5
237
100
AcDbEntity
  8
0
100
AcDbLine
 62
7
  6
CONTINUOUS
 10
4.58127608
 20
7.7791228343
 11
4.58127608
 21
45.7791228343
  0
LINE
  5
238
100
AcDbEntity
  8
0
100
AcDbLine
 62
7
  6
CONTINUOUS
 10
16.73127608
 20
11.2791228343
 11
21.73127608
 21
11.2791228343
  0
LINE
  5
239
100
AcDbEntity
  8
0
100
AcDbLine
 62
7
  6
CONTINUOUS
 10
31.58127608
 20
11.9995260696
 11
25.73127608
 21
11.9995260696
  0
LINE
  5
23A
100
AcDbEntity
  8
0
100
AcDbLine
 62
7
  6
CONTINUOUS
 10
12.18127608
 20
11.9995260696
 11
6.33127608
 21
11.9995260696
  0
LINE
  5
23B
100
AcDbEntity
  8
0
100
AcDbLine
 62
7
  6
CONTINUOUS
 10
4.93127608
 20
25.6291228343
 11
4.93127608
 21
27.9291228343
  0
LINE
  5
23C
100
AcDbEntity
  8
0
100
AcDbLine
 62
7
  6
CONTINUOUS
 10
5.53127608
 20
24.6791228343
 11
5.53127608
 21
25.6291228343
  0
LINE
  5
23D
100
AcDbEntity
  8
0
100
AcDbLine
 62
7
  6
CONTINUOUS
 10
5.53127608
 20
27.9291228343
 11
5.53127608
 21
28.8791228343
  0
LINE
  5
23E
100
AcDbEntity
  8
0
100
AcDbLine
 62
7
  6
CONTINUOUS
 10
5.58127608
 20
14.6791228343
 11
5.58127608
 21
9.0791228343
  0
LINE
  5
23F
100
AcDbEntity
  8
0
100
AcDbLine
 62
7
  6
CONTINUOUS
 10
5.63127608
 20
16.129485192
 11
5.63127608
 21
19.0908764856
  0
LINE
  5
240
100
AcDbEntity
  8
0
100
AcDbLine
 62
7
  6
CONTINUOUS
 10
6.23127608
 20
4.7791228343
 11
6.23127608
 21
4.0791228343
  0
LINE
  5
241
100
AcDbEntity
  8
0
100
AcDbLine
 62
7
  6
CONTINUOUS
 10
6.33127608
 20
45.7791228343
 11
6.33127608
 21
41.558719599
  0
LINE
  5
242
100
AcDbEntity
  8
0
100
AcDbLine
 62
7
  6
CONTINUOUS
 10
6.33127608
 20
11.9995260696
 11
6.33127608
 21
7.7791228343
  0
LINE
  5
243
100
AcDbEntity
  8
0
100
AcDbLine
 62
7
  6
CONTINUOUS
 10
4.58127608
 20
13.6291224812
 11
4.28127608
 21
13.6291224812
  0
LINE
  5
244
100
AcDbEntity
  8
0
100
AcDbLine
 62
7
  6
CONTINUOUS
 10
33.88127608
 20
13.6291224812
 11
34.18127608
 21
13.6291224812
  0
LINE
  5
245
100
AcDbEntity
  8
0
100
AcDbLine
 62
7
  6
CONTINUOUS
 10
4.58127608
 20
14.0791228343
 11
4.28127608
 21
14.0791228343
  0
LINE
  5
246
100
AcDbEntity
  8
0
100
AcDbLine
 62
7
  6
CONTINUOUS
 10
14.48127608
 20
14.0791228343
 11
15.43127608
 21
14.0791228343
  0
LINE
  5
247
100
AcDbEntity
  8
0
100
AcDbLine
 62
7
  6
CONTINUOUS
 10
16.73127608
 20
14.0791228343
 11
21.73127608
 21
14.0791228343
  0
LINE
  5
248
100
AcDbEntity
  8
0
100
AcDbLine
 62
7
  6
CONTINUOUS
 10
23.03127608
 20
14.0791228343
 11
23.98127608
 21
14.0791228343
  0
LINE
  5
249
100
AcDbEntity
  8
0
100
AcDbLine
 62
7
  6
CONTINUOUS
 10
33.88127608
 20
14.0791228343
 11
34.18127608
 21
14.0791228343
  0
LINE
  5
24A
100
AcDbEntity
  8
0
100
AcDbLine
 62
7
  6
CONTINUOUS
 10
7.0375415365
 20
35.9275368332
 11
7.0375415365
 21
38.5791228343
  0
LINE
  5
24B
100
AcDbEntity
  8
0
100
AcDbLine
 62
7
  6
CONTINUOUS
 10
7.06627608
 20
7.7791228343
 11
7.06627608
 21
5.2791228343
  0
LINE
  5
24C
100
AcDbEntity
  8
0
100
AcDbLine
 62
7
  6
CONTINUOUS
 10
24.98127608
 20
14.2791228343
 11
23.98127608
 21
14.2791228343
  0
LINE
  5
24D
100
AcDbEntity
  8
0
100
AcDbLine
 62
7
  6
CONTINUOUS
 10
5.58127608
 20
14.2791228343
 11
4.58127608
 21
14.2791228343
  0
LINE
  5
24E
100
AcDbEntity
  8
0
100
AcDbLine
 62
7
  6
CONTINUOUS
 10
13.48127608
 20
14.2791228343
 11
14.48127608
 21
14.2791228343
  0
LINE
  5
24F
100
AcDbEntity
  8
0
100
AcDbLine
 62
7
  6
CONTINUOUS
 10
32.88127608
 20
14.2791228343
 11
33.88127608
 21
14.2791228343
  0
LINE
  5
250
100
AcDbEntity
  8
0
100
AcDbLine
 62
7
  6
CONTINUOUS
 10
24.98127608
 20
14.6791228343
 11
23.98127608
 21
14.6791228343
  0
LINE
  5
251
100
AcDbEntity
  8
0
100
AcDbLine
 62
7
  6
CONTINUOUS
 10
5.58127608
 20
14.6791228343
 11
4.58127608
 21
14.6791228343
  0
LINE
  5
252
100
AcDbEntity
  8
0
100
AcDbLine
 62
7
  6
CONTINUOUS
 10
13.48127608
 20
14.6791228343
 11
14.48127608
 21
14.6791228343
  0
LINE
  5
253
100
AcDbEntity
  8
0
100
AcDbLine
 62
7
  6
CONTINUOUS
 10
32.88127608
 20
14.6791228343
 11
33.88127608
 21
14.6791228343
  0
LINE
  5
254
100
AcDbEntity
  8
0
100
AcDbLine
 62
7
  6
CONTINUOUS
 10
23.33127608
 20
16.0791228343
 11
21.20627608
 21
16.0791228343
  0
LINE
  5
255
100
AcDbEntity
  8
0
100
AcDbLine
 62
7
  6
CONTINUOUS
 10
17.25627608
 20
16.0791228343
 11
15.13127608
 21
16.0791228343
  0
LINE
  5
256
100
AcDbEntity
  8
0
100
AcDbLine
 62
7
  6
CONTINUOUS
 10
4.58127608
 20
16.0791228343
 11
4.28127608
 21
16.0791228343
  0
LINE
  5
257
100
AcDbEntity
  8
0
100
AcDbLine
 62
7
  6
CONTINUOUS
 10
33.88127608
 20
16.0791228343
 11
34.18127608
 21
16.0791228343
  0
LINE
  5
258
100
AcDbEntity
  8
0
100
AcDbLine
 62
7
  6
CONTINUOUS
 10
31.58127608
 20
16.129485192
 11
25.03127608
 21
16.129485192
  0
LINE
  5
259
100
AcDbEntity
  8
0
100
AcDbLine
 62
7
  6
CONTINUOUS
 10
12.18127608
 20
16.129485192
 11
5.63127608
 21
16.129485192
  0
LINE
  5
25A
100
AcDbEntity
  8
0
100
AcDbLine
 62
7
  6
CONTINUOUS
 10
32.83127608
 20
16.2791228343
 11
31.58127608
 21
16.2791228343
  0
LINE
  5
25B
100
AcDbEntity
  8
0
100
AcDbLine
 62
7
  6
CONTINUOUS
 10
13.43127608
 20
16.2791228343
 11
12.18127608
 21
16.2791228343
  0
LINE
  5
25C
100
AcDbEntity
  8
0
100
AcDbLine
 62
7
  6
CONTINUOUS
 10
34.18127608
 20
16.3791228343
 11
33.88127608
 21
16.3791228343
  0
LINE
  5
25D
100
AcDbEntity
  8
0
100
AcDbLine
 62
7
  6
CONTINUOUS
 10
23.98127608
 20
16.3791228343
 11
22.4639173189
 21
16.3791228343
  0
LINE
  5
25E
100
AcDbEntity
  8
0
100
AcDbLine
 62
7
  6
CONTINUOUS
 10
15.9986420582
 20
16.3791228343
 11
14.48127608
 21
16.3791228343
  0
LINE
  5
25F
100
AcDbEntity
  8
0
100
AcDbLine
 62
7
  6
CONTINUOUS
 10
4.58127608
 20
16.3791228343
 11
4.28127608
 21
16.3791228343
  0
LINE
  5
260
100
AcDbEntity
  8
0
100
AcDbLine
 62
7
  6
CONTINUOUS
 10
14.48127608
 20
33.38983712
 11
15.23127608
 21
33.9791228343
  0
LINE
  5
261
100
AcDbEntity
  8
0
100
AcDbLine
 62
7
  6
CONTINUOUS
 10
21.20627608
 20
18.0791228343
 11
17.25627608
 21
18.0791228343
  0
LINE
  5
262
100
AcDbEntity
  8
0
100
AcDbLine
 62
7
  6
CONTINUOUS
 10
5.63127608
 20
19.0908764856
 11
6.8686620804
 21
19.0908764856
  0
LINE
  5
263
100
AcDbEntity
  8
0
100
AcDbLine
 62
7
  6
CONTINUOUS
 10
12.18127608
 20
19.0908764856
 11
13.43127608
 21
19.0908764856
  0
LINE
  5
264
100
AcDbEntity
  8
0
100
AcDbLine
 62
7
  6
CONTINUOUS
 10
25.03127608
 20
19.0908764856
 11
26.2686620804
 21
19.0908764856
  0
LINE
  5
265
100
AcDbEntity
  8
0
100
AcDbLine
 62
7
  6
CONTINUOUS
 10
31.58127608
 20
19.0908764856
 11
32.83127608
 21
19.0908764856
  0
LINE
  5
266
100
AcDbEntity
  8
0
100
AcDbLine
 62
7
  6
CONTINUOUS
 10
15.13127608
 20
19.3791228343
 11
14.48127608
 21
19.8291228343
  0
LINE
  5
267
100
AcDbEntity
  8
0
100
AcDbLine
 62
7
  6
CONTINUOUS
 10
12.18127608
 20
37.0787160827
 11
12.18127608
 21
31.5327957977
  0
LINE
  5
268
100
AcDbEntity
  8
0
100
AcDbLine
 62
7
  6
CONTINUOUS
 10
12.18127608
 20
22.0327957977
 11
12.18127608
 21
19.0908764856
  0
LINE
  5
269
100
AcDbEntity
  8
0
100
AcDbLine
 62
7
  6
CONTINUOUS
 10
12.18127608
 20
16.2791228343
 11
12.18127608
 21
16.129485192
  0
LINE
  5
26A
100
AcDbEntity
  8
0
100
AcDbLine
 62
7
  6
CONTINUOUS
 10
12.18127608
 20
7.8877143592
 11
12.18127608
 21
11.9995260696
  0
LINE
  5
26B
100
AcDbEntity
  8
0
100
AcDbLine
 62
7
  6
CONTINUOUS
 10
12.23127608
 20
4.0791228343
 11
12.23127608
 21
5.9200952206
  0
LINE
  5
26C
100
AcDbEntity
  8
0
100
AcDbLine
 62
7
  6
CONTINUOUS
 10
12.48627608
 20
46.0778677553
 11
12.48627608
 21
45.7791228343
  0
LINE
  5
26D
100
AcDbEntity
  8
0
100
AcDbLine
 62
7
  6
CONTINUOUS
 10
13.38127608
 20
38.5791228343
 11
13.38127608
 21
37.0787160827
  0
LINE
  5
26E
100
AcDbEntity
  8
0
100
AcDbLine
 62
7
  6
CONTINUOUS
 10
13.38127608
 20
31.5327957977
 11
13.38127608
 21
31.1958322488
  0
LINE
  5
26F
100
AcDbEntity
  8
0
100
AcDbLine
 62
7
  6
CONTINUOUS
 10
13.38127608
 20
22.3697593466
 11
13.38127608
 21
22.0327957977
  0
LINE
  5
270
100
AcDbEntity
  8
0
100
AcDbLine
 62
7
  6
CONTINUOUS
 10
13.38127608
 20
7.7791228343
 11
13.38127608
 21
9.3791228343
  0
LINE
  5
271
100
AcDbEntity
  8
0
100
AcDbLine
 62
7
  6
CONTINUOUS
 10
13.38127608
 20
41.558719599
 11
13.38127608
 21
45.7791228343
  0
LINE
  5
272
100
AcDbEntity
  8
0
100
AcDbLine
 62
7
  6
CONTINUOUS
 10
13.43127608
 20
19.0908764856
 11
13.43127608
 21
16.2791228343
  0
LINE
  5
273
100
AcDbEntity
  8
0
100
AcDbLine
 62
7
  6
CONTINUOUS
 10
13.48127608
 20
14.6791228343
 11
13.48127608
 21
9.0791228343
  0
LINE
  5
274
100
AcDbEntity
  8
0
100
AcDbLine
 62
7
  6
CONTINUOUS
 10
13.53127608
 20
28.8791228343
 11
13.53127608
 21
27.9291228343
  0
LINE
  5
275
100
AcDbEntity
  8
0
100
AcDbLine
 62
7
  6
CONTINUOUS
 10
13.53127608
 20
25.6291228343
 11
13.53127608
 21
24.6791228343
  0
LINE
  5
276
100
AcDbEntity
  8
0
100
AcDbLine
 62
7
  6
CONTINUOUS
 10
15.7446551125
 20
47.0384525178
 11
15.6248369256
 21
45.6897305848
  0
LINE
  5
277
100
AcDbEntity
  8
0
100
AcDbLine
 62
7
  6
CONTINUOUS
 10
10.44377608
 20
7.7791228343
 11
10.1641247775
 21
5.5419124139
  0
LINE
  5
278
100
AcDbEntity
  8
0
100
AcDbLine
 62
7
  6
CONTINUOUS
 10
13.98127608
 20
27.9291228343
 11
13.98127608
 21
25.6291228343
  0
LINE
  5
279
100
AcDbEntity
  8
0
100
AcDbLine
 62
7
  6
CONTINUOUS
 10
14.48127608
 20
45.7791228343
 11
14.48127608
 21
7.7791228343
  0
LINE
  5
27A
100
AcDbEntity
  8
0
100
AcDbLine
 62
7
  6
CONTINUOUS
 10
14.98627608
 20
45.3937749842
 11
14.98627608
 21
46.8778677553
  0
LINE
  5
27B
100
AcDbEntity
  8
0
100
AcDbLine
 62
7
  6
CONTINUOUS
 10
15.13127608
 20
16.0791228343
 11
15.13127608
 21
19.3791228343
  0
LINE
  5
27C
100
AcDbEntity
  8
0
100
AcDbLine
 62
7
  6
CONTINUOUS
 10
15.23127608
 20
33.9791228343
 11
15.23127608
 21
37.0791228343
  0
LINE
  5
27D
100
AcDbEntity
  8
0
100
AcDbLine
 62
7
  6
CONTINUOUS
 10
15.43127608
 20
14.0791228343
 11
15.43127608
 21
10.2791228343
  0
LINE
  5
27E
100
AcDbEntity
  8
0
100
AcDbLine
 62
7
  6
CONTINUOUS
 10
14.48127608
 20
21.8791228343
 11
16.3131459669
 21
21.8791228343
  0
LINE
  5
27F
100
AcDbEntity
  8
0
100
AcDbLine
 62
7
  6
CONTINUOUS
 10
21.4494061931
 20
21.8791228343
 11
23.98127608
 21
21.8791228343
  0
LINE
  5
280
100
AcDbEntity
  8
0
100
AcDbLine
 62
7
  6
CONTINUOUS
 10
32.78127608
 20
22.0327957977
 11
31.58127608
 21
22.0327957977
  0
LINE
  5
281
100
AcDbEntity
  8
0
100
AcDbLine
 62
7
  6
CONTINUOUS
 10
13.38127608
 20
22.0327957977
 11
12.18127608
 21
22.0327957977
  0
LINE
  5
282
100
AcDbEntity
  8
0
100
AcDbLine
 62
7
  6
CONTINUOUS
 10
4.28127608
 20
22.1382326043
 11
4.58127608
 21
22.1382326043
  0
LINE
  5
283
100
AcDbEntity
  8
0
100
AcDbLine
 62
7
  6
CONTINUOUS
 10
33.88127608
 20
22.1382326043
 11
34.18127608
 21
22.1382326043
  0
LINE
  5
284
100
AcDbEntity
  8
0
100
AcDbLine
 62
7
  6
CONTINUOUS
 10
9.6794402522
 20
22.3697593466
 11
13.38127608
 21
22.3697593466
  0
LINE
  5
285
100
AcDbEntity
  8
0
100
AcDbLine
 62
7
  6
CONTINUOUS
 10
29.0794402522
 20
22.3697593466
 11
32.78127608
 21
22.3697593466
  0
LINE
  5
286
100
AcDbEntity
  8
0
100
AcDbLine
 62
7
  6
CONTINUOUS
 10
4.58127608
 20
22.7791228343
 11
14.48127608
 21
22.7791228343
  0
LINE
  5
287
100
AcDbEntity
  8
0
100
AcDbLine
 62
7
  6
CONTINUOUS
 10
23.98127608
 20
22.7791228343
 11
33.88127608
 21
22.7791228343
  0
LINE
  5
288
100
AcDbEntity
  8
0
100
AcDbLine
 62
7
  6
CONTINUOUS
 10
34.18127608
 20
22.930682262
 11
33.88127608
 21
22.930682262
  0
LINE
  5
289
100
AcDbEntity
  8
0
100
AcDbLine
 62
7
  6
CONTINUOUS
 10
4.58127608
 20
22.930682262
 11
4.28127608
 21
22.930682262
  0
LINE
  5
28A
100
AcDbEntity
  8
0
100
AcDbLine
 62
7
  6
CONTINUOUS
 10
16.23127608
 20
45.0973245172
 11
16.23127608
 21
44.663204073
  0
LINE
  5
28B
100
AcDbEntity
  8
0
100
AcDbLine
 62
7
  6
CONTINUOUS
 10
16.3131459669
 20
21.8791228343
 11
16.3131459669
 21
31.2791228343
  0
LINE
  5
28C
100
AcDbEntity
  8
0
100
AcDbLine
 62
7
  6
CONTINUOUS
 10
16.58127608
 20
36.9457689205
 11
16.58127608
 21
37.0791228343
  0
LINE
  5
28D
100
AcDbEntity
  8
0
100
AcDbLine
 62
7
  6
CONTINUOUS
 10
16.73127608
 20
10.2791228343
 11
16.73127608
 21
14.0791228343
  0
LINE
  5
28E
100
AcDbEntity
  8
0
100
AcDbLine
 62
7
  6
CONTINUOUS
 10
16.73127608
 20
37.0791228343
 11
16.73127608
 21
38.6791228343
  0
LINE
  5
28F
100
AcDbEntity
  8
0
100
AcDbLine
 62
7
  6
CONTINUOUS
 10
17.2005994605
 20
44.6351312134
 11
17.2005994605
 21
45.6199389664
  0
LINE
  5
290
100
AcDbEntity
  8
0
100
AcDbLine
 62
7
  6
CONTINUOUS
 10
17.25627608
 20
18.0791228343
 11
17.25627608
 21
16.0791228343
  0
LINE
  5
291
100
AcDbEntity
  8
0
100
AcDbLine
 62
7
  6
CONTINUOUS
 10
17.2716842858
 20
14.0791228343
 11
17.2716842858
 21
11.2791228343
  0
LINE
  5
292
100
AcDbEntity
  8
0
100
AcDbLine
 62
7
  6
CONTINUOUS
 10
17.2716842858
 20
10.2791228343
 11
17.2716842858
 21
10.0291228343
  0
LINE
  5
293
100
AcDbEntity
  8
0
100
AcDbLine
 62
7
  6
CONTINUOUS
 10
16.3131459669
 20
24.0791228343
 11
22.0879135397
 21
24.0791228343
  0
LINE
  5
294
100
AcDbEntity
  8
0
100
AcDbLine
 62
7
  6
CONTINUOUS
 10
34.18127608
 20
24.3291228343
 11
33.88127608
 21
24.3291228343
  0
LINE
  5
295
100
AcDbEntity
  8
0
100
AcDbLine
 62
7
  6
CONTINUOUS
 10
4.58127608
 20
24.3291228343
 11
4.28127608
 21
24.3291228343
  0
LINE
  5
296
100
AcDbEntity
  8
0
100
AcDbLine
 62
7
  6
CONTINUOUS
 10
32.93127608
 20
24.6791228343
 11
24.93127608
 21
24.6791228343
  0
LINE
  5
297
100
AcDbEntity
  8
0
100
AcDbLine
 62
7
  6
CONTINUOUS
 10
13.53127608
 20
24.6791228343
 11
5.53127608
 21
24.6791228343
  0
LINE
  5
298
100
AcDbEntity
  8
0
100
AcDbLine
 62
7
  6
CONTINUOUS
 10
17.73127608
 20
11.2791228343
 11
17.73127608
 21
10.2791228343
  0
LINE
  5
299
100
AcDbEntity
  8
0
100
AcDbLine
 62
7
  6
CONTINUOUS
 10
18.7005994605
 20
43.1579195839
 11
18.7005994605
 21
44.6351312134
  0
LINE
  5
29A
100
AcDbEntity
  8
0
100
AcDbLine
 62
7
  6
CONTINUOUS
 10
18.7005994605
 20
45.5331148776
 11
18.7005994605
 21
47.097150596
  0
LINE
  5
29B
100
AcDbEntity
  8
0
100
AcDbLine
 62
7
  6
CONTINUOUS
 10
18.73127608
 20
11.2791228343
 11
18.73127608
 21
10.2791228343
  0
LINE
  5
29C
100
AcDbEntity
  8
0
100
AcDbLine
 62
7
  6
CONTINUOUS
 10
33.38127608
 20
25.6291228343
 11
32.93127608
 21
25.6291228343
  0
LINE
  5
29D
100
AcDbEntity
  8
0
100
AcDbLine
 62
7
  6
CONTINUOUS
 10
24.93127608
 20
25.6291228343
 11
24.33127608
 21
25.6291228343
  0
LINE
  5
29E
100
AcDbEntity
  8
0
100
AcDbLine
 62
7
  6
CONTINUOUS
 10
13.98127608
 20
25.6291228343
 11
13.53127608
 21
25.6291228343
  0
LINE
  5
29F
100
AcDbEntity
  8
0
100
AcDbLine
 62
7
  6
CONTINUOUS
 10
5.53127608
 20
25.6291228343
 11
4.93127608
 21
25.6291228343
  0
LINE
  5
2A0
100
AcDbEntity
  8
0
100
AcDbLine
 62
7
  6
CONTINUOUS
 10
19.7005994605
 20
44.6351312134
 11
19.7005994605
 21
43.1579195839
  0
LINE
  5
2A1
100
AcDbEntity
  8
0
100
AcDbLine
 62
7
  6
CONTINUOUS
 10
19.7005994605
 20
45.5331148776
 11
19.7005994605
 21
47.097150596
  0
LINE
  5
2A2
100
AcDbEntity
  8
0
100
AcDbLine
 62
7
  6
CONTINUOUS
 10
19.73127608
 20
11.2791228343
 11
19.73127608
 21
10.2791228343
  0
LINE
  5
2A3
100
AcDbEntity
  8
0
100
AcDbLine
 62
7
  6
CONTINUOUS
 10
20.73127608
 20
11.2791228343
 11
20.73127608
 21
10.2791228343
  0
LINE
  5
2A4
100
AcDbEntity
  8
0
100
AcDbLine
 62
7
  6
CONTINUOUS
 10
21.1908678742
 20
10.0291228343
 11
21.1908678742
 21
10.2791228343
  0
LINE
  5
2A5
100
AcDbEntity
  8
0
100
AcDbLine
 62
7
  6
CONTINUOUS
 10
21.1908678742
 20
11.2791228343
 11
21.1908678742
 21
14.0791228343
  0
LINE
  5
2A6
100
AcDbEntity
  8
0
100
AcDbLine
 62
7
  6
CONTINUOUS
 10
21.2005994605
 20
45.6199389664
 11
21.2005994605
 21
44.6351312134
  0
LINE
  5
2A7
100
AcDbEntity
  8
0
100
AcDbLine
 62
7
  6
CONTINUOUS
 10
21.20627608
 20
16.0791228343
 11
21.20627608
 21
18.0791228343
  0
LINE
  5
2A8
100
AcDbEntity
  8
0
100
AcDbLine
 62
7
  6
CONTINUOUS
 10
4.93127608
 20
27.9291228343
 11
5.53127608
 21
27.9291228343
  0
LINE
  5
2A9
100
AcDbEntity
  8
0
100
AcDbLine
 62
7
  6
CONTINUOUS
 10
13.53127608
 20
27.9291228343
 11
13.98127608
 21
27.9291228343
  0
LINE
  5
2AA
100
AcDbEntity
  8
0
100
AcDbLine
 62
7
  6
CONTINUOUS
 10
24.33127608
 20
27.9291228343
 11
24.93127608
 21
27.9291228343
  0
LINE
  5
2AB
100
AcDbEntity
  8
0
100
AcDbLine
 62
7
  6
CONTINUOUS
 10
32.93127608
 20
27.9291228343
 11
33.38127608
 21
27.9291228343
  0
LINE
  5
2AC
100
AcDbEntity
  8
0
100
AcDbLine
 62
7
  6
CONTINUOUS
 10
21.4494061931
 20
31.2791228343
 11
21.4494061931
 21
29.5271537871
  0
LINE
  5
2AD
100
AcDbEntity
  8
0
100
AcDbLine
 62
7
  6
CONTINUOUS
 10
21.4494061931
 20
23.6310918815
 11
21.4494061931
 21
21.8791228343
  0
LINE
  5
2AE
100
AcDbEntity
  8
0
100
AcDbLine
 62
7
  6
CONTINUOUS
 10
21.73127608
 20
38.6791228343
 11
21.73127608
 21
37.0791228343
  0
LINE
  5
2AF
100
AcDbEntity
  8
0
100
AcDbLine
 62
7
  6
CONTINUOUS
 10
21.73127608
 20
14.0791228343
 11
21.73127608
 21
10.2791228343
  0
LINE
  5
2B0
100
AcDbEntity
  8
0
100
AcDbLine
 62
7
  6
CONTINUOUS
 10
21.88127608
 20
37.0791228343
 11
21.88127608
 21
36.9457707654
  0
LINE
  5
2B1
100
AcDbEntity
  8
0
100
AcDbLine
 62
7
  6
CONTINUOUS
 10
22.23127608
 20
45.0973245172
 11
22.23127608
 21
44.663204073
  0
LINE
  5
2B2
100
AcDbEntity
  8
0
100
AcDbLine
 62
7
  6
CONTINUOUS
 10
23.03127608
 20
16.3791228343
 11
23.03127608
 21
16.0791228343
  0
LINE
  5
2B3
100
AcDbEntity
  8
0
100
AcDbLine
 62
7
  6
CONTINUOUS
 10
23.03127608
 20
10.0291228343
 11
23.03127608
 21
14.0791228343
  0
LINE
  5
2B4
100
AcDbEntity
  8
0
100
AcDbLine
 62
7
  6
CONTINUOUS
 10
22.2312466668
 20
28.9791228361
 11
22.2304276545
 21
24.1791228343
  0
LINE
  5
2B5
100
AcDbEntity
  8
0
100
AcDbLine
 62
7
  6
CONTINUOUS
 10
12.3368682458
 20
7.7479122152
 11
12.3548877051
 21
7.7791228343
  0
LINE
  5
2B6
100
AcDbEntity
  8
0
100
AcDbLine
 62
7
  6
CONTINUOUS
 10
22.2304276545
 20
24.1791228343
 11
21.4494061931
 21
23.6310918815
  0
LINE
  5
2B7
100
AcDbEntity
  8
0
100
AcDbLine
 62
7
  6
CONTINUOUS
 10
5.53127608
 20
28.8791228343
 11
13.53127608
 21
28.8791228343
  0
LINE
  5
2B8
100
AcDbEntity
  8
0
100
AcDbLine
 62
7
  6
CONTINUOUS
 10
24.93127608
 20
28.8791228343
 11
32.93127608
 21
28.8791228343
  0
LINE
  5
2B9
100
AcDbEntity
  8
0
100
AcDbLine
 62
7
  6
CONTINUOUS
 10
22.0885831077
 20
29.0791228343
 11
16.3131459669
 21
29.0791228343
  0
LINE
  5
2BA
100
AcDbEntity
  8
0
100
AcDbLine
 62
7
  6
CONTINUOUS
 10
4.28127608
 20
30.0824208953
 11
4.58127608
 21
30.0824208953
  0
LINE
  5
2BB
100
AcDbEntity
  8
0
100
AcDbLine
 62
7
  6
CONTINUOUS
 10
33.88127608
 20
30.0824208953
 11
34.18127608
 21
30.0824208953
  0
LINE
  5
2BC
100
AcDbEntity
  8
0
100
AcDbLine
 62
7
  6
CONTINUOUS
 10
34.18127608
 20
30.4792240759
 11
33.88127608
 21
30.4792240759
  0
LINE
  5
2BD
100
AcDbEntity
  8
0
100
AcDbLine
 62
7
  6
CONTINUOUS
 10
4.58127608
 20
30.4792240759
 11
4.28127608
 21
30.4792240759
  0
LINE
  5
2BE
100
AcDbEntity
  8
0
100
AcDbLine
 62
7
  6
CONTINUOUS
 10
21.4494061931
 20
29.5271537871
 11
22.2312466668
 21
28.9791228361
  0
LINE
  5
2BF
100
AcDbEntity
  8
0
100
AcDbLine
 62
7
  6
CONTINUOUS
 10
22.8377152344
 20
45.6897305848
 11
22.7178970475
 21
47.0384525178
  0
LINE
  5
2C0
100
AcDbEntity
  8
0
100
AcDbLine
 62
7
  6
CONTINUOUS
 10
23.23127608
 20
37.0791228343
 11
23.23127608
 21
33.9791228343
  0
LINE
  5
2C1
100
AcDbEntity
  8
0
100
AcDbLine
 62
7
  6
CONTINUOUS
 10
23.33127608
 20
19.3791228343
 11
23.33127608
 21
16.0791228343
  0
LINE
  5
2C2
100
AcDbEntity
  8
0
100
AcDbLine
 62
7
  6
CONTINUOUS
 10
23.48627608
 20
46.8778677553
 11
23.48627608
 21
45.3891402559
  0
LINE
  5
2C3
100
AcDbEntity
  8
0
100
AcDbLine
 62
7
  6
CONTINUOUS
 10
23.98127608
 20
7.7791228343
 11
23.98127608
 21
45.7791228343
  0
LINE
  5
2C4
100
AcDbEntity
  8
0
100
AcDbLine
 62
7
  6
CONTINUOUS
 10
24.33127608
 20
25.6291228343
 11
24.33127608
 21
27.9291228343
  0
LINE
  5
2C5
100
AcDbEntity
  8
0
100
AcDbLine
 62
7
  6
CONTINUOUS
 10
24.93127608
 20
24.6791228343
 11
24.93127608
 21
25.6291228343
  0
LINE
  5
2C6
100
AcDbEntity
  8
0
100
AcDbLine
 62
7
  6
CONTINUOUS
 10
24.93127608
 20
27.9291228343
 11
24.93127608
 21
28.8791228343
  0
LINE
  5
2C7
100
AcDbEntity
  8
0
100
AcDbLine
 62
7
  6
CONTINUOUS
 10
24.98127608
 20
14.6791228343
 11
24.98127608
 21
9.0791228343
  0
LINE
  5
2C8
100
AcDbEntity
  8
0
100
AcDbLine
 62
7
  6
CONTINUOUS
 10
4.58127608
 20
30.7791228343
 11
14.48127608
 21
30.7791228343
  0
LINE
  5
2C9
100
AcDbEntity
  8
0
100
AcDbLine
 62
7
  6
CONTINUOUS
 10
23.98127608
 20
30.7791228343
 11
33.88127608
 21
30.7791228343
  0
LINE
  5
2CA
100
AcDbEntity
  8
0
100
AcDbLine
 62
7
  6
CONTINUOUS
 10
32.78127608
 20
31.1958322488
 11
29.0794402522
 21
31.1958322488
  0
LINE
  5
2CB
100
AcDbEntity
  8
0
100
AcDbLine
 62
7
  6
CONTINUOUS
 10
13.38127608
 20
31.1958322488
 11
9.6794402522
 21
31.1958322488
  0
LINE
  5
2CC
100
AcDbEntity
  8
0
100
AcDbLine
 62
7
  6
CONTINUOUS
 10
16.3131459669
 20
31.2791228343
 11
14.48127608
 21
31.2791557622
  0
LINE
  5
2CD
100
AcDbEntity
  8
0
100
AcDbLine
 62
7
  6
CONTINUOUS
 10
23.9812760797
 20
31.2790961874
 11
21.4494061931
 21
31.2791228343
  0
LINE
  5
2CE
100
AcDbEntity
  8
0
100
AcDbLine
 62
7
  6
CONTINUOUS
 10
12.18127608
 20
31.5327957977
 11
13.38127608
 21
31.5327957977
  0
LINE
  5
2CF
100
AcDbEntity
  8
0
100
AcDbLine
 62
7
  6
CONTINUOUS
 10
31.58127608
 20
31.5327957977
 11
32.78127608
 21
31.5327957977
  0
LINE
  5
2D0
100
AcDbEntity
  8
0
100
AcDbLine
 62
7
  6
CONTINUOUS
 10
25.03127608
 20
16.129485192
 11
25.03127608
 21
19.0908764856
  0
LINE
  5
2D1
100
AcDbEntity
  8
0
100
AcDbLine
 62
7
  6
CONTINUOUS
 10
25.73127608
 20
45.7791228343
 11
25.73127608
 21
41.558719599
  0
LINE
  5
2D2
100
AcDbEntity
  8
0
100
AcDbLine
 62
7
  6
CONTINUOUS
 10
25.73127608
 20
11.9995260696
 11
25.73127608
 21
7.7791228343
  0
LINE
  5
2D3
100
AcDbEntity
  8
0
100
AcDbLine
 62
7
  6
CONTINUOUS
 10
25.97627608
 20
45.7791228343
 11
25.97627608
 21
46.0677677553
  0
LINE
  5
2D4
100
AcDbEntity
  8
0
100
AcDbLine
 62
7
  6
CONTINUOUS
 10
26.4375415365
 20
35.9275368332
 11
26.4375415365
 21
38.5791228343
  0
LINE
  5
2D5
100
AcDbEntity
  8
0
100
AcDbLine
 62
7
  6
CONTINUOUS
 10
4.28127608
 20
33.4789203511
 11
4.58127608
 21
33.4789203511
  0
LINE
  5
2D6
100
AcDbEntity
  8
0
100
AcDbLine
 62
7
  6
CONTINUOUS
 10
33.88127608
 20
33.4789203511
 11
34.18127608
 21
33.4789203511
  0
LINE
  5
2D7
100
AcDbEntity
  8
0
100
AcDbLine
 62
7
  6
CONTINUOUS
 10
34.18127608
 20
34.2725267124
 11
33.88127608
 21
34.2725267124
  0
LINE
  5
2D8
100
AcDbEntity
  8
0
100
AcDbLine
 62
7
  6
CONTINUOUS
 10
4.58127608
 20
34.2725267124
 11
4.28127608
 21
34.2725267124
  0
LINE
  5
2D9
100
AcDbEntity
  8
0
100
AcDbLine
 62
7
  6
CONTINUOUS
 10
23.98127608
 20
19.8291228343
 11
23.33127608
 21
19.3791228343
  0
LINE
  5
2DA
100
AcDbEntity
  8
0
100
AcDbLine
 62
7
  6
CONTINUOUS
 10
23.23127608
 20
33.9791228343
 11
23.98127608
 21
33.38983712
  0
LINE
  5
2DB
100
AcDbEntity
  8
0
100
AcDbLine
 62
7
  6
CONTINUOUS
 10
32.78127608
 20
37.0787160827
 11
31.58127608
 21
37.0787160827
  0
LINE
  5
2DC
100
AcDbEntity
  8
0
100
AcDbLine
 62
7
  6
CONTINUOUS
 10
13.38127608
 20
37.0787160827
 11
12.18127608
 21
37.0787160827
  0
LINE
  5
2DD
100
AcDbEntity
  8
0
100
AcDbLine
 62
7
  6
CONTINUOUS
 10
15.23127608
 20
37.0791228343
 11
16.73127608
 21
37.0791228343
  0
LINE
  5
2DE
100
AcDbEntity
  8
0
100
AcDbLine
 62
7
  6
CONTINUOUS
 10
21.73127608
 20
37.0791228343
 11
23.23127608
 21
37.0791228343
  0
LINE
  5
2DF
100
AcDbEntity
  8
0
100
AcDbLine
 62
7
  6
CONTINUOUS
 10
31.39627608
 20
3.6778677553
 11
31.39627608
 21
7.7791228343
  0
LINE
  5
2E0
100
AcDbEntity
  8
0
100
AcDbLine
 62
7
  6
CONTINUOUS
 10
31.58127608
 20
37.0787160827
 11
31.58127608
 21
31.5327957977
  0
LINE
  5
2E1
100
AcDbEntity
  8
0
100
AcDbLine
 62
7
  6
CONTINUOUS
 10
31.58127608
 20
22.0327957977
 11
31.58127608
 21
19.0908764856
  0
LINE
  5
2E2
100
AcDbEntity
  8
0
100
AcDbLine
 62
7
  6
CONTINUOUS
 10
31.58127608
 20
16.2791228343
 11
31.58127608
 21
16.129485192
  0
LINE
  5
2E3
100
AcDbEntity
  8
0
100
AcDbLine
 62
7
  6
CONTINUOUS
 10
31.58127608
 20
7.8877143592
 11
31.58127608
 21
11.9995260696
  0
LINE
  5
2E4
100
AcDbEntity
  8
0
100
AcDbLine
 62
7
  6
CONTINUOUS
 10
7.0375415365
 20
38.5791228343
 11
13.38127608
 21
38.5791228343
  0
LINE
  5
2E5
100
AcDbEntity
  8
0
100
AcDbLine
 62
7
  6
CONTINUOUS
 10
26.4375415365
 20
38.5791228343
 11
32.78127608
 21
38.5791228343
  0
LINE
  5
2E6
100
AcDbEntity
  8
0
100
AcDbLine
 62
7
  6
CONTINUOUS
 10
16.73127608
 20
38.6791228343
 11
21.73127608
 21
38.6791228343
  0
LINE
  5
2E7
100
AcDbEntity
  8
0
100
AcDbLine
 62
7
  6
CONTINUOUS
 10
32.78127608
 20
38.5791228343
 11
32.78127608
 21
37.0787160827
  0
LINE
  5
2E8
100
AcDbEntity
  8
0
100
AcDbLine
 62
7
  6
CONTINUOUS
 10
32.78127608
 20
31.5327957977
 11
32.78127608
 21
31.1958322488
  0
LINE
  5
2E9
100
AcDbEntity
  8
0
100
AcDbLine
 62
7
  6
CONTINUOUS
 10
32.78127608
 20
22.3697593466
 11
32.78127608
 21
22.0327957977
  0
LINE
  5
2EA
100
AcDbEntity
  8
0
100
AcDbLine
 62
7
  6
CONTINUOUS
 10
32.78127608
 20
7.7791228343
 11
32.78127608
 21
9.3791228343
  0
LINE
  5
2EB
100
AcDbEntity
  8
0
100
AcDbLine
 62
7
  6
CONTINUOUS
 10
32.78127608
 20
41.558719599
 11
32.78127608
 21
45.7791228343
  0
LINE
  5
2EC
100
AcDbEntity
  8
0
100
AcDbLine
 62
7
  6
CONTINUOUS
 10
32.83127608
 20
19.0908764856
 11
32.83127608
 21
16.2791228343
  0
LINE
  5
2ED
100
AcDbEntity
  8
0
100
AcDbLine
 62
7
  6
CONTINUOUS
 10
32.88127608
 20
14.6791228343
 11
32.88127608
 21
9.0791228343
  0
LINE
  5
2EE
100
AcDbEntity
  8
0
100
AcDbLine
 62
7
  6
CONTINUOUS
 10
32.93127608
 20
28.8791228343
 11
32.93127608
 21
27.9291228343
  0
LINE
  5
2EF
100
AcDbEntity
  8
0
100
AcDbLine
 62
7
  6
CONTINUOUS
 10
32.93127608
 20
25.6291228343
 11
32.93127608
 21
24.6791228343
  0
LINE
  5
2F0
100
AcDbEntity
  8
0
100
AcDbLine
 62
7
  6
CONTINUOUS
 10
33.38127608
 20
27.9291228343
 11
33.38127608
 21
25.6291228343
  0
LINE
  5
2F1
100
AcDbEntity
  8
0
100
AcDbLine
 62
7
  6
CONTINUOUS
 10
33.88127608
 20
45.7791228343
 11
33.88127608
 21
7.7791228343
  0
LINE
  5
2F2
100
AcDbEntity
  8
0
100
AcDbLine
 62
7
  6
CONTINUOUS
 10
33.89627608
 20
8.0791228343
 11
33.89627608
 21
3.6778677553
  0
LINE
  5
2F3
100
AcDbEntity
  8
0
100
AcDbLine
 62
7
  6
CONTINUOUS
 10
4.28127608
 20
40.0791228343
 11
4.58127608
 21
40.0791228343
  0
LINE
  5
2F4
100
AcDbEntity
  8
0
100
AcDbLine
 62
7
  6
CONTINUOUS
 10
33.88127608
 20
40.0791228343
 11
34.18127608
 21
40.0791228343
  0
LINE
  5
2F5
100
AcDbEntity
  8
0
100
AcDbLine
 62
7
  6
CONTINUOUS
 10
6.33127608
 20
41.558719599
 11
13.38127608
 21
41.558719599
  0
LINE
  5
2F6
100
AcDbEntity
  8
0
100
AcDbLine
 62
7
  6
CONTINUOUS
 10
25.73127608
 20
41.558719599
 11
32.78127608
 21
41.558719599
  0
LINE
  5
2F7
100
AcDbEntity
  8
0
100
AcDbLine
 62
7
  6
CONTINUOUS
 10
14.48127608
 20
41.5791228343
 11
23.98127608
 21
41.5791228343
  0
LINE
  5
2F8
100
AcDbEntity
  8
0
100
AcDbLine
 62
7
  6
CONTINUOUS
 10
34.18127608
 20
8.0791228343
 11
34.18127608
 21
42.7791228343
  0
LINE
  5
2F9
100
AcDbEntity
  8
0
100
AcDbLine
 62
7
  6
CONTINUOUS
 10
34.18127608
 20
42.7791228343
 11
33.88127608
 21
42.7791228343
  0
LINE
  5
2FA
100
AcDbEntity
  8
0
100
AcDbLine
 62
7
  6
CONTINUOUS
 10
4.58127608
 20
42.7791228343
 11
4.28127608
 21
42.7791228343
  0
LINE
  5
2FB
100
AcDbEntity
  8
0
100
AcDbLine
 62
7
  6
CONTINUOUS
 10
19.7005994605
 20
43.1579195839
 11
18.7005994605
 21
43.1579195839
  0
LINE
  5
2FC
100
AcDbEntity
  8
0
100
AcDbLine
 62
7
  6
CONTINUOUS
 10
4.58127608
 20
43.1991316613
 11
6.33127608
 21
43.1991316613
  0
LINE
  5
2FD
100
AcDbEntity
  8
0
100
AcDbLine
 62
7
  6
CONTINUOUS
 10
13.38127608
 20
43.1991316613
 11
14.48127608
 21
43.1991316613
  0
LINE
  5
2FE
100
AcDbEntity
  8
0
100
AcDbLine
 62
7
  6
CONTINUOUS
 10
23.98127608
 20
43.1991316613
 11
25.73127608
 21
43.1991316613
  0
LINE
  5
2FF
100
AcDbEntity
  8
0
100
AcDbLine
 62
7
  6
CONTINUOUS
 10
32.78127608
 20
43.1991316613
 11
33.88127608
 21
43.1991316613
  0
LINE
  5
300
100
AcDbEntity
  8
0
100
AcDbLine
 62
7
  6
CONTINUOUS
 10
6.33127608
 20
43.558719599
 11
13.38127608
 21
43.558719599
  0
LINE
  5
301
100
AcDbEntity
  8
0
100
AcDbLine
 62
7
  6
CONTINUOUS
 10
25.73127608
 20
43.558719599
 11
32.78127608
 21
43.558719599
  0
LINE
  5
302
100
AcDbEntity
  8
0
100
AcDbLine
 62
7
  6
CONTINUOUS
 10
23.98127608
 20
44.2791228343
 11
22.1970452812
 21
44.2791228343
  0
LINE
  5
303
100
AcDbEntity
  8
0
100
AcDbLine
 62
7
  6
CONTINUOUS
 10
16.2651618677
 20
44.2791228343
 11
14.48127608
 21
44.2791228343
  0
LINE
  5
304
100
AcDbEntity
  8
0
100
AcDbLine
 62
7
  6
CONTINUOUS
 10
21.2005994605
 20
44.6351312134
 11
19.7005994605
 21
44.6351312134
  0
LINE
  5
305
100
AcDbEntity
  8
0
100
AcDbLine
 62
7
  6
CONTINUOUS
 10
18.7005994605
 20
44.6351312134
 11
17.2005994605
 21
44.6351312134
  0
LINE
  5
306
100
AcDbEntity
  8
0
100
AcDbLine
 62
7
  6
CONTINUOUS
 10
4.58127608
 20
44.7478717763
 11
6.33127608
 21
44.7478717763
  0
LINE
  5
307
100
AcDbEntity
  8
0
100
AcDbLine
 62
7
  6
CONTINUOUS
 10
13.38127608
 20
44.7478717763
 11
14.48127608
 21
44.7478717763
  0
LINE
  5
308
100
AcDbEntity
  8
0
100
AcDbLine
 62
7
  6
CONTINUOUS
 10
23.98127608
 20
44.7478717763
 11
25.73127608
 21
44.7478717763
  0
LINE
  5
309
100
AcDbEntity
  8
0
100
AcDbLine
 62
7
  6
CONTINUOUS
 10
32.78127608
 20
44.7478717763
 11
33.88127608
 21
44.7478717763
  0
LINE
  5
30A
100
AcDbEntity
  8
0
100
AcDbLine
 62
7
  6
CONTINUOUS
 10
17.2005994605
 20
45.5331148776
 11
18.7005994605
 21
45.5331148776
  0
LINE
  5
30B
100
AcDbEntity
  8
0
100
AcDbLine
 62
7
  6
CONTINUOUS
 10
19.7005994605
 20
45.5331148776
 11
21.2005994605
 21
45.5331148776
  0
LINE
  5
30C
100
AcDbEntity
  8
0
100
AcDbLine
 62
7
  6
CONTINUOUS
 10
17.2005994605
 20
45.6199389664
 11
18.7005994605
 21
45.6199389664
  0
LINE
  5
30D
100
AcDbEntity
  8
0
100
AcDbLine
 62
7
  6
CONTINUOUS
 10
19.7005994605
 20
45.6199389664
 11
21.2005994605
 21
45.6199389664
  0
LINE
  5
30E
100
AcDbEntity
  8
0
100
AcDbLine
 62
7
  6
CONTINUOUS
 10
4.58127608
 20
45.7791228343
 11
14.48127608
 21
45.7791228343
  0
LINE
  5
30F
100
AcDbEntity
  8
0
100
AcDbLine
 62
7
  6
CONTINUOUS
 10
23.98127608
 20
45.7791228343
 11
33.88127608
 21
45.7791228343
  0
LINE
  5
310
100
AcDbEntity
  8
0
100
AcDbLine
 62
7
  6
CONTINUOUS
 10
18.7005994605
 20
47.0103265071
 11
19.7005994605
 21
47.0103265071
  0
LINE
  5
311
100
AcDbEntity
  8
0
100
AcDbLine
 62
7
  6
CONTINUOUS
 10
22.7178970475
 20
47.0384525178
 11
21.4342593597
 21
47.0384525178
  0
LINE
  5
312
100
AcDbEntity
  8
0
100
AcDbLine
 62
7
  6
CONTINUOUS
 10
17.0289628505
 20
47.0384525178
 11
15.7446551125
 21
47.0384525178
  0
LINE
  5
313
100
AcDbEntity
  8
0
100
AcDbLine
 62
7
  6
CONTINUOUS
 10
18.7005994605
 20
47.097150596
 11
19.7005994605
 21
47.097150596
  0
LINE
  5
314
100
AcDbEntity
  8
0
100
AcDbLine
 62
7
  6
CONTINUOUS
 10
23.98127608
 20
45.1597212064
 11
22.0158414666
 21
46.0706467437
  0
LINE
  5
315
100
AcDbEntity
  8
0
100
AcDbLine
 62
7
  6
CONTINUOUS
 10
15.48627608
 20
47.3778677553
 11
17.3325474706
 21
47.3778677553
  0
LINE
  5
316
100
AcDbEntity
  8
0
100
AcDbLine
 62
7
  6
CONTINUOUS
 10
21.1284776708
 20
47.3778677553
 11
22.97627608
 21
47.3778677553
  0
LINE
  5
317
100
AcDbEntity
  8
0
100
AcDbLine
 62
7
  6
CONTINUOUS
 10
22.1762895024
 20
49.8778677553
 11
16.28627608
 21
49.8778677553
  0
ARC
  5
318
100
AcDbEntity
  8
0
100
AcDbCircle
 62
7
  6
CONTINUOUS
 10
9.6794402522
 20
19.5255670503
 40
2.8441922963
100
AcDbArc
 50
89.9999999995
 51
188.7912229767
  0
ARC
  5
319
100
AcDbEntity
  8
0
100
AcDbCircle
 62
7
  6
CONTINUOUS
 10
12.3057484562
 20
6.9184562109
 40
0.6518485609
100
AcDbArc
 50
110.6770907443
 51
240.2336787289
  0
ARC
  5
31A
100
AcDbEntity
  8
0
100
AcDbCircle
 62
7
  6
CONTINUOUS
 10
11.8959600127
 20
8.0072843645
 40
0.511540792
100
AcDbArc
 50
290.5567917948
 51
329.5330682443
  0
ARC
  5
31B
100
AcDbEntity
  8
0
100
AcDbCircle
 62
7
  6
CONTINUOUS
 10
6.73127608
 20
4.7791228343
 40
0.5
100
AcDbArc
 50
90.0
 51
180.0
  0
ARC
  5
31C
100
AcDbEntity
  8
0
100
AcDbCircle
 62
7
  6
CONTINUOUS
 10
6.73127608
 20
4.0791228343
 40
0.5
100
AcDbArc
 50
180.0
 51
269.9999999999
  0
ARC
  5
31D
100
AcDbEntity
  8
0
100
AcDbCircle
 62
7
  6
CONTINUOUS
 10
11.73127608
 20
4.0791228343
 40
0.5
100
AcDbArc
 50
270.0
 51
360.0
  0
ARC
  5
31E
100
AcDbEntity
  8
0
100
AcDbCircle
 62
7
  6
CONTINUOUS
 10
11.73127608
 20
5.9200952206
 40
0.5
100
AcDbArc
 50
0.0000000004
 51
59.8870459513
  0
ARC
  5
31F
100
AcDbEntity
  8
0
100
AcDbCircle
 62
7
  6
CONTINUOUS
 10
9.8664414145
 20
5.5791228343
 40
0.3
100
AcDbArc
 50
269.9999999996
 51
352.8749836479
  0
ARC
  5
320
100
AcDbEntity
  8
0
100
AcDbCircle
 62
7
  6
CONTINUOUS
 10
16.28627608
 20
46.0778677553
 40
3.8
100
AcDbArc
 50
90.0
 51
180.0
  0
ARC
  5
321
100
AcDbEntity
  8
0
100
AcDbCircle
 62
7
  6
CONTINUOUS
 10
9.6794402522
 20
34.2992230643
 40
3.1033908155
100
AcDbArc
 50
148.3527179648
 51
270.0000000006
  0
ARC
  5
322
100
AcDbEntity
  8
0
100
AcDbCircle
 62
7
  6
CONTINUOUS
 10
14.23127608
 20
39.2791228343
 40
0.9499873489
100
AcDbArc
 50
285.7578882228
 51
74.208667138
  0
ARC
  5
323
100
AcDbEntity
  8
0
100
AcDbCircle
 62
7
  6
CONTINUOUS
 10
15.48627608
 20
46.8778677553
 40
0.5
100
AcDbArc
 50
90.0
 51
180.0
  0
ARC
  5
324
100
AcDbEntity
  8
0
100
AcDbCircle
 62
7
  6
CONTINUOUS
 10
29.0794402522
 20
19.5255670503
 40
2.8441922963
100
AcDbArc
 50
89.9999999995
 51
188.7912229767
  0
ARC
  5
325
100
AcDbEntity
  8
0
100
AcDbCircle
 62
7
  6
CONTINUOUS
 10
19.2312796885
 20
26.5791209904
 40
10.6999957211
100
AcDbArc
 50
69.0970935806
 51
110.9029477549
  0
ARC
  5
326
100
AcDbEntity
  8
0
100
AcDbCircle
 62
7
  6
CONTINUOUS
 10
19.2312796885
 20
26.5791209904
 40
10.6999957211
100
AcDbArc
 50
243.3744852727
 51
258.9456867825
  0
ARC
  5
327
100
AcDbEntity
  8
0
100
AcDbCircle
 62
7
  6
CONTINUOUS
 10
19.2312796885
 20
26.5791209904
 40
10.6999957211
100
AcDbArc
 50
281.0543107306
 51
296.6254717661
  0
ARC
  5
328
100
AcDbEntity
  8
0
100
AcDbCircle
 62
7
  6
CONTINUOUS
 10
19.2312780195
 20
26.5791398947
 40
10.0000081006
100
AcDbArc
 50
68.5164282958
 51
111.4835622312
  0
ARC
  5
329
100
AcDbEntity
  8
0
100
AcDbCircle
 62
7
  6
CONTINUOUS
 10
19.2312780195
 20
26.5791398947
 40
10.0000081006
100
AcDbArc
 50
247.9380756531
 51
259.6549877673
  0
ARC
  5
32A
100
AcDbEntity
  8
0
100
AcDbCircle
 62
7
  6
CONTINUOUS
 10
19.2312780195
 20
26.5791398947
 40
10.0000081006
100
AcDbArc
 50
280.3449655042
 51
292.0618666515
  0
ARC
  5
32B
100
AcDbEntity
  8
0
100
AcDbCircle
 62
7
  6
CONTINUOUS
 10
19.2312758109
 20
26.5791003949
 40
7.4999726087
100
AcDbArc
 50
50.4252068598
 51
129.5748431047
  0
ARC
  5
32C
100
AcDbEntity
  8
0
100
AcDbCircle
 62
7
  6
CONTINUOUS
 10
19.2312758109
 20
26.5791003949
 40
7.4999726087
100
AcDbArc
 50
230.4252331615
 51
309.3030324718
  0
ARC
  5
32D
100
AcDbEntity
  8
0
100
AcDbCircle
 62
7
  6
CONTINUOUS
 10
19.23127608
 20
47.3790998193
 40
6.9999688121
100
AcDbArc
 50
235.9523089505
 51
304.0476910495
  0
ARC
  5
32E
100
AcDbEntity
  8
0
100
AcDbCircle
 62
7
  6
CONTINUOUS
 10
19.2312876409
 20
26.5791128958
 40
4.1999780792
100
AcDbArc
 50
54.3520472884
 51
136.9760428215
  0
ARC
  5
32F
100
AcDbEntity
  8
0
100
AcDbCircle
 62
7
  6
CONTINUOUS
 10
19.2312876409
 20
26.5791128958
 40
4.1999780792
100
AcDbArc
 50
222.9901327289
 51
305.6205883355
  0
ARC
  5
330
100
AcDbEntity
  8
0
100
AcDbCircle
 62
7
  6
CONTINUOUS
 10
22.1762895024
 20
46.0778677553
 40
3.8
100
AcDbArc
 50
359.8477136699
 51
90.0
  0
ARC
  5
331
100
AcDbEntity
  8
0
100
AcDbCircle
 62
7
  6
CONTINUOUS
 10
29.0794402522
 20
34.2992230643
 40
3.1033908155
100
AcDbArc
 50
148.3527179648
 51
270.0000000006
  0
ARC
  5
332
100
AcDbEntity
  8
0
100
AcDbCircle
 62
7
  6
CONTINUOUS
 10
19.2312733782
 20
26.5791206464
 40
2.6499829864
100
AcDbArc
 50
250.6308654736
 51
289.3691345261
  0
ARC
  5
333
100
AcDbEntity
  8
0
100
AcDbCircle
 62
7
  6
CONTINUOUS
 10
19.2312733782
 20
26.5791206464
 40
2.6499829864
100
AcDbArc
 50
70.6311507457
 51
109.3688492543
  0
ARC
  5
334
100
AcDbEntity
  8
0
100
AcDbCircle
 62
7
  6
CONTINUOUS
 10
24.2312704798
 20
39.2791228343
 40
0.95
100
AcDbArc
 50
105.757328372
 51
254.2092266484
  0
ARC
  5
335
100
AcDbEntity
  8
0
100
AcDbCircle
 62
7
  6
CONTINUOUS
 10
22.97627608
 20
46.8677677553
 40
0.5101
100
AcDbArc
 50
1.1345328197
 51
90.0
  0
SPLINE
  5
336
100
AcDbEntity
  8
0
100
AcDbSpline
 62
7
  6
CONTINUOUS
 70
0
 71
3
 72
23
 73
19
 74
0
 42
0.0000001
 43
0.0000001
 44
0.0000000001
 40
0.0
 40
0.0
 40
0.0
 40
0.0
 40
0.0620227809
 40
0.1240637929
 40
0.1861411724
 40
0.2482706794
 40
0.3104672639
 40
0.3727419357
 40
0.435103902
 40
0.497558122
 40
0.5601054294
 40
0.62274383
 40
0.6854700631
 40
0.7482750844
 40
0.8111398521
 40
0.8740626735
 40
0.9370447648
 40
1.0
 40
1.0
 40
1.0
 40
1.0
 10
22.2312724276
 20
45.0973245177
 30
0.0
 10
22.2312726845
 20
45.1939720146
 30
0.0
 10
22.2216101544
 20
45.3874329099
 30
0.0
 10
22.1783465144
 20
45.6747061403
 30
0.0
 10
22.1066674376
 20
45.9564391114
 30
0.0
 10
22.0073059044
 20
46.2298869905
 30
0.0
 10
21.8812064106
 20
46.4924234431
 30
0.0
 10
21.7295739667
 20
46.7415080056
 30
0.0
 10
21.5539047447
 20
46.9747667124
 30
0.0
 10
21.3558438037
 20
47.1899129465
 30
0.0
 10
21.1373579199
 20
47.3849275533
 30
0.0
 10
20.900502109
 20
47.5578836543
 30
0.0
 10
20.6475874475
 20
47.7071574826
 30
0.0
 10
20.3810398749
 20
47.8312855865
 30
0.0
 10
20.1034348019
 20
47.9291035307
 30
0.0
 10
19.8173904718
 20
47.9996680739
 30
0.0
 10
19.5257494088
 20
48.0422227141
 30
0.0
 10
19.3293765812
 20
48.0517477762
 30
0.0
 10
19.23127608
 20
48.0517477762
 30
0.0
  0
SPLINE
  5
337
100
AcDbEntity
  8
0
100
AcDbSpline
 62
7
  6
CONTINUOUS
 70
0
 71
3
 72
23
 73
19
 74
0
 42
0.0000001
 43
0.0000001
 44
0.0000000001
 40
0.0
 40
0.0
 40
0.0
 40
0.0
 40
0.0629545456
 40
0.1259351992
 40
0.1888569658
 40
0.2517212966
 40
0.3145259973
 40
0.3772520438
 40
0.4398905378
 40
0.5024382196
 40
0.5648929834
 40
0.6272556471
 40
0.6895310553
 40
0.7517283367
 40
0.8138583975
 40
0.8759361503
 40
0.9379772922
 40
1.0
 40
1.0
 40
1.0
 40
1.0
 10
19.23127608
 20
48.0517477762
 30
0.0
 10
19.1331766515
 20
48.0517477762
 30
0.0
 10
18.9368070772
 20
48.0422238223
 30
0.0
 10
18.6451709992
 20
47.9996694674
 30
0.0
 10
18.359130684
 20
47.9291077957
 30
0.0
 10
18.0815280479
 20
47.831291518
 30
0.0
 10
17.814980459
 20
47.7071669028
 30
0.0
 10
17.5620660833
 20
47.5578938219
 30
0.0
 10
17.3252083349
 20
47.384939666
 30
0.0
 10
17.1067204897
 20
47.1899248328
 30
0.0
 10
16.9086565041
 20
46.9747779727
 30
0.0
 10
16.7329846762
 20
46.7415173471
 30
0.0
 10
16.581349383
 20
46.4924305938
 30
0.0
 10
16.4552485374
 20
46.2298913508
 30
0.0
 10
16.3558850961
 20
45.9564414388
 30
0.0
 10
16.2842063165
 20
45.674706694
 30
0.0
 10
16.2409415856
 20
45.3874329172
 30
0.0
 10
16.2312799894
 20
45.1939719014
 30
0.0
 10
16.2312797325
 20
45.0973245167
 30
0.0
  0
SPLINE
  5
338
100
AcDbEntity
  8
0
100
AcDbSpline
 62
7
  6
CONTINUOUS
 70
0
 71
3
 72
23
 73
19
 74
0
 42
0.0000001
 43
0.0000001
 44
0.0000000001
 40
0.0
 40
0.0
 40
0.0
 40
0.0
 40
0.0620227809
 40
0.1240637929
 40
0.1861411724
 40
0.2482706794
 40
0.3104672639
 40
0.3727419357
 40
0.435103902
 40
0.497558122
 40
0.5601054294
 40
0.62274383
 40
0.6854700631
 40
0.7482750844
 40
0.8111398521
 40
0.8740626735
 40
0.9370447648
 40
1.0
 40
1.0
 40
1.0
 40
1.0
 10
16.2312797325
 20
45.0973245167
 30
0.0
 10
16.2312794755
 20
45.0006770198
 30
0.0
 10
16.2409420056
 20
44.8072161245
 30
0.0
 10
16.2842056456
 20
44.519942894
 30
0.0
 10
16.3558847225
 20
44.238209923
 30
0.0
 10
16.4552462557
 20
43.9647620438
 30
0.0
 10
16.5813457494
 20
43.7022255912
 30
0.0
 10
16.7329781933
 20
43.4531410287
 30
0.0
 10
16.9086474153
 20
43.219882322
 30
0.0
 10
17.1067083563
 20
43.0047360879
 30
0.0
 10
17.3251942401
 20
42.809721481
 30
0.0
 10
17.562050051
 20
42.63676538
 30
0.0
 10
17.8149647125
 20
42.4874915517
 30
0.0
 10
18.0815122851
 20
42.3633634479
 30
0.0
 10
18.3591173582
 20
42.2655455036
 30
0.0
 10
18.6451616883
 20
42.1949809604
 30
0.0
 10
18.9368027512
 20
42.1524263202
 30
0.0
 10
19.1331755788
 20
42.1429012581
 30
0.0
 10
19.23127608
 20
42.1429012581
 30
0.0
  0
SPLINE
  5
339
100
AcDbEntity
  8
0
100
AcDbSpline
 62
7
  6
CONTINUOUS
 70
0
 71
3
 72
23
 73
19
 74
0
 42
0.0000001
 43
0.0000001
 44
0.0000000001
 40
0.0
 40
0.0
 40
0.0
 40
0.0
 40
0.0629545456
 40
0.1259351992
 40
0.1888569658
 40
0.2517212966
 40
0.3145259973
 40
0.3772520438
 40
0.4398905378
 40
0.5024382196
 40
0.5648929834
 40
0.6272556471
 40
0.6895310553
 40
0.7517283367
 40
0.8138583975
 40
0.8759361503
 40
0.9379772922
 40
1.0
 40
1.0
 40
1.0
 40
1.0
 10
19.23127608
 20
42.1429012581
 30
0.0
 10
19.3293755085
 20
42.1429012581
 30
0.0
 10
19.5257450828
 20
42.152425212
 30
0.0
 10
19.8173811608
 20
42.1949795669
 30
0.0
 10
20.103421476
 20
42.2655412386
 30
0.0
 10
20.3810241121
 20
42.3633575164
 30
0.0
 10
20.647571701
 20
42.4874821315
 30
0.0
 10
20.9004860767
 20
42.6367552125
 30
0.0
 10
21.1373438251
 20
42.8097093683
 30
0.0
 10
21.3558316704
 20
43.0047242015
 30
0.0
 10
21.5538956559
 20
43.2198710617
 30
0.0
 10
21.7295674838
 20
43.4531316873
 30
0.0
 10
21.8812027771
 20
43.7022184406
 30
0.0
 10
22.0073036226
 20
43.9647576835
 30
0.0
 10
22.1066670639
 20
44.2382075955
 30
0.0
 10
22.1783458435
 20
44.5199423404
 30
0.0
 10
22.2216105744
 20
44.8072161171
 30
0.0
 10
22.2312721706
 20
45.0006771329
 30
0.0
 10
22.2312724276
 20
45.0973245177
 30
0.0
  0
ENDSEC
  0
SECTION
  2
OBJECTS
  0
DICTIONARY
  5
C
100
AcDbDictionary
280
0
281
1
  3
ACAD_GROUP
350
D
  3
ACAD_MLINESTYLE
350
17
  3
ACAD_LAYOUT
350
1A
  3
ACAD_PLOTSETTINGS
350
19
  3
ACAD_PLOTSTYLENAME
350
E
  0
DICTIONARY
  5
D
102
{ACAD_REACTORS
330
C
102
}
100
AcDbDictionary
280
0
281
1
  0
ACDBDICTIONARYWDFLT
  5
E
102
{ACAD_REACTORS
330
C
102
}
100
AcDbDictionary
281
1
  3
Normal
350
F
100
AcDbDictionaryWithDefault
340
F
  0
DICTIONARY
  5
17
102
{ACAD_REACTORS
330
C
102
}
100
AcDbDictionary
280
0
281
1
  3
Standard
350
18
  0
DICTIONARY
  5
19
102
{ACAD_REACTORS
330
C
102
}
100
AcDbDictionary
281
1
  0
DICTIONARY
  5
1A
102
{ACAD_REACTORS
330
C
102
}
100
AcDbDictionary
281
1
  3
Model
350
33A
  3
Layout1
350
33B
  0
ACDBPLACEHOLDER
  5
F
102
{ACAD_REACTORS
330
E
102
}
  0
MLINESTYLE
  5
18
102
{ACAD_REACTORS
330
17
102
}
100
AcDbMlineStyle
  2
STANDARD
 70
0
  3

 62
256
 51
90.0
 52
90.0
 71
2
 49
0.5
 62
256
  6
BYLAYER
 49
-0.5
 62
256
  6
BYLAYER
  0
LAYOUT
  5
33A
102
{ACAD_REACTORS
330
1A
102
}
100
AcDbPlotSettings
  1

  2
none_device
  4

  6

 40
0.0
 41
0.0
 42
0.0
 43
0.0
 44
210.0
 45
297.0
 46
0.0
 47
0.0
 48
0.0
 49
0.0
140
0.0
141
0.0
142
1.0
143
1.0
 70
1024
 72
1
 73
0
 74
0
  7

 75
0
147
1.0
148
0.0
149
0.0
100
AcDbLayout
  1
Model
 70
0
 71
0
 10
0.0
 20
0.0
 11
210.0
 21
297.0
 12
0.0
 22
0.0
 32
0.0
 14
0.0
 24
0.0
 34
0.0
 15
0.0
 25
0.0
 35
0.0
146
0.0
 13
0.0
 23
0.0
 33
0.0
 16
1.0
 26
0.0
 36
0.0
 17
0.0
 27
1.0
 37
0.0
 76
0
330
210
345
0
346
0
  0
LAYOUT
  5
33B
102
{ACAD_REACTORS
330
1A
102
}
100
AcDbPlotSettings
  1

  2
none_device
  4

  6

 40
0.0
 41
0.0
 42
0.0
 43
0.0
 44
210.0
 45
297.0
 46
0.0
 47
0.0
 48
0.0
 49
0.0
140
0.0
141
0.0
142
1.0
143
1.0
 70
0
 72
1
 73
0
 74
0
  7

 75
0
147
1.0
148
0.0
149
0.0
100
AcDbLayout
  1
Layout1
 70
0
 71
1
 10
0.0
 20
0.0
 11
210.0
 21
297.0
 12
0.0
 22
0.0
 32
0.0
 14
0.0
 24
0.0
 34
0.0
 15
0.0
 25
0.0
 35
0.0
146
0.0
 13
0.0
 23
0.0
 33
0.0
 16
1.0
 26
0.0
 36
0.0
 17
0.0
 27
1.0
 37
0.0
 76
0
330
211
345
0
346
0
  0
ENDSEC
  0
EOF
