999
DXF file: C:\Users\sesa63760\Dev\_Creo\CAD\MCADID0004237_3D-CAD\drw0001_2.dxf
999
Pro/ENGINEER 2019471 by Parametric Technology Corporation
  0
SECTION
  2
HEADER
  9
$ACADVER
  1
AC1024
  9
$DWGCODEPAGE
  3
ANSI_1252
  9
$EXTMAX
 10
177.172673771
 20
250.5727814761
 30
0.0
  9
$EXTMIN
 10
0.0
 20
0.0
 30
0.0
  9
$LIMMIN
 10
0.0
 20
0.0
  9
$LIMMAX
 10
177.172673771
 20
250.5727814761
  9
$VIEWCTR
 10
88.5863368855
 20
125.286390738
  9
$VIEWSIZE
 40
250.5727814761
  9
$CLAYER
  8
0
  9
$LTSCALE
 40
16.3336331629
  9
$CELTYPE
  6
BYLAYER
  9
$DIMSCALE
 40
1.0
  9
$DIMASZ
 40
2.1091984973
  9
$DIMEXO
 40
1.0
  9
$DIMDLI
 40
11.2850556398
  9
$DIMEXE
 40
1.0
  9
$DIMCEN
 40
2.6727763357
  9
$DIMLFAC
 40
1.0
  9
$DIMBLK
  1
_FILLED
  9
$DIMALT
 70
0
  9
$DIMALTF
 40
0.0393700787
  9
$DIMTXT
 40
2.9528778962
  9
$DIMTOL
 70
1
  9
$DIMLIM
 70
0
  9
$DIMTFAC
 40
1.0
  9
$DIMTP
 40
0.01
  9
$DIMTM
 40
0.01
  9
$DIMGAP
 40
0.625
  9
$DIMDSEP
 70
46
  9
$AUNITS
 70
0
  9
$PDMODE
 70
3
  9
$PDSIZE
 40
0.3125
  9
$HANDSEED
  5
311
  9
$TILEMODE
 70
1
  9
$MEASUREMENT
 70
1
  9
$INSUNITS
 70
4
  0
ENDSEC
  0
SECTION
  2
CLASSES
  0
CLASS
  1
ACDBDICTIONARYWDFLT
  2
AcDbDictionaryWithDefault
  3
AutoCAD 2000
 90
0
 91
1
280
0
281
0
  0
CLASS
  1
ACDBPLACEHOLDER
  2
AcDbPlaceHolder
  3
AutoCAD 2000
 90
0
 91
1
280
0
281
0
  0
CLASS
  1
LAYOUT
  2
AcDbLayout
  3
AutoCAD 2000
 90
0
 91
0
280
0
281
0
  0
ENDSEC
  0
SECTION
  2
TABLES
  0
TABLE
  2
VPORT
  5
8
100
AcDbSymbolTable
 70
2
  0
VPORT
  5
1F4
100
AcDbSymbolTableRecord
100
AcDbViewportTableRecord
  2
*ACTIVE
 70
0
 10
0.0
 20
0.0
 11
1.0
 21
1.0
 12
88.5863368855
 22
125.286390738
 13
0.0
 23
0.0
 14
1.0
 24
1.0
 15
0.0
 25
0.0
 16
0.0
 26
0.0
 36
1.0
 17
0.0
 27
0.0
 37
0.0
 40
250.5727814761
 41
0.7070707071
 42
50.0
 43
0.0
 44
0.0
 50
0.0
 51
0.0
 71
0
 72
100
 73
1
 74
1
 75
0
 76
0
 77
0
 78
0
  0
ENDTAB
  0
TABLE
  2
LTYPE
  5
5
100
AcDbSymbolTable
 70
6
  0
LTYPE
  5
14
100
AcDbSymbolTableRecord
100
AcDbLinetypeTableRecord
  2
BYBLOCK
 70
0
  3

 72
65
 73
0
 40
0.0
  0
LTYPE
  5
15
100
AcDbSymbolTableRecord
100
AcDbLinetypeTableRecord
  2
BYLAYER
 70
0
  3

 72
65
 73
0
 40
0.0
  0
LTYPE
  5
16
100
AcDbSymbolTableRecord
100
AcDbLinetypeTableRecord
  2
CONTINUOUS
 70
64
  3
Solid line
 72
65
 73
0
 40
0.0
  0
LTYPE
  5
1F5
100
AcDbSymbolTableRecord
100
AcDbLinetypeTableRecord
  2
CENTER
 70
64
  3
____ _ ____ _ ____ _ ____ _ ____ _ ____ _ ____
 72
65
 73
4
 40
0.6
 49
0.375
 74
0
 49
-0.075
 74
0
 49
0.075
 74
0
 49
-0.075
 74
0
  0
LTYPE
  5
1F6
100
AcDbSymbolTableRecord
100
AcDbLinetypeTableRecord
  2
HIDDEN
 70
64
  3
- - - - - - - - - - - - - - - - - - - -
 72
65
 73
2
 40
0.2
 49
0.1
 74
0
 49
-0.1
 74
0
  0
LTYPE
  5
1F7
100
AcDbSymbolTableRecord
100
AcDbLinetypeTableRecord
  2
PHANTOM
 70
64
  3
_____ _ _ _____ _ _ _____ _ _ _____
 72
65
 73
6
 40
0.8
 49
0.45
 74
0
 49
-0.05
 74
0
 49
0.1
 74
0
 49
-0.05
 74
0
 49
0.1
 74
0
 49
-0.05
 74
0
  0
LTYPE
  5
1F8
100
AcDbSymbolTableRecord
100
AcDbLinetypeTableRecord
  2
DOT
 70
64
  3
. . . . . . . . . . . . . . . . . . . .
 72
65
 73
2
 40
0.2
 49
0.1
 74
0
 49
-0.1
 74
0
  0
LTYPE
  5
1F9
100
AcDbSymbolTableRecord
100
AcDbLinetypeTableRecord
  2
DASHED
 70
64
  3
- - - - - - - - - - - - - - - - - - - -
 72
65
 73
2
 40
0.2
 49
0.1
 74
0
 49
-0.1
 74
0
  0
ENDTAB
  0
TABLE
  2
LAYER
  5
2
100
AcDbSymbolTable
 70
36
  0
LAYER
  5
10
100
AcDbSymbolTableRecord
100
AcDbLayerTableRecord
  2
0
 70
0
 62
7
  6
CONTINUOUS
370
-3
390
F
  0
LAYER
  5
1FA
100
AcDbSymbolTableRecord
100
AcDbLayerTableRecord
  2
DEFAULT_1
 70
0
 62
7
  6
CENTER
370
-3
390
F
  0
LAYER
  5
1FB
100
AcDbSymbolTableRecord
100
AcDbLayerTableRecord
  2
DEFAULT_2
 70
0
 62
7
  6
HIDDEN
370
-3
390
F
  0
LAYER
  5
1FC
100
AcDbSymbolTableRecord
100
AcDbLayerTableRecord
  2
DEFAULT_3
 70
0
 62
7
  6
PHANTOM
370
-3
390
F
  0
LAYER
  5
1FD
100
AcDbSymbolTableRecord
100
AcDbLayerTableRecord
  2
00_COMPONENTS
 70
0
 62
7
  6
CONTINUOUS
370
-3
390
F
  0
LAYER
  5
1FE
100
AcDbSymbolTableRecord
100
AcDbLayerTableRecord
  2
01_1_DEFAULT_DATUMS
 70
0
 62
7
  6
CONTINUOUS
370
-3
390
F
  0
LAYER
  5
1FF
100
AcDbSymbolTableRecord
100
AcDbLayerTableRecord
  2
01_PLANES
 70
0
 62
7
  6
CONTINUOUS
370
-3
390
F
  0
LAYER
  5
200
100
AcDbSymbolTableRecord
100
AcDbLayerTableRecord
  2
02_COORD_SYS
 70
0
 62
7
  6
CONTINUOUS
370
-3
390
F
  0
LAYER
  5
201
100
AcDbSymbolTableRecord
100
AcDbLayerTableRecord
  2
03_AXES
 70
0
 62
7
  6
CONTINUOUS
370
-3
390
F
  0
LAYER
  5
202
100
AcDbSymbolTableRecord
100
AcDbLayerTableRecord
  2
04_POINTS
 70
0
 62
7
  6
CONTINUOUS
370
-3
390
F
  0
LAYER
  5
203
100
AcDbSymbolTableRecord
100
AcDbLayerTableRecord
  2
05_CURVES
 70
0
 62
7
  6
CONTINUOUS
370
-3
390
F
  0
LAYER
  5
204
100
AcDbSymbolTableRecord
100
AcDbLayerTableRecord
  2
06_SURFS
 70
0
 62
7
  6
CONTINUOUS
370
-3
390
F
  0
LAYER
  5
205
100
AcDbSymbolTableRecord
100
AcDbLayerTableRecord
  2
07_COSMETICS
 70
0
 62
7
  6
CONTINUOUS
370
-3
390
F
  0
LAYER
  5
206
100
AcDbSymbolTableRecord
100
AcDbLayerTableRecord
  2
10_NOTES
 70
0
 62
7
  6
CONTINUOUS
370
-3
390
F
  0
LAYER
  5
207
100
AcDbSymbolTableRecord
100
AcDbLayerTableRecord
  2
11_NOTES_PUB
 70
0
 62
7
  6
CONTINUOUS
370
-3
390
F
  0
LAYER
  5
208
100
AcDbSymbolTableRecord
100
AcDbLayerTableRecord
  2
13_REF_GTOL
 70
0
 62
7
  6
CONTINUOUS
370
-3
390
F
  0
LAYER
  5
209
100
AcDbSymbolTableRecord
100
AcDbLayerTableRecord
  2
16_MISC
 70
0
 62
7
  6
CONTINUOUS
370
-3
390
F
  0
LAYER
  5
20A
100
AcDbSymbolTableRecord
100
AcDbLayerTableRecord
  2
17_NO_PRINT
 70
0
 62
7
  6
CONTINUOUS
370
-3
390
F
  0
LAYER
  5
20B
100
AcDbSymbolTableRecord
100
AcDbLayerTableRecord
  2
18_DATUM_CAMS_JOINTS
 70
0
 62
7
  6
CONTINUOUS
370
-3
390
F
  0
LAYER
  5
20C
100
AcDbSymbolTableRecord
100
AcDbLayerTableRecord
  2
19_DATUM_FUNCTIONAL
 70
0
 62
7
  6
CONTINUOUS
370
-3
390
F
  0
LAYER
  5
20D
100
AcDbSymbolTableRecord
100
AcDbLayerTableRecord
  2
20_DATUM_KINEMATIC_SCHEME
 70
0
 62
7
  6
CONTINUOUS
370
-3
390
F
  0
LAYER
  5
20E
100
AcDbSymbolTableRecord
100
AcDbLayerTableRecord
  2
4
 70
0
 62
7
  6
CONTINUOUS
370
-3
390
F
  0
LAYER
  5
20F
100
AcDbSymbolTableRecord
100
AcDbLayerTableRecord
  2
7
 70
0
 62
7
  6
CONTINUOUS
370
-3
390
F
  0
ENDTAB
  0
TABLE
  2
STYLE
  5
3
100
AcDbSymbolTable
 70
1
  0
STYLE
  5
11
100
AcDbSymbolTableRecord
100
AcDbTextStyleTableRecord
  2
STANDARD
 70
0
 40
0.0
 41
1.0
 50
0.0
 71
0
 42
0.2
  3
ARIAL.TTF
  4

  0
STYLE
  5
210
100
AcDbSymbolTableRecord
100
AcDbTextStyleTableRecord
  2
TEXTSTYLE_1
 70
0
 40
0.0
 41
0.8
 50
0.0
 71
0
 42
0.2
  3
gdt
  4

  0
ENDTAB
  0
TABLE
  2
VIEW
  5
6
100
AcDbSymbolTable
 70
0
  0
ENDTAB
  0
TABLE
  2
UCS
  5
7
100
AcDbSymbolTable
 70
0
  0
ENDTAB
  0
TABLE
  2
APPID
  5
9
100
AcDbSymbolTable
 70
1
  0
APPID
  5
211
100
AcDbSymbolTableRecord
100
AcDbRegAppTableRecord
  2
ACAD
 70
0
  0
ENDTAB
  0
TABLE
  2
BLOCK_RECORD
  5
1
100
AcDbSymbolTable
 70
0
  0
BLOCK_RECORD
  5
212
100
AcDbSymbolTableRecord
100
AcDbBlockTableRecord
  2
*Model_Space
  0
BLOCK_RECORD
  5
213
100
AcDbSymbolTableRecord
100
AcDbBlockTableRecord
  2
*Paper_Space
  0
BLOCK_RECORD
  5
214
100
AcDbSymbolTableRecord
100
AcDbBlockTableRecord
  2
_FILLED
  0
ENDTAB
  0
TABLE
  2
DIMSTYLE
  5
A
100
AcDbSymbolTable
 70
1
100
AcDbDimStyleTable
 71
0
  0
DIMSTYLE
105
215
100
AcDbSymbolTableRecord
100
AcDbDimStyleTableRecord
  2
STANDARD
 70
0
  3

  4

 40
1.0
 41
2.1091984973
 42
1.0
 43
0.38
 44
1.0
 45
0.0
 46
0.0
 47
0.01
 48
0.01
140
2.9528778962
141
0.09
142
0.0
143
25.4
144
1.0
145
0.0
146
1.0
147
0.625
 71
1
 72
0
 73
0
 74
0
 75
0
 76
0
 77
1
 78
8
 79
2
170
0
171
1
172
0
173
0
174
0
175
0
176
0
177
0
178
0
270
2
179
2
271
2
272
2
273
2
274
2
275
0
280
0
281
0
282
0
283
1
284
8
285
0
286
0
287
3
288
0
340
11
278
46
341
214
342
214
343
214
344
214
  0
ENDTAB
  0
ENDSEC
  0
SECTION
  2
BLOCKS
  0
BLOCK
  5
20
100
AcDbEntity
  8
0
100
AcDbBlockBegin
  2
*Model_Space
 70
0
 10
0.0
 20
0.0
 30
0.0
  3
*Model_Space
  1

  0
ENDBLK
  5
21
100
AcDbEntity
  8
0
100
AcDbBlockEnd
  0
BLOCK
  5
1C
100
AcDbEntity
  8
0
100
AcDbBlockBegin
  2
*Paper_Space
 70
0
 10
0.0
 20
0.0
 30
0.0
  3
*Paper_Space
  1

  0
ENDBLK
  5
1D
100
AcDbEntity
  8
0
100
AcDbBlockEnd
  0
BLOCK
  5
216
100
AcDbEntity
  8
0
100
AcDbBlockBegin
  2
_FILLED
 70
64
 10
0.0
 20
0.0
  3
_FILLED
  1

  0
SOLID
  5
217
100
AcDbEntity
  8
0
  6
BYBLOCK
 62
0
100
AcDbTrace
 10
0.0
 20
0.0
 11
-1.0
 21
0.25
 12
-1.0
 22
-0.25
 13
-1.0
 23
-0.25
  0
ENDBLK
  5
218
100
AcDbEntity
  8
0
  6
BYBLOCK
 62
0
100
AcDbBlockEnd
  0
ENDSEC
  0
SECTION
  2
ENTITIES
  0
LINE
  5
219
100
AcDbEntity
  8
7
100
AcDbLine
 62
7
  6
BYLAYER
 10
43.0797449654
 20
232.5528496735
 11
38.8769645422
 21
231.3520552668
  0
LINE
  5
21A
100
AcDbEntity
  8
4
100
AcDbLine
 62
7
  6
BYLAYER
 10
99.2157690876
 20
16.7150753861
 11
142.2157690876
 21
16.7150753861
  0
LINE
  5
21B
100
AcDbEntity
  8
4
100
AcDbLine
 62
7
  6
BYLAYER
 10
99.2157690876
 20
19.7150753861
 11
142.2157690876
 21
19.7150753861
  0
LINE
  5
21C
100
AcDbEntity
  8
4
100
AcDbLine
 62
7
  6
BYLAYER
 10
38.8769645422
 20
28.4898510414
 11
43.0797449655
 21
27.2890566347
  0
LINE
  5
21D
100
AcDbEntity
  8
4
100
AcDbLine
 62
7
  6
BYLAYER
 10
45.8269562444
 20
26.9042961112
 11
60.426406798
 21
26.9042961112
  0
LINE
  5
21E
100
AcDbEntity
  8
4
100
AcDbLine
 62
7
  6
BYLAYER
 10
69.426406798
 20
26.9042961112
 11
88.4264241129
 21
26.9042961112
  0
LINE
  5
21F
100
AcDbEntity
  8
4
100
AcDbLine
 62
7
  6
BYLAYER
 10
72.426406798
 20
28.9042961112
 11
69.426406798
 21
28.9042961112
  0
LINE
  5
220
100
AcDbEntity
  8
4
100
AcDbLine
 62
7
  6
BYLAYER
 10
60.426406798
 20
28.9042961112
 11
57.426406798
 21
28.9042961112
  0
LINE
  5
221
100
AcDbEntity
  8
4
100
AcDbLine
 62
7
  6
BYLAYER
 10
57.426406798
 20
31.4042961112
 11
72.426406798
 21
31.4042961112
  0
LINE
  5
222
100
AcDbEntity
  8
4
100
AcDbLine
 62
7
  6
BYLAYER
 10
39.7764241129
 20
32.9052766902
 11
39.5444407868
 21
32.9052766902
  0
LINE
  5
223
100
AcDbEntity
  8
7
100
AcDbLine
 62
7
  6
BYLAYER
 10
39.320833989
 20
188.8858043717
 11
38.531979607
 21
188.4913771807
  0
LINE
  5
224
100
AcDbEntity
  8
4
100
AcDbLine
 62
7
  6
BYLAYER
 10
89.9264241129
 20
43.9042961112
 11
88.4264241129
 21
43.9042961112
  0
LINE
  5
225
100
AcDbEntity
  8
4
100
AcDbLine
 62
7
  6
BYLAYER
 10
89.9264241129
 20
44.4042961112
 11
87.9264241129
 21
44.4042961112
  0
LINE
  5
226
100
AcDbEntity
  8
4
100
AcDbLine
 62
7
  6
BYLAYER
 10
96.5524837715
 20
45.5517961112
 11
95.3078845097
 21
45.5517961112
  0
LINE
  5
227
100
AcDbEntity
  8
4
100
AcDbLine
 62
7
  6
BYLAYER
 10
96.6559687055
 20
46.5042961112
 11
99.6559687055
 21
46.5042961112
  0
LINE
  5
228
100
AcDbEntity
  8
4
100
AcDbLine
 62
7
  6
BYLAYER
 10
91.9264241129
 20
47.9042961112
 11
90.9264241129
 21
47.9042961112
  0
LINE
  5
229
100
AcDbEntity
  8
4
100
AcDbLine
 62
7
  6
BYLAYER
 10
103.9264241129
 20
48.9042961112
 11
99.6559687055
 21
48.9042961112
  0
LINE
  5
22A
100
AcDbEntity
  8
4
100
AcDbLine
 62
7
  6
BYLAYER
 10
96.6559687055
 20
48.9042961112
 11
96.5524837715
 21
48.9042961112
  0
LINE
  5
22B
100
AcDbEntity
  8
4
100
AcDbLine
 62
7
  6
BYLAYER
 10
95.3078845097
 20
48.9042961112
 11
95.2157690876
 21
48.9042961112
  0
LINE
  5
22C
100
AcDbEntity
  8
4
100
AcDbLine
 62
7
  6
BYLAYER
 10
92.2157690876
 20
48.9042961112
 11
89.9264241129
 21
48.9042961112
  0
LINE
  5
22D
100
AcDbEntity
  8
4
100
AcDbLine
 62
7
  6
BYLAYER
 10
96.6559687055
 20
49.2042961112
 11
99.6559687055
 21
49.2042961112
  0
LINE
  5
22E
100
AcDbEntity
  8
4
100
AcDbLine
 62
7
  6
BYLAYER
 10
96.6559687055
 20
54.6042961112
 11
99.6559687055
 21
54.6042961112
  0
LINE
  5
22F
100
AcDbEntity
  8
4
100
AcDbLine
 62
7
  6
BYLAYER
 10
103.9264241129
 20
54.9042961112
 11
99.6559687055
 21
54.9042961112
  0
LINE
  5
230
100
AcDbEntity
  8
4
100
AcDbLine
 62
7
  6
BYLAYER
 10
96.6559687055
 20
54.9042961112
 11
96.5524837715
 21
54.9042961112
  0
LINE
  5
231
100
AcDbEntity
  8
4
100
AcDbLine
 62
7
  6
BYLAYER
 10
95.3078845097
 20
54.9042961112
 11
95.2157690876
 21
54.9042961112
  0
LINE
  5
232
100
AcDbEntity
  8
4
100
AcDbLine
 62
7
  6
BYLAYER
 10
92.2157690876
 20
54.9042961112
 11
89.9264241129
 21
54.9042961112
  0
LINE
  5
233
100
AcDbEntity
  8
4
100
AcDbLine
 62
7
  6
BYLAYER
 10
90.9264241129
 20
55.9042961112
 11
91.9264241129
 21
55.9042961112
  0
LINE
  5
234
100
AcDbEntity
  8
4
100
AcDbLine
 62
7
  6
BYLAYER
 10
96.6559687055
 20
57.3042961112
 11
99.6559687055
 21
57.3042961112
  0
LINE
  5
235
100
AcDbEntity
  8
4
100
AcDbLine
 62
7
  6
BYLAYER
 10
96.5524837715
 20
58.2567961112
 11
95.3078845097
 21
58.2567961112
  0
LINE
  5
236
100
AcDbEntity
  8
4
100
AcDbLine
 62
7
  6
BYLAYER
 10
89.9264241129
 20
59.4042961112
 11
87.9264241129
 21
59.4042961112
  0
LINE
  5
237
100
AcDbEntity
  8
4
100
AcDbLine
 62
7
  6
BYLAYER
 10
88.4264241129
 20
59.9042961112
 11
89.9264241129
 21
59.9042961112
  0
LINE
  5
238
100
AcDbEntity
  8
4
100
AcDbLine
 62
7
  6
BYLAYER
 10
92.4264241129
 20
61.7150753861
 11
95.2157690876
 21
61.7150753861
  0
LINE
  5
239
100
AcDbEntity
  8
4
100
AcDbLine
 62
7
  6
BYLAYER
 10
38.531979607
 20
71.3505291276
 11
39.320833989
 21
70.9561019366
  0
LINE
  5
23A
100
AcDbEntity
  8
4
100
AcDbLine
 62
7
  6
BYLAYER
 10
95.2157690876
 20
66.7150753861
 11
92.4264241129
 21
66.7150753861
  0
LINE
  5
23B
100
AcDbEntity
  8
7
100
AcDbLine
 62
7
  6
BYLAYER
 10
37.426406798
 20
229.4290073716
 11
37.426406798
 21
229.1726975956
  0
LINE
  5
23C
100
AcDbEntity
  8
7
100
AcDbLine
 62
7
  6
BYLAYER
 10
37.426406798
 20
186.7025227987
 11
37.426406798
 21
186.4462130227
  0
LINE
  5
23D
100
AcDbEntity
  8
4
100
AcDbLine
 62
7
  6
BYLAYER
 10
37.426406798
 20
73.3956932856
 11
37.426406798
 21
73.1393835096
  0
LINE
  5
23E
100
AcDbEntity
  8
4
100
AcDbLine
 62
7
  6
BYLAYER
 10
37.426406798
 20
30.6692087127
 11
37.426406798
 21
30.4128989367
  0
LINE
  5
23F
100
AcDbEntity
  8
4
100
AcDbLine
 62
7
  6
BYLAYER
 10
39.6764241129
 20
32.9042961111
 11
39.6764241129
 21
70.9042961111
  0
LINE
  5
240
100
AcDbEntity
  8
7
100
AcDbLine
 62
7
  6
BYLAYER
 10
39.6764241129
 20
188.9376101971
 11
39.6764241129
 21
226.9376101971
  0
LINE
  5
241
100
AcDbEntity
  8
7
100
AcDbLine
 62
7
  6
BYLAYER
 10
39.7764241129
 20
226.9366296181
 11
39.7764241129
 21
188.9385907762
  0
LINE
  5
242
100
AcDbEntity
  8
4
100
AcDbLine
 62
7
  6
BYLAYER
 10
39.7764241129
 20
70.9033155321
 11
39.7764241129
 21
32.9052766902
  0
LINE
  5
243
100
AcDbEntity
  8
4
100
AcDbLine
 62
7
  6
BYLAYER
 10
39.5444407868
 20
70.9033155321
 11
39.7764241129
 21
70.9033155321
  0
LINE
  5
244
100
AcDbEntity
  8
4
100
AcDbLine
 62
7
  6
BYLAYER
 10
72.426406798
 20
72.4042961112
 11
57.426406798
 21
72.4042961112
  0
LINE
  5
245
100
AcDbEntity
  8
4
100
AcDbLine
 62
7
  6
BYLAYER
 10
57.426406798
 20
74.9042961112
 11
60.426406798
 21
74.9042961112
  0
LINE
  5
246
100
AcDbEntity
  8
4
100
AcDbLine
 62
7
  6
BYLAYER
 10
69.426406798
 20
74.9042961112
 11
72.426406798
 21
74.9042961112
  0
LINE
  5
247
100
AcDbEntity
  8
4
100
AcDbLine
 62
7
  6
BYLAYER
 10
88.4264241129
 20
76.9042961112
 11
69.426406798
 21
76.9042961112
  0
LINE
  5
248
100
AcDbEntity
  8
4
100
AcDbLine
 62
7
  6
BYLAYER
 10
60.426406798
 20
76.9042961112
 11
45.8269562444
 21
76.9042961112
  0
LINE
  5
249
100
AcDbEntity
  8
4
100
AcDbLine
 62
7
  6
BYLAYER
 10
56.926406798
 20
29.4042961112
 11
56.926406798
 21
30.9042961112
  0
LINE
  5
24A
100
AcDbEntity
  8
4
100
AcDbLine
 62
7
  6
BYLAYER
 10
56.926406798
 20
72.9042961112
 11
56.926406798
 21
74.4042961112
  0
LINE
  5
24B
100
AcDbEntity
  8
7
100
AcDbLine
 62
7
  6
BYLAYER
 10
56.926406798
 20
185.4376101972
 11
56.926406798
 21
186.9376101972
  0
LINE
  5
24C
100
AcDbEntity
  8
7
100
AcDbLine
 62
7
  6
BYLAYER
 10
56.926406798
 20
228.9376101972
 11
56.926406798
 21
230.4376101972
  0
LINE
  5
24D
100
AcDbEntity
  8
4
100
AcDbLine
 62
7
  6
BYLAYER
 10
60.926406798
 20
27.4042961112
 11
60.926406798
 21
28.4042961112
  0
LINE
  5
24E
100
AcDbEntity
  8
4
100
AcDbLine
 62
7
  6
BYLAYER
 10
60.926406798
 20
75.4042961112
 11
60.926406798
 21
76.4042961112
  0
LINE
  5
24F
100
AcDbEntity
  8
7
100
AcDbLine
 62
7
  6
BYLAYER
 10
60.926406798
 20
183.4376101972
 11
60.926406798
 21
184.4376101972
  0
LINE
  5
250
100
AcDbEntity
  8
7
100
AcDbLine
 62
7
  6
BYLAYER
 10
60.926406798
 20
231.4376101972
 11
60.926406798
 21
232.4376101972
  0
LINE
  5
251
100
AcDbEntity
  8
7
100
AcDbLine
 62
7
  6
BYLAYER
 10
68.926406798
 20
232.4376101972
 11
68.926406798
 21
231.4376101972
  0
LINE
  5
252
100
AcDbEntity
  8
7
100
AcDbLine
 62
7
  6
BYLAYER
 10
68.926406798
 20
184.4376101972
 11
68.926406798
 21
183.4376101972
  0
LINE
  5
253
100
AcDbEntity
  8
4
100
AcDbLine
 62
7
  6
BYLAYER
 10
68.926406798
 20
76.4042961112
 11
68.926406798
 21
75.4042961112
  0
LINE
  5
254
100
AcDbEntity
  8
4
100
AcDbLine
 62
7
  6
BYLAYER
 10
68.926406798
 20
28.4042961112
 11
68.926406798
 21
27.4042961112
  0
LINE
  5
255
100
AcDbEntity
  8
7
100
AcDbLine
 62
7
  6
BYLAYER
 10
72.926406798
 20
230.4376101972
 11
72.926406798
 21
228.9376101972
  0
LINE
  5
256
100
AcDbEntity
  8
7
100
AcDbLine
 62
7
  6
BYLAYER
 10
72.926406798
 20
186.9376101972
 11
72.926406798
 21
185.4376101972
  0
LINE
  5
257
100
AcDbEntity
  8
4
100
AcDbLine
 62
7
  6
BYLAYER
 10
72.926406798
 20
74.4042961112
 11
72.926406798
 21
72.9042961112
  0
LINE
  5
258
100
AcDbEntity
  8
4
100
AcDbLine
 62
7
  6
BYLAYER
 10
72.926406798
 20
30.9042961112
 11
72.926406798
 21
29.4042961112
  0
LINE
  5
259
100
AcDbEntity
  8
4
100
AcDbLine
 62
7
  6
BYLAYER
 10
87.9264241129
 20
44.4042961112
 11
87.9264241129
 21
59.4042961112
  0
LINE
  5
25A
100
AcDbEntity
  8
7
100
AcDbLine
 62
7
  6
BYLAYER
 10
87.9264241129
 20
200.4376101972
 11
87.9264241129
 21
215.4376101972
  0
LINE
  5
25B
100
AcDbEntity
  8
4
100
AcDbLine
 62
7
  6
BYLAYER
 10
89.9264241129
 20
44.4042961112
 11
89.9264241129
 21
59.4042961112
  0
LINE
  5
25C
100
AcDbEntity
  8
7
100
AcDbLine
 62
7
  6
BYLAYER
 10
89.9264241129
 20
200.4376101972
 11
89.9264241129
 21
215.4376101972
  0
LINE
  5
25D
100
AcDbEntity
  8
7
100
AcDbLine
 62
7
  6
BYLAYER
 10
90.4264241129
 20
215.4376101972
 11
90.4264241129
 21
212.4376101972
  0
LINE
  5
25E
100
AcDbEntity
  8
7
100
AcDbLine
 62
7
  6
BYLAYER
 10
90.4264241129
 20
203.4376101972
 11
90.4264241129
 21
200.4376101972
  0
LINE
  5
25F
100
AcDbEntity
  8
4
100
AcDbLine
 62
7
  6
BYLAYER
 10
90.4264241129
 20
59.4042961112
 11
90.4264241129
 21
56.4042961112
  0
LINE
  5
260
100
AcDbEntity
  8
4
100
AcDbLine
 62
7
  6
BYLAYER
 10
90.4264241129
 20
47.4042961112
 11
90.4264241129
 21
44.4042961112
  0
LINE
  5
261
100
AcDbEntity
  8
7
100
AcDbLine
 62
7
  6
BYLAYER
 10
92.2157690876
 20
212.0317130311
 11
92.2157690876
 21
203.8353751437
  0
LINE
  5
262
100
AcDbEntity
  8
7
100
AcDbLine
 62
7
  6
BYLAYER
 10
92.2157690876
 20
185.8797513765
 11
92.2157690876
 21
179.7483894721
  0
LINE
  5
263
100
AcDbEntity
  8
4
100
AcDbLine
 62
7
  6
BYLAYER
 10
92.2157690876
 20
55.9983989451
 11
92.2157690876
 21
47.8020610577
  0
LINE
  5
264
100
AcDbEntity
  8
4
100
AcDbLine
 62
7
  6
BYLAYER
 10
92.2157690876
 20
29.8464372905
 11
92.2157690876
 21
23.7150753861
  0
LINE
  5
265
100
AcDbEntity
  8
4
100
AcDbLine
 62
7
  6
BYLAYER
 10
92.4264241129
 20
30.9042961112
 11
92.4264241129
 21
47.4042961112
  0
LINE
  5
266
100
AcDbEntity
  8
4
100
AcDbLine
 62
7
  6
BYLAYER
 10
92.4264241129
 20
56.4042961112
 11
92.4264241129
 21
72.9042961112
  0
LINE
  5
267
100
AcDbEntity
  8
7
100
AcDbLine
 62
7
  6
BYLAYER
 10
92.4264241129
 20
186.9376101972
 11
92.4264241129
 21
203.4376101972
  0
LINE
  5
268
100
AcDbEntity
  8
7
100
AcDbLine
 62
7
  6
BYLAYER
 10
92.4264241129
 20
212.4376101972
 11
92.4264241129
 21
228.9376101972
  0
LINE
  5
269
100
AcDbEntity
  8
4
100
AcDbLine
 62
7
  6
BYLAYER
 10
95.2157690876
 20
23.7150753861
 11
95.2157690876
 21
66.7150753861
  0
LINE
  5
26A
100
AcDbEntity
  8
7
100
AcDbLine
 62
7
  6
BYLAYER
 10
95.2157690876
 20
179.7483894721
 11
95.2157690876
 21
222.7483894721
  0
LINE
  5
26B
100
AcDbEntity
  8
4
100
AcDbLine
 62
7
  6
BYLAYER
 10
95.3078845097
 20
45.5518486292
 11
95.3078845097
 21
58.2567435931
  0
LINE
  5
26C
100
AcDbEntity
  8
7
100
AcDbLine
 62
7
  6
BYLAYER
 10
95.3078845097
 20
201.5851627152
 11
95.3078845097
 21
214.2900576791
  0
LINE
  5
26D
100
AcDbEntity
  8
7
100
AcDbLine
 62
7
  6
BYLAYER
 10
96.5524837715
 20
214.2900576791
 11
96.5524837715
 21
201.5851627152
  0
LINE
  5
26E
100
AcDbEntity
  8
4
100
AcDbLine
 62
7
  6
BYLAYER
 10
96.5524837715
 20
58.2567435931
 11
96.5524837715
 21
45.5518486292
  0
LINE
  5
26F
100
AcDbEntity
  8
4
100
AcDbLine
 62
7
  6
BYLAYER
 10
96.6559687055
 20
46.5042961112
 11
96.6559687055
 21
57.3042961112
  0
LINE
  5
270
100
AcDbEntity
  8
7
100
AcDbLine
 62
7
  6
BYLAYER
 10
96.6559687055
 20
202.5376101972
 11
96.6559687055
 21
213.3376101972
  0
LINE
  5
271
100
AcDbEntity
  8
4
100
AcDbLine
 62
7
  6
BYLAYER
 10
99.6559687055
 20
46.5042961112
 11
99.6559687055
 21
57.3042961112
  0
LINE
  5
272
100
AcDbEntity
  8
7
100
AcDbLine
 62
7
  6
BYLAYER
 10
99.6559687055
 20
202.5376101972
 11
99.6559687055
 21
213.3376101972
  0
LINE
  5
273
100
AcDbEntity
  8
7
100
AcDbLine
 62
7
  6
BYLAYER
 10
103.9264241129
 20
210.9376101972
 11
103.9264241129
 21
204.9376101972
  0
LINE
  5
274
100
AcDbEntity
  8
4
100
AcDbLine
 62
7
  6
BYLAYER
 10
103.9264241129
 20
54.9042961112
 11
103.9264241129
 21
48.9042961112
  0
LINE
  5
275
100
AcDbEntity
  8
4
100
AcDbLine
 62
7
  6
BYLAYER
 10
43.0797449655
 20
76.5195355876
 11
38.8769645422
 21
75.3187411808
  0
LINE
  5
276
100
AcDbEntity
  8
7
100
AcDbLine
 62
7
  6
BYLAYER
 10
137.2157690876
 20
175.7483894721
 11
137.2157690876
 21
172.7483894721
  0
LINE
  5
277
100
AcDbEntity
  8
4
100
AcDbLine
 62
7
  6
BYLAYER
 10
137.2157690876
 20
19.7150753861
 11
137.2157690876
 21
16.7150753861
  0
LINE
  5
278
100
AcDbEntity
  8
7
100
AcDbLine
 62
7
  6
BYLAYER
 10
99.2157690876
 20
172.7483894721
 11
142.2157690876
 21
172.7483894721
  0
LINE
  5
279
100
AcDbEntity
  8
7
100
AcDbLine
 62
7
  6
BYLAYER
 10
38.8769645422
 20
184.5231651274
 11
43.0797449656
 21
183.3223707206
  0
LINE
  5
27A
100
AcDbEntity
  8
4
100
AcDbLine
 62
7
  6
BYLAYER
 10
142.2157690876
 20
16.7150753861
 11
142.2157690876
 21
19.7150753861
  0
LINE
  5
27B
100
AcDbEntity
  8
7
100
AcDbLine
 62
7
  6
BYLAYER
 10
142.2157690876
 20
172.7483894721
 11
142.2157690876
 21
175.7483894721
  0
LINE
  5
27C
100
AcDbEntity
  8
7
100
AcDbLine
 62
7
  6
BYLAYER
 10
99.2157690876
 20
175.7483894721
 11
142.2157690876
 21
175.7483894721
  0
LINE
  5
27D
100
AcDbEntity
  8
4
100
AcDbLine
 62
7
  6
BYLAYER
 10
39.320833989
 20
32.8524902857
 11
38.531979607
 21
32.4580630947
  0
LINE
  5
27E
100
AcDbEntity
  8
7
100
AcDbLine
 62
7
  6
BYLAYER
 10
45.8269562443
 20
182.9376101972
 11
60.426406798
 21
182.9376101972
  0
LINE
  5
27F
100
AcDbEntity
  8
7
100
AcDbLine
 62
7
  6
BYLAYER
 10
69.426406798
 20
182.9376101972
 11
88.4264241129
 21
182.9376101972
  0
LINE
  5
280
100
AcDbEntity
  8
7
100
AcDbLine
 62
7
  6
BYLAYER
 10
72.426406798
 20
184.9376101972
 11
69.426406798
 21
184.9376101972
  0
LINE
  5
281
100
AcDbEntity
  8
7
100
AcDbLine
 62
7
  6
BYLAYER
 10
60.426406798
 20
184.9376101972
 11
57.426406798
 21
184.9376101972
  0
LINE
  5
282
100
AcDbEntity
  8
7
100
AcDbLine
 62
7
  6
BYLAYER
 10
57.426406798
 20
187.4376101972
 11
72.426406798
 21
187.4376101972
  0
LINE
  5
283
100
AcDbEntity
  8
7
100
AcDbLine
 62
7
  6
BYLAYER
 10
39.7764241129
 20
188.9385907762
 11
39.5444407868
 21
188.9385907762
  0
LINE
  5
284
100
AcDbEntity
  8
7
100
AcDbLine
 62
7
  6
BYLAYER
 10
38.531979607
 20
227.3838432136
 11
39.320833989
 21
226.9894160226
  0
LINE
  5
285
100
AcDbEntity
  8
7
100
AcDbLine
 62
7
  6
BYLAYER
 10
89.9264241129
 20
199.9376101972
 11
88.4264241129
 21
199.9376101972
  0
LINE
  5
286
100
AcDbEntity
  8
7
100
AcDbLine
 62
7
  6
BYLAYER
 10
89.9264241129
 20
200.4376101972
 11
87.9264241129
 21
200.4376101972
  0
LINE
  5
287
100
AcDbEntity
  8
7
100
AcDbLine
 62
7
  6
BYLAYER
 10
96.5524837715
 20
201.5851101972
 11
95.3078845097
 21
201.5851101972
  0
LINE
  5
288
100
AcDbEntity
  8
7
100
AcDbLine
 62
7
  6
BYLAYER
 10
96.6559687055
 20
202.5376101972
 11
99.6559687055
 21
202.5376101972
  0
LINE
  5
289
100
AcDbEntity
  8
7
100
AcDbLine
 62
7
  6
BYLAYER
 10
91.9264241129
 20
203.9376101972
 11
90.9264241129
 21
203.9376101972
  0
LINE
  5
28A
100
AcDbEntity
  8
7
100
AcDbLine
 62
7
  6
BYLAYER
 10
103.9264241129
 20
204.9376101972
 11
99.6559687055
 21
204.9376101972
  0
LINE
  5
28B
100
AcDbEntity
  8
7
100
AcDbLine
 62
7
  6
BYLAYER
 10
96.6559687055
 20
204.9376101972
 11
96.5524837715
 21
204.9376101972
  0
LINE
  5
28C
100
AcDbEntity
  8
7
100
AcDbLine
 62
7
  6
BYLAYER
 10
95.3078845097
 20
204.9376101972
 11
95.2157690876
 21
204.9376101972
  0
LINE
  5
28D
100
AcDbEntity
  8
7
100
AcDbLine
 62
7
  6
BYLAYER
 10
92.2157690876
 20
204.9376101972
 11
89.9264241129
 21
204.9376101972
  0
LINE
  5
28E
100
AcDbEntity
  8
7
100
AcDbLine
 62
7
  6
BYLAYER
 10
96.6559687055
 20
205.2376101972
 11
99.6559687055
 21
205.2376101972
  0
LINE
  5
28F
100
AcDbEntity
  8
7
100
AcDbLine
 62
7
  6
BYLAYER
 10
96.6559687055
 20
210.6376101972
 11
99.6559687055
 21
210.6376101972
  0
LINE
  5
290
100
AcDbEntity
  8
7
100
AcDbLine
 62
7
  6
BYLAYER
 10
103.9264241129
 20
210.9376101972
 11
99.6559687055
 21
210.9376101972
  0
LINE
  5
291
100
AcDbEntity
  8
7
100
AcDbLine
 62
7
  6
BYLAYER
 10
96.6559687055
 20
210.9376101972
 11
96.5524837715
 21
210.9376101972
  0
LINE
  5
292
100
AcDbEntity
  8
7
100
AcDbLine
 62
7
  6
BYLAYER
 10
95.3078845097
 20
210.9376101972
 11
95.2157690876
 21
210.9376101972
  0
LINE
  5
293
100
AcDbEntity
  8
7
100
AcDbLine
 62
7
  6
BYLAYER
 10
92.2157690876
 20
210.9376101972
 11
89.9264241129
 21
210.9376101972
  0
LINE
  5
294
100
AcDbEntity
  8
7
100
AcDbLine
 62
7
  6
BYLAYER
 10
90.9264241129
 20
211.9376101972
 11
91.9264241129
 21
211.9376101972
  0
LINE
  5
295
100
AcDbEntity
  8
7
100
AcDbLine
 62
7
  6
BYLAYER
 10
96.6559687055
 20
213.3376101972
 11
99.6559687055
 21
213.3376101972
  0
LINE
  5
296
100
AcDbEntity
  8
7
100
AcDbLine
 62
7
  6
BYLAYER
 10
96.5524837715
 20
214.2901101972
 11
95.3078845097
 21
214.2901101972
  0
LINE
  5
297
100
AcDbEntity
  8
7
100
AcDbLine
 62
7
  6
BYLAYER
 10
89.9264241129
 20
215.4376101972
 11
87.9264241129
 21
215.4376101972
  0
LINE
  5
298
100
AcDbEntity
  8
7
100
AcDbLine
 62
7
  6
BYLAYER
 10
88.4264241129
 20
215.9376101972
 11
89.9264241129
 21
215.9376101972
  0
LINE
  5
299
100
AcDbEntity
  8
7
100
AcDbLine
 62
7
  6
BYLAYER
 10
92.4264241129
 20
217.7483894721
 11
95.2157690876
 21
217.7483894721
  0
LINE
  5
29A
100
AcDbEntity
  8
7
100
AcDbLine
 62
7
  6
BYLAYER
 10
95.2157690876
 20
222.7483894721
 11
92.4264241129
 21
222.7483894721
  0
LINE
  5
29B
100
AcDbEntity
  8
7
100
AcDbLine
 62
7
  6
BYLAYER
 10
39.5444407868
 20
226.9366296181
 11
39.7764241129
 21
226.9366296181
  0
LINE
  5
29C
100
AcDbEntity
  8
7
100
AcDbLine
 62
7
  6
BYLAYER
 10
72.426406798
 20
228.4376101972
 11
57.426406798
 21
228.4376101972
  0
LINE
  5
29D
100
AcDbEntity
  8
7
100
AcDbLine
 62
7
  6
BYLAYER
 10
57.426406798
 20
230.9376101972
 11
60.426406798
 21
230.9376101972
  0
LINE
  5
29E
100
AcDbEntity
  8
7
100
AcDbLine
 62
7
  6
BYLAYER
 10
69.426406798
 20
230.9376101972
 11
72.426406798
 21
230.9376101972
  0
LINE
  5
29F
100
AcDbEntity
  8
7
100
AcDbLine
 62
7
  6
BYLAYER
 10
88.4264241129
 20
232.9376101972
 11
69.426406798
 21
232.9376101972
  0
LINE
  5
2A0
100
AcDbEntity
  8
7
100
AcDbLine
 62
7
  6
BYLAYER
 10
60.426406798
 20
232.9376101972
 11
45.8269562445
 21
232.9376101972
  0
ARC
  5
2A1
100
AcDbEntity
  8
4
100
AcDbCircle
 62
7
  6
BYLAYER
 10
45.8269562441
 20
36.9042961109
 40
9.9999999997
100
AcDbArc
 50
254.0546041008
 51
270.0000000016
  0
ARC
  5
2A2
100
AcDbEntity
  8
4
100
AcDbCircle
 62
7
  6
BYLAYER
 10
45.8269562444
 20
66.9042961114
 40
9.9999999998
100
AcDbArc
 50
90.0000000004
 51
105.9453959013
  0
CIRCLE
  5
2A3
100
AcDbEntity
  8
4
100
AcDbCircle
 62
7
  6
BYLAYER
 10
51.4264241129
 20
42.9042961112
 40
7.75
  0
CIRCLE
  5
2A4
100
AcDbEntity
  8
4
100
AcDbCircle
 62
7
  6
BYLAYER
 10
51.4264241129
 20
42.9042961112
 40
6.0
  0
CIRCLE
  5
2A5
100
AcDbEntity
  8
4
100
AcDbCircle
 62
7
  6
BYLAYER
 10
51.4264241129
 20
42.9042961112
 40
5.0
  0
CIRCLE
  5
2A6
100
AcDbEntity
  8
4
100
AcDbCircle
 62
7
  6
BYLAYER
 10
51.4264241129
 20
42.9042961112
 40
4.2
  0
ARC
  5
2A7
100
AcDbEntity
  8
4
100
AcDbCircle
 62
7
  6
BYLAYER
 10
39.426406798
 20
30.4128989367
 40
2.0
100
AcDbArc
 50
179.9999999998
 51
254.0546040992
  0
ARC
  5
2A8
100
AcDbEntity
  8
4
100
AcDbCircle
 62
7
  6
BYLAYER
 10
39.426406798
 20
30.6692087127
 40
2.0
100
AcDbArc
 50
116.5650511771
 51
180.0000000001
  0
ARC
  5
2A9
100
AcDbEntity
  8
4
100
AcDbCircle
 62
7
  6
BYLAYER
 10
39.426406798
 20
73.1393835096
 40
2.0
100
AcDbArc
 50
179.9999999999
 51
243.4349488231
  0
ARC
  5
2AA
100
AcDbEntity
  8
4
100
AcDbCircle
 62
7
  6
BYLAYER
 10
39.426406798
 20
73.3956932856
 40
2.0
100
AcDbArc
 50
105.9453959008
 51
180.0000000002
  0
ARC
  5
2AB
100
AcDbEntity
  8
4
100
AcDbCircle
 62
7
  6
BYLAYER
 10
57.426406798
 20
30.9042961112
 40
0.5
100
AcDbArc
 50
90.0
 51
180.0
  0
ARC
  5
2AC
100
AcDbEntity
  8
4
100
AcDbCircle
 62
7
  6
BYLAYER
 10
57.426406798
 20
29.4042961112
 40
0.5
100
AcDbArc
 50
180.0
 51
270.0
  0
ARC
  5
2AD
100
AcDbEntity
  8
4
100
AcDbCircle
 62
7
  6
BYLAYER
 10
60.426406798
 20
28.4042961112
 40
0.5
100
AcDbArc
 50
0.0
 51
90.0
  0
ARC
  5
2AE
100
AcDbEntity
  8
4
100
AcDbCircle
 62
7
  6
BYLAYER
 10
60.426406798
 20
27.4042961112
 40
0.5
100
AcDbArc
 50
270.0
 51
360.0
  0
ARC
  5
2AF
100
AcDbEntity
  8
4
100
AcDbCircle
 62
7
  6
BYLAYER
 10
39.5444407868
 20
32.4052766902
 40
0.5
100
AcDbArc
 50
89.9999999987
 51
116.5650511775
  0
ARC
  5
2B0
100
AcDbEntity
  8
4
100
AcDbCircle
 62
7
  6
BYLAYER
 10
39.5444407868
 20
71.4033155321
 40
0.5
100
AcDbArc
 50
243.4349488229
 51
269.9999999998
  0
ARC
  5
2B1
100
AcDbEntity
  8
4
100
AcDbCircle
 62
7
  6
BYLAYER
 10
60.426406798
 20
76.4042961112
 40
0.5
100
AcDbArc
 50
0.0
 51
90.0
  0
ARC
  5
2B2
100
AcDbEntity
  8
4
100
AcDbCircle
 62
7
  6
BYLAYER
 10
60.426406798
 20
75.4042961112
 40
0.5
100
AcDbArc
 50
270.0
 51
360.0
  0
ARC
  5
2B3
100
AcDbEntity
  8
4
100
AcDbCircle
 62
7
  6
BYLAYER
 10
57.426406798
 20
74.4042961112
 40
0.5
100
AcDbArc
 50
90.0
 51
180.0
  0
ARC
  5
2B4
100
AcDbEntity
  8
4
100
AcDbCircle
 62
7
  6
BYLAYER
 10
57.426406798
 20
72.9042961112
 40
0.5
100
AcDbArc
 50
180.0
 51
270.0
  0
ARC
  5
2B5
100
AcDbEntity
  8
7
100
AcDbCircle
 62
7
  6
BYLAYER
 10
45.8269562441
 20
192.9376101969
 40
9.9999999997
100
AcDbArc
 50
254.0546041013
 51
270.0000000011
  0
ARC
  5
2B6
100
AcDbEntity
  8
7
100
AcDbCircle
 62
7
  6
BYLAYER
 10
45.8269562444
 20
222.9376101974
 40
9.9999999998
100
AcDbArc
 50
89.9999999998
 51
105.9453959017
  0
CIRCLE
  5
2B7
100
AcDbEntity
  8
7
100
AcDbCircle
 62
7
  6
BYLAYER
 10
51.4264241129
 20
216.9376101972
 40
7.7528351174
  0
CIRCLE
  5
2B8
100
AcDbEntity
  8
7
100
AcDbCircle
 62
7
  6
BYLAYER
 10
51.4264241129
 20
216.9376101972
 40
7.75
  0
CIRCLE
  5
2B9
100
AcDbEntity
  8
7
100
AcDbCircle
 62
7
  6
BYLAYER
 10
51.4264241129
 20
198.9376101972
 40
7.75
  0
CIRCLE
  5
2BA
100
AcDbEntity
  8
7
100
AcDbCircle
 62
7
  6
BYLAYER
 10
51.4264241129
 20
216.9376101972
 40
6.75
  0
CIRCLE
  5
2BB
100
AcDbEntity
  8
7
100
AcDbCircle
 62
7
  6
BYLAYER
 10
51.4264241129
 20
198.9376101972
 40
6.0
  0
CIRCLE
  5
2BC
100
AcDbEntity
  8
7
100
AcDbCircle
 62
7
  6
BYLAYER
 10
51.4264241129
 20
216.9376101972
 40
5.5
  0
CIRCLE
  5
2BD
100
AcDbEntity
  8
7
100
AcDbCircle
 62
7
  6
BYLAYER
 10
51.4264241129
 20
198.9376101972
 40
5.0
  0
CIRCLE
  5
2BE
100
AcDbEntity
  8
7
100
AcDbCircle
 62
7
  6
BYLAYER
 10
51.4264241129
 20
198.9376101972
 40
4.2
  0
CIRCLE
  5
2BF
100
AcDbEntity
  8
7
100
AcDbCircle
 62
7
  6
BYLAYER
 10
51.4264241129
 20
216.9376101972
 40
4.0
  0
CIRCLE
  5
2C0
100
AcDbEntity
  8
7
100
AcDbCircle
 62
7
  6
BYLAYER
 10
51.4264241129
 20
216.9376101972
 40
3.0
  0
ARC
  5
2C1
100
AcDbEntity
  8
7
100
AcDbCircle
 62
7
  6
BYLAYER
 10
39.426406798
 20
186.4462130227
 40
2.0
100
AcDbArc
 50
179.9999999998
 51
254.0546040991
  0
ARC
  5
2C2
100
AcDbEntity
  8
7
100
AcDbCircle
 62
7
  6
BYLAYER
 10
39.426406798
 20
186.7025227987
 40
2.0
100
AcDbArc
 50
116.5650511771
 51
180.0000000001
  0
ARC
  5
2C3
100
AcDbEntity
  8
7
100
AcDbCircle
 62
7
  6
BYLAYER
 10
39.426406798
 20
229.1726975956
 40
2.0
100
AcDbArc
 50
179.9999999999
 51
243.434948823
  0
ARC
  5
2C4
100
AcDbEntity
  8
7
100
AcDbCircle
 62
7
  6
BYLAYER
 10
39.426406798
 20
229.4290073716
 40
2.0
100
AcDbArc
 50
105.9453959013
 51
180.0000000002
  0
ARC
  5
2C5
100
AcDbEntity
  8
7
100
AcDbCircle
 62
7
  6
BYLAYER
 10
57.426406798
 20
186.9376101972
 40
0.5
100
AcDbArc
 50
90.0
 51
180.0
  0
ARC
  5
2C6
100
AcDbEntity
  8
7
100
AcDbCircle
 62
7
  6
BYLAYER
 10
57.426406798
 20
185.4376101972
 40
0.5
100
AcDbArc
 50
180.0
 51
270.0
  0
ARC
  5
2C7
100
AcDbEntity
  8
7
100
AcDbCircle
 62
7
  6
BYLAYER
 10
60.426406798
 20
184.4376101972
 40
0.5
100
AcDbArc
 50
0.0
 51
90.0
  0
ARC
  5
2C8
100
AcDbEntity
  8
7
100
AcDbCircle
 62
7
  6
BYLAYER
 10
60.426406798
 20
183.4376101972
 40
0.5
100
AcDbArc
 50
270.0
 51
360.0
  0
ARC
  5
2C9
100
AcDbEntity
  8
7
100
AcDbCircle
 62
7
  6
BYLAYER
 10
39.5444407868
 20
188.4385907762
 40
0.5
100
AcDbArc
 50
89.9999999985
 51
116.5650511777
  0
ARC
  5
2CA
100
AcDbEntity
  8
7
100
AcDbCircle
 62
7
  6
BYLAYER
 10
39.5444407868
 20
227.4366296181
 40
0.5
100
AcDbArc
 50
243.4349488218
 51
270.0000000014
  0
ARC
  5
2CB
100
AcDbEntity
  8
7
100
AcDbCircle
 62
7
  6
BYLAYER
 10
60.426406798
 20
232.4376101972
 40
0.5
100
AcDbArc
 50
0.0
 51
90.0
  0
ARC
  5
2CC
100
AcDbEntity
  8
7
100
AcDbCircle
 62
7
  6
BYLAYER
 10
60.426406798
 20
231.4376101972
 40
0.5
100
AcDbArc
 50
270.0
 51
360.0
  0
ARC
  5
2CD
100
AcDbEntity
  8
7
100
AcDbCircle
 62
7
  6
BYLAYER
 10
57.426406798
 20
230.4376101972
 40
0.5
100
AcDbArc
 50
90.0
 51
180.0
  0
ARC
  5
2CE
100
AcDbEntity
  8
7
100
AcDbCircle
 62
7
  6
BYLAYER
 10
57.426406798
 20
228.9376101972
 40
0.5
100
AcDbArc
 50
180.0
 51
270.0
  0
CIRCLE
  5
2CF
100
AcDbEntity
  8
4
100
AcDbCircle
 62
7
  6
BYLAYER
 10
73.9264241129
 20
42.9042961112
 40
7.7528351174
  0
CIRCLE
  5
2D0
100
AcDbEntity
  8
4
100
AcDbCircle
 62
7
  6
BYLAYER
 10
73.9264241129
 20
42.9042961112
 40
7.75
  0
CIRCLE
  5
2D1
100
AcDbEntity
  8
4
100
AcDbCircle
 62
7
  6
BYLAYER
 10
73.9264241129
 20
42.9042961112
 40
6.75
  0
CIRCLE
  5
2D2
100
AcDbEntity
  8
4
100
AcDbCircle
 62
7
  6
BYLAYER
 10
73.9264241129
 20
42.9042961112
 40
5.5
  0
CIRCLE
  5
2D3
100
AcDbEntity
  8
4
100
AcDbCircle
 62
7
  6
BYLAYER
 10
73.9264241129
 20
42.9042961112
 40
4.0
  0
CIRCLE
  5
2D4
100
AcDbEntity
  8
4
100
AcDbCircle
 62
7
  6
BYLAYER
 10
73.9264241129
 20
42.9042961112
 40
3.0
  0
ARC
  5
2D5
100
AcDbEntity
  8
4
100
AcDbCircle
 62
7
  6
BYLAYER
 10
69.426406798
 20
27.4042961112
 40
0.5
100
AcDbArc
 50
180.0
 51
270.0
  0
ARC
  5
2D6
100
AcDbEntity
  8
4
100
AcDbCircle
 62
7
  6
BYLAYER
 10
69.426406798
 20
28.4042961112
 40
0.5
100
AcDbArc
 50
90.0
 51
180.0
  0
ARC
  5
2D7
100
AcDbEntity
  8
4
100
AcDbCircle
 62
7
  6
BYLAYER
 10
72.426406798
 20
29.4042961112
 40
0.5
100
AcDbArc
 50
270.0
 51
360.0
  0
ARC
  5
2D8
100
AcDbEntity
  8
4
100
AcDbCircle
 62
7
  6
BYLAYER
 10
72.426406798
 20
30.9042961112
 40
0.5
100
AcDbArc
 50
0.0
 51
90.0
  0
CIRCLE
  5
2D9
100
AcDbEntity
  8
4
100
AcDbCircle
 62
7
  6
BYLAYER
 10
73.9264241129
 20
60.9042961112
 40
7.7528351174
  0
CIRCLE
  5
2DA
100
AcDbEntity
  8
4
100
AcDbCircle
 62
7
  6
BYLAYER
 10
73.9264241129
 20
60.9042961112
 40
7.75
  0
CIRCLE
  5
2DB
100
AcDbEntity
  8
4
100
AcDbCircle
 62
7
  6
BYLAYER
 10
73.9264241129
 20
60.9042961112
 40
6.75
  0
CIRCLE
  5
2DC
100
AcDbEntity
  8
4
100
AcDbCircle
 62
7
  6
BYLAYER
 10
73.9264241129
 20
60.9042961112
 40
5.5
  0
CIRCLE
  5
2DD
100
AcDbEntity
  8
4
100
AcDbCircle
 62
7
  6
BYLAYER
 10
73.9264241129
 20
60.9042961112
 40
4.0
  0
CIRCLE
  5
2DE
100
AcDbEntity
  8
4
100
AcDbCircle
 62
7
  6
BYLAYER
 10
73.9264241129
 20
60.9042961112
 40
3.0
  0
ARC
  5
2DF
100
AcDbEntity
  8
4
100
AcDbCircle
 62
7
  6
BYLAYER
 10
72.426406798
 20
72.9042961112
 40
0.5
100
AcDbArc
 50
270.0
 51
360.0
  0
ARC
  5
2E0
100
AcDbEntity
  8
4
100
AcDbCircle
 62
7
  6
BYLAYER
 10
72.426406798
 20
74.4042961112
 40
0.5
100
AcDbArc
 50
0.0
 51
90.0
  0
ARC
  5
2E1
100
AcDbEntity
  8
4
100
AcDbCircle
 62
7
  6
BYLAYER
 10
69.426406798
 20
75.4042961112
 40
0.5
100
AcDbArc
 50
180.0
 51
270.0
  0
ARC
  5
2E2
100
AcDbEntity
  8
4
100
AcDbCircle
 62
7
  6
BYLAYER
 10
69.426406798
 20
76.4042961112
 40
0.5
100
AcDbArc
 50
90.0
 51
180.0
  0
ARC
  5
2E3
100
AcDbEntity
  8
4
100
AcDbCircle
 62
7
  6
BYLAYER
 10
99.2157690876
 20
23.7150753861
 40
7.0
100
AcDbArc
 50
180.0
 51
270.0000000001
  0
ARC
  5
2E4
100
AcDbEntity
  8
4
100
AcDbCircle
 62
7
  6
BYLAYER
 10
99.2157690876
 20
23.7150753861
 40
4.0
100
AcDbArc
 50
180.0
 51
270.0
  0
ARC
  5
2E5
100
AcDbEntity
  8
4
100
AcDbCircle
 62
7
  6
BYLAYER
 10
88.4264241129
 20
30.9042961112
 40
4.0
100
AcDbArc
 50
270.0
 51
360.0
  0
ARC
  5
2E6
100
AcDbEntity
  8
4
100
AcDbCircle
 62
7
  6
BYLAYER
 10
88.4264241129
 20
44.4042961112
 40
0.5
100
AcDbArc
 50
180.0
 51
270.0
  0
ARC
  5
2E7
100
AcDbEntity
  8
4
100
AcDbCircle
 62
7
  6
BYLAYER
 10
89.9264241129
 20
44.4042961112
 40
0.5
100
AcDbArc
 50
270.0
 51
360.0
  0
ARC
  5
2E8
100
AcDbEntity
  8
4
100
AcDbCircle
 62
7
  6
BYLAYER
 10
90.9264241129
 20
47.4042961112
 40
0.5
100
AcDbArc
 50
90.0
 51
180.0
  0
ARC
  5
2E9
100
AcDbEntity
  8
4
100
AcDbCircle
 62
7
  6
BYLAYER
 10
91.9264241129
 20
47.4042961112
 40
0.5
100
AcDbArc
 50
0.0
 51
90.0
  0
ARC
  5
2EA
100
AcDbEntity
  8
4
100
AcDbCircle
 62
7
  6
BYLAYER
 10
88.4264241129
 20
72.9042961112
 40
4.0
100
AcDbArc
 50
0.0
 51
90.0
  0
ARC
  5
2EB
100
AcDbEntity
  8
4
100
AcDbCircle
 62
7
  6
BYLAYER
 10
89.9264241129
 20
59.4042961112
 40
0.5
100
AcDbArc
 50
0.0
 51
90.0
  0
ARC
  5
2EC
100
AcDbEntity
  8
4
100
AcDbCircle
 62
7
  6
BYLAYER
 10
88.4264241129
 20
59.4042961112
 40
0.5
100
AcDbArc
 50
90.0
 51
180.0
  0
ARC
  5
2ED
100
AcDbEntity
  8
4
100
AcDbCircle
 62
7
  6
BYLAYER
 10
91.9264241129
 20
56.4042961112
 40
0.5
100
AcDbArc
 50
270.0
 51
360.0
  0
ARC
  5
2EE
100
AcDbEntity
  8
4
100
AcDbCircle
 62
7
  6
BYLAYER
 10
90.9264241129
 20
56.4042961112
 40
0.5
100
AcDbArc
 50
180.0000000001
 51
270.0000000001
  0
CIRCLE
  5
2EF
100
AcDbEntity
  8
7
100
AcDbCircle
 62
7
  6
BYLAYER
 10
73.9264241129
 20
198.9376101972
 40
7.7528351174
  0
CIRCLE
  5
2F0
100
AcDbEntity
  8
7
100
AcDbCircle
 62
7
  6
BYLAYER
 10
73.9264241129
 20
198.9376101972
 40
7.75
  0
CIRCLE
  5
2F1
100
AcDbEntity
  8
7
100
AcDbCircle
 62
7
  6
BYLAYER
 10
73.9264241129
 20
198.9376101972
 40
6.75
  0
CIRCLE
  5
2F2
100
AcDbEntity
  8
7
100
AcDbCircle
 62
7
  6
BYLAYER
 10
73.9264241129
 20
198.9376101972
 40
5.5
  0
CIRCLE
  5
2F3
100
AcDbEntity
  8
7
100
AcDbCircle
 62
7
  6
BYLAYER
 10
73.9264241129
 20
198.9376101972
 40
4.0
  0
CIRCLE
  5
2F4
100
AcDbEntity
  8
7
100
AcDbCircle
 62
7
  6
BYLAYER
 10
73.9264241129
 20
198.9376101972
 40
3.0
  0
ARC
  5
2F5
100
AcDbEntity
  8
7
100
AcDbCircle
 62
7
  6
BYLAYER
 10
69.426406798
 20
183.4376101972
 40
0.5
100
AcDbArc
 50
180.0
 51
270.0
  0
ARC
  5
2F6
100
AcDbEntity
  8
7
100
AcDbCircle
 62
7
  6
BYLAYER
 10
69.426406798
 20
184.4376101972
 40
0.5
100
AcDbArc
 50
90.0
 51
180.0
  0
ARC
  5
2F7
100
AcDbEntity
  8
7
100
AcDbCircle
 62
7
  6
BYLAYER
 10
72.426406798
 20
185.4376101972
 40
0.5
100
AcDbArc
 50
270.0
 51
360.0
  0
ARC
  5
2F8
100
AcDbEntity
  8
7
100
AcDbCircle
 62
7
  6
BYLAYER
 10
72.426406798
 20
186.9376101972
 40
0.5
100
AcDbArc
 50
0.0
 51
90.0
  0
CIRCLE
  5
2F9
100
AcDbEntity
  8
7
100
AcDbCircle
 62
7
  6
BYLAYER
 10
73.9264241129
 20
216.9376101972
 40
7.7528351174
  0
CIRCLE
  5
2FA
100
AcDbEntity
  8
7
100
AcDbCircle
 62
7
  6
BYLAYER
 10
73.9264241129
 20
216.9376101972
 40
7.75
  0
CIRCLE
  5
2FB
100
AcDbEntity
  8
7
100
AcDbCircle
 62
7
  6
BYLAYER
 10
73.9264241129
 20
216.9376101972
 40
6.75
  0
CIRCLE
  5
2FC
100
AcDbEntity
  8
7
100
AcDbCircle
 62
7
  6
BYLAYER
 10
73.9264241129
 20
216.9376101972
 40
5.5
  0
CIRCLE
  5
2FD
100
AcDbEntity
  8
7
100
AcDbCircle
 62
7
  6
BYLAYER
 10
73.9264241129
 20
216.9376101972
 40
4.0
  0
CIRCLE
  5
2FE
100
AcDbEntity
  8
7
100
AcDbCircle
 62
7
  6
BYLAYER
 10
73.9264241129
 20
216.9376101972
 40
3.0
  0
ARC
  5
2FF
100
AcDbEntity
  8
7
100
AcDbCircle
 62
7
  6
BYLAYER
 10
72.426406798
 20
228.9376101972
 40
0.5
100
AcDbArc
 50
270.0
 51
360.0
  0
ARC
  5
300
100
AcDbEntity
  8
7
100
AcDbCircle
 62
7
  6
BYLAYER
 10
72.426406798
 20
230.4376101972
 40
0.5
100
AcDbArc
 50
0.0
 51
90.0
  0
ARC
  5
301
100
AcDbEntity
  8
7
100
AcDbCircle
 62
7
  6
BYLAYER
 10
69.426406798
 20
231.4376101972
 40
0.5
100
AcDbArc
 50
180.0
 51
270.0
  0
ARC
  5
302
100
AcDbEntity
  8
7
100
AcDbCircle
 62
7
  6
BYLAYER
 10
69.426406798
 20
232.4376101972
 40
0.5
100
AcDbArc
 50
90.0
 51
180.0
  0
ARC
  5
303
100
AcDbEntity
  8
7
100
AcDbCircle
 62
7
  6
BYLAYER
 10
99.2157690876
 20
179.7483894721
 40
7.0
100
AcDbArc
 50
180.0
 51
270.0
  0
ARC
  5
304
100
AcDbEntity
  8
7
100
AcDbCircle
 62
7
  6
BYLAYER
 10
99.2157690876
 20
179.7483894721
 40
4.0
100
AcDbArc
 50
180.0
 51
270.0
  0
ARC
  5
305
100
AcDbEntity
  8
7
100
AcDbCircle
 62
7
  6
BYLAYER
 10
88.4264241129
 20
186.9376101972
 40
4.0
100
AcDbArc
 50
270.0
 51
360.0
  0
ARC
  5
306
100
AcDbEntity
  8
7
100
AcDbCircle
 62
7
  6
BYLAYER
 10
88.4264241129
 20
200.4376101972
 40
0.5
100
AcDbArc
 50
180.0
 51
270.0
  0
ARC
  5
307
100
AcDbEntity
  8
7
100
AcDbCircle
 62
7
  6
BYLAYER
 10
89.9264241129
 20
200.4376101972
 40
0.5
100
AcDbArc
 50
270.0
 51
360.0
  0
ARC
  5
308
100
AcDbEntity
  8
7
100
AcDbCircle
 62
7
  6
BYLAYER
 10
90.9264241129
 20
203.4376101972
 40
0.5
100
AcDbArc
 50
90.0
 51
180.0
  0
ARC
  5
309
100
AcDbEntity
  8
7
100
AcDbCircle
 62
7
  6
BYLAYER
 10
91.9264241129
 20
203.4376101972
 40
0.5
100
AcDbArc
 50
0.0
 51
90.0
  0
ARC
  5
30A
100
AcDbEntity
  8
7
100
AcDbCircle
 62
7
  6
BYLAYER
 10
88.4264241129
 20
228.9376101972
 40
4.0
100
AcDbArc
 50
0.0
 51
90.0
  0
ARC
  5
30B
100
AcDbEntity
  8
7
100
AcDbCircle
 62
7
  6
BYLAYER
 10
89.9264241129
 20
215.4376101972
 40
0.5
100
AcDbArc
 50
0.0
 51
90.0
  0
ARC
  5
30C
100
AcDbEntity
  8
7
100
AcDbCircle
 62
7
  6
BYLAYER
 10
88.4264241129
 20
215.4376101972
 40
0.5
100
AcDbArc
 50
90.0
 51
180.0
  0
ARC
  5
30D
100
AcDbEntity
  8
7
100
AcDbCircle
 62
7
  6
BYLAYER
 10
91.9264241129
 20
212.4376101972
 40
0.5
100
AcDbArc
 50
270.0
 51
360.0
  0
ARC
  5
30E
100
AcDbEntity
  8
7
100
AcDbCircle
 62
7
  6
BYLAYER
 10
90.9264241129
 20
212.4376101972
 40
0.5
100
AcDbArc
 50
180.0000000001
 51
270.0
  0
ENDSEC
  0
SECTION
  2
OBJECTS
  0
DICTIONARY
  5
C
100
AcDbDictionary
280
0
281
1
  3
ACAD_GROUP
350
D
  3
ACAD_MLINESTYLE
350
17
  3
ACAD_LAYOUT
350
1A
  3
ACAD_PLOTSETTINGS
350
19
  3
ACAD_PLOTSTYLENAME
350
E
  0
DICTIONARY
  5
D
102
{ACAD_REACTORS
330
C
102
}
100
AcDbDictionary
280
0
281
1
  0
ACDBDICTIONARYWDFLT
  5
E
102
{ACAD_REACTORS
330
C
102
}
100
AcDbDictionary
281
1
  3
Normal
350
F
100
AcDbDictionaryWithDefault
340
F
  0
DICTIONARY
  5
17
102
{ACAD_REACTORS
330
C
102
}
100
AcDbDictionary
280
0
281
1
  3
Standard
350
18
  0
DICTIONARY
  5
19
102
{ACAD_REACTORS
330
C
102
}
100
AcDbDictionary
281
1
  0
DICTIONARY
  5
1A
102
{ACAD_REACTORS
330
C
102
}
100
AcDbDictionary
281
1
  3
Model
350
30F
  3
Layout1
350
310
  0
ACDBPLACEHOLDER
  5
F
102
{ACAD_REACTORS
330
E
102
}
  0
MLINESTYLE
  5
18
102
{ACAD_REACTORS
330
17
102
}
100
AcDbMlineStyle
  2
STANDARD
 70
0
  3

 62
256
 51
90.0
 52
90.0
 71
2
 49
0.5
 62
256
  6
BYLAYER
 49
-0.5
 62
256
  6
BYLAYER
  0
LAYOUT
  5
30F
102
{ACAD_REACTORS
330
1A
102
}
100
AcDbPlotSettings
  1

  2
none_device
  4

  6

 40
0.0
 41
0.0
 42
0.0
 43
0.0
 44
210.0
 45
297.0
 46
0.0
 47
0.0
 48
0.0
 49
0.0
140
0.0
141
0.0
142
1.0
143
1.0
 70
1024
 72
1
 73
0
 74
0
  7

 75
0
147
1.0
148
0.0
149
0.0
100
AcDbLayout
  1
Model
 70
0
 71
0
 10
0.0
 20
0.0
 11
210.0
 21
297.0
 12
0.0
 22
0.0
 32
0.0
 14
0.0
 24
0.0
 34
0.0
 15
0.0
 25
0.0
 35
0.0
146
0.0
 13
0.0
 23
0.0
 33
0.0
 16
1.0
 26
0.0
 36
0.0
 17
0.0
 27
1.0
 37
0.0
 76
0
330
212
345
0
346
0
  0
LAYOUT
  5
310
102
{ACAD_REACTORS
330
1A
102
}
100
AcDbPlotSettings
  1

  2
none_device
  4

  6

 40
0.0
 41
0.0
 42
0.0
 43
0.0
 44
210.0
 45
297.0
 46
0.0
 47
0.0
 48
0.0
 49
0.0
140
0.0
141
0.0
142
1.0
143
1.0
 70
0
 72
1
 73
0
 74
0
  7

 75
0
147
1.0
148
0.0
149
0.0
100
AcDbLayout
  1
Layout1
 70
0
 71
1
 10
0.0
 20
0.0
 11
210.0
 21
297.0
 12
0.0
 22
0.0
 32
0.0
 14
0.0
 24
0.0
 34
0.0
 15
0.0
 25
0.0
 35
0.0
146
0.0
 13
0.0
 23
0.0
 33
0.0
 16
1.0
 26
0.0
 36
0.0
 17
0.0
 27
1.0
 37
0.0
 76
0
330
213
345
0
346
0
  0
ENDSEC
  0
EOF
