999
DXF file: C:\Users\sesa63760\Dev\_Creo\CAD\MCADUE0002364_3D-CAD\drw0001_7.dxf
999
Pro/ENGINEER 2019471 by Parametric Technology Corporation
  0
SECTION
  2
HEADER
  9
$ACADVER
  1
AC1024
  9
$DWGCODEPAGE
  3
ANSI_1252
  9
$EXTMAX
 10
73.1933807256
 20
103.5163527404
 30
0.0
  9
$EXTMIN
 10
0.0
 20
0.0
 30
0.0
  9
$LIMMIN
 10
0.0
 20
0.0
  9
$LIMMAX
 10
73.1933807256
 20
103.5163527404
  9
$VIEWCTR
 10
36.5966903628
 20
51.7581763702
  9
$VIEWSIZE
 40
103.5163527404
  9
$CLAYER
  8
0
  9
$LTSCALE
 40
6.7477326231
  9
$CELTYPE
  6
BYLAYER
  9
$DIMSCALE
 40
1.0
  9
$DIMASZ
 40
0.8713497705
  9
$DIMEXO
 40
1.0
  9
$DIMDLI
 40
4.6620698123
  9
$DIMEXE
 40
1.0
  9
$DIMCEN
 40
1.1041744292
  9
$DIMLFAC
 40
1.0
  9
$DIMBLK
  1
_FILLED
  9
$DIMALT
 70
0
  9
$DIMALTF
 40
0.0393700787
  9
$DIMTXT
 40
1.2198896788
  9
$DIMTOL
 70
1
  9
$DIMLIM
 70
0
  9
$DIMTFAC
 40
1.0
  9
$DIMTP
 40
0.01
  9
$DIMTM
 40
0.01
  9
$DIMGAP
 40
0.625
  9
$DIMDSEP
 70
46
  9
$AUNITS
 70
0
  9
$PDMODE
 70
3
  9
$PDSIZE
 40
0.3125
  9
$HANDSEED
  5
2C3
  9
$TILEMODE
 70
1
  9
$MEASUREMENT
 70
1
  9
$INSUNITS
 70
4
  0
ENDSEC
  0
SECTION
  2
CLASSES
  0
CLASS
  1
ACDBDICTIONARYWDFLT
  2
AcDbDictionaryWithDefault
  3
AutoCAD 2000
 90
0
 91
1
280
0
281
0
  0
CLASS
  1
ACDBPLACEHOLDER
  2
AcDbPlaceHolder
  3
AutoCAD 2000
 90
0
 91
1
280
0
281
0
  0
CLASS
  1
LAYOUT
  2
AcDbLayout
  3
AutoCAD 2000
 90
0
 91
0
280
0
281
0
  0
ENDSEC
  0
SECTION
  2
TABLES
  0
TABLE
  2
VPORT
  5
8
100
AcDbSymbolTable
 70
2
  0
VPORT
  5
1F4
100
AcDbSymbolTableRecord
100
AcDbViewportTableRecord
  2
*ACTIVE
 70
0
 10
0.0
 20
0.0
 11
1.0
 21
1.0
 12
36.5966903628
 22
51.7581763702
 13
0.0
 23
0.0
 14
1.0
 24
1.0
 15
0.0
 25
0.0
 16
0.0
 26
0.0
 36
1.0
 17
0.0
 27
0.0
 37
0.0
 40
103.5163527404
 41
0.7070707071
 42
50.0
 43
0.0
 44
0.0
 50
0.0
 51
0.0
 71
0
 72
100
 73
1
 74
1
 75
0
 76
0
 77
0
 78
0
  0
ENDTAB
  0
TABLE
  2
LTYPE
  5
5
100
AcDbSymbolTable
 70
6
  0
LTYPE
  5
14
100
AcDbSymbolTableRecord
100
AcDbLinetypeTableRecord
  2
BYBLOCK
 70
0
  3

 72
65
 73
0
 40
0.0
  0
LTYPE
  5
15
100
AcDbSymbolTableRecord
100
AcDbLinetypeTableRecord
  2
BYLAYER
 70
0
  3

 72
65
 73
0
 40
0.0
  0
LTYPE
  5
16
100
AcDbSymbolTableRecord
100
AcDbLinetypeTableRecord
  2
CONTINUOUS
 70
64
  3
Solid line
 72
65
 73
0
 40
0.0
  0
LTYPE
  5
1F5
100
AcDbSymbolTableRecord
100
AcDbLinetypeTableRecord
  2
CENTER
 70
64
  3
____ _ ____ _ ____ _ ____ _ ____ _ ____ _ ____
 72
65
 73
4
 40
0.6
 49
0.375
 74
0
 49
-0.075
 74
0
 49
0.075
 74
0
 49
-0.075
 74
0
  0
LTYPE
  5
1F6
100
AcDbSymbolTableRecord
100
AcDbLinetypeTableRecord
  2
HIDDEN
 70
64
  3
- - - - - - - - - - - - - - - - - - - -
 72
65
 73
2
 40
0.2
 49
0.1
 74
0
 49
-0.1
 74
0
  0
LTYPE
  5
1F7
100
AcDbSymbolTableRecord
100
AcDbLinetypeTableRecord
  2
PHANTOM
 70
64
  3
_____ _ _ _____ _ _ _____ _ _ _____
 72
65
 73
6
 40
0.8
 49
0.45
 74
0
 49
-0.05
 74
0
 49
0.1
 74
0
 49
-0.05
 74
0
 49
0.1
 74
0
 49
-0.05
 74
0
  0
LTYPE
  5
1F8
100
AcDbSymbolTableRecord
100
AcDbLinetypeTableRecord
  2
DOT
 70
64
  3
. . . . . . . . . . . . . . . . . . . .
 72
65
 73
2
 40
0.2
 49
0.1
 74
0
 49
-0.1
 74
0
  0
LTYPE
  5
1F9
100
AcDbSymbolTableRecord
100
AcDbLinetypeTableRecord
  2
DASHED
 70
64
  3
- - - - - - - - - - - - - - - - - - - -
 72
65
 73
2
 40
0.2
 49
0.1
 74
0
 49
-0.1
 74
0
  0
ENDTAB
  0
TABLE
  2
LAYER
  5
2
100
AcDbSymbolTable
 70
36
  0
LAYER
  5
10
100
AcDbSymbolTableRecord
100
AcDbLayerTableRecord
  2
0
 70
0
 62
7
  6
CONTINUOUS
370
-3
390
F
  0
LAYER
  5
1FA
100
AcDbSymbolTableRecord
100
AcDbLayerTableRecord
  2
DEFAULT_1
 70
0
 62
7
  6
CENTER
370
-3
390
F
  0
LAYER
  5
1FB
100
AcDbSymbolTableRecord
100
AcDbLayerTableRecord
  2
DEFAULT_2
 70
0
 62
8
  6
HIDDEN
370
-3
390
F
  0
LAYER
  5
1FC
100
AcDbSymbolTableRecord
100
AcDbLayerTableRecord
  2
DEFAULT_3
 70
0
 62
7
  6
PHANTOM
370
-3
390
F
  0
LAYER
  5
1FD
100
AcDbSymbolTableRecord
100
AcDbLayerTableRecord
  2
00_COMPONENTS
 70
0
 62
7
  6
CONTINUOUS
370
-3
390
F
  0
LAYER
  5
1FE
100
AcDbSymbolTableRecord
100
AcDbLayerTableRecord
  2
01_1_DEFAULT_DATUMS
 70
0
 62
7
  6
CONTINUOUS
370
-3
390
F
  0
LAYER
  5
1FF
100
AcDbSymbolTableRecord
100
AcDbLayerTableRecord
  2
01_PLANES
 70
0
 62
7
  6
CONTINUOUS
370
-3
390
F
  0
LAYER
  5
200
100
AcDbSymbolTableRecord
100
AcDbLayerTableRecord
  2
02_COORD_SYS
 70
0
 62
7
  6
CONTINUOUS
370
-3
390
F
  0
LAYER
  5
201
100
AcDbSymbolTableRecord
100
AcDbLayerTableRecord
  2
03_AXES
 70
0
 62
7
  6
CONTINUOUS
370
-3
390
F
  0
LAYER
  5
202
100
AcDbSymbolTableRecord
100
AcDbLayerTableRecord
  2
04_POINTS
 70
0
 62
7
  6
CONTINUOUS
370
-3
390
F
  0
LAYER
  5
203
100
AcDbSymbolTableRecord
100
AcDbLayerTableRecord
  2
05_CURVES
 70
0
 62
7
  6
CONTINUOUS
370
-3
390
F
  0
LAYER
  5
204
100
AcDbSymbolTableRecord
100
AcDbLayerTableRecord
  2
06_SURFS
 70
0
 62
7
  6
CONTINUOUS
370
-3
390
F
  0
LAYER
  5
205
100
AcDbSymbolTableRecord
100
AcDbLayerTableRecord
  2
07_COSMETICS
 70
0
 62
7
  6
CONTINUOUS
370
-3
390
F
  0
LAYER
  5
206
100
AcDbSymbolTableRecord
100
AcDbLayerTableRecord
  2
10_NOTES
 70
0
 62
7
  6
CONTINUOUS
370
-3
390
F
  0
LAYER
  5
207
100
AcDbSymbolTableRecord
100
AcDbLayerTableRecord
  2
11_NOTES_PUB
 70
0
 62
7
  6
CONTINUOUS
370
-3
390
F
  0
LAYER
  5
208
100
AcDbSymbolTableRecord
100
AcDbLayerTableRecord
  2
13_REF_GTOL
 70
0
 62
7
  6
CONTINUOUS
370
-3
390
F
  0
LAYER
  5
209
100
AcDbSymbolTableRecord
100
AcDbLayerTableRecord
  2
16_MISC
 70
0
 62
7
  6
CONTINUOUS
370
-3
390
F
  0
LAYER
  5
20A
100
AcDbSymbolTableRecord
100
AcDbLayerTableRecord
  2
17_NO_PRINT
 70
0
 62
7
  6
CONTINUOUS
370
-3
390
F
  0
LAYER
  5
20B
100
AcDbSymbolTableRecord
100
AcDbLayerTableRecord
  2
18_DATUM_CAMS_JOINTS
 70
0
 62
7
  6
CONTINUOUS
370
-3
390
F
  0
LAYER
  5
20C
100
AcDbSymbolTableRecord
100
AcDbLayerTableRecord
  2
19_DATUM_FUNCTIONAL
 70
0
 62
7
  6
CONTINUOUS
370
-3
390
F
  0
LAYER
  5
20D
100
AcDbSymbolTableRecord
100
AcDbLayerTableRecord
  2
20_DATUM_KINEMATIC_SCHEME
 70
0
 62
7
  6
CONTINUOUS
370
-3
390
F
  0
ENDTAB
  0
TABLE
  2
STYLE
  5
3
100
AcDbSymbolTable
 70
1
  0
STYLE
  5
11
100
AcDbSymbolTableRecord
100
AcDbTextStyleTableRecord
  2
STANDARD
 70
0
 40
0.0
 41
0.8
 50
0.0
 71
0
 42
0.2
  3
txt
  4

  0
STYLE
  5
20E
100
AcDbSymbolTableRecord
100
AcDbTextStyleTableRecord
  2
TEXTSTYLE_1
 70
0
 40
0.0
 41
0.8
 50
0.0
 71
0
 42
0.2
  3
gdt
  4

  0
ENDTAB
  0
TABLE
  2
VIEW
  5
6
100
AcDbSymbolTable
 70
0
  0
ENDTAB
  0
TABLE
  2
UCS
  5
7
100
AcDbSymbolTable
 70
0
  0
ENDTAB
  0
TABLE
  2
APPID
  5
9
100
AcDbSymbolTable
 70
1
  0
APPID
  5
20F
100
AcDbSymbolTableRecord
100
AcDbRegAppTableRecord
  2
ACAD
 70
0
  0
ENDTAB
  0
TABLE
  2
BLOCK_RECORD
  5
1
100
AcDbSymbolTable
 70
0
  0
BLOCK_RECORD
  5
210
100
AcDbSymbolTableRecord
100
AcDbBlockTableRecord
  2
*Model_Space
  0
BLOCK_RECORD
  5
211
100
AcDbSymbolTableRecord
100
AcDbBlockTableRecord
  2
*Paper_Space
  0
BLOCK_RECORD
  5
212
100
AcDbSymbolTableRecord
100
AcDbBlockTableRecord
  2
_FILLED
  0
ENDTAB
  0
TABLE
  2
DIMSTYLE
  5
A
100
AcDbSymbolTable
 70
1
100
AcDbDimStyleTable
 71
0
  0
DIMSTYLE
105
213
100
AcDbSymbolTableRecord
100
AcDbDimStyleTableRecord
  2
STANDARD
 70
0
  3

  4

 40
1.0
 41
0.8713497705
 42
1.0
 43
0.38
 44
1.0
 45
0.0
 46
0.0
 47
0.01
 48
0.01
140
1.2198896788
141
0.09
142
0.0
143
25.4
144
1.0
145
0.0
146
1.0
147
0.625
 71
1
 72
0
 73
0
 74
0
 75
0
 76
0
 77
1
 78
8
 79
2
170
0
171
1
172
0
173
0
174
0
175
0
176
0
177
0
178
0
270
2
179
2
271
2
272
2
273
2
274
2
275
0
280
0
281
0
282
0
283
1
284
8
285
0
286
0
287
3
288
0
340
11
278
46
341
212
342
212
343
212
344
212
  0
ENDTAB
  0
ENDSEC
  0
SECTION
  2
BLOCKS
  0
BLOCK
  5
20
100
AcDbEntity
  8
0
100
AcDbBlockBegin
  2
*Model_Space
 70
0
 10
0.0
 20
0.0
 30
0.0
  3
*Model_Space
  1

  0
ENDBLK
  5
21
100
AcDbEntity
  8
0
100
AcDbBlockEnd
  0
BLOCK
  5
1C
100
AcDbEntity
  8
0
100
AcDbBlockBegin
  2
*Paper_Space
 70
0
 10
0.0
 20
0.0
 30
0.0
  3
*Paper_Space
  1

  0
ENDBLK
  5
1D
100
AcDbEntity
  8
0
100
AcDbBlockEnd
  0
BLOCK
  5
214
100
AcDbEntity
  8
0
100
AcDbBlockBegin
  2
_FILLED
 70
64
 10
0.0
 20
0.0
  3
_FILLED
  1

  0
SOLID
  5
215
100
AcDbEntity
  8
0
  6
BYBLOCK
 62
0
100
AcDbTrace
 10
0.0
 20
0.0
 11
-1.0
 21
0.25
 12
-1.0
 22
-0.25
 13
-1.0
 23
-0.25
  0
ENDBLK
  5
216
100
AcDbEntity
  8
0
  6
BYBLOCK
 62
0
100
AcDbBlockEnd
  0
ENDSEC
  0
SECTION
  2
ENTITIES
  0
LINE
  5
217
100
AcDbEntity
  8
0
100
AcDbLine
 62
7
  6
CONTINUOUS
 10
7.7233933649
 20
44.510392614
 11
7.7233933649
 21
43.010392614
  0
LINE
  5
218
100
AcDbEntity
  8
0
100
AcDbLine
 62
7
  6
CONTINUOUS
 10
8.1576796507
 20
43.010392614
 11
8.1576796507
 21
37.010392614
  0
LINE
  5
219
100
AcDbEntity
  8
0
100
AcDbLine
 62
7
  6
CONTINUOUS
 10
12.9050647155
 20
68.510392614
 11
12.0767061405
 21
67.8890558849
  0
LINE
  5
21A
100
AcDbEntity
  8
0
100
AcDbLine
 62
7
  6
CONTINUOUS
 10
12.0754078005
 20
48.3888102379
 11
12.0757549367
 21
48.3829092394
  0
LINE
  5
21B
100
AcDbEntity
  8
0
100
AcDbLine
 62
7
  6
CONTINUOUS
 10
12.0754078005
 20
54.3888102379
 11
12.0757549367
 21
54.3829092393
  0
LINE
  5
21C
100
AcDbEntity
  8
0
100
AcDbLine
 62
7
  6
CONTINUOUS
 10
12.0769662565
 20
66.3903326755
 11
12.0770221209
 21
66.3836083762
  0
LINE
  5
21D
100
AcDbEntity
  8
0
100
AcDbLine
 62
7
  6
CONTINUOUS
 10
12.0761076527
 20
67.8895047376
 11
12.0761156079
 21
67.8838573897
  0
LINE
  5
21E
100
AcDbEntity
  8
0
100
AcDbLine
 62
7
  6
CONTINUOUS
 10
10.6743192522
 20
43.010392614
 11
10.6743192522
 21
37.010392614
  0
LINE
  5
21F
100
AcDbEntity
  8
0
100
AcDbLine
 62
7
  6
CONTINUOUS
 10
12.0767099139
 20
63.3889791713
 11
12.0767019442
 21
63.3827651529
  0
LINE
  5
220
100
AcDbEntity
  8
0
100
AcDbLine
 62
7
  6
CONTINUOUS
 10
12.0767099139
 20
57.3889791713
 11
12.0767019442
 21
57.3827651529
  0
LINE
  5
221
100
AcDbEntity
  8
0
100
AcDbLine
 62
7
  6
CONTINUOUS
 10
12.0767099139
 20
51.3889791713
 11
12.0767019442
 21
51.3827651529
  0
LINE
  5
222
100
AcDbEntity
  8
0
100
AcDbLine
 62
7
  6
CONTINUOUS
 10
12.0754259788
 20
64.8886564313
 11
12.0753915702
 21
64.8825567939
  0
LINE
  5
223
100
AcDbEntity
  8
0
100
AcDbLine
 62
7
  6
CONTINUOUS
 10
12.0755250984
 20
58.8887297568
 11
12.0753916669
 21
58.8825567214
  0
LINE
  5
224
100
AcDbEntity
  8
0
100
AcDbLine
 62
7
  6
CONTINUOUS
 10
12.0755250984
 20
52.8887297568
 11
12.0753916669
 21
52.8825567214
  0
LINE
  5
225
100
AcDbEntity
  8
0
100
AcDbLine
 62
7
  6
CONTINUOUS
 10
12.075552837
 20
61.8890057969
 11
12.0752978398
 21
61.8826775869
  0
LINE
  5
226
100
AcDbEntity
  8
0
100
AcDbLine
 62
7
  6
CONTINUOUS
 10
12.075552837
 20
55.8890057969
 11
12.0752978398
 21
55.8826775869
  0
LINE
  5
227
100
AcDbEntity
  8
0
100
AcDbLine
 62
7
  6
CONTINUOUS
 10
12.075552837
 20
49.889005797
 11
12.0752978398
 21
49.8826775869
  0
LINE
  5
228
100
AcDbEntity
  8
0
100
AcDbLine
 62
7
  6
CONTINUOUS
 10
13.0765741527
 20
67.1390490607
 11
12.0776770739
 21
66.3897995289
  0
LINE
  5
229
100
AcDbEntity
  8
0
100
AcDbLine
 62
7
  6
CONTINUOUS
 10
13.0777207228
 20
65.6401066888
 11
12.0756557051
 21
64.8884841547
  0
LINE
  5
22A
100
AcDbEntity
  8
0
100
AcDbLine
 62
7
  6
CONTINUOUS
 10
12.0754078004
 20
60.3888102379
 11
12.0757549367
 21
60.3829092393
  0
LINE
  5
22B
100
AcDbEntity
  8
0
100
AcDbLine
 62
7
  6
CONTINUOUS
 10
13.0756559854
 20
64.1386584627
 11
12.0764427382
 21
63.3891795462
  0
LINE
  5
22C
100
AcDbEntity
  8
0
100
AcDbLine
 62
7
  6
CONTINUOUS
 10
13.0773139953
 20
62.6386542642
 11
12.0767489078
 21
61.8881088019
  0
LINE
  5
22D
100
AcDbEntity
  8
0
100
AcDbLine
 62
7
  6
CONTINUOUS
 10
16.5521717752
 20
43.010392614
 11
16.5521717752
 21
37.010392614
  0
LINE
  5
22E
100
AcDbEntity
  8
0
100
AcDbLine
 62
7
  6
CONTINUOUS
 10
13.0760088474
 20
61.1384738025
 11
12.0759861076
 21
60.3883765449
  0
LINE
  5
22F
100
AcDbEntity
  8
0
100
AcDbLine
 62
7
  6
CONTINUOUS
 10
13.0764278756
 20
59.6387387758
 11
12.0760328515
 21
58.8883489813
  0
LINE
  5
230
100
AcDbEntity
  8
0
100
AcDbLine
 62
7
  6
CONTINUOUS
 10
13.0756559854
 20
58.1386584627
 11
12.0764427382
 21
57.3891795462
  0
LINE
  5
231
100
AcDbEntity
  8
0
100
AcDbLine
 62
7
  6
CONTINUOUS
 10
13.0773139953
 20
56.6386542642
 11
12.0767489078
 21
55.8881088019
  0
LINE
  5
232
100
AcDbEntity
  8
0
100
AcDbLine
 62
7
  6
CONTINUOUS
 10
12.0760010674
 20
48.382724619
 11
13.076432132
 21
47.6323076638
  0
LINE
  5
233
100
AcDbEntity
  8
0
100
AcDbLine
 62
7
  6
CONTINUOUS
 10
13.0760088474
 20
55.1384738024
 11
12.0759861076
 21
54.3883765449
  0
LINE
  5
234
100
AcDbEntity
  8
0
100
AcDbLine
 62
7
  6
CONTINUOUS
 10
13.0764278756
 20
53.6387387758
 11
12.0760328516
 21
52.8883489813
  0
LINE
  5
235
100
AcDbEntity
  8
0
100
AcDbLine
 62
7
  6
CONTINUOUS
 10
63.7593326731
 20
35.510392614
 11
9.6874540568
 21
35.510392614
  0
LINE
  5
236
100
AcDbEntity
  8
0
100
AcDbLine
 62
7
  6
CONTINUOUS
 10
12.0767016442
 20
49.8816246249
 11
13.0760034471
 21
49.1320682869
  0
LINE
  5
237
100
AcDbEntity
  8
0
100
AcDbLine
 62
7
  6
CONTINUOUS
 10
12.0765105495
 20
51.3829087217
 11
13.0773146157
 21
50.6321839784
  0
LINE
  5
238
100
AcDbEntity
  8
0
100
AcDbLine
 62
7
  6
CONTINUOUS
 10
23.1408197893
 20
43.010392614
 11
23.1408197893
 21
37.010392614
  0
LINE
  5
239
100
AcDbEntity
  8
0
100
AcDbLine
 62
7
  6
CONTINUOUS
 10
13.0756559854
 20
52.1386584627
 11
12.0764427382
 21
51.3891795462
  0
LINE
  5
23A
100
AcDbEntity
  8
0
100
AcDbLine
 62
7
  6
CONTINUOUS
 10
13.0773139953
 20
50.6386542642
 11
12.0767489078
 21
49.8881088019
  0
LINE
  5
23B
100
AcDbEntity
  8
0
100
AcDbLine
 62
7
  6
CONTINUOUS
 10
65.2891070791
 20
37.010392614
 11
8.1576796507
 21
37.010392614
  0
LINE
  5
23C
100
AcDbEntity
  8
0
100
AcDbLine
 62
7
  6
CONTINUOUS
 10
12.0759997989
 20
52.8821005819
 11
13.0756624783
 21
52.1322843679
  0
LINE
  5
23D
100
AcDbEntity
  8
0
100
AcDbLine
 62
7
  6
CONTINUOUS
 10
13.0760088474
 20
49.1384738025
 11
12.0759861076
 21
48.388376545
  0
LINE
  5
23E
100
AcDbEntity
  8
0
100
AcDbLine
 62
7
  6
CONTINUOUS
 10
12.0760010674
 20
54.3827246189
 11
13.076432132
 21
53.6323076638
  0
LINE
  5
23F
100
AcDbEntity
  8
0
100
AcDbLine
 62
7
  6
CONTINUOUS
 10
12.0767016442
 20
55.8816246249
 11
13.0760034471
 21
55.1320682869
  0
LINE
  5
240
100
AcDbEntity
  8
0
100
AcDbLine
 62
7
  6
CONTINUOUS
 10
13.0764278756
 20
47.6387387758
 11
12.9053214323
 21
47.510392614
  0
LINE
  5
241
100
AcDbEntity
  8
0
100
AcDbLine
 62
7
  6
CONTINUOUS
 10
65.7232660129
 20
43.010392614
 11
65.2891070791
 21
43.010392614
  0
LINE
  5
242
100
AcDbEntity
  8
0
100
AcDbLine
 62
7
  6
CONTINUOUS
 10
62.7724674776
 20
43.010392614
 11
56.8946149547
 21
43.010392614
  0
LINE
  5
243
100
AcDbEntity
  8
0
100
AcDbLine
 62
7
  6
CONTINUOUS
 10
50.3059669405
 20
43.010392614
 11
40.7954017776
 21
43.010392614
  0
LINE
  5
244
100
AcDbEntity
  8
0
100
AcDbLine
 62
7
  6
CONTINUOUS
 10
32.6513849522
 20
43.010392614
 11
23.1408197893
 21
43.010392614
  0
LINE
  5
245
100
AcDbEntity
  8
0
100
AcDbLine
 62
7
  6
CONTINUOUS
 10
16.5521717752
 20
43.010392614
 11
10.6743192522
 21
43.010392614
  0
LINE
  5
246
100
AcDbEntity
  8
0
100
AcDbLine
 62
7
  6
CONTINUOUS
 10
8.1576796507
 20
43.010392614
 11
7.7235207169
 21
43.010392614
  0
LINE
  5
247
100
AcDbEntity
  8
0
100
AcDbLine
 62
7
  6
CONTINUOUS
 10
12.0759997989
 20
58.8821005819
 11
13.0756624783
 21
58.1322843679
  0
LINE
  5
248
100
AcDbEntity
  8
0
100
AcDbLine
 62
7
  6
CONTINUOUS
 10
12.0765105495
 20
57.3829087217
 11
13.0773146157
 21
56.6321839784
  0
LWPOLYLINE
  5
249
100
AcDbEntity
  8
0
100
AcDbPolyline
 62
7
  6
CONTINUOUS
 90
4
 70
0
 10
61.3718592002
 20
47.632742189
 10
61.1218760123
 20
47.6017792187
 10
59.141121708
 20
47.533484095
 10
57.8534854638
 20
47.510392614
  0
LINE
  5
24A
100
AcDbEntity
  8
0
100
AcDbLine
 62
7
  6
CONTINUOUS
 10
7.7236458795
 20
44.510392614
 11
65.7231408504
 21
44.510392614
  0
LINE
  5
24B
100
AcDbEntity
  8
0
100
AcDbLine
 62
7
  6
CONTINUOUS
 10
12.0760010674
 20
60.3827246189
 11
13.076432132
 21
59.6323076638
  0
LINE
  5
24C
100
AcDbEntity
  8
0
100
AcDbLine
 62
7
  6
CONTINUOUS
 10
12.0767016442
 20
61.8816246249
 11
13.0760034471
 21
61.1320682869
  0
LINE
  5
24D
100
AcDbEntity
  8
0
100
AcDbLine
 62
7
  6
CONTINUOUS
 10
62.8733933649
 20
47.510392614
 11
10.5733933649
 21
47.510392614
  0
LINE
  5
24E
100
AcDbEntity
  8
0
100
AcDbLine
 62
7
  6
CONTINUOUS
 10
12.0756289697
 20
64.8823787285
 11
13.0756624783
 21
64.1322843679
  0
LINE
  5
24F
100
AcDbEntity
  8
0
100
AcDbLine
 62
7
  6
CONTINUOUS
 10
12.0765105495
 20
63.3829087217
 11
13.0773146157
 21
62.6321839784
  0
LINE
  5
250
100
AcDbEntity
  8
0
100
AcDbLine
 62
7
  6
CONTINUOUS
 10
32.6513849523
 20
43.010392614
 11
32.6513849523
 21
37.010392614
  0
LINE
  5
251
100
AcDbEntity
  8
0
100
AcDbLine
 62
7
  6
CONTINUOUS
 10
12.0776893669
 20
66.3831078242
 11
13.0777439931
 21
65.6328881991
  0
LINE
  5
252
100
AcDbEntity
  8
0
100
AcDbLine
 62
7
  6
CONTINUOUS
 10
12.0766905743
 20
67.8834260887
 11
13.0765640126
 21
67.1333858699
  0
LINE
  5
253
100
AcDbEntity
  8
0
100
AcDbLine
 62
7
  6
CONTINUOUS
 10
36.7233980694
 20
51.7599032188
 11
36.7233890943
 21
53.2608541004
  0
LINE
  5
254
100
AcDbEntity
  8
0
100
AcDbLine
 62
7
  6
CONTINUOUS
 10
36.7233980694
 20
57.7599032188
 11
36.7233890943
 21
59.2608541004
  0
LINE
  5
255
100
AcDbEntity
  8
0
100
AcDbLine
 62
7
  6
CONTINUOUS
 10
36.7233980694
 20
63.7599032188
 11
36.7233890943
 21
65.2608541005
  0
LINE
  5
256
100
AcDbEntity
  8
0
100
AcDbLine
 62
7
  6
CONTINUOUS
 10
60.3684944734
 20
67.8843823926
 11
61.2029050975
 21
68.510392614
  0
LINE
  5
257
100
AcDbEntity
  8
0
100
AcDbLine
 62
7
  6
CONTINUOUS
 10
40.7954017776
 20
43.010392614
 11
40.7954017776
 21
37.010392614
  0
LINE
  5
258
100
AcDbEntity
  8
0
100
AcDbLine
 62
7
  6
CONTINUOUS
 10
60.3682758318
 20
64.8843123154
 11
61.3678926783
 21
65.6342762782
  0
LINE
  5
259
100
AcDbEntity
  8
0
100
AcDbLine
 62
7
  6
CONTINUOUS
 10
60.3708381134
 20
66.3818827046
 11
61.3712286084
 21
67.132243266
  0
LINE
  5
25A
100
AcDbEntity
  8
0
100
AcDbLine
 62
7
  6
CONTINUOUS
 10
60.3703588542
 20
63.3820464523
 11
61.3707679406
 21
64.1324467948
  0
LINE
  5
25B
100
AcDbEntity
  8
0
100
AcDbLine
 62
7
  6
CONTINUOUS
 10
60.3707778824
 20
61.8823114256
 11
61.3708006223
 21
62.6324086831
  0
LINE
  5
25C
100
AcDbEntity
  8
0
100
AcDbLine
 62
7
  6
CONTINUOUS
 10
60.3694727346
 20
60.3821309639
 11
61.3700378221
 21
61.1326764262
  0
LINE
  5
25D
100
AcDbEntity
  8
0
100
AcDbLine
 62
7
  6
CONTINUOUS
 10
60.3711307444
 20
58.8821267654
 11
61.3703439916
 21
59.6316056819
  0
LINE
  5
25E
100
AcDbEntity
  8
0
100
AcDbLine
 62
7
  6
CONTINUOUS
 10
60.3703588542
 20
57.3820464523
 11
61.3707538783
 21
58.1324362468
  0
LINE
  5
25F
100
AcDbEntity
  8
0
100
AcDbLine
 62
7
  6
CONTINUOUS
 10
60.3707778824
 20
55.8823114256
 11
61.3708006223
 21
56.6324086831
  0
LINE
  5
260
100
AcDbEntity
  8
0
100
AcDbLine
 62
7
  6
CONTINUOUS
 10
61.3702761803
 20
47.6378765064
 11
60.3694721141
 21
48.3886012496
  0
LINE
  5
261
100
AcDbEntity
  8
0
100
AcDbLine
 62
7
  6
CONTINUOUS
 10
50.3059669405
 20
43.010392614
 11
50.3059669405
 21
37.010392614
  0
LINE
  5
262
100
AcDbEntity
  8
0
100
AcDbLine
 62
7
  6
CONTINUOUS
 10
60.3694727346
 20
54.3821309639
 11
61.3700378221
 21
55.1326764262
  0
LINE
  5
263
100
AcDbEntity
  8
0
100
AcDbLine
 62
7
  6
CONTINUOUS
 10
60.3711307444
 20
52.8821267654
 11
61.3703439916
 21
53.6316056819
  0
LINE
  5
264
100
AcDbEntity
  8
0
100
AcDbLine
 62
7
  6
CONTINUOUS
 10
61.3700850857
 20
49.1391606032
 11
60.3707832828
 21
49.8887169412
  0
LINE
  5
265
100
AcDbEntity
  8
0
100
AcDbLine
 62
7
  6
CONTINUOUS
 10
60.3703588542
 20
51.3820464523
 11
61.3707538783
 21
52.1324362468
  0
LINE
  5
266
100
AcDbEntity
  8
0
100
AcDbLine
 62
7
  6
CONTINUOUS
 10
61.3707869309
 20
52.1386846462
 11
60.3711242515
 21
52.8885008601
  0
LINE
  5
267
100
AcDbEntity
  8
0
100
AcDbLine
 62
7
  6
CONTINUOUS
 10
61.3707856625
 20
50.6380606091
 11
60.3703545978
 21
51.3884775643
  0
LINE
  5
268
100
AcDbEntity
  8
0
100
AcDbLine
 62
7
  6
CONTINUOUS
 10
60.3707778824
 20
49.8823114256
 11
61.3708006223
 21
50.6324086831
  0
LINE
  5
269
100
AcDbEntity
  8
0
100
AcDbLine
 62
7
  6
CONTINUOUS
 10
60.3694727346
 20
48.3821309639
 11
61.3700378221
 21
49.1326764262
  0
LINE
  5
26A
100
AcDbEntity
  8
0
100
AcDbLine
 62
7
  6
CONTINUOUS
 10
12.9052715408
 20
68.510392614
 11
61.2029005772
 21
68.510392614
  0
LINE
  5
26B
100
AcDbEntity
  8
0
100
AcDbLine
 62
7
  6
CONTINUOUS
 10
61.3702761803
 20
53.6378765064
 11
60.3694721141
 21
54.3886012496
  0
LINE
  5
26C
100
AcDbEntity
  8
0
100
AcDbLine
 62
7
  6
CONTINUOUS
 10
61.3700850857
 20
55.1391606032
 11
60.3707832828
 21
55.8887169412
  0
LINE
  5
26D
100
AcDbEntity
  8
0
100
AcDbLine
 62
7
  6
CONTINUOUS
 10
56.8946149547
 20
43.010392614
 11
56.8946149547
 21
37.010392614
  0
LINE
  5
26E
100
AcDbEntity
  8
0
100
AcDbLine
 62
7
  6
CONTINUOUS
 10
61.208741042
 20
47.510392614
 11
61.3703439916
 21
47.6316056819
  0
LINE
  5
26F
100
AcDbEntity
  8
0
100
AcDbLine
 62
7
  6
CONTINUOUS
 10
61.3707869309
 20
58.1386846462
 11
60.3711242515
 21
58.8885008601
  0
LINE
  5
270
100
AcDbEntity
  8
0
100
AcDbLine
 62
7
  6
CONTINUOUS
 10
61.3707856625
 20
56.6380606091
 11
60.3703545978
 21
57.3884775643
  0
LINE
  5
271
100
AcDbEntity
  8
0
100
AcDbLine
 62
7
  6
CONTINUOUS
 10
61.3702761803
 20
59.6378765064
 11
60.3694721141
 21
60.3886012496
  0
LINE
  5
272
100
AcDbEntity
  8
0
100
AcDbLine
 62
7
  6
CONTINUOUS
 10
61.3700850857
 20
61.1391606032
 11
60.3707832828
 21
61.8887169412
  0
LINE
  5
273
100
AcDbEntity
  8
0
100
AcDbLine
 62
7
  6
CONTINUOUS
 10
61.3699228432
 20
49.1390389244
 11
61.3700853173
 21
49.1327120532
  0
LINE
  5
274
100
AcDbEntity
  8
0
100
AcDbLine
 62
7
  6
CONTINUOUS
 10
61.3699228432
 20
55.1390389244
 11
61.3700853173
 21
55.1327120532
  0
LINE
  5
275
100
AcDbEntity
  8
0
100
AcDbLine
 62
7
  6
CONTINUOUS
 10
61.371718119
 20
47.6389578688
 11
61.3718592002
 21
47.632742189
  0
LINE
  5
276
100
AcDbEntity
  8
0
100
AcDbLine
 62
7
  6
CONTINUOUS
 10
61.371718119
 20
53.6389578688
 11
61.3718592002
 21
53.632742189
  0
LINE
  5
277
100
AcDbEntity
  8
0
100
AcDbLine
 62
7
  6
CONTINUOUS
 10
61.3709981978
 20
52.1388430882
 11
61.3710358017
 21
52.1326477149
  0
LINE
  5
278
100
AcDbEntity
  8
0
100
AcDbLine
 62
7
  6
CONTINUOUS
 10
61.3709981979
 20
58.1388430882
 11
61.3710358017
 21
58.1326477149
  0
LINE
  5
279
100
AcDbEntity
  8
0
100
AcDbLine
 62
7
  6
CONTINUOUS
 10
61.3690970244
 20
65.6413842591
 11
61.3690697787
 21
65.6351593962
  0
LINE
  5
27A
100
AcDbEntity
  8
0
100
AcDbLine
 62
7
  6
CONTINUOUS
 10
61.371801864
 20
62.6388226829
 11
61.3714840128
 21
62.632921279
  0
LINE
  5
27B
100
AcDbEntity
  8
0
100
AcDbLine
 62
7
  6
CONTINUOUS
 10
61.371801864
 20
56.6388226829
 11
61.3714840128
 21
56.632921279
  0
LINE
  5
27C
100
AcDbEntity
  8
0
100
AcDbLine
 62
7
  6
CONTINUOUS
 10
61.371801864
 20
50.6388226829
 11
61.3714840128
 21
50.632921279
  0
LINE
  5
27D
100
AcDbEntity
  8
0
100
AcDbLine
 62
7
  6
CONTINUOUS
 10
61.3707864386
 20
64.1387817572
 11
60.3683493324
 21
64.8906769919
  0
LINE
  5
27E
100
AcDbEntity
  8
0
100
AcDbLine
 62
7
  6
CONTINUOUS
 10
61.3707856625
 20
62.6380606091
 11
60.3703545979
 21
63.3884775643
  0
LINE
  5
27F
100
AcDbEntity
  8
0
100
AcDbLine
 62
7
  6
CONTINUOUS
 10
61.3712051134
 20
67.138629447
 11
61.3713680653
 21
67.1323478678
  0
LINE
  5
280
100
AcDbEntity
  8
0
100
AcDbLine
 62
7
  6
CONTINUOUS
 10
61.3699228432
 20
61.1390389244
 11
61.3700853173
 21
61.1327120532
  0
LINE
  5
281
100
AcDbEntity
  8
0
100
AcDbLine
 62
7
  6
CONTINUOUS
 10
61.371718119
 20
59.6389578688
 11
61.3718592002
 21
59.632742189
  0
LINE
  5
282
100
AcDbEntity
  8
0
100
AcDbLine
 62
7
  6
CONTINUOUS
 10
61.3709326978
 20
64.138891446
 11
61.3710358052
 21
64.1326477176
  0
LINE
  5
283
100
AcDbEntity
  8
0
100
AcDbLine
 62
7
  6
CONTINUOUS
 10
62.7724674776
 20
43.010392614
 11
62.7724674776
 21
37.010392614
  0
LINE
  5
284
100
AcDbEntity
  8
0
100
AcDbLine
 62
7
  6
CONTINUOUS
 10
61.3711688354
 20
67.138602241
 11
60.3685765445
 21
67.890611926
  0
LINE
  5
285
100
AcDbEntity
  8
0
100
AcDbLine
 62
7
  6
CONTINUOUS
 10
61.3679296299
 20
65.6405085852
 11
60.3707244179
 21
66.3884995291
  0
LINE
  5
286
100
AcDbEntity
  8
0
100
AcDbLine
 62
7
  6
CONTINUOUS
 10
65.2891070791
 20
43.010392614
 11
65.2891070791
 21
37.010392614
  0
LINE
  5
287
100
AcDbEntity
  8
0
100
AcDbLine
 62
7
  6
CONTINUOUS
 10
65.7233933649
 20
44.510392614
 11
65.7233933649
 21
43.010392614
  0
ARC
  5
288
100
AcDbEntity
  8
0
100
AcDbCircle
 62
7
  6
CONTINUOUS
 10
10.5733933649
 20
46.010392614
 40
1.5
100
AcDbArc
 50
90.0
 51
270.0
  0
ARC
  5
289
100
AcDbEntity
  8
0
100
AcDbCircle
 62
7
  6
CONTINUOUS
 10
62.8733933649
 20
46.010392614
 40
1.5
100
AcDbArc
 50
270.0
 51
90.0
  0
SPLINE
  5
28A
100
AcDbEntity
  8
0
100
AcDbSpline
 62
7
  6
CONTINUOUS
 70
0
 71
3
 72
15
 73
11
 74
0
 42
0.0000001
 43
0.0000001
 44
0.0000000001
 40
0.0
 40
0.0
 40
0.0
 40
0.0
 40
0.1249620935
 40
0.2500220658
 40
0.3749934764
 40
0.4999927658
 40
0.624997472
 40
0.7499749636
 40
0.8750305151
 40
1.0
 40
1.0
 40
1.0
 40
1.0
 10
9.6874540568
 20
35.510392614
 30
0.0
 10
9.5884925896
 20
35.510392614
 30
0.0
 10
9.3899825432
 20
35.5293941461
 30
0.0
 10
9.1034168717
 20
35.6136889877
 30
0.0
 10
8.8381290972
 20
35.7513321738
 30
0.0
 10
8.6043268378
 20
35.9374565372
 30
0.0
 10
8.4113369622
 20
36.1656892649
 30
0.0
 10
8.267018263
 20
36.427560807
 30
0.0
 10
8.1778617755
 20
36.712850749
 30
0.0
 10
8.1576796507
 20
36.9114252934
 30
0.0
 10
8.1576796507
 20
37.010392614
 30
0.0
  0
SPLINE
  5
28B
100
AcDbEntity
  8
0
100
AcDbSpline
 62
7
  6
CONTINUOUS
 70
0
 71
3
 72
15
 73
11
 74
0
 42
0.0000001
 43
0.0000001
 44
0.0000000001
 40
0.0
 40
0.0
 40
0.0
 40
0.0
 40
0.1249622091
 40
0.2500222493
 40
0.3749935765
 40
0.4999927916
 40
0.6249974594
 40
0.7499749194
 40
0.8750304898
 40
1.0
 40
1.0
 40
1.0
 40
1.0
 10
63.7593326731
 20
35.510392614
 30
0.0
 10
63.8582942305
 20
35.510392614
 30
0.0
 10
64.05680441
 20
35.529394144
 30
0.0
 10
64.3433702323
 20
35.6136887502
 30
0.0
 10
64.6086579418
 20
35.7513319486
 30
0.0
 10
64.8424599019
 20
35.937456446
 30
0.0
 10
65.0354494498
 20
36.1656892876
 30
0.0
 10
65.1797679953
 20
36.4275608469
 30
0.0
 10
65.2689246266
 20
36.7128507162
 30
0.0
 10
65.2891070791
 20
36.9114252746
 30
0.0
 10
65.2891070791
 20
37.010392614
 30
0.0
  0
SPLINE
  5
28C
100
AcDbEntity
  8
0
100
AcDbSpline
 62
7
  6
CONTINUOUS
 70
0
 71
3
 72
34
 73
30
 74
0
 42
0.0000001
 43
0.0000001
 44
0.0000000001
 40
0.0
 40
0.0
 40
0.0
 40
0.0
 40
0.0002611842
 40
0.0006594388
 40
0.0018848405
 40
0.0036912202
 40
0.0060816256
 40
0.0090569597
 40
0.0126173119
 40
0.0167615866
 40
0.021487986
 40
0.0326795161
 40
0.0461759952
 40
0.0619473147
 40
0.0799452787
 40
0.1001201323
 40
0.1224190892
 40
0.1467862469
 40
0.1731652939
 40
0.2317132144
 40
0.2975421294
 40
0.3700530565
 40
0.4485536451
 40
0.5322593831
 40
0.6203744546
 40
0.7120770174
 40
0.8065128559
 40
0.9028128835
 40
1.0
 40
1.0
 40
1.0
 40
1.0
 10
61.3690797876
 20
65.6351657033
 30
0.0
 10
61.3673634391
 20
65.6338771592
 30
0.0
 10
61.3623330603
 20
65.6316503433
 30
0.0
 10
61.3475240578
 20
65.6272138594
 30
0.0
 10
61.3196907022
 20
65.6222078503
 30
0.0
 10
61.2755553338
 20
65.6163340557
 30
0.0
 10
61.2168986767
 20
65.6103890914
 30
0.0
 10
61.1438065761
 20
65.6043185016
 30
0.0
 10
61.0562558543
 20
65.5982090611
 30
0.0
 10
60.9542910871
 20
65.5920802975
 30
0.0
 10
60.7896603219
 20
65.5834481218
 30
0.0
 10
60.5481728077
 20
65.5730959064
 30
0.0
 10
60.2159014823
 20
65.561736048
 30
0.0
 10
59.8276587191
 20
65.5508840137
 30
0.0
 10
59.3845166803
 20
65.5401966895
 30
0.0
 10
58.8877242315
 20
65.5294066886
 30
0.0
 10
58.3385894916
 20
65.5183294293
 30
0.0
 10
57.7384703391
 20
65.506921801
 30
0.0
 10
56.8405268694
 20
65.4905402291
 30
0.0
 10
55.6019133822
 20
65.4694216296
 30
0.0
 10
53.9842262161
 20
65.4451277088
 30
0.0
 10
52.2025444259
 20
65.422539981
 30
0.0
 10
50.2739371202
 20
65.4015645918
 30
0.0
 10
48.2171138003
 20
65.3793243018
 30
0.0
 10
46.0518192951
 20
65.3553653572
 30
0.0
 10
43.7983592681
 20
65.3303775146
 30
0.0
 10
41.4776256608
 20
65.3064989329
 30
0.0
 10
39.1118036537
 20
65.284534973
 30
0.0
 10
37.5219416688
 20
65.2704167566
 30
0.0
 10
36.7233704805
 20
65.2628541774
 30
0.0
  0
SPLINE
  5
28D
100
AcDbEntity
  8
0
100
AcDbSpline
 62
7
  6
CONTINUOUS
 70
0
 71
3
 72
34
 73
30
 74
0
 42
0.0000001
 43
0.0000001
 44
0.0000000001
 40
0.0
 40
0.0
 40
0.0
 40
0.0
 40
0.0972096008
 40
0.1935243525
 40
0.2879745245
 40
0.3797078801
 40
0.4678639494
 40
0.5515899347
 40
0.6300664019
 40
0.702549332
 40
0.7683792756
 40
0.8269612958
 40
0.8533602325
 40
0.8777412579
 40
0.9000395575
 40
0.9201911235
 40
0.9381468925
 40
0.9538718437
 40
0.9673321596
 40
0.978502406
 40
0.9832229215
 40
0.9873640532
 40
0.9909237217
 40
0.9939004532
 40
0.9962937513
 40
0.9981040046
 40
0.9993340226
 40
0.9997350931
 40
1.0
 40
1.0
 40
1.0
 40
1.0
 10
36.7233849725
 20
66.7611798011
 30
0.0
 10
35.9246107956
 20
66.753114606
 30
0.0
 10
34.3344141078
 20
66.7371823485
 30
0.0
 10
31.9681017632
 20
66.715041663
 30
0.0
 10
29.6467834492
 20
66.6938392737
 30
0.0
 10
27.3925270281
 20
66.6710031946
 30
0.0
 10
25.2264193163
 20
66.6464864173
 30
0.0
 10
23.1692606479
 20
66.621674442
 30
0.0
 10
21.2408818491
 20
66.5987500783
 30
0.0
 10
19.4595567754
 20
66.577211777
 30
0.0
 10
17.8417260558
 20
66.5556268567
 30
0.0
 10
16.6026047773
 20
66.5355884489
 30
0.0
 10
15.704087697
 20
66.5186395074
 30
0.0
 10
15.1036994335
 20
66.5061962462
 30
0.0
 10
14.5546576128
 20
66.4938948085
 30
0.0
 10
14.0584178673
 20
66.4820804333
 30
0.0
 10
13.6161968249
 20
66.470822819
 30
0.0
 10
13.2289705149
 20
66.4599164733
 30
0.0
 10
12.8975235484
 20
66.4491926435
 30
0.0
 10
12.6565102258
 20
66.4398509841
 30
0.0
 10
12.4920810714
 20
66.4320845326
 30
0.0
 10
12.3901605786
 20
66.4265281559
 30
0.0
 10
12.3025948384
 20
66.4208991254
 30
0.0
 10
12.2294427949
 20
66.4151780943
 30
0.0
 10
12.1706935745
 20
66.4094523463
 30
0.0
 10
12.1264527167
 20
66.4036640031
 30
0.0
 10
12.0985233801
 20
66.3986203558
 30
0.0
 10
12.0836549921
 20
66.3940601823
 30
0.0
 10
12.0786029108
 20
66.3917352188
 30
0.0
 10
12.0768888028
 20
66.3903933741
 30
0.0
  0
SPLINE
  5
28E
100
AcDbEntity
  8
0
100
AcDbSpline
 62
7
  6
CONTINUOUS
 70
0
 71
3
 72
34
 73
30
 74
0
 42
0.0000001
 43
0.0000001
 44
0.0000000001
 40
0.0
 40
0.0
 40
0.0
 40
0.0
 40
0.0002622547
 40
0.000663581
 40
0.0019003578
 40
0.0037235542
 40
0.0061343825
 40
0.0091319196
 40
0.0127144473
 40
0.016879215
 40
0.0216228559
 40
0.0328328185
 40
0.0463161651
 40
0.0620462405
 40
0.0799987396
 40
0.1001487028
 40
0.1224508097
 40
0.1468370791
 40
0.1732383514
 40
0.2318131733
 40
0.2976307087
 40
0.3701217082
 40
0.4486170018
 40
0.5323064208
 40
0.6204042772
 40
0.7121029478
 40
0.8065399978
 40
0.9028296932
 40
1.0
 40
1.0
 40
1.0
 40
1.0
 10
61.371801068
 20
53.6327421674
 30
0.0
 10
61.3700676321
 20
53.6314614791
 30
0.0
 10
61.3649810311
 20
53.6292723568
 30
0.0
 10
61.3500094078
 20
53.6249386601
 30
0.0
 10
61.3218784335
 20
53.6201205135
 30
0.0
 10
61.2773025068
 20
53.6145127039
 30
0.0
 10
61.2181175346
 20
53.6088894825
 30
0.0
 10
61.1444554234
 20
53.603176861
 30
0.0
 10
61.056336184
 20
53.5974470381
 30
0.0
 10
60.9538464762
 20
53.5916927511
 30
0.0
 10
60.7887126356
 20
53.5835450053
 30
0.0
 10
60.5470004027
 20
53.5735916487
 30
0.0
 10
60.2149958956
 20
53.5621353564
 30
0.0
 10
59.8275541249
 20
53.5506391543
 30
0.0
 10
59.3853060927
 20
53.5391111102
 30
0.0
 10
58.8890330268
 20
53.5275693604
 30
0.0
 10
58.3398744904
 20
53.5160174024
 30
0.0
 10
57.7393324414
 20
53.5044522762
 30
0.0
 10
56.8407309423
 20
53.4884620629
 30
0.0
 10
55.6016602215
 20
53.468717635
 30
0.0
 10
53.9838295757
 20
53.4456980079
 30
0.0
 10
52.2022772694
 20
53.4226491324
 30
0.0
 10
50.2738421957
 20
53.399588967
 30
0.0
 10
48.2171414106
 20
53.3764868153
 30
0.0
 10
46.0519283473
 20
53.3533880365
 30
0.0
 10
43.7983860851
 20
53.3302938446
 30
0.0
 10
41.4775213525
 20
53.3070215807
 30
0.0
 10
39.1116844821
 20
53.2841464154
 30
0.0
 10
37.5218972475
 20
53.2688602842
 30
0.0
 10
36.7233885666
 20
53.2608576619
 30
0.0
  0
SPLINE
  5
28F
100
AcDbEntity
  8
0
100
AcDbSpline
 62
7
  6
CONTINUOUS
 70
0
 71
3
 72
35
 73
31
 74
0
 42
0.0000001
 43
0.0000001
 44
0.0000000001
 40
0.0
 40
0.0
 40
0.0
 40
0.0
 40
0.0971719123
 40
0.1934592689
 40
0.2878982298
 40
0.3796135465
 40
0.4677156481
 40
0.5513786428
 40
0.6298386818
 40
0.7023650056
 40
0.7682456175
 40
0.8268204111
 40
0.8531905195
 40
0.8775337176
 40
0.8998010601
 40
0.9199443639
 40
0.937919707
 40
0.9536868252
 40
0.9672059385
 40
0.9784405841
 40
0.9831906238
 40
0.987356856
 40
0.9909351641
 40
0.9939230762
 40
0.9963206778
 40
0.9981288997
 40
0.9988128222
 40
0.9993509023
 40
0.9997449589
 40
1.0
 40
1.0
 40
1.0
 40
1.0
 10
36.7233748769
 20
68.2624964677
 30
0.0
 10
35.924890215
 20
68.2551084466
 30
0.0
 10
34.3351894194
 20
68.2403997116
 30
0.0
 10
31.9694792831
 20
68.2166219297
 30
0.0
 10
29.6486237375
 20
68.1917052045
 30
0.0
 10
27.3950253477
 20
68.1676962754
 30
0.0
 10
25.2299633248
 20
68.1457023821
 30
0.0
 10
23.1738251236
 20
68.1244981939
 30
0.0
 10
21.2457059638
 20
68.1017735287
 30
0.0
 10
19.4637486521
 20
68.077349051
 30
0.0
 10
17.8452212281
 20
68.0526975397
 30
0.0
 10
16.6059563582
 20
68.0329438021
 30
0.0
 10
15.7080006253
 20
68.0177194653
 30
0.0
 10
15.108372114
 20
68.0069540991
 30
0.0
 10
14.5599221089
 20
67.9961671847
 30
0.0
 10
14.0638179265
 20
67.9850784494
 30
0.0
 10
13.6211549585
 20
67.9735841138
 30
0.0
 10
13.232956731
 20
67.961766869
 30
0.0
 10
12.9001919357
 20
67.9496285802
 30
0.0
 10
12.6579744703
 20
67.9389193284
 30
0.0
 10
12.4926097086
 20
67.9302327074
 30
0.0
 10
12.3901119493
 20
67.9241771632
 30
0.0
 10
12.3021156856
 20
67.9182543506
 30
0.0
 10
12.2286752033
 20
67.9125045289
 30
0.0
 10
12.1698276479
 20
67.9069020237
 30
0.0
 10
12.1299178319
 20
67.9020759563
 30
0.0
 10
12.1053493358
 20
67.8980451466
 30
0.0
 10
12.0923204082
 20
67.895364304
 30
0.0
 10
12.0829520511
 20
67.8927320531
 30
0.0
 10
12.0779453674
 20
67.8906679028
 30
0.0
 10
12.0762414336
 20
67.889447622
 30
0.0
  0
SPLINE
  5
290
100
AcDbEntity
  8
0
100
AcDbSpline
 62
7
  6
CONTINUOUS
 70
0
 71
3
 72
33
 73
29
 74
0
 42
0.0000001
 43
0.0000001
 44
0.0000000001
 40
0.0
 40
0.0
 40
0.0
 40
0.0
 40
0.0002585164
 40
0.0006535208
 40
0.0018718668
 40
0.0036719864
 40
0.0060586403
 40
0.0090344137
 40
0.0126008915
 40
0.0167564084
 40
0.0214972538
 40
0.0327195036
 40
0.0462362774
 40
0.0620094224
 40
0.0799921808
 40
0.1001372275
 40
0.1224006642
 40
0.1467424595
 40
0.1731217602
 40
0.2317309135
 40
0.2976074273
 40
0.3700968922
 40
0.4485379527
 40
0.5322425594
 40
0.6203835353
 40
0.7120943109
 40
0.8065216275
 40
1.0
 40
1.0
 40
1.0
 40
1.0
 10
61.3700918459
 20
61.1327121216
 30
0.0
 10
61.3683940636
 20
61.1314352478
 30
0.0
 10
61.3633991643
 20
61.1292430988
 30
0.0
 10
61.34867201
 20
61.1249078938
 30
0.0
 10
61.3209417411
 20
61.1200854587
 30
0.0
 10
61.2769129201
 20
61.1144777884
 30
0.0
 10
61.2183013905
 20
61.1088542025
 30
0.0
 10
61.1451552581
 20
61.1031412457
 30
0.0
 10
61.0574294235
 20
61.0974123181
 30
0.0
 10
60.9551778883
 20
61.0916585215
 30
0.0
 10
60.7900535193
 20
61.0835052981
 30
0.0
 10
60.5480047354
 20
61.0735497381
 30
0.0
 10
60.2152925545
 20
61.0620984235
 30
0.0
 10
59.8269991517
 20
61.0506109183
 30
0.0
 10
59.3842185696
 20
61.039090021
 30
0.0
 10
58.8880887308
 20
61.0275473241
 30
0.0
 10
58.3396913702
 20
61.0159880306
 30
0.0
 10
57.7400540805
 20
61.0044167254
 30
0.0
 10
56.8417775792
 20
60.9884167658
 30
0.0
 10
55.6022044139
 20
60.9686778046
 30
0.0
 10
53.9837289017
 20
60.9456762702
 30
0.0
 10
52.2022709176
 20
60.9226285741
 30
0.0
 10
50.2743002933
 20
60.8995426838
 30
0.0
 10
48.2177051859
 20
60.8764563578
 30
0.0
 10
46.0520602812
 20
60.8533488193
 30
0.0
 10
43.7982971895
 20
60.8302195827
 30
0.0
 10
40.6789619793
 20
60.7992160326
 30
0.0
 10
38.313217045
 20
60.7760659464
 30
0.0
 10
36.7233858192
 20
60.760862032
 30
0.0
  0
SPLINE
  5
291
100
AcDbEntity
  8
0
100
AcDbSpline
 62
7
  6
CONTINUOUS
 70
0
 71
3
 72
33
 73
29
 74
0
 42
0.0000001
 43
0.0000001
 44
0.0000000001
 40
0.0
 40
0.0
 40
0.0
 40
0.0
 40
0.0002621072
 40
0.0006627599
 40
0.0018974071
 40
0.0037181006
 40
0.0061266105
 40
0.0091225013
 40
0.012704487
 40
0.016870006
 40
0.0216157901
 40
0.0328346296
 40
0.0463334857
 40
0.0620805354
 40
0.0800391244
 40
0.1001720682
 40
0.1224370129
 40
0.146786325
 40
0.1731713657
 40
0.2317810336
 40
0.2976588274
 40
0.3701574281
 40
0.4485991176
 40
0.5322667289
 40
0.6203850429
 40
0.7121108603
 40
0.8065464301
 40
1.0
 40
1.0
 40
1.0
 40
1.0
 10
61.3712727063
 20
67.1323277286
 30
0.0
 10
61.3695398559
 20
67.1310483904
 30
0.0
 10
61.364452053
 20
67.1288749586
 30
0.0
 10
61.3494840612
 20
67.1246192799
 30
0.0
 10
61.321367779
 20
67.1199730902
 30
0.0
 10
61.2768187023
 20
67.1146326418
 30
0.0
 10
61.2176584748
 20
67.1093375759
 30
0.0
 10
61.1440087797
 20
67.1039866702
 30
0.0
 10
61.055880854
 20
67.0986256085
 30
0.0
 10
60.9533555948
 20
67.093226024
 30
0.0
 10
60.7881080626
 20
67.0855316572
 30
0.0
 10
60.5461693537
 20
67.0759793925
 30
0.0
 10
60.2138321005
 20
67.064602725
 30
0.0
 10
59.8260945729
 20
67.0527751978
 30
0.0
 10
59.3838255926
 20
67.0406473185
 30
0.0
 10
58.887980853
 20
67.0283207099
 30
0.0
 10
58.3396036747
 20
67.0159974689
 30
0.0
 10
57.7398306635
 20
67.0039396497
 30
0.0
 10
56.8414023525
 20
66.9880915995
 30
0.0
 10
55.6016939185
 20
66.9699131872
 30
0.0
 10
53.9830472825
 20
66.9482402542
 30
0.0
 10
52.2014303628
 20
66.925061163
 30
0.0
 10
50.2736271429
 20
66.9004149398
 30
0.0
 10
48.2174522
 20
66.8759131653
 30
0.0
 10
46.0520841433
 20
66.8531731648
 30
0.0
 10
43.7982069686
 20
66.8320970684
 30
0.0
 10
40.6787491782
 20
66.8023281947
 30
0.0
 10
38.3130666234
 20
66.7772307614
 30
0.0
 10
36.7233849725
 20
66.7611798011
 30
0.0
  0
SPLINE
  5
292
100
AcDbEntity
  8
0
100
AcDbSpline
 62
7
  6
CONTINUOUS
 70
0
 71
3
 72
60
 73
56
 74
0
 42
0.0000001
 43
0.0000001
 44
0.0000000001
 40
0.0
 40
0.0
 40
0.0
 40
0.0
 40
0.0001391265
 40
0.0003462555
 40
0.0009739524
 40
0.0018912304
 40
0.0030996819
 40
0.004599621
 40
0.0063905418
 40
0.008471546
 40
0.0108416296
 40
0.016444815
 40
0.0231909143
 40
0.0310671847
 40
0.0400586867
 40
0.0501475122
 40
0.061305711
 40
0.0735022302
 40
0.0867063232
 40
0.116002703
 40
0.148916966
 40
0.1851489498
 40
0.2243745146
 40
0.2662201412
 40
0.3102734817
 40
0.3561138333
 40
0.4033117566
 40
0.4514269058
 40
0.5000045546
 40
0.5966965251
 40
0.6439014862
 40
0.6897495347
 40
0.733797145
 40
0.7756193035
 40
0.8148324594
 40
0.8510770724
 40
0.8840133079
 40
0.9133190836
 40
0.9265140888
 40
0.9386931307
 40
0.9498297667
 40
0.9599011489
 40
0.9688870224
 40
0.9767676098
 40
0.9835247996
 40
0.9891435765
 40
0.9915215168
 40
0.9936094427
 40
0.9954059232
 40
0.996909924
 40
0.9981206029
 40
0.9990375405
 40
0.9996615304
 40
0.999865286
 40
1.0
 40
1.0
 40
1.0
 40
1.0
 10
13.0770817188
 20
65.6405885682
 30
0.0
 10
13.0788342764
 20
65.6419082029
 30
0.0
 10
13.083864374
 20
65.6442224291
 30
0.0
 10
13.0985161705
 20
65.6487591216
 30
0.0
 10
13.1257719267
 20
65.6538089516
 30
0.0
 10
13.1687767745
 20
65.6595886868
 30
0.0
 10
13.225683122
 20
65.6653100982
 30
0.0
 10
13.2963982868
 20
65.6710154745
 30
0.0
 10
13.380921622
 20
65.676647883
 30
0.0
 10
13.4791917303
 20
65.6822243318
 30
0.0
 10
13.6375429876
 20
65.6900239862
 30
0.0
 10
13.869461397
 20
65.6993923222
 30
0.0
 10
14.1882138551
 20
65.7100304083
 30
0.0
 10
14.560414462
 20
65.7208724571
 30
0.0
 10
14.9853323348
 20
65.7321720124
 30
0.0
 10
15.4620024449
 20
65.7441067542
 30
0.0
 10
15.9892173438
 20
65.7564013095
 30
0.0
 10
16.5655665131
 20
65.7687629322
 30
0.0
 10
17.4278977474
 20
65.7855998777
 30
0.0
 10
18.6169166893
 20
65.8056076391
 30
0.0
 10
20.169067009
 20
65.8274384765
 30
0.0
 10
21.877807444
 20
65.8486581691
 30
0.0
 10
23.7273707833
 20
65.8717176716
 30
0.0
 10
25.700252661
 20
65.8966250853
 30
0.0
 10
27.7774564048
 20
65.9208831428
 30
0.0
 10
29.9390794165
 20
65.9437167596
 30
0.0
 10
32.1647671405
 20
65.9652910335
 30
0.0
 10
34.4336202012
 20
65.9868797278
 30
0.0
 10
37.4828581231
 20
66.0190700341
 30
0.0
 10
40.5177339143
 20
66.0520807217
 30
0.0
 10
43.5095981231
 20
66.0819537644
 30
0.0
 10
45.6713779824
 20
66.1032854259
 30
0.0
 10
47.7482642799
 20
66.1256537445
 30
0.0
 10
49.7204927357
 20
66.1503911913
 30
0.0
 10
51.5696705192
 20
66.1749228862
 30
0.0
 10
53.2787359809
 20
66.1980617985
 30
0.0
 10
54.831580656
 20
66.2197582391
 30
0.0
 10
56.0209781178
 20
66.2380400564
 30
0.0
 10
56.8830590418
 20
66.2538121637
 30
0.0
 10
57.4586564397
 20
66.2658443833
 30
0.0
 10
57.9849792975
 20
66.2781961142
 30
0.0
 10
58.4609368617
 20
66.2904768528
 30
0.0
 10
58.8855366395
 20
66.3025969465
 30
0.0
 10
59.2578625042
 20
66.3143951775
 30
0.0
 10
59.5770785847
 20
66.3257632631
 30
0.0
 10
59.80953116
 20
66.335366879
 30
0.0
 10
59.9683655709
 20
66.3430844052
 30
0.0
 10
60.0669663484
 20
66.34848345
 30
0.0
 10
60.1517694336
 20
66.3538271836
 30
0.0
 10
60.2227001985
 20
66.3591551342
 30
0.0
 10
60.2797438784
 20
66.3644297427
 30
0.0
 10
60.3227745334
 20
66.3697524695
 30
0.0
 10
60.34998441
 20
66.3744076399
 30
0.0
 10
60.364522154
 20
66.3786728192
 30
0.0
 10
60.3694786598
 20
66.3808657375
 30
0.0
 10
60.3711773696
 20
66.3821412109
 30
0.0
  0
SPLINE
  5
293
100
AcDbEntity
  8
0
100
AcDbSpline
 62
7
  6
CONTINUOUS
 70
0
 71
3
 72
33
 73
29
 74
0
 42
0.0000001
 43
0.0000001
 44
0.0000000001
 40
0.0
 40
0.0
 40
0.0
 40
0.0
 40
0.0002585164
 40
0.0006535208
 40
0.0018718668
 40
0.0036719864
 40
0.0060586403
 40
0.0090344137
 40
0.0126008915
 40
0.0167564084
 40
0.0214972538
 40
0.0327195036
 40
0.0462362774
 40
0.0620094224
 40
0.0799921808
 40
0.1001372275
 40
0.1224006642
 40
0.1467424595
 40
0.1731217602
 40
0.2317309135
 40
0.2976074273
 40
0.3700968922
 40
0.4485379527
 40
0.5322425594
 40
0.6203835353
 40
0.7120943109
 40
0.8065216275
 40
1.0
 40
1.0
 40
1.0
 40
1.0
 10
61.3700918459
 20
55.1327121216
 30
0.0
 10
61.3683940636
 20
55.1314352478
 30
0.0
 10
61.3633991643
 20
55.1292430988
 30
0.0
 10
61.34867201
 20
55.1249078938
 30
0.0
 10
61.3209417411
 20
55.1200854587
 30
0.0
 10
61.2769129201
 20
55.1144777884
 30
0.0
 10
61.2183013905
 20
55.1088542025
 30
0.0
 10
61.1451552581
 20
55.1031412457
 30
0.0
 10
61.0574294235
 20
55.0974123181
 30
0.0
 10
60.9551778883
 20
55.0916585215
 30
0.0
 10
60.7900535193
 20
55.0835052981
 30
0.0
 10
60.5480047354
 20
55.0735497381
 30
0.0
 10
60.2152925545
 20
55.0620984235
 30
0.0
 10
59.8269991517
 20
55.0506109183
 30
0.0
 10
59.3842185696
 20
55.039090021
 30
0.0
 10
58.8880887308
 20
55.0275473241
 30
0.0
 10
58.3396913702
 20
55.0159880306
 30
0.0
 10
57.7400540805
 20
55.0044167254
 30
0.0
 10
56.8417775792
 20
54.9884167658
 30
0.0
 10
55.6022044139
 20
54.9686778046
 30
0.0
 10
53.9837289017
 20
54.9456762702
 30
0.0
 10
52.2022709176
 20
54.9226285741
 30
0.0
 10
50.2743002933
 20
54.8995426838
 30
0.0
 10
48.2177051859
 20
54.8764563578
 30
0.0
 10
46.0520602812
 20
54.8533488193
 30
0.0
 10
43.7982971895
 20
54.8302195827
 30
0.0
 10
40.6789619793
 20
54.7992160326
 30
0.0
 10
38.313217045
 20
54.7760659464
 30
0.0
 10
36.7233858192
 20
54.760862032
 30
0.0
  0
SPLINE
  5
294
100
AcDbEntity
  8
0
100
AcDbSpline
 62
7
  6
CONTINUOUS
 70
0
 71
3
 72
34
 73
30
 74
0
 42
0.0000001
 43
0.0000001
 44
0.0000000001
 40
0.0
 40
0.0
 40
0.0
 40
0.0
 40
0.000258506
 40
0.0006552254
 40
0.0011954245
 40
0.0018808372
 40
0.0036892871
 40
0.0060817006
 40
0.0090566928
 40
0.0126122084
 40
0.0167468252
 40
0.0214596334
 40
0.0326158026
 40
0.0460719674
 40
0.0618045648
 40
0.0797710603
 40
0.0999271731
 40
0.1222190103
 40
0.1465824591
 40
0.1729531406
 40
0.231482107
 40
0.297335969
 40
0.3698765184
 40
0.4483719846
 40
0.5320655893
 40
0.6202063783
 40
0.7119723769
 40
0.8064517991
 40
1.0
 40
1.0
 40
1.0
 40
1.0
 10
61.3715304985
 20
62.6329212299
 30
0.0
 10
61.3698374281
 20
62.6316380497
 30
0.0
 10
61.3648220467
 20
62.6294481797
 30
0.0
 10
61.3554230053
 20
62.6266768973
 30
0.0
 10
61.3423666942
 20
62.6238662573
 30
0.0
 10
61.3177917676
 20
62.6196741468
 30
0.0
 10
61.2779232975
 20
62.6147132297
 30
0.0
 10
61.2192263261
 20
62.6090486891
 30
0.0
 10
61.1461150817
 20
62.6033493231
 30
0.0
 10
61.058656881
 20
62.5976107505
 30
0.0
 10
60.9568914379
 20
62.5918541322
 30
0.0
 10
60.7927045171
 20
62.5836951065
 30
0.0
 10
60.5519143042
 20
62.5737282626
 30
0.0
 10
60.2205581576
 20
62.5622686465
 30
0.0
 10
59.8332075138
 20
62.5507747978
 30
0.0
 10
59.3907772617
 20
62.5392461952
 30
0.0
 10
58.8944276913
 20
62.5277009393
 30
0.0
 10
58.3454958136
 20
62.5161432109
 30
0.0
 10
57.7454828505
 20
62.5045729973
 30
0.0
 10
56.8477057947
 20
62.4885703642
 30
0.0
 10
55.6089767009
 20
62.4687989254
 30
0.0
 10
53.9908320282
 20
62.4457836814
 30
0.0
 10
52.2085890436
 20
62.4227328626
 30
0.0
 10
50.2797290227
 20
62.3996519482
 30
0.0
 10
48.2226586809
 20
62.3765438337
 30
0.0
 10
46.056525409
 20
62.3534164091
 30
0.0
 10
43.8017500625
 20
62.3302755188
 30
0.0
 10
40.6807763422
 20
62.2992818472
 30
0.0
 10
38.3138914026
 20
62.2760827265
 30
0.0
 10
36.7233933649
 20
62.2608724352
 30
0.0
  0
SPLINE
  5
295
100
AcDbEntity
  8
0
100
AcDbSpline
 62
7
  6
CONTINUOUS
 70
0
 71
3
 72
34
 73
30
 74
0
 42
0.0000001
 43
0.0000001
 44
0.0000000001
 40
0.0
 40
0.0
 40
0.0
 40
0.0
 40
0.000258506
 40
0.0006552254
 40
0.0011954245
 40
0.0018808372
 40
0.0036892871
 40
0.0060817006
 40
0.0090566928
 40
0.0126122084
 40
0.0167468252
 40
0.0214596334
 40
0.0326158026
 40
0.0460719674
 40
0.0618045648
 40
0.0797710603
 40
0.0999271731
 40
0.1222190103
 40
0.1465824591
 40
0.1729531406
 40
0.231482107
 40
0.297335969
 40
0.3698765184
 40
0.4483719846
 40
0.5320655893
 40
0.6202063783
 40
0.7119723769
 40
0.8064517991
 40
1.0
 40
1.0
 40
1.0
 40
1.0
 10
61.3715304985
 20
56.6329212299
 30
0.0
 10
61.3698374281
 20
56.6316380497
 30
0.0
 10
61.3648220467
 20
56.6294481797
 30
0.0
 10
61.3554230053
 20
56.6266768973
 30
0.0
 10
61.3423666942
 20
56.6238662573
 30
0.0
 10
61.3177917676
 20
56.6196741468
 30
0.0
 10
61.2779232975
 20
56.6147132297
 30
0.0
 10
61.2192263261
 20
56.6090486891
 30
0.0
 10
61.1461150817
 20
56.6033493231
 30
0.0
 10
61.058656881
 20
56.5976107505
 30
0.0
 10
60.9568914379
 20
56.5918541322
 30
0.0
 10
60.7927045171
 20
56.5836951065
 30
0.0
 10
60.5519143042
 20
56.5737282626
 30
0.0
 10
60.2205581577
 20
56.5622686465
 30
0.0
 10
59.8332075138
 20
56.5507747978
 30
0.0
 10
59.3907772617
 20
56.5392461952
 30
0.0
 10
58.8944276913
 20
56.5277009393
 30
0.0
 10
58.3454958137
 20
56.5161432109
 30
0.0
 10
57.7454828505
 20
56.5045729973
 30
0.0
 10
56.8477057947
 20
56.4885703642
 30
0.0
 10
55.6089767009
 20
56.4687989254
 30
0.0
 10
53.9908320282
 20
56.4457836814
 30
0.0
 10
52.2085890436
 20
56.4227328626
 30
0.0
 10
50.2797290227
 20
56.3996519482
 30
0.0
 10
48.2226586809
 20
56.3765438337
 30
0.0
 10
46.056525409
 20
56.3534164091
 30
0.0
 10
43.8017500625
 20
56.3302755188
 30
0.0
 10
40.6807763422
 20
56.2992818472
 30
0.0
 10
38.3138914026
 20
56.2760827265
 30
0.0
 10
36.7233933649
 20
56.2608724352
 30
0.0
  0
SPLINE
  5
296
100
AcDbEntity
  8
0
100
AcDbSpline
 62
7
  6
CONTINUOUS
 70
0
 71
3
 72
34
 73
30
 74
0
 42
0.0000001
 43
0.0000001
 44
0.0000000001
 40
0.0
 40
0.0
 40
0.0
 40
0.0
 40
0.0002622547
 40
0.000663581
 40
0.0019003578
 40
0.0037235542
 40
0.0061343825
 40
0.0091319196
 40
0.0127144473
 40
0.016879215
 40
0.0216228559
 40
0.0328328185
 40
0.0463161651
 40
0.0620462405
 40
0.0799987396
 40
0.1001487028
 40
0.1224508097
 40
0.1468370791
 40
0.1732383514
 40
0.2318131733
 40
0.2976307087
 40
0.3701217082
 40
0.4486170018
 40
0.5323064208
 40
0.6204042772
 40
0.7121029478
 40
0.8065399978
 40
0.9028296932
 40
1.0
 40
1.0
 40
1.0
 40
1.0
 10
61.371801068
 20
59.6327421674
 30
0.0
 10
61.3700676321
 20
59.6314614791
 30
0.0
 10
61.3649810312
 20
59.6292723568
 30
0.0
 10
61.3500094078
 20
59.6249386601
 30
0.0
 10
61.3218784335
 20
59.6201205135
 30
0.0
 10
61.2773025068
 20
59.6145127039
 30
0.0
 10
61.2181175346
 20
59.6088894825
 30
0.0
 10
61.1444554234
 20
59.603176861
 30
0.0
 10
61.056336184
 20
59.5974470381
 30
0.0
 10
60.9538464762
 20
59.5916927511
 30
0.0
 10
60.7887126356
 20
59.5835450053
 30
0.0
 10
60.5470004027
 20
59.5735916487
 30
0.0
 10
60.2149958956
 20
59.5621353564
 30
0.0
 10
59.8275541249
 20
59.5506391543
 30
0.0
 10
59.3853060927
 20
59.5391111102
 30
0.0
 10
58.8890330268
 20
59.5275693604
 30
0.0
 10
58.3398744904
 20
59.5160174024
 30
0.0
 10
57.7393324414
 20
59.5044522762
 30
0.0
 10
56.8407309423
 20
59.4884620629
 30
0.0
 10
55.6016602215
 20
59.468717635
 30
0.0
 10
53.9838295757
 20
59.4456980079
 30
0.0
 10
52.2022772695
 20
59.4226491324
 30
0.0
 10
50.2738421957
 20
59.399588967
 30
0.0
 10
48.2171414106
 20
59.3764868153
 30
0.0
 10
46.0519283473
 20
59.3533880365
 30
0.0
 10
43.7983860851
 20
59.3302938446
 30
0.0
 10
41.4775213525
 20
59.3070215807
 30
0.0
 10
39.1116844821
 20
59.2841464154
 30
0.0
 10
37.5218972475
 20
59.2688602842
 30
0.0
 10
36.7233885666
 20
59.2608576619
 30
0.0
  0
SPLINE
  5
297
100
AcDbEntity
  8
0
100
AcDbSpline
 62
7
  6
CONTINUOUS
 70
0
 71
3
 72
33
 73
29
 74
0
 42
0.0000001
 43
0.0000001
 44
0.0000000001
 40
0.0
 40
0.0
 40
0.0
 40
0.0
 40
0.0002613826
 40
0.0006608021
 40
0.0018917324
 40
0.0037082376
 40
0.0061137505
 40
0.0091095589
 40
0.0126959109
 40
0.0168698215
 40
0.0216265165
 40
0.0328686386
 40
0.0463828365
 40
0.0621347714
 40
0.080096893
 40
0.1002415177
 40
0.1225278341
 40
0.1469005875
 40
0.1733032181
 40
0.2319149983
 40
0.2977466724
 40
0.370216991
 40
0.4486861602
 40
0.5323798015
 40
0.6204790627
 40
0.7121542849
 40
0.8065693579
 40
1.0
 40
1.0
 40
1.0
 40
1.0
 10
61.3709807112
 20
64.1326476691
 30
0.0
 10
61.3692543375
 20
64.1313696037
 30
0.0
 10
61.3641940259
 20
64.1291797142
 30
0.0
 10
61.3492957512
 20
64.1248458887
 30
0.0
 10
61.321286957
 20
64.1200254182
 30
0.0
 10
61.2768599633
 20
64.1144180688
 30
0.0
 10
61.2177903076
 20
64.1087951651
 30
0.0
 10
61.1441570662
 20
64.1030832464
 30
0.0
 10
61.0559480072
 20
64.0973558102
 30
0.0
 10
60.9532473826
 20
64.0916037729
 30
0.0
 10
60.7876716564
 20
64.0834581425
 30
0.0
 10
60.5453415736
 20
64.0735103961
 30
0.0
 10
60.2126500379
 20
64.062058263
 30
0.0
 10
59.8247084907
 20
64.0505653814
 30
0.0
 10
59.3822600353
 20
64.0390410568
 30
0.0
 10
58.886097897
 20
64.0275001569
 30
0.0
 10
58.3372422568
 20
64.0159466836
 30
0.0
 10
57.7369497299
 20
64.0043803976
 30
0.0
 10
56.8381739891
 20
63.9883904627
 30
0.0
 10
55.5987127245
 20
63.9686613097
 30
0.0
 10
53.9806852983
 20
63.9456496873
 30
0.0
 10
52.1994601416
 20
63.9226018977
 30
0.0
 10
50.2714386272
 20
63.8995355782
 30
0.0
 10
48.2149738272
 20
63.8764527456
 30
0.0
 10
46.049978587
 20
63.8533514909
 30
0.0
 10
43.7968725575
 20
63.8302335116
 30
0.0
 10
40.6782145422
 20
63.7991556865
 30
0.0
 10
38.3128776361
 20
63.7762644756
 30
0.0
 10
36.7233854113
 20
63.7608437885
 30
0.0
  0
SPLINE
  5
298
100
AcDbEntity
  8
0
100
AcDbSpline
 62
7
  6
CONTINUOUS
 70
0
 71
3
 72
33
 73
29
 74
0
 42
0.0000001
 43
0.0000001
 44
0.0000000001
 40
0.0
 40
0.0
 40
0.0
 40
0.0
 40
0.0002613827
 40
0.0006608024
 40
0.0018917329
 40
0.0037082383
 40
0.0061137515
 40
0.0091095601
 40
0.0126959123
 40
0.0168698232
 40
0.0216265184
 40
0.0328686408
 40
0.0463828391
 40
0.0621347743
 40
0.0800968961
 40
0.1002415211
 40
0.1225278376
 40
0.1469005912
 40
0.1733032219
 40
0.2319150022
 40
0.2977466762
 40
0.3702169948
 40
0.4486861637
 40
0.5323798045
 40
0.6204790654
 40
0.712154287
 40
0.8065693588
 40
1.0
 40
1.0
 40
1.0
 40
1.0
 10
61.3709807076
 20
58.1326476664
 30
0.0
 10
61.3692543325
 20
58.1313696011
 30
0.0
 10
61.3641940189
 20
58.1291797117
 30
0.0
 10
61.3492957398
 20
58.1248458862
 30
0.0
 10
61.3212869406
 20
58.1200254157
 30
0.0
 10
61.2768599407
 20
58.1144180662
 30
0.0
 10
61.2177902791
 20
58.1087951626
 30
0.0
 10
61.144157032
 20
58.103083244
 30
0.0
 10
61.0559479676
 20
58.0973558079
 30
0.0
 10
60.9532473377
 20
58.0916037708
 30
0.0
 10
60.787671605
 20
58.0834581408
 30
0.0
 10
60.5453415148
 20
58.0735103944
 30
0.0
 10
60.2126499709
 20
58.0620582604
 30
0.0
 10
59.8247084165
 20
58.0505653774
 30
0.0
 10
59.3822599547
 20
58.0390410529
 30
0.0
 10
58.8860978109
 20
58.027500157
 30
0.0
 10
58.3372421661
 20
58.0159466889
 30
0.0
 10
57.7369496357
 20
58.0043804026
 30
0.0
 10
56.8381738925
 20
57.9883904479
 30
0.0
 10
55.5987126274
 20
57.9686612493
 30
0.0
 10
53.9806851988
 20
57.9456498588
 30
0.0
 10
52.1994600503
 20
57.9226017934
 30
0.0
 10
50.2714385511
 20
57.8995348214
 30
0.0
 10
48.2149737242
 20
57.8764551348
 30
0.0
 10
46.0499785388
 20
57.8533502385
 30
0.0
 10
43.7968726477
 20
57.8302196323
 30
0.0
 10
40.6782137841
 20
57.7992308816
 30
0.0
 10
38.3128793268
 20
57.7760884118
 30
0.0
 10
36.7233854113
 20
57.7608437885
 30
0.0
  0
SPLINE
  5
299
100
AcDbEntity
  8
0
100
AcDbSpline
 62
7
  6
CONTINUOUS
 70
0
 71
3
 72
14
 73
10
 74
0
 42
0.0000001
 43
0.0000001
 44
0.0000000001
 40
0.0
 40
0.0
 40
0.0
 40
0.0
 40
0.2744961436
 40
0.4073524203
 40
0.5352517621
 40
0.6576900615
 40
0.7750283206
 40
0.8885673692
 40
1.0
 40
1.0
 40
1.0
 40
1.0
 10
62.7724674776
 20
37.010392614
 30
0.0
 10
62.7724674776
 20
36.8148651916
 30
0.0
 10
62.7261285179
 20
36.521481745
 30
0.0
 10
62.5735723789
 20
36.1705402579
 30
0.0
 10
62.4212661151
 20
35.9420370978
 30
0.0
 10
62.2356649124
 20
35.7548093987
 30
0.0
 10
62.023634186
 20
35.6155301264
 30
0.0
 10
61.7931531465
 20
35.5297990518
 30
0.0
 10
61.632276532
 20
35.510392614
 30
0.0
 10
61.5529015186
 20
35.510392614
 30
0.0
  0
SPLINE
  5
29A
100
AcDbEntity
  8
0
100
AcDbSpline
 62
7
  6
CONTINUOUS
 70
0
 71
3
 72
18
 73
14
 74
0
 42
0.0000001
 43
0.0000001
 44
0.0000000001
 40
0.0
 40
0.0
 40
0.0
 40
0.0
 40
0.1799725316
 40
0.3533733411
 40
0.5137325823
 40
0.6558855429
 40
0.7757572379
 40
0.826627448
 40
0.8713391101
 40
0.9101504705
 40
0.9436567985
 40
0.9730054151
 40
1.0
 40
1.0
 40
1.0
 40
1.0
 10
50.3059669405
 20
37.010392614
 30
0.0
 10
50.3059669405
 20
36.9118903618
 30
0.0
 10
50.3004787065
 20
36.7184333835
 30
0.0
 10
50.2760543255
 20
36.4381572046
 30
0.0
 10
50.2364354607
 20
36.1804689019
 30
0.0
 10
50.1833175788
 20
35.955224885
 30
0.0
 10
50.1268827985
 20
35.7929471819
 30
0.0
 10
50.074875943
 20
35.6869466147
 30
0.0
 10
50.0359114057
 20
35.6243739087
 30
0.0
 10
49.9951352362
 20
35.5746706254
 30
0.0
 10
49.9525422515
 20
35.5382638506
 30
0.0
 10
49.9082304992
 20
35.5156696495
 30
0.0
 10
49.8772168025
 20
35.510392614
 30
0.0
 10
49.8624421734
 20
35.510392614
 30
0.0
  0
SPLINE
  5
29B
100
AcDbEntity
  8
0
100
AcDbSpline
 62
7
  6
CONTINUOUS
 70
0
 71
3
 72
59
 73
55
 74
0
 42
0.0000001
 43
0.0000001
 44
0.0000000001
 40
0.0
 40
0.0
 40
0.0
 40
0.0
 40
0.0001348634
 40
0.000338814
 40
0.0009628896
 40
0.0018796357
 40
0.0030902718
 40
0.0045948897
 40
0.0063931913
 40
0.0084846331
 40
0.0108675976
 40
0.016498574
 40
0.0232668153
 40
0.031153166
 40
0.0401419159
 40
0.0502191166
 40
0.0613696586
 40
0.0735663643
 40
0.0867748212
 40
0.1160865853
 40
0.1490105135
 40
0.1852457793
 40
0.2244817851
 40
0.2663298609
 40
0.3103736059
 40
0.3562085503
 40
0.4034086103
 40
0.5001017128
 40
0.5967870963
 40
0.6439778755
 40
0.6898104864
 40
0.7338596384
 40
0.7756886322
 40
0.8148981508
 40
0.8511293672
 40
0.8840614904
 40
0.9133617304
 40
0.9265476324
 40
0.9387200383
 40
0.9498558146
 40
0.9599321154
 40
0.9689268218
 40
0.9768179617
 40
0.9835841517
 40
0.9892056913
 40
0.9915812182
 40
0.9936634235
 40
0.9954506707
 40
0.9969433177
 40
0.9981422311
 40
0.9990486737
 40
0.9996650505
 40
0.9998665121
 40
1.0
 40
1.0
 40
1.0
 40
1.0
 10
13.075801313
 20
53.6391888846
 30
0.0
 10
13.0775101549
 20
53.6404547323
 30
0.0
 10
13.0824686657
 20
53.6426456544
 30
0.0
 10
13.0969970212
 20
53.6469706547
 30
0.0
 10
13.1241743146
 20
53.6518002145
 30
0.0
 10
13.1671688571
 20
53.6574056193
 30
0.0
 10
13.2241850004
 20
53.6630308608
 30
0.0
 10
13.2951247939
 20
53.6687418944
 30
0.0
 10
13.3799974597
 20
53.674471359
 30
0.0
 10
13.478742759
 20
53.6802233076
 30
0.0
 10
13.6378844842
 20
53.6883667073
 30
0.0
 10
13.8707712369
 20
53.6983123925
 30
0.0
 10
14.1904445749
 20
53.7097601549
 30
0.0
 10
14.563093227
 20
53.7212500632
 30
0.0
 10
14.9879401807
 20
53.7327723525
 30
0.0
 10
15.4642753989
 20
53.7443140039
 30
0.0
 10
15.9912089463
 20
53.7558641185
 30
0.0
 10
16.5675288473
 20
53.7674242176
 30
0.0
 10
17.4301952407
 20
53.7834101022
 30
0.0
 10
18.6196880599
 20
53.8031392844
 30
0.0
 10
20.1722761801
 20
53.8261396383
 30
0.0
 10
21.8813714427
 20
53.8491875477
 30
0.0
 10
23.7312003382
 20
53.872245727
 30
0.0
 10
25.704167374
 20
53.8953230886
 30
0.0
 10
27.7811974952
 20
53.9184211565
 30
0.0
 10
29.9426262308
 20
53.94153231
 30
0.0
 10
32.934228529
 20
53.9726039611
 30
0.0
 10
36.7276438459
 20
54.0108813893
 30
0.0
 10
40.52091269
 20
54.0491704804
 30
0.0
 10
43.5122101063
 20
54.0802423808
 30
0.0
 10
45.6735409888
 20
54.1033503655
 30
0.0
 10
47.75031876
 20
54.1264397167
 30
0.0
 10
49.7226523654
 20
54.1495245003
 30
0.0
 10
51.5716986393
 20
54.1725935799
 30
0.0
 10
53.2804416688
 20
54.195633923
 30
0.0
 10
54.8329135636
 20
54.2186248314
 30
0.0
 10
56.0219982548
 20
54.238350398
 30
0.0
 10
56.8837437191
 20
54.2543481761
 30
0.0
 10
57.4590916508
 20
54.2659133064
 30
0.0
 10
57.9853947758
 20
54.2774661045
 30
0.0
 10
58.4615769498
 20
54.2890031091
 30
0.0
 10
58.8865793603
 20
54.3005197033
 30
0.0
 10
59.2593653582
 20
54.3120041627
 30
0.0
 10
59.578933031
 20
54.32345141
 30
0.0
 10
59.8115210464
 20
54.3333993811
 30
0.0
 10
59.9702503001
 20
54.3415470592
 30
0.0
 10
60.0685576966
 20
54.3472978974
 30
0.0
 10
60.1529205566
 20
54.3530269993
 30
0.0
 10
60.2233107013
 20
54.3587376944
 30
0.0
 10
60.2797882832
 20
54.3643628694
 30
0.0
 10
60.3223103688
 20
54.3699678513
 30
0.0
 10
60.3491590792
 20
54.3748006823
 30
0.0
 10
60.3634978845
 20
54.3791262366
 30
0.0
 10
60.3683886998
 20
54.3813186112
 30
0.0
 10
60.3700729934
 20
54.3825811018
 30
0.0
  0
SPLINE
  5
29C
100
AcDbEntity
  8
0
100
AcDbSpline
 62
7
  6
CONTINUOUS
 70
0
 71
3
 72
14
 73
10
 74
0
 42
0.0000001
 43
0.0000001
 44
0.0000000001
 40
0.0
 40
0.0
 40
0.0
 40
0.0
 40
0.1125641967
 40
0.2273243864
 40
0.3456593343
 40
0.4686053428
 40
0.5963723957
 40
0.7284494241
 40
1.0
 40
1.0
 40
1.0
 40
1.0
 10
55.6389539296
 20
35.510392614
 30
0.0
 10
55.7200853787
 20
35.510392614
 30
0.0
 10
55.8845340793
 20
35.5298344107
 30
0.0
 10
56.1206556783
 20
35.6154147668
 30
0.0
 10
56.338690935
 20
35.7544555429
 30
0.0
 10
56.5302566622
 20
35.9414870337
 30
0.0
 10
56.6879618846
 20
36.1699435906
 30
0.0
 10
56.8460818355
 20
36.5203787999
 30
0.0
 10
56.8946149547
 20
36.8146705959
 30
0.0
 10
56.8946149547
 20
37.010392614
 30
0.0
  0
SPLINE
  5
29D
100
AcDbEntity
  8
0
100
AcDbSpline
 62
7
  6
CONTINUOUS
 70
0
 71
3
 72
59
 73
55
 74
0
 42
0.0000001
 43
0.0000001
 44
0.0000000001
 40
0.0
 40
0.0
 40
0.0
 40
0.0
 40
0.0001348634
 40
0.000338814
 40
0.0009628896
 40
0.0018796357
 40
0.0030902718
 40
0.0045948897
 40
0.0063931913
 40
0.0084846331
 40
0.0108675976
 40
0.016498574
 40
0.0232668153
 40
0.031153166
 40
0.0401419159
 40
0.0502191166
 40
0.0613696586
 40
0.0735663643
 40
0.0867748212
 40
0.1160865853
 40
0.1490105135
 40
0.1852457793
 40
0.2244817851
 40
0.2663298609
 40
0.3103736059
 40
0.3562085503
 40
0.4034086103
 40
0.5001017128
 40
0.5967870963
 40
0.6439778755
 40
0.6898104864
 40
0.7338596384
 40
0.7756886322
 40
0.8148981508
 40
0.8511293672
 40
0.8840614904
 40
0.9133617304
 40
0.9265476324
 40
0.9387200383
 40
0.9498558146
 40
0.9599321154
 40
0.9689268218
 40
0.9768179617
 40
0.9835841517
 40
0.9892056913
 40
0.9915812182
 40
0.9936634235
 40
0.9954506707
 40
0.9969433177
 40
0.9981422311
 40
0.9990486737
 40
0.9996650505
 40
0.9998665121
 40
1.0
 40
1.0
 40
1.0
 40
1.0
 10
13.075801313
 20
59.6391888847
 30
0.0
 10
13.0775101549
 20
59.6404547323
 30
0.0
 10
13.0824686657
 20
59.6426456544
 30
0.0
 10
13.0969970212
 20
59.6469706547
 30
0.0
 10
13.1241743146
 20
59.6518002145
 30
0.0
 10
13.1671688571
 20
59.6574056193
 30
0.0
 10
13.2241850004
 20
59.6630308608
 30
0.0
 10
13.2951247939
 20
59.6687418945
 30
0.0
 10
13.3799974597
 20
59.674471359
 30
0.0
 10
13.478742759
 20
59.6802233076
 30
0.0
 10
13.6378844842
 20
59.6883667074
 30
0.0
 10
13.8707712369
 20
59.6983123925
 30
0.0
 10
14.1904445749
 20
59.7097601549
 30
0.0
 10
14.563093227
 20
59.7212500632
 30
0.0
 10
14.9879401807
 20
59.7327723525
 30
0.0
 10
15.4642753989
 20
59.7443140039
 30
0.0
 10
15.9912089463
 20
59.7558641185
 30
0.0
 10
16.5675288473
 20
59.7674242176
 30
0.0
 10
17.4301952407
 20
59.7834101022
 30
0.0
 10
18.6196880599
 20
59.8031392844
 30
0.0
 10
20.1722761801
 20
59.8261396383
 30
0.0
 10
21.8813714427
 20
59.8491875477
 30
0.0
 10
23.7312003382
 20
59.872245727
 30
0.0
 10
25.704167374
 20
59.8953230886
 30
0.0
 10
27.7811974952
 20
59.9184211565
 30
0.0
 10
29.9426262308
 20
59.94153231
 30
0.0
 10
32.934228529
 20
59.9726039611
 30
0.0
 10
36.7276438459
 20
60.0108813893
 30
0.0
 10
40.52091269
 20
60.0491704804
 30
0.0
 10
43.5122101063
 20
60.0802423809
 30
0.0
 10
45.6735409888
 20
60.1033503655
 30
0.0
 10
47.75031876
 20
60.1264397167
 30
0.0
 10
49.7226523654
 20
60.1495245003
 30
0.0
 10
51.5716986393
 20
60.1725935799
 30
0.0
 10
53.2804416688
 20
60.195633923
 30
0.0
 10
54.8329135636
 20
60.2186248315
 30
0.0
 10
56.0219982548
 20
60.2383503981
 30
0.0
 10
56.8837437191
 20
60.2543481761
 30
0.0
 10
57.4590916508
 20
60.2659133064
 30
0.0
 10
57.9853947758
 20
60.2774661045
 30
0.0
 10
58.4615769498
 20
60.2890031091
 30
0.0
 10
58.8865793603
 20
60.3005197033
 30
0.0
 10
59.2593653582
 20
60.3120041627
 30
0.0
 10
59.578933031
 20
60.32345141
 30
0.0
 10
59.8115210464
 20
60.3333993811
 30
0.0
 10
59.9702503001
 20
60.3415470593
 30
0.0
 10
60.0685576966
 20
60.3472978974
 30
0.0
 10
60.1529205566
 20
60.3530269994
 30
0.0
 10
60.2233107012
 20
60.3587376944
 30
0.0
 10
60.2797882832
 20
60.3643628694
 30
0.0
 10
60.3223103688
 20
60.3699678513
 30
0.0
 10
60.3491590792
 20
60.3748006823
 30
0.0
 10
60.3634978845
 20
60.3791262366
 30
0.0
 10
60.3683886998
 20
60.3813186112
 30
0.0
 10
60.3700729934
 20
60.3825811018
 30
0.0
  0
SPLINE
  5
29E
100
AcDbEntity
  8
0
100
AcDbSpline
 62
7
  6
CONTINUOUS
 70
0
 71
3
 72
17
 73
13
 74
0
 42
0.0000001
 43
0.0000001
 44
0.0000000001
 40
0.0
 40
0.0
 40
0.0
 40
0.0
 40
0.0290155762
 40
0.060297626
 40
0.0954585513
 40
0.135565906
 40
0.2324985465
 40
0.3524966136
 40
0.4936316567
 40
0.6520681171
 40
0.8229109243
 40
1.0
 40
1.0
 40
1.0
 40
1.0
 10
40.2934739667
 20
35.510392614
 30
0.0
 10
40.3096158556
 20
35.510392614
 30
0.0
 10
40.3433224469
 20
35.5156186406
 30
0.0
 10
40.3920432856
 20
35.5380304618
 30
0.0
 10
40.4393935662
 20
35.5743313891
 30
0.0
 10
40.5044339007
 20
35.64514777
 30
0.0
 10
40.5784186025
 20
35.7689545804
 30
0.0
 10
40.6525138658
 20
35.9543060775
 30
0.0
 10
40.7140360644
 20
36.179916612
 30
0.0
 10
40.7602780391
 20
36.4377738731
 30
0.0
 10
40.7889384874
 20
36.7182496806
 30
0.0
 10
40.7954017776
 20
36.9118747638
 30
0.0
 10
40.7954017776
 20
37.010392614
 30
0.0
  0
SPLINE
  5
29F
100
AcDbEntity
  8
0
100
AcDbSpline
 62
7
  6
CONTINUOUS
 70
0
 71
3
 72
57
 73
53
 74
0
 42
0.0000001
 43
0.0000001
 44
0.0000000001
 40
0.0
 40
0.0
 40
0.0
 40
0.0
 40
0.0001339987
 40
0.0003366744
 40
0.0009567846
 40
0.0018672654
 40
0.0030688139
 40
0.004561237
 40
0.0063441858
 40
0.00841715
 40
0.0107795329
 40
0.0163699158
 40
0.0231072375
 40
0.0309773571
 40
0.0399652425
 40
0.0500509712
 40
0.0612031062
 40
0.0733885233
 40
0.0865755918
 40
0.1158445599
 40
0.1487702109
 40
0.2043065615
 40
0.2661106776
 40
0.3329044502
 40
0.4032625346
 40
0.4756718314
 40
0.5485988476
 40
0.6204922046
 40
0.6898310235
 40
0.7551075356
 40
0.7857925552
 40
0.8149651167
 40
0.8424628179
 40
0.8681303633
 40
0.8918254791
 40
0.9134238185
 40
0.9328308993
 40
0.9499488431
 40
0.9646673437
 40
0.9710954992
 40
0.9768928334
 40
0.9820529823
 40
0.9865696536
 40
0.9904382114
 40
0.9936562585
 40
0.9962217457
 40
0.9972592773
 40
0.9981331559
 40
0.998843304
 40
0.9993898866
 40
0.9997739534
 40
1.0
 40
1.0
 40
1.0
 40
1.0
 10
13.0753741217
 20
55.1389240794
 30
0.0
 10
13.0770654369
 20
55.1401907643
 30
0.0
 10
13.0819877217
 20
55.1423832101
 30
0.0
 10
13.0964151589
 20
55.1467098696
 30
0.0
 10
13.1234098774
 20
55.1515408789
 30
0.0
 10
13.1660982141
 20
55.1571481478
 30
0.0
 10
13.2226799052
 20
55.162775923
 30
0.0
 10
13.2930425321
 20
55.1684895764
 30
0.0
 10
13.3771907972
 20
55.1742216267
 30
0.0
 10
13.4750800666
 20
55.1799777907
 30
0.0
 10
13.6329695119
 20
55.1881323323
 30
0.0
 10
13.8644109023
 20
55.1980929143
 30
0.0
 10
14.1827114899
 20
55.2095485501
 30
0.0
 10
14.5546164792
 20
55.2210446981
 30
0.0
 10
14.9793441997
 20
55.2325696168
 30
0.0
 10
15.4558434283
 20
55.2441074525
 30
0.0
 10
15.9827782672
 20
55.2556615129
 30
0.0
 10
16.558629419
 20
55.2672283321
 30
0.0
 10
17.4201376332
 20
55.2832268755
 30
0.0
 10
18.6086895204
 20
55.3029884905
 30
0.0
 10
20.4650192052
 20
55.3304967884
 30
0.0
 10
22.8344053494
 20
55.3615783041
 30
0.0
 10
25.7378670198
 20
55.3959536079
 30
0.0
 10
28.8750712045
 20
55.4303840786
 30
0.0
 10
32.1795204921
 20
55.4648475181
 30
0.0
 10
35.5806913669
 20
55.4993415322
 30
0.0
 10
39.0060735168
 20
55.5338440794
 30
0.0
 10
42.383034161
 20
55.5683296664
 30
0.0
 10
45.6393457499
 20
55.6027813388
 30
0.0
 10
48.2458497778
 20
55.6320346948
 30
0.0
 10
50.2189829554
 20
55.655683809
 30
0.0
 10
51.5964037815
 20
55.6730411019
 30
0.0
 10
52.8946961355
 20
55.6903901627
 30
0.0
 10
54.1066050215
 20
55.7077313284
 30
0.0
 10
55.225475244
 20
55.7250567774
 30
0.0
 10
56.2456098046
 20
55.7423685416
 30
0.0
 10
57.1620114703
 20
55.7596429778
 30
0.0
 10
57.9699024107
 20
55.776864964
 30
0.0
 10
58.5731262221
 20
55.7917441449
 30
0.0
 10
58.9978413117
 20
55.8038617241
 30
0.0
 10
59.2718639526
 20
55.8125245333
 30
0.0
 10
59.5157278803
 20
55.8211707641
 30
0.0
 10
59.7291553191
 20
55.8297976189
 30
0.0
 10
59.911931436
 20
55.8383897645
 30
0.0
 10
60.0638981449
 20
55.8469423468
 30
0.0
 10
60.1712118211
 20
55.8544128625
 30
0.0
 10
60.2415349663
 20
55.8606021347
 30
0.0
 10
60.2826654758
 20
55.8648818661
 30
0.0
 10
60.3159685318
 20
55.869147916
 30
0.0
 10
60.3415849921
 20
55.873293306
 30
0.0
 10
60.359222671
 20
55.8774419335
 30
0.0
 10
60.3685562843
 20
55.8806246796
 30
0.0
 10
60.3714094608
 20
55.8827614312
 30
0.0
  0
SPLINE
  5
2A0
100
AcDbEntity
  8
0
100
AcDbSpline
 62
7
  6
CONTINUOUS
 70
0
 71
3
 72
34
 73
30
 74
0
 42
0.0000001
 43
0.0000001
 44
0.0000000001
 40
0.0
 40
0.0
 40
0.0
 40
0.0
 40
0.0971842871
 40
0.1934753018
 40
0.2879011271
 40
0.3796105514
 40
0.4677503576
 40
0.5514540085
 40
0.6298943738
 40
0.7023834245
 40
0.7682598418
 40
0.8268692529
 40
0.8532488104
 40
0.8775909527
 40
0.8998548265
 40
0.9200003983
 40
0.937983771
 40
0.9537576236
 40
0.9672752011
 40
0.9784983496
 40
0.9832396795
 40
0.987395704
 40
0.990962712
 40
0.9939390349
 40
0.9963262563
 40
0.9981269599
 40
0.9993459022
 40
0.9997412032
 40
1.0
 40
1.0
 40
1.0
 40
1.0
 10
36.7233854113
 20
51.7608437885
 30
0.0
 10
35.9248167819
 20
51.7528405693
 30
0.0
 10
34.3350130578
 20
51.7375677371
 30
0.0
 10
31.9693053059
 20
51.7147081619
 30
0.0
 10
29.6485934223
 20
51.6914203428
 30
0.0
 10
27.3948652942
 20
51.6683294735
 30
0.0
 10
25.2292510135
 20
51.6452406552
 30
0.0
 10
23.1726813831
 20
51.6221413898
 30
0.0
 10
21.2447297154
 20
51.5990584718
 30
0.0
 10
19.4632834827
 20
51.5760123422
 30
0.0
 10
17.8448117499
 20
51.5530102595
 30
0.0
 10
16.6052364359
 20
51.5332718383
 30
0.0
 10
15.7069537856
 20
51.517272262
 30
0.0
 10
15.1073085647
 20
51.5057011554
 30
0.0
 10
14.558901014
 20
51.494142036
 30
0.0
 10
14.0627587322
 20
51.4825995154
 30
0.0
 10
13.6199634262
 20
51.4710788048
 30
0.0
 10
13.2316529497
 20
51.4595914834
 30
0.0
 10
12.8989212959
 20
51.4481403435
 30
0.0
 10
12.6568547718
 20
51.4381849642
 30
0.0
 10
12.4917150122
 20
51.4300319298
 30
0.0
 10
12.3894510478
 20
51.4242782171
 30
0.0
 10
12.3017122395
 20
51.4185493578
 30
0.0
 10
12.2285525754
 20
51.4128364746
 30
0.0
 10
12.1699271415
 20
51.4072128625
 30
0.0
 10
12.1258837318
 20
51.4016052286
 30
0.0
 10
12.0981415213
 20
51.3967825927
 30
0.0
 10
12.0834040433
 20
51.3924476544
 30
0.0
 10
12.0784042401
 20
51.3902556895
 30
0.0
 10
12.0767033622
 20
51.3889791028
 30
0.0
  0
SPLINE
  5
2A1
100
AcDbEntity
  8
0
100
AcDbSpline
 62
7
  6
CONTINUOUS
 70
0
 71
3
 72
17
 73
13
 74
0
 42
0.0000001
 43
0.0000001
 44
0.0000000001
 40
0.0
 40
0.0
 40
0.0
 40
0.0
 40
0.0290177171
 40
0.0603037783
 40
0.095467133
 40
0.1355743352
 40
0.2325041349
 40
0.3525002228
 40
0.4936345014
 40
0.6520701636
 40
0.8229119208
 40
1.0
 40
1.0
 40
1.0
 40
1.0
 10
33.1533127632
 20
35.510392614
 30
0.0
 10
33.1371695978
 20
35.510392614
 30
0.0
 10
33.1034595901
 20
35.5156192422
 30
0.0
 10
33.0547326753
 20
35.538029582
 30
0.0
 10
33.007376728
 20
35.574329795
 30
0.0
 10
32.9423365495
 20
35.6451469965
 30
0.0
 10
32.868359413
 20
35.7689561822
 30
0.0
 10
32.7942700625
 20
35.9543073104
 30
0.0
 10
32.7327461291
 20
36.179916528
 30
0.0
 10
32.686503617
 20
36.437773738
 30
0.0
 10
32.6578462093
 20
36.7182498217
 30
0.0
 10
32.6513849523
 20
36.9118747969
 30
0.0
 10
32.6513849523
 20
37.010392614
 30
0.0
  0
SPLINE
  5
2A2
100
AcDbEntity
  8
0
100
AcDbSpline
 62
7
  6
CONTINUOUS
 70
0
 71
3
 72
34
 73
30
 74
0
 42
0.0000001
 43
0.0000001
 44
0.0000000001
 40
0.0
 40
0.0
 40
0.0
 40
0.0
 40
0.097153465
 40
0.1934216443
 40
0.2878374254
 40
0.3795285743
 40
0.4676222385
 40
0.5512981323
 40
0.6297727345
 40
0.7022597062
 40
0.7680939549
 40
0.8266862166
 40
0.8530792219
 40
0.8774470329
 40
0.8997371247
 40
0.9198978216
 40
0.937881653
 40
0.95364561
 40
0.9671479036
 40
0.978359904
 40
0.9831015111
 40
0.9872640147
 40
0.9908453744
 40
0.9938436682
 40
0.9962572498
 40
0.998085181
 40
0.9993285835
 40
0.9997337944
 40
1.0
 40
1.0
 40
1.0
 40
1.0
 10
36.7233890943
 20
53.2608541004
 30
0.0
 10
35.9250353888
 20
53.2531971923
 30
0.0
 10
34.3355996288
 20
53.2382811511
 30
0.0
 10
31.9703172055
 20
53.2148526356
 30
0.0
 10
29.6499318894
 20
53.1907983906
 30
0.0
 10
27.396710799
 20
53.1683187891
 30
0.0
 10
25.2317543232
 20
53.1456818271
 30
0.0
 10
23.1754220613
 20
53.1224324196
 30
0.0
 10
21.2473565576
 20
53.098790643
 30
0.0
 10
19.4659153867
 20
53.0756915455
 30
0.0
 10
17.8478707411
 20
53.053186102
 30
0.0
 10
16.6086096536
 20
53.0339516937
 30
0.0
 10
15.7101123399
 20
53.0176427372
 30
0.0
 10
15.1099141917
 20
53.0055407795
 30
0.0
 10
14.5609418079
 20
52.9935223794
 30
0.0
 10
14.0644340335
 20
52.9820009288
 30
0.0
 10
13.6215597684
 20
52.9709977191
 30
0.0
 10
13.2334182855
 20
52.9601041032
 30
0.0
 10
12.9009618391
 20
52.9488888416
 30
0.0
 10
12.659105894
 20
52.9387635126
 30
0.0
 10
12.4940064209
 20
52.9303815429
 30
0.0
 10
12.3915742911
 20
52.9244492613
 30
0.0
 10
12.3034901959
 20
52.9185572433
 30
0.0
 10
12.2298199587
 20
52.9127201657
 30
0.0
 10
12.1705786814
 20
52.9070047221
 30
0.0
 10
12.1258914004
 20
52.9013398999
 30
0.0
 10
12.0976450891
 20
52.896493081
 30
0.0
 10
12.0825451942
 20
52.8921640292
 30
0.0
 10
12.0773914733
 20
52.8899840272
 30
0.0
 10
12.0756104307
 20
52.8887137434
 30
0.0
  0
SPLINE
  5
2A3
100
AcDbEntity
  8
0
100
AcDbSpline
 62
7
  6
CONTINUOUS
 70
0
 71
3
 72
59
 73
55
 74
0
 42
0.0000001
 43
0.0000001
 44
0.0000000001
 40
0.0
 40
0.0
 40
0.0
 40
0.0
 40
0.0001334913
 40
0.0003349568
 40
0.0009513417
 40
0.0018577907
 40
0.0030567061
 40
0.0045493482
 40
0.0063365812
 40
0.0084187753
 40
0.0107943121
 40
0.0164159076
 40
0.0231821545
 40
0.0310733137
 40
0.0400680117
 40
0.050144288
 40
0.061280036
 40
0.0734524113
 40
0.0866382723
 40
0.1159383908
 40
0.1488703699
 40
0.1851014725
 40
0.2243107711
 40
0.2661396397
 40
0.3101886851
 40
0.3560211412
 40
0.4032120595
 40
0.4998981131
 40
0.5965919559
 40
0.6437921047
 40
0.6896269993
 40
0.7336705926
 40
0.7755184459
 40
0.8147541384
 40
0.8509891952
 40
0.8839130523
 40
0.9132249012
 40
0.9264334966
 40
0.9386303372
 40
0.9497809303
 40
0.9598581601
 40
0.968846932
 40
0.9767332734
 40
0.983501463
 40
0.9891323742
 40
0.9915153124
 40
0.9936067398
 40
0.9954050561
 40
0.9969097083
 40
0.9981203822
 40
0.9990371537
 40
0.9996612268
 40
0.9998651611
 40
1.0
 40
1.0
 40
1.0
 40
1.0
 10
13.0767135959
 20
56.6391044079
 30
0.0
 10
13.078397953
 20
56.6403669022
 30
0.0
 10
13.0832888872
 20
56.642559284
 30
0.0
 10
13.0976279462
 20
56.6468848533
 30
0.0
 10
13.1244769444
 20
56.65171771
 30
0.0
 10
13.1669992931
 20
56.6573227195
 30
0.0
 10
13.2234769291
 20
56.6629479228
 30
0.0
 10
13.2938668079
 20
56.6686586407
 30
0.0
 10
13.3782291942
 20
56.6743877874
 30
0.0
 10
13.4765363527
 20
56.6801386653
 30
0.0
 10
13.6352664797
 20
56.6882863576
 30
0.0
 10
13.8678564508
 20
56.6982343141
 30
0.0
 10
14.1874262327
 20
56.7096815564
 30
0.0
 10
14.5602133298
 20
56.7211660439
 30
0.0
 10
14.9852155594
 20
56.7326826335
 30
0.0
 10
15.4613968064
 20
56.7442196189
 30
0.0
 10
15.9876986598
 20
56.7557723792
 30
0.0
 10
16.5630450638
 20
56.7673374668
 30
0.0
 10
17.4247875535
 20
56.7833351816
 30
0.0
 10
18.6138675049
 20
56.8030606804
 30
0.0
 10
20.1663335384
 20
56.8260515167
 30
0.0
 10
21.8750691683
 20
56.8490917351
 30
0.0
 10
23.7241083508
 20
56.8721608508
 30
0.0
 10
25.696434991
 20
56.8952454997
 30
0.0
 10
27.7732068302
 20
56.9183347918
 30
0.0
 10
29.9345359541
 20
56.9414428109
 30
0.0
 10
32.9258439276
 20
56.972514783
 30
0.0
 10
36.7191375061
 20
57.0108041757
 30
0.0
 10
40.5125767647
 20
57.0490818256
 30
0.0
 10
43.5041915872
 20
57.0801536104
 30
0.0
 10
45.665618719
 20
57.1032647722
 30
0.0
 10
47.7426423189
 20
57.1263627866
 30
0.0
 10
49.7155986733
 20
57.1494399964
 30
0.0
 10
51.5654159708
 20
57.1724980863
 30
0.0
 10
53.2745020127
 20
57.1955458511
 30
0.0
 10
54.8270871765
 20
57.2185461076
 30
0.0
 10
56.0165824876
 20
57.2382754048
 30
0.0
 10
56.8792545989
 20
57.2542613323
 30
0.0
 10
57.4555796645
 20
57.2658214623
 30
0.0
 10
57.9825166448
 20
57.2773716939
 30
0.0
 10
58.4588535101
 20
57.2889134305
 30
0.0
 10
58.8837011553
 20
57.3004357613
 30
0.0
 10
59.2563492212
 20
57.3119256751
 30
0.0
 10
59.5760205958
 20
57.3233734308
 30
0.0
 10
59.8089051075
 20
57.3333191028
 30
0.0
 10
59.9680451757
 20
57.3414624639
 30
0.0
 10
60.0667900706
 20
57.3472144184
 30
0.0
 10
60.1516632931
 20
57.3529438453
 30
0.0
 10
60.2226044664
 20
57.3586548275
 30
0.0
 10
60.2796221745
 20
57.3642799978
 30
0.0
 10
60.3226176756
 20
57.369885315
 30
0.0
 10
60.3497951336
 20
57.3747147618
 30
0.0
 10
60.3643227672
 20
57.379039724
 30
0.0
 10
60.369280588
 20
57.3812307469
 30
0.0
 10
60.3709889237
 20
57.3824966293
 30
0.0
  0
SPLINE
  5
2A4
100
AcDbEntity
  8
0
100
AcDbSpline
 62
7
  6
CONTINUOUS
 70
0
 71
3
 72
57
 73
53
 74
0
 42
0.0000001
 43
0.0000001
 44
0.0000000001
 40
0.0
 40
0.0
 40
0.0
 40
0.0
 40
0.0001339987
 40
0.0003366744
 40
0.0009567846
 40
0.0018672654
 40
0.0030688139
 40
0.004561237
 40
0.0063441858
 40
0.00841715
 40
0.0107795329
 40
0.0163699158
 40
0.0231072375
 40
0.0309773571
 40
0.0399652425
 40
0.0500509712
 40
0.0612031062
 40
0.0733885233
 40
0.0865755918
 40
0.1158445599
 40
0.1487702109
 40
0.2043065615
 40
0.2661106776
 40
0.3329044502
 40
0.4032625346
 40
0.4756718314
 40
0.5485988476
 40
0.6204922046
 40
0.6898310235
 40
0.7551075356
 40
0.7857925552
 40
0.8149651167
 40
0.8424628179
 40
0.8681303633
 40
0.8918254791
 40
0.9134238185
 40
0.9328308993
 40
0.9499488431
 40
0.9646673437
 40
0.9710954992
 40
0.9768928334
 40
0.9820529823
 40
0.9865696536
 40
0.9904382114
 40
0.9936562585
 40
0.9962217457
 40
0.9972592773
 40
0.9981331559
 40
0.998843304
 40
0.9993898866
 40
0.9997739534
 40
1.0
 40
1.0
 40
1.0
 40
1.0
 10
13.0753741217
 20
61.1389240794
 30
0.0
 10
13.0770654369
 20
61.1401907643
 30
0.0
 10
13.0819877217
 20
61.1423832101
 30
0.0
 10
13.0964151589
 20
61.1467098696
 30
0.0
 10
13.1234098774
 20
61.1515408789
 30
0.0
 10
13.1660982141
 20
61.1571481478
 30
0.0
 10
13.2226799052
 20
61.162775923
 30
0.0
 10
13.2930425321
 20
61.1684895764
 30
0.0
 10
13.3771907972
 20
61.1742216267
 30
0.0
 10
13.4750800666
 20
61.1799777907
 30
0.0
 10
13.6329695119
 20
61.1881323323
 30
0.0
 10
13.8644109023
 20
61.1980929143
 30
0.0
 10
14.1827114899
 20
61.2095485501
 30
0.0
 10
14.5546164792
 20
61.2210446981
 30
0.0
 10
14.9793441997
 20
61.2325696168
 30
0.0
 10
15.4558434283
 20
61.2441074525
 30
0.0
 10
15.9827782672
 20
61.2556615129
 30
0.0
 10
16.558629419
 20
61.2672283321
 30
0.0
 10
17.4201376332
 20
61.2832268755
 30
0.0
 10
18.6086895204
 20
61.3029884905
 30
0.0
 10
20.4650192052
 20
61.3304967884
 30
0.0
 10
22.8344053494
 20
61.3615783041
 30
0.0
 10
25.7378670198
 20
61.3959536079
 30
0.0
 10
28.8750712044
 20
61.4303840786
 30
0.0
 10
32.1795204921
 20
61.4648475181
 30
0.0
 10
35.5806913669
 20
61.4993415322
 30
0.0
 10
39.0060735168
 20
61.5338440794
 30
0.0
 10
42.383034161
 20
61.5683296664
 30
0.0
 10
45.6393457499
 20
61.6027813388
 30
0.0
 10
48.2458497778
 20
61.6320346948
 30
0.0
 10
50.2189829554
 20
61.655683809
 30
0.0
 10
51.5964037815
 20
61.6730411019
 30
0.0
 10
52.8946961355
 20
61.6903901627
 30
0.0
 10
54.1066050215
 20
61.7077313284
 30
0.0
 10
55.225475244
 20
61.7250567774
 30
0.0
 10
56.2456098046
 20
61.7423685416
 30
0.0
 10
57.1620114704
 20
61.7596429778
 30
0.0
 10
57.9699024107
 20
61.776864964
 30
0.0
 10
58.5731262221
 20
61.7917441449
 30
0.0
 10
58.9978413117
 20
61.8038617241
 30
0.0
 10
59.2718639526
 20
61.8125245333
 30
0.0
 10
59.5157278804
 20
61.8211707641
 30
0.0
 10
59.7291553191
 20
61.8297976189
 30
0.0
 10
59.911931436
 20
61.8383897645
 30
0.0
 10
60.0638981449
 20
61.8469423468
 30
0.0
 10
60.1712118211
 20
61.8544128625
 30
0.0
 10
60.2415349663
 20
61.8606021347
 30
0.0
 10
60.2826654758
 20
61.8648818661
 30
0.0
 10
60.3159685318
 20
61.869147916
 30
0.0
 10
60.3415849921
 20
61.873293306
 30
0.0
 10
60.359222671
 20
61.8774419335
 30
0.0
 10
60.3685562843
 20
61.8806246796
 30
0.0
 10
60.3714094608
 20
61.8827614312
 30
0.0
  0
SPLINE
  5
2A5
100
AcDbEntity
  8
0
100
AcDbSpline
 62
7
  6
CONTINUOUS
 70
0
 71
3
 72
34
 73
30
 74
0
 42
0.0000001
 43
0.0000001
 44
0.0000000001
 40
0.0
 40
0.0
 40
0.0
 40
0.0
 40
0.1935653825
 40
0.2880429004
 40
0.3797747848
 40
0.4679231848
 40
0.551656655
 40
0.6301547129
 40
0.7026416542
 40
0.768477152
 40
0.8270784258
 40
0.85346999
 40
0.8778278717
 40
0.9000954385
 40
0.9202173929
 40
0.938153196
 40
0.9538751558
 40
0.9673556208
 40
0.9785600006
 40
0.9832962904
 40
0.9874487626
 40
0.9910126469
 40
0.9939851071
 40
0.9963664625
 40
0.9981580554
 40
0.9988337444
 40
0.9993638573
 40
0.9997505897
 40
1.0
 40
1.0
 40
1.0
 40
1.0
 10
36.7233858192
 20
48.760862032
 30
0.0
 10
35.1327566202
 20
48.7456504863
 30
0.0
 10
32.7657609607
 20
48.7224608036
 30
0.0
 10
29.6449618061
 20
48.6914592803
 30
0.0
 10
27.3904342224
 20
48.6683105261
 30
0.0
 10
25.2242047352
 20
48.6451890252
 30
0.0
 10
23.166735746
 20
48.622093141
 30
0.0
 10
21.2379795573
 20
48.599009768
 30
0.0
 10
19.4563181906
 20
48.575945365
 30
0.0
 10
17.8381811677
 20
48.5529180625
 30
0.0
 10
16.5988444656
 20
48.5331741829
 30
0.0
 10
15.7003528728
 20
48.5171714572
 30
0.0
 10
15.1004173728
 20
48.5055970166
 30
0.0
 10
14.5520150607
 20
48.4940355053
 30
0.0
 10
14.0564012919
 20
48.4824865814
 30
0.0
 10
13.6145944931
 20
48.470954447
 30
0.0
 10
13.2273865171
 20
48.4594541749
 30
0.0
 10
12.8955237522
 20
48.4479948942
 30
0.0
 10
12.6539450938
 20
48.4380401751
 30
0.0
 10
12.4890221992
 20
48.4298858545
 30
0.0
 10
12.3868480613
 20
48.424132212
 30
0.0
 10
12.299195174
 20
48.4183963451
 30
0.0
 10
12.2261270321
 20
48.4126973273
 30
0.0
 10
12.1676823135
 20
48.4070329958
 30
0.0
 10
12.1281242427
 20
48.4020707678
 30
0.0
 10
12.1038574959
 20
48.3978723547
 30
0.0
 10
12.0910484598
 20
48.3950633543
 30
0.0
 10
12.0819032572
 20
48.3922967863
 30
0.0
 10
12.0770506123
 20
48.3901006763
 30
0.0
 10
12.0754581715
 20
48.3888102831
 30
0.0
  0
SPLINE
  5
2A6
100
AcDbEntity
  8
0
100
AcDbSpline
 62
7
  6
CONTINUOUS
 70
0
 71
3
 72
33
 73
29
 74
0
 42
0.0000001
 43
0.0000001
 44
0.0000000001
 40
0.0
 40
0.0
 40
0.0
 40
0.0
 40
0.193457052
 40
0.2878942149
 40
0.3796218948
 40
0.4677296169
 40
0.5513962982
 40
0.6298720848
 40
0.7024012689
 40
0.76825302
 40
0.8267892724
 40
0.8531671988
 40
0.8775404851
 40
0.8998448606
 40
0.9200162729
 40
0.9380007278
 40
0.953753981
 40
0.9672334787
 40
0.9784153572
 40
0.9831418992
 40
0.9872908354
 40
0.9908612572
 40
0.993851774
 40
0.9962603302
 40
0.9980855093
 40
0.9993279854
 40
0.9997333103
 40
1.0
 40
1.0
 40
1.0
 40
1.0
 10
36.7233933649
 20
50.2608724352
 30
0.0
 10
35.1336645294
 20
50.2456694999
 30
0.0
 10
32.7679059096
 20
50.2224813305
 30
0.0
 10
29.6483829519
 20
50.1915029015
 30
0.0
 10
27.3945700776
 20
50.1683732897
 30
0.0
 10
25.2292721193
 20
50.1452570147
 30
0.0
 10
23.1728825231
 20
50.1221600137
 30
0.0
 10
21.2445232661
 20
50.0990901595
 30
0.0
 10
19.4625752583
 20
50.0760502928
 30
0.0
 10
17.8445018498
 20
50.0530459851
 30
0.0
 10
16.6056862489
 20
50.033284582
 30
0.0
 10
15.7077201541
 20
50.0172904389
 30
0.0
 10
15.107471241
 20
50.005725733
 30
0.0
 10
14.5582365405
 20
49.994173458
 30
0.0
 10
14.0615166977
 20
49.9826336338
 30
0.0
 10
13.6186487062
 20
49.9711103178
 30
0.0
 10
13.2307935799
 20
49.9596214098
 30
0.0
 10
12.8988682579
 20
49.9481668776
 30
0.0
 10
12.6575648943
 20
49.938204661
 30
0.0
 10
12.4929369813
 20
49.9300516702
 30
0.0
 10
12.390820246
 20
49.924295702
 30
0.0
 10
12.3029911306
 20
49.9185642322
 30
0.0
 10
12.2295065354
 20
49.9128518522
 30
0.0
 10
12.1703847005
 20
49.9072270125
 30
0.0
 10
12.1257621195
 20
49.9016193595
 30
0.0
 10
12.0975408599
 20
49.8967960683
 30
0.0
 10
12.0824432873
 20
49.8924673957
 30
0.0
 10
12.0772866959
 20
49.8902804671
 30
0.0
 10
12.0755038521
 20
49.8890058494
 30
0.0
  0
SPLINE
  5
2A7
100
AcDbEntity
  8
0
100
AcDbSpline
 62
7
  6
CONTINUOUS
 70
0
 71
3
 72
18
 73
14
 74
0
 42
0.0000001
 43
0.0000001
 44
0.0000000001
 40
0.0
 40
0.0
 40
0.0
 40
0.0
 40
0.0269945941
 40
0.0563432329
 40
0.0898495735
 40
0.1286609309
 40
0.1733725752
 40
0.224242743
 40
0.344114318
 40
0.4862671235
 40
0.646626253
 40
0.8200272666
 40
1.0
 40
1.0
 40
1.0
 40
1.0
 10
23.5843445564
 20
35.510392614
 30
0.0
 10
23.5695699224
 20
35.510392614
 30
0.0
 10
23.5385562098
 20
35.5156696727
 30
0.0
 10
23.4942444502
 20
35.5382639041
 30
0.0
 10
23.4516514362
 20
35.5746706702
 30
0.0
 10
23.4108752778
 20
35.6243739595
 30
0.0
 10
23.3719107763
 20
35.6869466454
 30
0.0
 10
23.319903955
 20
35.7929471182
 30
0.0
 10
23.2634692159
 20
35.9552246503
 30
0.0
 10
23.2103513484
 20
36.1804684511
 30
0.0
 10
23.1707324499
 20
36.4381567141
 30
0.0
 10
23.1463080785
 20
36.7184330538
 30
0.0
 10
23.1408197893
 20
36.9118902518
 30
0.0
 10
23.1408197893
 20
37.010392614
 30
0.0
  0
SPLINE
  5
2A8
100
AcDbEntity
  8
0
100
AcDbSpline
 62
7
  6
CONTINUOUS
 70
0
 71
3
 72
33
 73
29
 74
0
 42
0.0000001
 43
0.0000001
 44
0.0000000001
 40
0.0
 40
0.0
 40
0.0
 40
0.0
 40
0.0002686491
 40
0.0006750969
 40
0.0019200832
 40
0.0037514296
 40
0.0061728634
 40
0.0091831967
 40
0.0127790505
 40
0.0169566856
 40
0.0217121885
 40
0.0329407549
 40
0.0464372866
 40
0.0621816514
 40
0.0801539839
 40
0.1003207965
 40
0.1226264655
 40
0.1470132378
 40
0.1734187147
 40
0.2320017717
 40
0.2978122499
 40
0.370301949
 40
0.4487802724
 40
0.5324487691
 40
0.620524808
 40
0.7121940659
 40
0.8066033555
 40
1.0
 40
1.0
 40
1.0
 40
1.0
 10
13.0753738306
 20
58.139108648
 30
0.0
 10
13.0770719767
 20
58.1403747723
 30
0.0
 10
13.0820090573
 20
58.1425668275
 30
0.0
 10
13.0964901102
 20
58.1468944602
 30
0.0
 10
13.1236149545
 20
58.1517252887
 30
0.0
 10
13.1665697621
 20
58.1573311181
 30
0.0
 10
13.2235815714
 20
58.1629531503
 30
0.0
 10
13.2945281247
 20
58.1686617211
 30
0.0
 10
13.3793653291
 20
58.1743895595
 30
0.0
 10
13.4779845177
 20
58.180141913
 30
0.0
 10
13.6367448282
 20
58.1882845388
 30
0.0
 10
13.868978918
 20
58.1982350992
 30
0.0
 10
14.1878616411
 20
58.2096907436
 30
0.0
 10
14.5599445462
 20
58.2211838724
 30
0.0
 10
14.9846408792
 20
58.2327045844
 30
0.0
 10
15.4610871294
 20
58.2442400293
 30
0.0
 10
15.9881217599
 20
58.2557922029
 30
0.0
 10
16.5643565012
 20
58.2673544911
 30
0.0
 10
17.4265930929
 20
58.2833372751
 30
0.0
 10
18.615425627
 20
58.3030722282
 30
0.0
 10
20.1676080965
 20
58.3260882898
 30
0.0
 10
21.8766727762
 20
58.3491245678
 30
0.0
 10
23.7265527815
 20
58.3721828291
 30
0.0
 10
25.6993339688
 20
58.3952668618
 30
0.0
 10
27.776127371
 20
58.41836899
 30
0.0
 10
29.9376128731
 20
58.4414839732
 30
0.0
 10
32.9294752504
 20
58.4725527426
 30
0.0
 10
35.1986047726
 20
58.4954432347
 30
0.0
 10
36.7233891789
 20
58.5108353053
 30
0.0
  0
SPLINE
  5
2A9
100
AcDbEntity
  8
0
100
AcDbSpline
 62
7
  6
CONTINUOUS
 70
0
 71
3
 72
33
 73
29
 74
0
 42
0.0000001
 43
0.0000001
 44
0.0000000001
 40
0.0
 40
0.0
 40
0.0
 40
0.0
 40
0.0002686491
 40
0.0006750969
 40
0.0019200832
 40
0.0037514296
 40
0.0061728634
 40
0.0091831967
 40
0.0127790505
 40
0.0169566856
 40
0.0217121885
 40
0.0329407549
 40
0.0464372866
 40
0.0621816514
 40
0.0801539839
 40
0.1003207965
 40
0.1226264655
 40
0.1470132378
 40
0.1734187147
 40
0.2320017717
 40
0.2978122499
 40
0.370301949
 40
0.4487802724
 40
0.5324487691
 40
0.620524808
 40
0.7121940659
 40
0.8066033555
 40
1.0
 40
1.0
 40
1.0
 40
1.0
 10
13.0753738306
 20
52.139108648
 30
0.0
 10
13.0770719767
 20
52.1403747723
 30
0.0
 10
13.0820090573
 20
52.1425668275
 30
0.0
 10
13.0964901102
 20
52.1468944602
 30
0.0
 10
13.1236149545
 20
52.1517252887
 30
0.0
 10
13.1665697621
 20
52.1573311181
 30
0.0
 10
13.2235815714
 20
52.1629531503
 30
0.0
 10
13.2945281247
 20
52.1686617211
 30
0.0
 10
13.3793653291
 20
52.1743895595
 30
0.0
 10
13.4779845177
 20
52.180141913
 30
0.0
 10
13.6367448282
 20
52.1882845388
 30
0.0
 10
13.868978918
 20
52.1982350992
 30
0.0
 10
14.1878616411
 20
52.2096907436
 30
0.0
 10
14.5599445462
 20
52.2211838725
 30
0.0
 10
14.9846408792
 20
52.2327045844
 30
0.0
 10
15.4610871294
 20
52.2442400294
 30
0.0
 10
15.9881217599
 20
52.2557922029
 30
0.0
 10
16.5643565012
 20
52.2673544911
 30
0.0
 10
17.4265930929
 20
52.2833372751
 30
0.0
 10
18.615425627
 20
52.3030722282
 30
0.0
 10
20.1676080965
 20
52.3260882898
 30
0.0
 10
21.8766727762
 20
52.3491245678
 30
0.0
 10
23.7265527815
 20
52.3721828291
 30
0.0
 10
25.6993339688
 20
52.3952668618
 30
0.0
 10
27.776127371
 20
52.41836899
 30
0.0
 10
29.9376128731
 20
52.4414839732
 30
0.0
 10
32.9294752504
 20
52.4725527426
 30
0.0
 10
35.1986047726
 20
52.4954432347
 30
0.0
 10
36.7233891789
 20
52.5108353053
 30
0.0
  0
SPLINE
  5
2AA
100
AcDbEntity
  8
0
100
AcDbSpline
 62
7
  6
CONTINUOUS
 70
0
 71
3
 72
34
 73
30
 74
0
 42
0.0000001
 43
0.0000001
 44
0.0000000001
 40
0.0
 40
0.0
 40
0.0
 40
0.0
 40
0.0971842871
 40
0.1934753018
 40
0.2879011271
 40
0.3796105514
 40
0.4677503576
 40
0.5514540085
 40
0.6298943738
 40
0.7023834245
 40
0.7682598418
 40
0.8268692529
 40
0.8532488104
 40
0.8775909527
 40
0.8998548265
 40
0.9200003983
 40
0.937983771
 40
0.9537576236
 40
0.9672752011
 40
0.9784983496
 40
0.9832396795
 40
0.987395704
 40
0.990962712
 40
0.9939390349
 40
0.9963262563
 40
0.9981269599
 40
0.9993459022
 40
0.9997412032
 40
1.0
 40
1.0
 40
1.0
 40
1.0
 10
36.7233854113
 20
57.7608437885
 30
0.0
 10
35.9248167819
 20
57.7528405693
 30
0.0
 10
34.3350130578
 20
57.7375677371
 30
0.0
 10
31.9693053059
 20
57.7147081619
 30
0.0
 10
29.6485934223
 20
57.6914203428
 30
0.0
 10
27.3948652942
 20
57.6683294735
 30
0.0
 10
25.2292510135
 20
57.6452406552
 30
0.0
 10
23.1726813831
 20
57.6221413898
 30
0.0
 10
21.2447297154
 20
57.5990584718
 30
0.0
 10
19.4632834827
 20
57.5760123422
 30
0.0
 10
17.8448117499
 20
57.5530102595
 30
0.0
 10
16.6052364359
 20
57.5332718383
 30
0.0
 10
15.7069537856
 20
57.517272262
 30
0.0
 10
15.1073085647
 20
57.5057011554
 30
0.0
 10
14.558901014
 20
57.494142036
 30
0.0
 10
14.0627587322
 20
57.4825995154
 30
0.0
 10
13.6199634263
 20
57.4710788048
 30
0.0
 10
13.2316529497
 20
57.4595914834
 30
0.0
 10
12.8989212959
 20
57.4481403435
 30
0.0
 10
12.6568547718
 20
57.4381849642
 30
0.0
 10
12.4917150122
 20
57.4300319298
 30
0.0
 10
12.3894510478
 20
57.424278217
 30
0.0
 10
12.3017122395
 20
57.4185493578
 30
0.0
 10
12.2285525754
 20
57.4128364746
 30
0.0
 10
12.1699271415
 20
57.4072128625
 30
0.0
 10
12.1258837318
 20
57.4016052286
 30
0.0
 10
12.0981415212
 20
57.3967825927
 30
0.0
 10
12.0834040433
 20
57.3924476544
 30
0.0
 10
12.0784042401
 20
57.3902556895
 30
0.0
 10
12.0767033622
 20
57.3889791028
 30
0.0
  0
SPLINE
  5
2AB
100
AcDbEntity
  8
0
100
AcDbSpline
 62
7
  6
CONTINUOUS
 70
0
 71
3
 72
14
 73
10
 74
0
 42
0.0000001
 43
0.0000001
 44
0.0000000001
 40
0.0
 40
0.0
 40
0.0
 40
0.0
 40
0.1125671967
 40
0.2273286394
 40
0.3456616741
 40
0.4686063519
 40
0.5963732453
 40
0.728450115
 40
1.0
 40
1.0
 40
1.0
 40
1.0
 10
17.8078328002
 20
35.510392614
 30
0.0
 10
17.7266990557
 20
35.510392614
 30
0.0
 10
17.5622470881
 20
35.5298341403
 30
0.0
 10
17.3261224641
 20
35.6154130533
 30
0.0
 10
17.1080897101
 20
35.7544563386
 30
0.0
 10
16.9165276116
 20
35.9414882709
 30
0.0
 10
16.758822013
 20
36.1699434812
 30
0.0
 10
16.6007011978
 20
36.5203785281
 30
0.0
 10
16.5521717752
 20
36.8146707727
 30
0.0
 10
16.5521717752
 20
37.010392614
 30
0.0
  0
SPLINE
  5
2AC
100
AcDbEntity
  8
0
100
AcDbSpline
 62
7
  6
CONTINUOUS
 70
0
 71
3
 72
34
 73
30
 74
0
 42
0.0000001
 43
0.0000001
 44
0.0000000001
 40
0.0
 40
0.0
 40
0.0
 40
0.0
 40
0.097153465
 40
0.1934216443
 40
0.2878374254
 40
0.3795285743
 40
0.4676222385
 40
0.5512981323
 40
0.6297727345
 40
0.7022597062
 40
0.7680939549
 40
0.8266862166
 40
0.8530792219
 40
0.8774470329
 40
0.8997371247
 40
0.9198978216
 40
0.937881653
 40
0.95364561
 40
0.9671479036
 40
0.978359904
 40
0.9831015111
 40
0.9872640147
 40
0.9908453744
 40
0.9938436682
 40
0.9962572498
 40
0.998085181
 40
0.9993285835
 40
0.9997337944
 40
1.0
 40
1.0
 40
1.0
 40
1.0
 10
36.7233890943
 20
59.2608541004
 30
0.0
 10
35.9250353888
 20
59.2531971923
 30
0.0
 10
34.3355996288
 20
59.2382811511
 30
0.0
 10
31.9703172055
 20
59.2148526356
 30
0.0
 10
29.6499318894
 20
59.1907983906
 30
0.0
 10
27.396710799
 20
59.1683187891
 30
0.0
 10
25.2317543232
 20
59.1456818271
 30
0.0
 10
23.1754220613
 20
59.1224324196
 30
0.0
 10
21.2473565576
 20
59.098790643
 30
0.0
 10
19.4659153867
 20
59.0756915455
 30
0.0
 10
17.8478707411
 20
59.053186102
 30
0.0
 10
16.6086096536
 20
59.0339516937
 30
0.0
 10
15.7101123399
 20
59.0176427372
 30
0.0
 10
15.1099141917
 20
59.0055407795
 30
0.0
 10
14.5609418079
 20
58.9935223794
 30
0.0
 10
14.0644340335
 20
58.9820009288
 30
0.0
 10
13.6215597684
 20
58.9709977191
 30
0.0
 10
13.2334182855
 20
58.9601041032
 30
0.0
 10
12.9009618391
 20
58.9488888416
 30
0.0
 10
12.659105894
 20
58.9387635126
 30
0.0
 10
12.4940064209
 20
58.9303815429
 30
0.0
 10
12.3915742911
 20
58.9244492613
 30
0.0
 10
12.3034901959
 20
58.9185572433
 30
0.0
 10
12.2298199587
 20
58.9127201657
 30
0.0
 10
12.1705786814
 20
58.9070047221
 30
0.0
 10
12.1258914004
 20
58.9013398999
 30
0.0
 10
12.0976450891
 20
58.896493081
 30
0.0
 10
12.0825451942
 20
58.8921640292
 30
0.0
 10
12.0773914733
 20
58.8899840271
 30
0.0
 10
12.0756104307
 20
58.8887137434
 30
0.0
  0
SPLINE
  5
2AD
100
AcDbEntity
  8
0
100
AcDbSpline
 62
7
  6
CONTINUOUS
 70
0
 71
3
 72
33
 73
29
 74
0
 42
0.0000001
 43
0.0000001
 44
0.0000000001
 40
0.0
 40
0.0
 40
0.0
 40
0.0
 40
0.1933948841
 40
0.2878040722
 40
0.3794739311
 40
0.4675506326
 40
0.5512197286
 40
0.629698586
 40
0.7021887167
 40
0.7679993571
 40
0.8265823952
 40
0.8529878404
 40
0.8773745408
 40
0.8996800468
 40
0.91984664
 40
0.9378187425
 40
0.9535629254
 40
0.9670593642
 40
0.9782879158
 40
0.9830433883
 40
0.9872209717
 40
0.9908167511
 40
0.9938269856
 40
0.9962483032
 40
0.998079648
 40
0.9993247459
 40
0.9997312719
 40
1.0
 40
1.0
 40
1.0
 40
1.0
 10
36.7233886678
 20
52.5108455405
 30
0.0
 10
38.2481596652
 20
52.5262374757
 30
0.0
 10
40.517275138
 20
52.549134694
 30
0.0
 10
43.509128523
 20
52.5802008667
 30
0.0
 10
45.6706238527
 20
52.6033161046
 30
0.0
 10
47.747432581
 20
52.6264185834
 30
0.0
 10
49.7202285368
 20
52.6495026919
 30
0.0
 10
51.5701214504
 20
52.6725611373
 30
0.0
 10
53.279195549
 20
52.6955975392
 30
0.0
 10
54.8313830288
 20
52.7186137073
 30
0.0
 10
56.0202168077
 20
52.7383487487
 30
0.0
 10
56.8824526989
 20
52.7543315324
 30
0.0
 10
57.4586855168
 20
52.7658937773
 30
0.0
 10
57.9857167288
 20
52.777445919
 30
0.0
 10
58.462158298
 20
52.7889813173
 30
0.0
 10
58.886849785
 20
52.8005019772
 30
0.0
 10
59.2589288246
 20
52.8119950373
 30
0.0
 10
59.5778093624
 20
52.8234506161
 30
0.0
 10
59.8100424398
 20
52.8334010295
 30
0.0
 10
59.9688020366
 20
52.841543613
 30
0.0
 10
60.0674200236
 20
52.8472959238
 30
0.0
 10
60.1522554754
 20
52.853023744
 30
0.0
 10
60.223199776
 20
52.8587322483
 30
0.0
 10
60.2802098467
 20
52.8643544882
 30
0.0
 10
60.3231646498
 20
52.8699603999
 30
0.0
 10
60.3502909123
 20
52.8747912772
 30
0.0
 10
60.3647742631
 20
52.8791188038
 30
0.0
 10
60.3697126368
 20
52.8813108042
 30
0.0
 10
60.3714116123
 20
52.8825768598
 30
0.0
  0
SPLINE
  5
2AE
100
AcDbEntity
  8
0
100
AcDbSpline
 62
7
  6
CONTINUOUS
 70
0
 71
3
 72
59
 73
55
 74
0
 42
0.0000001
 43
0.0000001
 44
0.0000000001
 40
0.0
 40
0.0
 40
0.0
 40
0.0
 40
0.0001334913
 40
0.0003349568
 40
0.0009513417
 40
0.0018577907
 40
0.0030567061
 40
0.0045493482
 40
0.0063365812
 40
0.0084187753
 40
0.0107943121
 40
0.0164159076
 40
0.0231821545
 40
0.0310733137
 40
0.0400680117
 40
0.050144288
 40
0.061280036
 40
0.0734524113
 40
0.0866382723
 40
0.1159383908
 40
0.1488703699
 40
0.1851014725
 40
0.2243107711
 40
0.2661396397
 40
0.3101886851
 40
0.3560211412
 40
0.4032120595
 40
0.4998981131
 40
0.5965919559
 40
0.6437921047
 40
0.6896269993
 40
0.7336705926
 40
0.7755184459
 40
0.8147541384
 40
0.8509891952
 40
0.8839130523
 40
0.9132249012
 40
0.9264334966
 40
0.9386303372
 40
0.9497809303
 40
0.9598581601
 40
0.968846932
 40
0.9767332734
 40
0.983501463
 40
0.9891323742
 40
0.9915153124
 40
0.9936067398
 40
0.9954050561
 40
0.9969097083
 40
0.9981203822
 40
0.9990371537
 40
0.9996612268
 40
0.9998651611
 40
1.0
 40
1.0
 40
1.0
 40
1.0
 10
13.0767135959
 20
50.6391044079
 30
0.0
 10
13.078397953
 20
50.6403669022
 30
0.0
 10
13.0832888872
 20
50.642559284
 30
0.0
 10
13.0976279462
 20
50.6468848533
 30
0.0
 10
13.1244769444
 20
50.65171771
 30
0.0
 10
13.1669992931
 20
50.6573227195
 30
0.0
 10
13.2234769291
 20
50.6629479228
 30
0.0
 10
13.2938668079
 20
50.6686586407
 30
0.0
 10
13.3782291942
 20
50.6743877875
 30
0.0
 10
13.4765363527
 20
50.6801386653
 30
0.0
 10
13.6352664797
 20
50.6882863576
 30
0.0
 10
13.8678564508
 20
50.6982343141
 30
0.0
 10
14.1874262328
 20
50.7096815564
 30
0.0
 10
14.5602133298
 20
50.7211660439
 30
0.0
 10
14.9852155594
 20
50.7326826336
 30
0.0
 10
15.4613968064
 20
50.7442196189
 30
0.0
 10
15.9876986598
 20
50.7557723792
 30
0.0
 10
16.5630450638
 20
50.7673374668
 30
0.0
 10
17.4247875535
 20
50.7833351817
 30
0.0
 10
18.6138675049
 20
50.8030606804
 30
0.0
 10
20.1663335384
 20
50.8260515167
 30
0.0
 10
21.8750691683
 20
50.8490917351
 30
0.0
 10
23.7241083508
 20
50.8721608508
 30
0.0
 10
25.696434991
 20
50.8952454998
 30
0.0
 10
27.7732068302
 20
50.9183347918
 30
0.0
 10
29.9345359542
 20
50.9414428109
 30
0.0
 10
32.9258439276
 20
50.972514783
 30
0.0
 10
36.7191375061
 20
51.0108041758
 30
0.0
 10
40.5125767647
 20
51.0490818256
 30
0.0
 10
43.5041915872
 20
51.0801536104
 30
0.0
 10
45.665618719
 20
51.1032647722
 30
0.0
 10
47.7426423189
 20
51.1263627866
 30
0.0
 10
49.7155986734
 20
51.1494399964
 30
0.0
 10
51.5654159708
 20
51.1724980863
 30
0.0
 10
53.2745020127
 20
51.1955458511
 30
0.0
 10
54.8270871765
 20
51.2185461076
 30
0.0
 10
56.0165824876
 20
51.2382754048
 30
0.0
 10
56.8792545989
 20
51.2542613323
 30
0.0
 10
57.4555796645
 20
51.2658214623
 30
0.0
 10
57.9825166448
 20
51.2773716939
 30
0.0
 10
58.4588535101
 20
51.2889134305
 30
0.0
 10
58.8837011553
 20
51.3004357613
 30
0.0
 10
59.2563492212
 20
51.3119256751
 30
0.0
 10
59.5760205958
 20
51.3233734308
 30
0.0
 10
59.8089051075
 20
51.3333191028
 30
0.0
 10
59.9680451757
 20
51.3414624639
 30
0.0
 10
60.0667900706
 20
51.3472144184
 30
0.0
 10
60.1516632931
 20
51.3529438453
 30
0.0
 10
60.2226044664
 20
51.3586548275
 30
0.0
 10
60.2796221745
 20
51.3642799978
 30
0.0
 10
60.3226176756
 20
51.369885315
 30
0.0
 10
60.3497951336
 20
51.3747147618
 30
0.0
 10
60.3643227672
 20
51.379039724
 30
0.0
 10
60.369280588
 20
51.3812307469
 30
0.0
 10
60.3709889237
 20
51.3824966293
 30
0.0
  0
SPLINE
  5
2AF
100
AcDbEntity
  8
0
100
AcDbSpline
 62
7
  6
CONTINUOUS
 70
0
 71
3
 72
34
 73
30
 74
0
 42
0.0000001
 43
0.0000001
 44
0.0000000001
 40
0.0
 40
0.0
 40
0.0
 40
0.0
 40
0.1935653825
 40
0.2880429004
 40
0.3797747848
 40
0.4679231848
 40
0.551656655
 40
0.6301547129
 40
0.7026416542
 40
0.768477152
 40
0.8270784258
 40
0.85346999
 40
0.8778278717
 40
0.9000954385
 40
0.9202173929
 40
0.938153196
 40
0.9538751558
 40
0.9673556208
 40
0.9785600006
 40
0.9832962904
 40
0.9874487626
 40
0.9910126469
 40
0.9939851071
 40
0.9963664625
 40
0.9981580554
 40
0.9988337444
 40
0.9993638573
 40
0.9997505897
 40
1.0
 40
1.0
 40
1.0
 40
1.0
 10
36.7233858192
 20
54.760862032
 30
0.0
 10
35.1327566202
 20
54.7456504863
 30
0.0
 10
32.7657609607
 20
54.7224608036
 30
0.0
 10
29.6449618061
 20
54.6914592803
 30
0.0
 10
27.3904342224
 20
54.6683105261
 30
0.0
 10
25.2242047352
 20
54.6451890252
 30
0.0
 10
23.166735746
 20
54.622093141
 30
0.0
 10
21.2379795573
 20
54.599009768
 30
0.0
 10
19.4563181906
 20
54.575945365
 30
0.0
 10
17.8381811677
 20
54.5529180625
 30
0.0
 10
16.5988444656
 20
54.5331741829
 30
0.0
 10
15.7003528728
 20
54.5171714572
 30
0.0
 10
15.1004173728
 20
54.5055970166
 30
0.0
 10
14.5520150607
 20
54.4940355053
 30
0.0
 10
14.0564012919
 20
54.4824865814
 30
0.0
 10
13.6145944932
 20
54.470954447
 30
0.0
 10
13.2273865171
 20
54.4594541749
 30
0.0
 10
12.8955237522
 20
54.4479948942
 30
0.0
 10
12.6539450938
 20
54.4380401751
 30
0.0
 10
12.4890221992
 20
54.4298858545
 30
0.0
 10
12.3868480613
 20
54.424132212
 30
0.0
 10
12.299195174
 20
54.4183963451
 30
0.0
 10
12.2261270321
 20
54.4126973273
 30
0.0
 10
12.1676823135
 20
54.4070329958
 30
0.0
 10
12.1281242427
 20
54.4020707678
 30
0.0
 10
12.1038574959
 20
54.3978723547
 30
0.0
 10
12.0910484598
 20
54.3950633542
 30
0.0
 10
12.0819032572
 20
54.3922967863
 30
0.0
 10
12.0770506123
 20
54.3901006763
 30
0.0
 10
12.0754581715
 20
54.3888102831
 30
0.0
  0
SPLINE
  5
2B0
100
AcDbEntity
  8
0
100
AcDbSpline
 62
7
  6
CONTINUOUS
 70
0
 71
3
 72
59
 73
55
 74
0
 42
0.0000001
 43
0.0000001
 44
0.0000000001
 40
0.0
 40
0.0
 40
0.0
 40
0.0
 40
0.0001334913
 40
0.0003349568
 40
0.0009513417
 40
0.0018577907
 40
0.0030567061
 40
0.0045493482
 40
0.0063365812
 40
0.0084187753
 40
0.0107943121
 40
0.0164159076
 40
0.0231821545
 40
0.0310733137
 40
0.0400680117
 40
0.050144288
 40
0.061280036
 40
0.0734524113
 40
0.0866382723
 40
0.1159383908
 40
0.1488703699
 40
0.1851014725
 40
0.2243107711
 40
0.2661396397
 40
0.3101886851
 40
0.3560211412
 40
0.4032120595
 40
0.4998981131
 40
0.5965919559
 40
0.6437921047
 40
0.6896269993
 40
0.7336705926
 40
0.7755184459
 40
0.8147541384
 40
0.8509891952
 40
0.8839130523
 40
0.9132249012
 40
0.9264334966
 40
0.9386303372
 40
0.9497809303
 40
0.9598581601
 40
0.968846932
 40
0.9767332734
 40
0.983501463
 40
0.9891323742
 40
0.9915153124
 40
0.9936067398
 40
0.9954050561
 40
0.9969097083
 40
0.9981203822
 40
0.9990371537
 40
0.9996612268
 40
0.9998651611
 40
1.0
 40
1.0
 40
1.0
 40
1.0
 10
13.0767135959
 20
62.6391044079
 30
0.0
 10
13.078397953
 20
62.6403669022
 30
0.0
 10
13.0832888873
 20
62.642559284
 30
0.0
 10
13.0976279462
 20
62.6468848533
 30
0.0
 10
13.1244769444
 20
62.65171771
 30
0.0
 10
13.1669992931
 20
62.6573227195
 30
0.0
 10
13.2234769291
 20
62.6629479228
 30
0.0
 10
13.2938668079
 20
62.6686586407
 30
0.0
 10
13.3782291942
 20
62.6743877874
 30
0.0
 10
13.4765363527
 20
62.6801386653
 30
0.0
 10
13.6352664797
 20
62.6882863576
 30
0.0
 10
13.8678564508
 20
62.6982343141
 30
0.0
 10
14.1874262328
 20
62.7096815564
 30
0.0
 10
14.5602133298
 20
62.7211660439
 30
0.0
 10
14.9852155594
 20
62.7326826335
 30
0.0
 10
15.4613968064
 20
62.7442196189
 30
0.0
 10
15.9876986598
 20
62.7557723792
 30
0.0
 10
16.5630450638
 20
62.7673374668
 30
0.0
 10
17.4247875535
 20
62.7833351816
 30
0.0
 10
18.6138675049
 20
62.8030606804
 30
0.0
 10
20.1663335384
 20
62.8260515167
 30
0.0
 10
21.8750691683
 20
62.8490917351
 30
0.0
 10
23.7241083508
 20
62.8721608508
 30
0.0
 10
25.696434991
 20
62.8952454997
 30
0.0
 10
27.7732068302
 20
62.9183347918
 30
0.0
 10
29.9345359542
 20
62.9414428109
 30
0.0
 10
32.9258439276
 20
62.972514783
 30
0.0
 10
36.7191375061
 20
63.0108041757
 30
0.0
 10
40.5125767647
 20
63.0490818256
 30
0.0
 10
43.5041915872
 20
63.0801536104
 30
0.0
 10
45.665618719
 20
63.1032647722
 30
0.0
 10
47.7426423189
 20
63.1263627866
 30
0.0
 10
49.7155986733
 20
63.1494399964
 30
0.0
 10
51.5654159708
 20
63.1724980863
 30
0.0
 10
53.2745020127
 20
63.1955458511
 30
0.0
 10
54.8270871765
 20
63.2185461076
 30
0.0
 10
56.0165824876
 20
63.2382754048
 30
0.0
 10
56.8792545989
 20
63.2542613323
 30
0.0
 10
57.4555796645
 20
63.2658214623
 30
0.0
 10
57.9825166448
 20
63.2773716939
 30
0.0
 10
58.4588535101
 20
63.2889134305
 30
0.0
 10
58.8837011553
 20
63.3004357613
 30
0.0
 10
59.2563492212
 20
63.3119256751
 30
0.0
 10
59.5760205958
 20
63.3233734308
 30
0.0
 10
59.8089051075
 20
63.3333191028
 30
0.0
 10
59.9680451757
 20
63.3414624639
 30
0.0
 10
60.0667900706
 20
63.3472144184
 30
0.0
 10
60.1516632931
 20
63.3529438453
 30
0.0
 10
60.2226044664
 20
63.3586548275
 30
0.0
 10
60.2796221745
 20
63.3642799978
 30
0.0
 10
60.3226176756
 20
63.369885315
 30
0.0
 10
60.3497951336
 20
63.3747147618
 30
0.0
 10
60.3643227672
 20
63.379039724
 30
0.0
 10
60.369280588
 20
63.3812307469
 30
0.0
 10
60.3709889237
 20
63.3824966293
 30
0.0
  0
SPLINE
  5
2B1
100
AcDbEntity
  8
0
100
AcDbSpline
 62
7
  6
CONTINUOUS
 70
0
 71
3
 72
33
 73
29
 74
0
 42
0.0000001
 43
0.0000001
 44
0.0000000001
 40
0.0
 40
0.0
 40
0.0
 40
0.0
 40
0.193457052
 40
0.2878942149
 40
0.3796218948
 40
0.4677296169
 40
0.5513962982
 40
0.6298720848
 40
0.7024012689
 40
0.76825302
 40
0.8267892724
 40
0.8531671988
 40
0.8775404851
 40
0.8998448606
 40
0.9200162729
 40
0.9380007278
 40
0.953753981
 40
0.9672334787
 40
0.9784153572
 40
0.9831418992
 40
0.9872908354
 40
0.9908612572
 40
0.993851774
 40
0.9962603302
 40
0.9980855093
 40
0.9993279854
 40
0.9997333103
 40
1.0
 40
1.0
 40
1.0
 40
1.0
 10
36.7233933649
 20
56.2608724352
 30
0.0
 10
35.1336645294
 20
56.2456694999
 30
0.0
 10
32.7679059096
 20
56.2224813304
 30
0.0
 10
29.6483829519
 20
56.1915029014
 30
0.0
 10
27.3945700776
 20
56.1683732897
 30
0.0
 10
25.2292721193
 20
56.1452570147
 30
0.0
 10
23.1728825231
 20
56.1221600137
 30
0.0
 10
21.2445232661
 20
56.0990901595
 30
0.0
 10
19.4625752583
 20
56.0760502928
 30
0.0
 10
17.8445018498
 20
56.0530459851
 30
0.0
 10
16.6056862489
 20
56.033284582
 30
0.0
 10
15.7077201541
 20
56.0172904389
 30
0.0
 10
15.1074712409
 20
56.005725733
 30
0.0
 10
14.5582365405
 20
55.994173458
 30
0.0
 10
14.0615166977
 20
55.9826336338
 30
0.0
 10
13.6186487062
 20
55.9711103178
 30
0.0
 10
13.2307935799
 20
55.9596214098
 30
0.0
 10
12.8988682579
 20
55.9481668776
 30
0.0
 10
12.6575648943
 20
55.938204661
 30
0.0
 10
12.4929369813
 20
55.9300516702
 30
0.0
 10
12.390820246
 20
55.924295702
 30
0.0
 10
12.3029911306
 20
55.9185642322
 30
0.0
 10
12.2295065354
 20
55.9128518522
 30
0.0
 10
12.1703847005
 20
55.9072270125
 30
0.0
 10
12.1257621195
 20
55.9016193595
 30
0.0
 10
12.0975408599
 20
55.8967960683
 30
0.0
 10
12.0824432873
 20
55.8924673957
 30
0.0
 10
12.0772866959
 20
55.8902804671
 30
0.0
 10
12.0755038521
 20
55.8890058493
 30
0.0
  0
SPLINE
  5
2B2
100
AcDbEntity
  8
0
100
AcDbSpline
 62
7
  6
CONTINUOUS
 70
0
 71
3
 72
57
 73
53
 74
0
 42
0.0000001
 43
0.0000001
 44
0.0000000001
 40
0.0
 40
0.0
 40
0.0
 40
0.0
 40
0.0001339987
 40
0.0003366744
 40
0.0009567846
 40
0.0018672654
 40
0.0030688139
 40
0.004561237
 40
0.0063441858
 40
0.00841715
 40
0.0107795329
 40
0.0163699158
 40
0.0231072375
 40
0.0309773571
 40
0.0399652425
 40
0.0500509712
 40
0.0612031062
 40
0.0733885233
 40
0.0865755918
 40
0.1158445599
 40
0.1487702109
 40
0.2043065615
 40
0.2661106776
 40
0.3329044502
 40
0.4032625346
 40
0.4756718314
 40
0.5485988476
 40
0.6204922046
 40
0.6898310235
 40
0.7551075356
 40
0.7857925552
 40
0.8149651167
 40
0.8424628179
 40
0.8681303633
 40
0.8918254791
 40
0.9134238185
 40
0.9328308993
 40
0.9499488431
 40
0.9646673437
 40
0.9710954992
 40
0.9768928334
 40
0.9820529823
 40
0.9865696536
 40
0.9904382114
 40
0.9936562585
 40
0.9962217457
 40
0.9972592773
 40
0.9981331559
 40
0.998843304
 40
0.9993898866
 40
0.9997739534
 40
1.0
 40
1.0
 40
1.0
 40
1.0
 10
13.0753741217
 20
49.1389240794
 30
0.0
 10
13.0770654369
 20
49.1401907643
 30
0.0
 10
13.0819877217
 20
49.1423832101
 30
0.0
 10
13.0964151589
 20
49.1467098696
 30
0.0
 10
13.1234098774
 20
49.1515408789
 30
0.0
 10
13.1660982141
 20
49.1571481478
 30
0.0
 10
13.2226799052
 20
49.162775923
 30
0.0
 10
13.2930425321
 20
49.1684895764
 30
0.0
 10
13.3771907972
 20
49.1742216267
 30
0.0
 10
13.4750800666
 20
49.1799777907
 30
0.0
 10
13.6329695119
 20
49.1881323323
 30
0.0
 10
13.8644109023
 20
49.1980929143
 30
0.0
 10
14.1827114899
 20
49.2095485501
 30
0.0
 10
14.5546164792
 20
49.2210446981
 30
0.0
 10
14.9793441997
 20
49.2325696168
 30
0.0
 10
15.4558434283
 20
49.2441074525
 30
0.0
 10
15.9827782672
 20
49.2556615129
 30
0.0
 10
16.558629419
 20
49.2672283321
 30
0.0
 10
17.4201376332
 20
49.2832268755
 30
0.0
 10
18.6086895204
 20
49.3029884905
 30
0.0
 10
20.4650192052
 20
49.3304967884
 30
0.0
 10
22.8344053494
 20
49.3615783041
 30
0.0
 10
25.7378670198
 20
49.3959536079
 30
0.0
 10
28.8750712045
 20
49.4303840786
 30
0.0
 10
32.1795204921
 20
49.4648475181
 30
0.0
 10
35.5806913669
 20
49.4993415322
 30
0.0
 10
39.0060735168
 20
49.5338440794
 30
0.0
 10
42.383034161
 20
49.5683296665
 30
0.0
 10
45.6393457499
 20
49.6027813388
 30
0.0
 10
48.2458497778
 20
49.6320346948
 30
0.0
 10
50.2189829554
 20
49.6556838091
 30
0.0
 10
51.5964037815
 20
49.6730411019
 30
0.0
 10
52.8946961355
 20
49.6903901627
 30
0.0
 10
54.1066050215
 20
49.7077313284
 30
0.0
 10
55.225475244
 20
49.7250567774
 30
0.0
 10
56.2456098046
 20
49.7423685416
 30
0.0
 10
57.1620114704
 20
49.7596429778
 30
0.0
 10
57.9699024107
 20
49.776864964
 30
0.0
 10
58.5731262221
 20
49.7917441449
 30
0.0
 10
58.9978413117
 20
49.8038617241
 30
0.0
 10
59.2718639526
 20
49.8125245333
 30
0.0
 10
59.5157278803
 20
49.8211707642
 30
0.0
 10
59.7291553191
 20
49.8297976189
 30
0.0
 10
59.911931436
 20
49.8383897645
 30
0.0
 10
60.0638981449
 20
49.8469423468
 30
0.0
 10
60.1712118211
 20
49.8544128625
 30
0.0
 10
60.2415349663
 20
49.8606021347
 30
0.0
 10
60.2826654758
 20
49.8648818661
 30
0.0
 10
60.3159685318
 20
49.869147916
 30
0.0
 10
60.3415849921
 20
49.873293306
 30
0.0
 10
60.359222671
 20
49.8774419335
 30
0.0
 10
60.3685562843
 20
49.8806246796
 30
0.0
 10
60.3714094608
 20
49.8827614312
 30
0.0
  0
SPLINE
  5
2B3
100
AcDbEntity
  8
0
100
AcDbSpline
 62
7
  6
CONTINUOUS
 70
0
 71
3
 72
34
 73
30
 74
0
 42
0.0000001
 43
0.0000001
 44
0.0000000001
 40
0.0
 40
0.0
 40
0.0
 40
0.0
 40
0.0971842871
 40
0.1934753018
 40
0.2879011271
 40
0.3796105514
 40
0.4677503576
 40
0.5514540085
 40
0.6298943738
 40
0.7023834245
 40
0.7682598418
 40
0.8268692529
 40
0.8532488104
 40
0.8775909527
 40
0.8998548265
 40
0.9200003983
 40
0.937983771
 40
0.9537576236
 40
0.9672752011
 40
0.9784983496
 40
0.9832396795
 40
0.987395704
 40
0.990962712
 40
0.9939390349
 40
0.9963262563
 40
0.9981269599
 40
0.9993459022
 40
0.9997412032
 40
1.0
 40
1.0
 40
1.0
 40
1.0
 10
36.7233854113
 20
63.7608437885
 30
0.0
 10
35.9248167819
 20
63.7528405693
 30
0.0
 10
34.3350130578
 20
63.7375677371
 30
0.0
 10
31.9693053059
 20
63.7147081619
 30
0.0
 10
29.6485934223
 20
63.6914203428
 30
0.0
 10
27.3948652942
 20
63.6683294735
 30
0.0
 10
25.2292510135
 20
63.6452406552
 30
0.0
 10
23.1726813831
 20
63.6221413898
 30
0.0
 10
21.2447297154
 20
63.5990584718
 30
0.0
 10
19.4632834827
 20
63.5760123422
 30
0.0
 10
17.8448117499
 20
63.5530102595
 30
0.0
 10
16.6052364359
 20
63.5332718383
 30
0.0
 10
15.7069537856
 20
63.517272262
 30
0.0
 10
15.1073085647
 20
63.5057011554
 30
0.0
 10
14.558901014
 20
63.494142036
 30
0.0
 10
14.0627587322
 20
63.4825995154
 30
0.0
 10
13.6199634262
 20
63.4710788048
 30
0.0
 10
13.2316529497
 20
63.4595914834
 30
0.0
 10
12.8989212959
 20
63.4481403435
 30
0.0
 10
12.6568547718
 20
63.4381849642
 30
0.0
 10
12.4917150122
 20
63.4300319298
 30
0.0
 10
12.3894510478
 20
63.424278217
 30
0.0
 10
12.3017122395
 20
63.4185493578
 30
0.0
 10
12.2285525754
 20
63.4128364745
 30
0.0
 10
12.1699271415
 20
63.4072128625
 30
0.0
 10
12.1258837318
 20
63.4016052286
 30
0.0
 10
12.0981415212
 20
63.3967825926
 30
0.0
 10
12.0834040433
 20
63.3924476544
 30
0.0
 10
12.0784042401
 20
63.3902556895
 30
0.0
 10
12.0767033622
 20
63.3889791028
 30
0.0
  0
SPLINE
  5
2B4
100
AcDbEntity
  8
0
100
AcDbSpline
 62
7
  6
CONTINUOUS
 70
0
 71
3
 72
34
 73
30
 74
0
 42
0.0000001
 43
0.0000001
 44
0.0000000001
 40
0.0
 40
0.0
 40
0.0
 40
0.0
 40
0.0971720808
 40
0.1934583276
 40
0.2878911074
 40
0.3795976775
 40
0.4677046858
 40
0.55139143
 40
0.6298739211
 40
0.7023654174
 40
0.7682006635
 40
0.8267900442
 40
0.8531800493
 40
0.8775438419
 40
0.8998288815
 40
0.9199834669
 40
0.9379601309
 40
0.9537158455
 40
0.9672088202
 40
0.978410505
 40
0.9831465824
 40
0.9873033076
 40
0.9908786397
 40
0.9938706576
 40
0.9962777192
 40
0.998098899
 40
0.9993353641
 40
0.9997371032
 40
1.0
 40
1.0
 40
1.0
 40
1.0
 10
36.7233890943
 20
65.2608541005
 30
0.0
 10
35.9248780904
 20
65.2532292258
 30
0.0
 10
34.3351330658
 20
65.238294424
 30
0.0
 10
31.9693979922
 20
65.2148276557
 30
0.0
 10
29.6485859647
 20
65.1907889053
 30
0.0
 10
27.3949775471
 20
65.1683021759
 30
0.0
 10
25.2296847136
 20
65.1456584529
 30
0.0
 10
23.1730785107
 20
65.1224052052
 30
0.0
 10
21.2448122049
 20
65.0987585384
 30
0.0
 10
19.4632519274
 20
65.0756560271
 30
0.0
 10
17.8451775127
 20
65.0531470353
 30
0.0
 10
16.6059504148
 20
65.0339081179
 30
0.0
 10
15.7075300702
 20
65.0175931411
 30
0.0
 10
15.107428182
 20
65.0054884858
 30
0.0
 10
14.5585778681
 20
64.9934687839
 30
0.0
 10
14.0622182645
 20
64.9819482784
 30
0.0
 10
13.6195187102
 20
64.9709442546
 30
0.0
 10
13.2315786375
 20
64.9600482535
 30
0.0
 10
12.89934989
 20
64.9488282844
 30
0.0
 10
12.6576998443
 20
64.9386995883
 30
0.0
 10
12.4927775846
 20
64.9303150023
 30
0.0
 10
12.3904877312
 20
64.9243817157
 30
0.0
 10
12.302552033
 20
64.9184892906
 30
0.0
 10
12.2290369113
 20
64.9126517746
 30
0.0
 10
12.1699558409
 20
64.9069370567
 30
0.0
 10
12.1254374422
 20
64.9012721689
 30
0.0
 10
12.0973301506
 20
64.8964281333
 30
0.0
 10
12.0823506838
 20
64.8920961885
 30
0.0
 10
12.0772543827
 20
64.889914484
 30
0.0
 10
12.0755093148
 20
64.8886407928
 30
0.0
  0
SPLINE
  5
2B5
100
AcDbEntity
  8
0
100
AcDbSpline
 62
7
  6
CONTINUOUS
 70
0
 71
3
 72
59
 73
55
 74
0
 42
0.0000001
 43
0.0000001
 44
0.0000000001
 40
0.0
 40
0.0
 40
0.0
 40
0.0
 40
0.0001348634
 40
0.000338814
 40
0.0009628896
 40
0.0018796357
 40
0.0030902718
 40
0.0045948897
 40
0.0063931913
 40
0.0084846331
 40
0.0108675976
 40
0.016498574
 40
0.0232668153
 40
0.031153166
 40
0.0401419159
 40
0.0502191166
 40
0.0613696586
 40
0.0735663643
 40
0.0867748212
 40
0.1160865853
 40
0.1490105135
 40
0.1852457793
 40
0.2244817851
 40
0.2663298609
 40
0.3103736059
 40
0.3562085503
 40
0.4034086103
 40
0.5001017128
 40
0.5967870963
 40
0.6439778755
 40
0.6898104864
 40
0.7338596384
 40
0.7756886322
 40
0.8148981508
 40
0.8511293672
 40
0.8840614904
 40
0.9133617304
 40
0.9265476324
 40
0.9387200383
 40
0.9498558146
 40
0.9599321154
 40
0.9689268218
 40
0.9768179617
 40
0.9835841517
 40
0.9892056913
 40
0.9915812182
 40
0.9936634235
 40
0.9954506707
 40
0.9969433177
 40
0.9981422311
 40
0.9990486737
 40
0.9996650505
 40
0.9998665121
 40
1.0
 40
1.0
 40
1.0
 40
1.0
 10
13.075801313
 20
47.6391888846
 30
0.0
 10
13.0775101549
 20
47.6404547323
 30
0.0
 10
13.0824686657
 20
47.6426456544
 30
0.0
 10
13.0969970212
 20
47.6469706547
 30
0.0
 10
13.1241743146
 20
47.6518002145
 30
0.0
 10
13.1671688571
 20
47.6574056193
 30
0.0
 10
13.2241850004
 20
47.6630308608
 30
0.0
 10
13.2951247939
 20
47.6687418945
 30
0.0
 10
13.3799974597
 20
47.674471359
 30
0.0
 10
13.478742759
 20
47.6802233076
 30
0.0
 10
13.6378844842
 20
47.6883667073
 30
0.0
 10
13.8707712369
 20
47.6983123925
 30
0.0
 10
14.1904445749
 20
47.7097601549
 30
0.0
 10
14.563093227
 20
47.7212500632
 30
0.0
 10
14.9879401807
 20
47.7327723525
 30
0.0
 10
15.4642753989
 20
47.7443140039
 30
0.0
 10
15.9912089463
 20
47.7558641185
 30
0.0
 10
16.5675288473
 20
47.7674242176
 30
0.0
 10
17.4301952407
 20
47.7834101022
 30
0.0
 10
18.6196880599
 20
47.8031392844
 30
0.0
 10
20.1722761801
 20
47.8261396383
 30
0.0
 10
21.8813714427
 20
47.8491875477
 30
0.0
 10
23.7312003382
 20
47.872245727
 30
0.0
 10
25.704167374
 20
47.8953230886
 30
0.0
 10
27.7811974952
 20
47.9184211565
 30
0.0
 10
29.9426262308
 20
47.94153231
 30
0.0
 10
32.934228529
 20
47.9726039611
 30
0.0
 10
36.7276438459
 20
48.0108813893
 30
0.0
 10
40.52091269
 20
48.0491704804
 30
0.0
 10
43.5122101063
 20
48.0802423809
 30
0.0
 10
45.6735409888
 20
48.1033503655
 30
0.0
 10
47.75031876
 20
48.1264397167
 30
0.0
 10
49.7226523654
 20
48.1495245003
 30
0.0
 10
51.5716986393
 20
48.1725935799
 30
0.0
 10
53.2804416688
 20
48.195633923
 30
0.0
 10
54.8329135636
 20
48.2186248315
 30
0.0
 10
56.0219982548
 20
48.238350398
 30
0.0
 10
56.8837437191
 20
48.2543481761
 30
0.0
 10
57.4590916508
 20
48.2659133064
 30
0.0
 10
57.9853947758
 20
48.2774661045
 30
0.0
 10
58.4615769498
 20
48.2890031091
 30
0.0
 10
58.8865793603
 20
48.3005197033
 30
0.0
 10
59.2593653582
 20
48.3120041627
 30
0.0
 10
59.578933031
 20
48.32345141
 30
0.0
 10
59.8115210464
 20
48.3333993811
 30
0.0
 10
59.9702503001
 20
48.3415470593
 30
0.0
 10
60.0685576966
 20
48.3472978974
 30
0.0
 10
60.1529205566
 20
48.3530269993
 30
0.0
 10
60.2233107012
 20
48.3587376944
 30
0.0
 10
60.2797882832
 20
48.3643628694
 30
0.0
 10
60.3223103688
 20
48.3699678513
 30
0.0
 10
60.3491590792
 20
48.3748006823
 30
0.0
 10
60.3634978845
 20
48.3791262366
 30
0.0
 10
60.3683886998
 20
48.3813186112
 30
0.0
 10
60.3700729934
 20
48.3825811018
 30
0.0
  0
SPLINE
  5
2B6
100
AcDbEntity
  8
0
100
AcDbSpline
 62
7
  6
CONTINUOUS
 70
0
 71
3
 72
33
 73
29
 74
0
 42
0.0000001
 43
0.0000001
 44
0.0000000001
 40
0.0
 40
0.0
 40
0.0
 40
0.0
 40
0.1933948841
 40
0.2878040722
 40
0.3794739311
 40
0.4675506326
 40
0.5512197286
 40
0.629698586
 40
0.7021887167
 40
0.7679993571
 40
0.8265823952
 40
0.8529878404
 40
0.8773745408
 40
0.8996800468
 40
0.91984664
 40
0.9378187425
 40
0.9535629254
 40
0.9670593642
 40
0.9782879158
 40
0.9830433883
 40
0.9872209717
 40
0.9908167511
 40
0.9938269856
 40
0.9962483032
 40
0.998079648
 40
0.9993247459
 40
0.9997312719
 40
1.0
 40
1.0
 40
1.0
 40
1.0
 10
36.7233886678
 20
58.5108455405
 30
0.0
 10
38.2481596652
 20
58.5262374757
 30
0.0
 10
40.517275138
 20
58.549134694
 30
0.0
 10
43.509128523
 20
58.5802008667
 30
0.0
 10
45.6706238527
 20
58.6033161046
 30
0.0
 10
47.747432581
 20
58.6264185834
 30
0.0
 10
49.7202285368
 20
58.6495026919
 30
0.0
 10
51.5701214504
 20
58.6725611373
 30
0.0
 10
53.279195549
 20
58.6955975392
 30
0.0
 10
54.8313830288
 20
58.7186137073
 30
0.0
 10
56.0202168077
 20
58.7383487487
 30
0.0
 10
56.8824526989
 20
58.7543315324
 30
0.0
 10
57.4586855168
 20
58.7658937773
 30
0.0
 10
57.9857167288
 20
58.777445919
 30
0.0
 10
58.462158298
 20
58.7889813173
 30
0.0
 10
58.886849785
 20
58.8005019772
 30
0.0
 10
59.2589288246
 20
58.8119950373
 30
0.0
 10
59.5778093624
 20
58.8234506161
 30
0.0
 10
59.8100424398
 20
58.8334010295
 30
0.0
 10
59.9688020366
 20
58.841543613
 30
0.0
 10
60.0674200236
 20
58.8472959238
 30
0.0
 10
60.1522554754
 20
58.853023744
 30
0.0
 10
60.223199776
 20
58.8587322483
 30
0.0
 10
60.2802098467
 20
58.8643544882
 30
0.0
 10
60.3231646498
 20
58.8699603999
 30
0.0
 10
60.3502909123
 20
58.8747912772
 30
0.0
 10
60.3647742631
 20
58.8791188038
 30
0.0
 10
60.3697126368
 20
58.8813108042
 30
0.0
 10
60.3714116123
 20
58.8825768598
 30
0.0
  0
SPLINE
  5
2B7
100
AcDbEntity
  8
0
100
AcDbSpline
 62
7
  6
CONTINUOUS
 70
0
 71
3
 72
61
 73
57
 74
0
 42
0.0000001
 43
0.0000001
 44
0.0000000001
 40
0.0
 40
0.0
 40
0.0
 40
0.0
 40
0.0001281092
 40
0.0003254405
 40
0.0009369669
 40
0.0018423712
 40
0.0030430143
 40
0.004539176
 40
0.0063301891
 40
0.0084144281
 40
0.0107901533
 40
0.0164083497
 40
0.0231683374
 40
0.0310526774
 40
0.0400424176
 40
0.0501159878
 40
0.0612512034
 40
0.0734244489
 40
0.0866089999
 40
0.1158996538
 40
0.1488441001
 40
0.1851087404
 40
0.2243417456
 40
0.2661764246
 40
0.3102289897
 40
0.3560895694
 40
0.4033147316
 40
0.4514515264
 40
0.5000461787
 40
0.5486422223
 40
0.5967775037
 40
0.6439907739
 40
0.6898392644
 40
0.7338963941
 40
0.7757484156
 40
0.8149919117
 40
0.8512369317
 40
0.8841436948
 40
0.9134200561
 40
0.926612725
 40
0.9387992721
 40
0.9499500337
 40
0.9600369299
 40
0.9690322914
 40
0.9769111802
 40
0.9836532317
 40
0.9892457052
 40
0.9916080466
 40
0.9936800765
 40
0.9954610855
 40
0.9969504571
 40
0.9981477326
 40
0.9990529809
 40
0.9996678183
 40
0.9998681156
 40
1.0
 40
1.0
 40
1.0
 40
1.0
 10
13.0761075859
 20
67.1393909084
 30
0.0
 10
13.0777286006
 20
67.1405963134
 30
0.0
 10
13.0825194951
 20
67.142651711
 30
0.0
 10
13.0966818361
 20
67.1467470643
 30
0.0
 10
13.1234112219
 20
67.1513471223
 30
0.0
 10
13.165882463
 20
67.156798934
 30
0.0
 10
13.2224292171
 20
67.1623858671
 30
0.0
 10
13.2929503323
 20
67.1682083964
 30
0.0
 10
13.3774409724
 20
67.1741901881
 30
0.0
 10
13.4758203459
 20
67.180283888
 30
0.0
 10
13.6345003061
 20
67.188969632
 30
0.0
 10
13.866907354
 20
67.1995788187
 30
0.0
 10
14.1861882372
 20
67.2116475568
 30
0.0
 10
14.5586730915
 20
67.2234709555
 30
0.0
 10
14.9834397444
 20
67.2349401619
 30
0.0
 10
15.4594908664
 20
67.2461066829
 30
0.0
 10
15.9857582611
 20
67.2570162353
 30
0.0
 10
16.5610928775
 20
67.2677810491
 30
0.0
 10
17.4226792813
 20
67.2827649092
 30
0.0
 10
18.6117584737
 20
67.3025903493
 30
0.0
 10
20.1647395527
 20
67.3274527328
 30
0.0
 10
21.8745246314
 20
67.3515874265
 30
0.0
 10
23.7245241997
 20
67.3743390461
 30
0.0
 10
25.6973482409
 20
67.3958900899
 30
0.0
 10
27.7746832522
 20
67.4175107287
 30
0.0
 10
29.9369948804
 20
67.4416784129
 30
0.0
 10
32.1637039786
 20
67.4665689691
 30
0.0
 10
34.4335401937
 20
67.4903025165
 30
0.0
 10
36.7250087421
 20
67.5125694535
 30
0.0
 10
39.0164620471
 20
67.5339083623
 30
0.0
 10
41.2861221357
 20
67.5563523583
 30
0.0
 10
43.512429949
 20
67.5812011604
 30
0.0
 10
45.6744311072
 20
67.6057318204
 30
0.0
 10
47.7519044892
 20
67.6288813255
 30
0.0
 10
49.7252363805
 20
67.6506710337
 30
0.0
 10
51.5753827864
 20
67.6719519577
 30
0.0
 10
53.2844394163
 20
67.6954314526
 30
0.0
 10
54.8362918036
 20
67.7202885477
 30
0.0
 10
56.0246670484
 20
67.7408542624
 30
0.0
 10
56.886349761
 20
67.7567357873
 30
0.0
 10
57.4622603075
 20
67.7678635173
 30
0.0
 10
57.9891937111
 20
67.7787177593
 30
0.0
 10
58.4657980133
 20
67.7894758536
 30
0.0
 10
58.8907933576
 20
67.800328892
 30
0.0
 10
59.2630177121
 20
67.8115265463
 30
0.0
 10
59.5815319493
 20
67.8233956898
 30
0.0
 10
59.8130398464
 20
67.8339836803
 30
0.0
 10
59.9709092829
 20
67.8426726681
 30
0.0
 10
60.0687246197
 20
67.848795314
 30
0.0
 10
60.1527509268
 20
67.8548612814
 30
0.0
 10
60.2229394861
 20
67.8608554275
 30
0.0
 10
60.2792976217
 20
67.866690026
 30
0.0
 10
60.3217326254
 20
67.8724136844
 30
0.0
 10
60.3485121059
 20
67.8772770144
 30
0.0
 10
60.362784311
 20
67.8815793522
 30
0.0
 10
60.3676408453
 20
67.8837421129
 30
0.0
 10
60.3693044428
 20
67.8849899834
 30
0.0
  0
SPLINE
  5
2B8
100
AcDbEntity
  8
0
100
AcDbSpline
 62
7
  6
CONTINUOUS
 70
0
 71
3
 72
34
 73
30
 74
0
 42
0.0000001
 43
0.0000001
 44
0.0000000001
 40
0.0
 40
0.0
 40
0.0
 40
0.0
 40
0.1935653825
 40
0.2880429004
 40
0.3797747848
 40
0.4679231848
 40
0.551656655
 40
0.6301547129
 40
0.7026416542
 40
0.768477152
 40
0.8270784258
 40
0.85346999
 40
0.8778278717
 40
0.9000954385
 40
0.9202173929
 40
0.938153196
 40
0.9538751558
 40
0.9673556208
 40
0.9785600006
 40
0.9832962904
 40
0.9874487626
 40
0.9910126469
 40
0.9939851071
 40
0.9963664625
 40
0.9981580554
 40
0.9988337444
 40
0.9993638573
 40
0.9997505897
 40
1.0
 40
1.0
 40
1.0
 40
1.0
 10
36.7233858192
 20
60.760862032
 30
0.0
 10
35.1327566202
 20
60.7456504863
 30
0.0
 10
32.7657609607
 20
60.7224608036
 30
0.0
 10
29.6449618061
 20
60.6914592803
 30
0.0
 10
27.3904342224
 20
60.6683105261
 30
0.0
 10
25.2242047352
 20
60.6451890252
 30
0.0
 10
23.166735746
 20
60.622093141
 30
0.0
 10
21.2379795573
 20
60.599009768
 30
0.0
 10
19.4563181906
 20
60.575945365
 30
0.0
 10
17.8381811677
 20
60.5529180625
 30
0.0
 10
16.5988444656
 20
60.5331741829
 30
0.0
 10
15.7003528728
 20
60.5171714572
 30
0.0
 10
15.1004173728
 20
60.5055970166
 30
0.0
 10
14.5520150607
 20
60.4940355053
 30
0.0
 10
14.0564012919
 20
60.4824865814
 30
0.0
 10
13.6145944931
 20
60.470954447
 30
0.0
 10
13.2273865171
 20
60.4594541749
 30
0.0
 10
12.8955237522
 20
60.4479948942
 30
0.0
 10
12.6539450938
 20
60.4380401751
 30
0.0
 10
12.4890221992
 20
60.4298858545
 30
0.0
 10
12.3868480613
 20
60.424132212
 30
0.0
 10
12.299195174
 20
60.4183963451
 30
0.0
 10
12.2261270321
 20
60.4126973273
 30
0.0
 10
12.1676823135
 20
60.4070329958
 30
0.0
 10
12.1281242427
 20
60.4020707678
 30
0.0
 10
12.1038574959
 20
60.3978723547
 30
0.0
 10
12.0910484598
 20
60.3950633542
 30
0.0
 10
12.0819032572
 20
60.3922967863
 30
0.0
 10
12.0770506123
 20
60.3901006763
 30
0.0
 10
12.0754581715
 20
60.3888102831
 30
0.0
  0
SPLINE
  5
2B9
100
AcDbEntity
  8
0
100
AcDbSpline
 62
7
  6
CONTINUOUS
 70
0
 71
3
 72
33
 73
29
 74
0
 42
0.0000001
 43
0.0000001
 44
0.0000000001
 40
0.0
 40
0.0
 40
0.0
 40
0.0
 40
0.0002585164
 40
0.0006535208
 40
0.0018718668
 40
0.0036719864
 40
0.0060586403
 40
0.0090344137
 40
0.0126008915
 40
0.0167564084
 40
0.0214972538
 40
0.0327195036
 40
0.0462362774
 40
0.0620094224
 40
0.0799921808
 40
0.1001372275
 40
0.1224006642
 40
0.1467424595
 40
0.1731217602
 40
0.2317309135
 40
0.2976074273
 40
0.3700968922
 40
0.4485379527
 40
0.5322425594
 40
0.6203835353
 40
0.7120943109
 40
0.8065216275
 40
1.0
 40
1.0
 40
1.0
 40
1.0
 10
61.3700918459
 20
49.1327121216
 30
0.0
 10
61.3683940636
 20
49.1314352478
 30
0.0
 10
61.3633991643
 20
49.1292430988
 30
0.0
 10
61.34867201
 20
49.1249078938
 30
0.0
 10
61.3209417411
 20
49.1200854587
 30
0.0
 10
61.2769129201
 20
49.1144777884
 30
0.0
 10
61.2183013905
 20
49.1088542025
 30
0.0
 10
61.1451552581
 20
49.1031412458
 30
0.0
 10
61.0574294235
 20
49.0974123181
 30
0.0
 10
60.9551778883
 20
49.0916585215
 30
0.0
 10
60.7900535193
 20
49.0835052981
 30
0.0
 10
60.5480047354
 20
49.0735497381
 30
0.0
 10
60.2152925545
 20
49.0620984235
 30
0.0
 10
59.8269991517
 20
49.0506109183
 30
0.0
 10
59.3842185696
 20
49.039090021
 30
0.0
 10
58.8880887308
 20
49.0275473241
 30
0.0
 10
58.3396913702
 20
49.0159880306
 30
0.0
 10
57.7400540805
 20
49.0044167254
 30
0.0
 10
56.8417775792
 20
48.9884167658
 30
0.0
 10
55.6022044139
 20
48.9686778046
 30
0.0
 10
53.9837289017
 20
48.9456762702
 30
0.0
 10
52.2022709177
 20
48.9226285741
 30
0.0
 10
50.2743002933
 20
48.8995426838
 30
0.0
 10
48.2177051859
 20
48.8764563578
 30
0.0
 10
46.0520602812
 20
48.8533488193
 30
0.0
 10
43.7982971895
 20
48.8302195827
 30
0.0
 10
40.6789619793
 20
48.7992160326
 30
0.0
 10
38.313217045
 20
48.7760659464
 30
0.0
 10
36.7233858192
 20
48.760862032
 30
0.0
  0
SPLINE
  5
2BA
100
AcDbEntity
  8
0
100
AcDbSpline
 62
7
  6
CONTINUOUS
 70
0
 71
3
 72
33
 73
29
 74
0
 42
0.0000001
 43
0.0000001
 44
0.0000000001
 40
0.0
 40
0.0
 40
0.0
 40
0.0
 40
0.193457052
 40
0.2878942149
 40
0.3796218948
 40
0.4677296169
 40
0.5513962982
 40
0.6298720848
 40
0.7024012689
 40
0.76825302
 40
0.8267892724
 40
0.8531671988
 40
0.8775404851
 40
0.8998448606
 40
0.9200162729
 40
0.9380007278
 40
0.953753981
 40
0.9672334787
 40
0.9784153572
 40
0.9831418992
 40
0.9872908354
 40
0.9908612572
 40
0.993851774
 40
0.9962603302
 40
0.9980855093
 40
0.9993279854
 40
0.9997333103
 40
1.0
 40
1.0
 40
1.0
 40
1.0
 10
36.7233933649
 20
62.2608724352
 30
0.0
 10
35.1336645294
 20
62.2456694999
 30
0.0
 10
32.7679059096
 20
62.2224813304
 30
0.0
 10
29.6483829519
 20
62.1915029014
 30
0.0
 10
27.3945700776
 20
62.1683732897
 30
0.0
 10
25.2292721193
 20
62.1452570147
 30
0.0
 10
23.1728825231
 20
62.1221600137
 30
0.0
 10
21.2445232661
 20
62.0990901595
 30
0.0
 10
19.4625752583
 20
62.0760502928
 30
0.0
 10
17.8445018498
 20
62.0530459851
 30
0.0
 10
16.6056862489
 20
62.033284582
 30
0.0
 10
15.7077201541
 20
62.0172904389
 30
0.0
 10
15.107471241
 20
62.005725733
 30
0.0
 10
14.5582365405
 20
61.994173458
 30
0.0
 10
14.0615166977
 20
61.9826336338
 30
0.0
 10
13.6186487062
 20
61.9711103178
 30
0.0
 10
13.2307935799
 20
61.9596214098
 30
0.0
 10
12.8988682579
 20
61.9481668776
 30
0.0
 10
12.6575648943
 20
61.938204661
 30
0.0
 10
12.4929369813
 20
61.9300516702
 30
0.0
 10
12.390820246
 20
61.924295702
 30
0.0
 10
12.3029911306
 20
61.9185642322
 30
0.0
 10
12.2295065354
 20
61.9128518522
 30
0.0
 10
12.1703847004
 20
61.9072270125
 30
0.0
 10
12.1257621195
 20
61.9016193595
 30
0.0
 10
12.0975408599
 20
61.8967960683
 30
0.0
 10
12.0824432873
 20
61.8924673957
 30
0.0
 10
12.0772866959
 20
61.8902804671
 30
0.0
 10
12.0755038521
 20
61.8890058493
 30
0.0
  0
SPLINE
  5
2BB
100
AcDbEntity
  8
0
100
AcDbSpline
 62
7
  6
CONTINUOUS
 70
0
 71
3
 72
33
 73
29
 74
0
 42
0.0000001
 43
0.0000001
 44
0.0000000001
 40
0.0
 40
0.0
 40
0.0
 40
0.0
 40
0.0002686491
 40
0.0006750969
 40
0.0019200832
 40
0.0037514296
 40
0.0061728634
 40
0.0091831967
 40
0.0127790505
 40
0.0169566856
 40
0.0217121885
 40
0.0329407549
 40
0.0464372866
 40
0.0621816514
 40
0.0801539839
 40
0.1003207965
 40
0.1226264655
 40
0.1470132378
 40
0.1734187147
 40
0.2320017717
 40
0.2978122499
 40
0.370301949
 40
0.4487802724
 40
0.5324487691
 40
0.620524808
 40
0.7121940659
 40
0.8066033555
 40
1.0
 40
1.0
 40
1.0
 40
1.0
 10
13.0753738306
 20
64.139108648
 30
0.0
 10
13.0770719767
 20
64.1403747723
 30
0.0
 10
13.0820090573
 20
64.1425668275
 30
0.0
 10
13.0964901102
 20
64.1468944602
 30
0.0
 10
13.1236149545
 20
64.1517252887
 30
0.0
 10
13.1665697621
 20
64.1573311181
 30
0.0
 10
13.2235815714
 20
64.1629531503
 30
0.0
 10
13.2945281247
 20
64.1686617211
 30
0.0
 10
13.3793653291
 20
64.1743895595
 30
0.0
 10
13.4779845177
 20
64.180141913
 30
0.0
 10
13.6367448282
 20
64.1882845388
 30
0.0
 10
13.868978918
 20
64.1982350992
 30
0.0
 10
14.1878616411
 20
64.2096907436
 30
0.0
 10
14.5599445462
 20
64.2211838725
 30
0.0
 10
14.9846408792
 20
64.2327045844
 30
0.0
 10
15.4610871294
 20
64.2442400294
 30
0.0
 10
15.9881217599
 20
64.2557922029
 30
0.0
 10
16.5643565012
 20
64.2673544911
 30
0.0
 10
17.4265930929
 20
64.2833372751
 30
0.0
 10
18.615425627
 20
64.3030722282
 30
0.0
 10
20.1676080965
 20
64.3260882898
 30
0.0
 10
21.8766727762
 20
64.3491245678
 30
0.0
 10
23.7265527815
 20
64.3721828291
 30
0.0
 10
25.6993339688
 20
64.3952668618
 30
0.0
 10
27.776127371
 20
64.41836899
 30
0.0
 10
29.9376128731
 20
64.4414839732
 30
0.0
 10
32.9294752504
 20
64.4725527426
 30
0.0
 10
35.1986047726
 20
64.4954432347
 30
0.0
 10
36.7233891789
 20
64.5108353053
 30
0.0
  0
SPLINE
  5
2BC
100
AcDbEntity
  8
0
100
AcDbSpline
 62
7
  6
CONTINUOUS
 70
0
 71
3
 72
14
 73
10
 74
0
 42
0.0000001
 43
0.0000001
 44
0.0000000001
 40
0.0
 40
0.0
 40
0.0
 40
0.0
 40
0.1114326813
 40
0.2249717479
 40
0.3423099228
 40
0.4647481087
 40
0.5926473334
 40
0.7255035355
 40
1.0
 40
1.0
 40
1.0
 40
1.0
 10
11.8938852112
 20
35.510392614
 30
0.0
 10
11.8145101619
 20
35.510392614
 30
0.0
 10
11.6536335077
 20
35.5297991181
 30
0.0
 10
11.4231524624
 20
35.615530137
 30
0.0
 10
11.2111218668
 20
35.7548093797
 30
0.0
 10
11.0255208019
 20
35.9420368863
 30
0.0
 10
10.8732145805
 20
36.1705398108
 30
0.0
 10
10.7206582808
 20
36.5214813282
 30
0.0
 10
10.6743192522
 20
36.8148649631
 30
0.0
 10
10.6743192522
 20
37.010392614
 30
0.0
  0
SPLINE
  5
2BD
100
AcDbEntity
  8
0
100
AcDbSpline
 62
7
  6
CONTINUOUS
 70
0
 71
3
 72
33
 73
29
 74
0
 42
0.0000001
 43
0.0000001
 44
0.0000000001
 40
0.0
 40
0.0
 40
0.0
 40
0.0
 40
0.0002613827
 40
0.0006608024
 40
0.0018917329
 40
0.0037082383
 40
0.0061137515
 40
0.0091095601
 40
0.0126959123
 40
0.0168698232
 40
0.0216265184
 40
0.0328686408
 40
0.0463828391
 40
0.0621347743
 40
0.0800968961
 40
0.1002415211
 40
0.1225278376
 40
0.1469005912
 40
0.1733032219
 40
0.2319150022
 40
0.2977466762
 40
0.3702169948
 40
0.4486861637
 40
0.5323798045
 40
0.6204790654
 40
0.712154287
 40
0.8065693588
 40
1.0
 40
1.0
 40
1.0
 40
1.0
 10
61.3709807075
 20
52.1326476665
 30
0.0
 10
61.3692543325
 20
52.1313696011
 30
0.0
 10
61.3641940189
 20
52.1291797118
 30
0.0
 10
61.3492957398
 20
52.1248458862
 30
0.0
 10
61.3212869406
 20
52.1200254157
 30
0.0
 10
61.2768599407
 20
52.1144180662
 30
0.0
 10
61.2177902791
 20
52.1087951626
 30
0.0
 10
61.144157032
 20
52.103083244
 30
0.0
 10
61.0559479675
 20
52.0973558079
 30
0.0
 10
60.9532473377
 20
52.0916037708
 30
0.0
 10
60.787671605
 20
52.0834581408
 30
0.0
 10
60.5453415148
 20
52.0735103944
 30
0.0
 10
60.2126499709
 20
52.0620582604
 30
0.0
 10
59.8247084165
 20
52.0505653774
 30
0.0
 10
59.3822599547
 20
52.0390410529
 30
0.0
 10
58.8860978109
 20
52.027500157
 30
0.0
 10
58.3372421661
 20
52.0159466889
 30
0.0
 10
57.7369496357
 20
52.0043804026
 30
0.0
 10
56.8381738925
 20
51.9883904479
 30
0.0
 10
55.5987126274
 20
51.9686612493
 30
0.0
 10
53.9806851988
 20
51.9456498588
 30
0.0
 10
52.1994600503
 20
51.9226017934
 30
0.0
 10
50.271438551
 20
51.8995348214
 30
0.0
 10
48.2149737241
 20
51.8764551348
 30
0.0
 10
46.0499785388
 20
51.8533502385
 30
0.0
 10
43.7968726477
 20
51.8302196323
 30
0.0
 10
40.6782137841
 20
51.7992308816
 30
0.0
 10
38.3128793268
 20
51.7760884118
 30
0.0
 10
36.7233854113
 20
51.7608437885
 30
0.0
  0
SPLINE
  5
2BE
100
AcDbEntity
  8
0
100
AcDbSpline
 62
7
  6
CONTINUOUS
 70
0
 71
3
 72
15
 73
11
 74
0
 42
0.0000001
 43
0.0000001
 44
0.0000000001
 40
0.0
 40
0.0
 40
0.0
 40
0.0
 40
0.0838846529
 40
0.1834230858
 40
0.2969924591
 40
0.4226358102
 40
0.5581220961
 40
0.7011366893
 40
0.8492740405
 40
1.0
 40
1.0
 40
1.0
 40
1.0
 10
58.0682601922
 20
68.5121689284
 30
0.0
 10
57.4714887461
 20
68.500854099
 30
0.0
 10
56.1665149388
 20
68.4797975359
 30
0.0
 10
54.05354391
 20
68.4460201094
 30
0.0
 10
51.6433656782
 20
68.4149897897
 30
0.0
 10
48.9773571878
 20
68.3866089457
 30
0.0
 10
46.1018487936
 20
68.3555571224
 30
0.0
 10
43.0663031822
 20
68.3219921054
 30
0.0
 10
39.9222985174
 20
68.2897083445
 30
0.0
 10
37.795814962
 20
68.2724192756
 30
0.0
 10
36.7233748769
 20
68.2624964677
 30
0.0
  0
SPLINE
  5
2BF
100
AcDbEntity
  8
0
100
AcDbSpline
 62
7
  6
CONTINUOUS
 70
0
 71
3
 72
34
 73
30
 74
0
 42
0.0000001
 43
0.0000001
 44
0.0000000001
 40
0.0
 40
0.0
 40
0.0
 40
0.0
 40
0.000258506
 40
0.0006552254
 40
0.0011954245
 40
0.0018808372
 40
0.0036892871
 40
0.0060817006
 40
0.0090566928
 40
0.0126122084
 40
0.0167468252
 40
0.0214596334
 40
0.0326158026
 40
0.0460719674
 40
0.0618045648
 40
0.0797710603
 40
0.0999271731
 40
0.1222190103
 40
0.1465824591
 40
0.1729531406
 40
0.231482107
 40
0.297335969
 40
0.3698765184
 40
0.4483719846
 40
0.5320655893
 40
0.6202063783
 40
0.7119723769
 40
0.8064517991
 40
1.0
 40
1.0
 40
1.0
 40
1.0
 10
61.3715304985
 20
50.6329212299
 30
0.0
 10
61.3698374281
 20
50.6316380497
 30
0.0
 10
61.3648220467
 20
50.6294481797
 30
0.0
 10
61.3554230053
 20
50.6266768973
 30
0.0
 10
61.3423666942
 20
50.6238662573
 30
0.0
 10
61.3177917676
 20
50.6196741468
 30
0.0
 10
61.2779232975
 20
50.6147132297
 30
0.0
 10
61.2192263261
 20
50.6090486891
 30
0.0
 10
61.1461150817
 20
50.6033493231
 30
0.0
 10
61.058656881
 20
50.5976107505
 30
0.0
 10
60.9568914379
 20
50.5918541322
 30
0.0
 10
60.7927045171
 20
50.5836951065
 30
0.0
 10
60.5519143042
 20
50.5737282626
 30
0.0
 10
60.2205581576
 20
50.5622686465
 30
0.0
 10
59.8332075138
 20
50.5507747978
 30
0.0
 10
59.3907772617
 20
50.5392461952
 30
0.0
 10
58.8944276913
 20
50.5277009393
 30
0.0
 10
58.3454958136
 20
50.5161432109
 30
0.0
 10
57.7454828505
 20
50.5045729973
 30
0.0
 10
56.8477057947
 20
50.4885703642
 30
0.0
 10
55.6089767009
 20
50.4687989255
 30
0.0
 10
53.9908320282
 20
50.4457836814
 30
0.0
 10
52.2085890436
 20
50.4227328626
 30
0.0
 10
50.2797290227
 20
50.3996519482
 30
0.0
 10
48.2226586809
 20
50.3765438337
 30
0.0
 10
46.056525409
 20
50.3534164091
 30
0.0
 10
43.8017500625
 20
50.3302755188
 30
0.0
 10
40.6807763422
 20
50.2992818472
 30
0.0
 10
38.3138914026
 20
50.2760827265
 30
0.0
 10
36.7233933649
 20
50.2608724352
 30
0.0
  0
SPLINE
  5
2C0
100
AcDbEntity
  8
0
100
AcDbSpline
 62
7
  6
CONTINUOUS
 70
0
 71
3
 72
33
 73
29
 74
0
 42
0.0000001
 43
0.0000001
 44
0.0000000001
 40
0.0
 40
0.0
 40
0.0
 40
0.0
 40
0.1934116548
 40
0.2878184945
 40
0.3794916802
 40
0.467581333
 40
0.5512665901
 40
0.6297500708
 40
0.7022573993
 40
0.768081311
 40
0.8266345348
 40
0.853019833
 40
0.8773950507
 40
0.8997025096
 40
0.9198873405
 40
0.9378972282
 40
0.953682365
 40
0.9671987075
 40
0.9784115865
 40
0.9831482438
 40
0.9873029026
 40
0.9908744804
 40
0.993862214
 40
0.9962657271
 40
0.9980857428
 40
0.999325351
 40
0.9997310217
 40
1.0
 40
1.0
 40
1.0
 40
1.0
 10
36.7233709184
 20
64.5127539401
 30
0.0
 10
38.2481459424
 20
64.5275373956
 30
0.0
 10
40.5171999523
 20
64.5479648186
 30
0.0
 10
43.5089160936
 20
64.5803979595
 30
0.0
 10
45.6703111335
 20
64.6052928966
 30
0.0
 10
47.747184734
 20
64.6291039795
 30
0.0
 10
49.7200819093
 20
64.6514027151
 30
0.0
 10
51.5701335124
 20
64.672596894
 30
0.0
 10
53.2793461433
 20
64.6948068304
 30
0.0
 10
54.8313789553
 20
64.7194050859
 30
0.0
 10
56.0197967842
 20
64.7403909319
 30
0.0
 10
56.8814658464
 20
64.7567067804
 30
0.0
 10
57.4574164797
 20
64.7681313023
 30
0.0
 10
57.9844798443
 20
64.7792139576
 30
0.0
 10
58.4613527902
 20
64.7900524523
 30
0.0
 10
58.8867925793
 20
64.8007716671
 30
0.0
 10
59.2596356764
 20
64.8116479578
 30
0.0
 10
59.5788529489
 20
64.8229014848
 30
0.0
 10
59.8109356221
 20
64.8332394693
 30
0.0
 10
59.9692010399
 20
64.8418950476
 30
0.0
 10
60.0672666759
 20
64.8480286063
 30
0.0
 10
60.1515178179
 20
64.854137768
 30
0.0
 10
60.2219158505
 20
64.8602071066
 30
0.0
 10
60.2784788454
 20
64.8661491283
 30
0.0
 10
60.3211214059
 20
64.8720109411
 30
0.0
 10
60.3480703317
 20
64.8770146948
 30
0.0
 10
60.3624770832
 20
64.8814299702
 30
0.0
 10
60.3673943457
 20
64.8836512798
 30
0.0
 10
60.3690906505
 20
64.8849238904
 30
0.0
  0
ENDSEC
  0
SECTION
  2
OBJECTS
  0
DICTIONARY
  5
C
100
AcDbDictionary
280
0
281
1
  3
ACAD_GROUP
350
D
  3
ACAD_MLINESTYLE
350
17
  3
ACAD_LAYOUT
350
1A
  3
ACAD_PLOTSETTINGS
350
19
  3
ACAD_PLOTSTYLENAME
350
E
  0
DICTIONARY
  5
D
102
{ACAD_REACTORS
330
C
102
}
100
AcDbDictionary
280
0
281
1
  0
ACDBDICTIONARYWDFLT
  5
E
102
{ACAD_REACTORS
330
C
102
}
100
AcDbDictionary
281
1
  3
Normal
350
F
100
AcDbDictionaryWithDefault
340
F
  0
DICTIONARY
  5
17
102
{ACAD_REACTORS
330
C
102
}
100
AcDbDictionary
280
0
281
1
  3
Standard
350
18
  0
DICTIONARY
  5
19
102
{ACAD_REACTORS
330
C
102
}
100
AcDbDictionary
281
1
  0
DICTIONARY
  5
1A
102
{ACAD_REACTORS
330
C
102
}
100
AcDbDictionary
281
1
  3
Model
350
2C1
  3
Layout1
350
2C2
  0
ACDBPLACEHOLDER
  5
F
102
{ACAD_REACTORS
330
E
102
}
  0
MLINESTYLE
  5
18
102
{ACAD_REACTORS
330
17
102
}
100
AcDbMlineStyle
  2
STANDARD
 70
0
  3

 62
256
 51
90.0
 52
90.0
 71
2
 49
0.5
 62
256
  6
BYLAYER
 49
-0.5
 62
256
  6
BYLAYER
  0
LAYOUT
  5
2C1
102
{ACAD_REACTORS
330
1A
102
}
100
AcDbPlotSettings
  1

  2
none_device
  4

  6

 40
0.0
 41
0.0
 42
0.0
 43
0.0
 44
210.0
 45
297.0
 46
0.0
 47
0.0
 48
0.0
 49
0.0
140
0.0
141
0.0
142
1.0
143
1.0
 70
1024
 72
1
 73
0
 74
0
  7

 75
0
147
1.0
148
0.0
149
0.0
100
AcDbLayout
  1
Model
 70
0
 71
0
 10
0.0
 20
0.0
 11
210.0
 21
297.0
 12
0.0
 22
0.0
 32
0.0
 14
0.0
 24
0.0
 34
0.0
 15
0.0
 25
0.0
 35
0.0
146
0.0
 13
0.0
 23
0.0
 33
0.0
 16
1.0
 26
0.0
 36
0.0
 17
0.0
 27
1.0
 37
0.0
 76
0
330
210
345
0
346
0
  0
LAYOUT
  5
2C2
102
{ACAD_REACTORS
330
1A
102
}
100
AcDbPlotSettings
  1

  2
none_device
  4

  6

 40
0.0
 41
0.0
 42
0.0
 43
0.0
 44
210.0
 45
297.0
 46
0.0
 47
0.0
 48
0.0
 49
0.0
140
0.0
141
0.0
142
1.0
143
1.0
 70
0
 72
1
 73
0
 74
0
  7

 75
0
147
1.0
148
0.0
149
0.0
100
AcDbLayout
  1
Layout1
 70
0
 71
1
 10
0.0
 20
0.0
 11
210.0
 21
297.0
 12
0.0
 22
0.0
 32
0.0
 14
0.0
 24
0.0
 34
0.0
 15
0.0
 25
0.0
 35
0.0
146
0.0
 13
0.0
 23
0.0
 33
0.0
 16
1.0
 26
0.0
 36
0.0
 17
0.0
 27
1.0
 37
0.0
 76
0
330
211
345
0
346
0
  0
ENDSEC
  0
EOF
