999
DXF file: C:\Users\sesa63760\Dev\_Creo\CAD\MCADID0003711_3D-CAD\drw0001_5.dxf
999
Pro/ENGINEER 2019471 by Parametric Technology Corporation
  0
SECTION
  2
HEADER
  9
$ACADVER
  1
AC1024
  9
$DWGCODEPAGE
  3
ANSI_1252
  9
$EXTMAX
 10
34.8627087225
 20
49.3058309075
 30
0.0
  9
$EXTMIN
 10
0.0
 20
0.0
 30
0.0
  9
$LIMMIN
 10
0.0
 20
0.0
  9
$LIMMAX
 10
34.8627087225
 20
49.3058309075
  9
$VIEWCTR
 10
17.4313543612
 20
24.6529154537
  9
$VIEWSIZE
 40
49.3058309075
  9
$CLAYER
  8
0
  9
$LTSCALE
 40
3.2140097184
  9
$CELTYPE
  6
BYLAYER
  9
$DIMSCALE
 40
1.0
  9
$DIMASZ
 40
0.4150322467
  9
$DIMEXO
 40
1.0
  9
$DIMDLI
 40
2.2205885327
  9
$DIMEXE
 40
1.0
  9
$DIMCEN
 40
0.525928863
  9
$DIMLFAC
 40
1.0
  9
$DIMBLK
  1
_FILLED
  9
$DIMALT
 70
0
  9
$DIMALTF
 40
0.0393700787
  9
$DIMTXT
 40
0.5810451454
  9
$DIMTOL
 70
1
  9
$DIMLIM
 70
0
  9
$DIMTFAC
 40
1.0
  9
$DIMTP
 40
0.01
  9
$DIMTM
 40
0.01
  9
$DIMGAP
 40
0.625
  9
$DIMDSEP
 70
46
  9
$AUNITS
 70
0
  9
$PDMODE
 70
3
  9
$PDSIZE
 40
0.3125
  9
$HANDSEED
  5
2D6
  9
$TILEMODE
 70
1
  9
$MEASUREMENT
 70
1
  9
$INSUNITS
 70
4
  0
ENDSEC
  0
SECTION
  2
CLASSES
  0
CLASS
  1
ACDBDICTIONARYWDFLT
  2
AcDbDictionaryWithDefault
  3
AutoCAD 2000
 90
0
 91
1
280
0
281
0
  0
CLASS
  1
ACDBPLACEHOLDER
  2
AcDbPlaceHolder
  3
AutoCAD 2000
 90
0
 91
1
280
0
281
0
  0
CLASS
  1
LAYOUT
  2
AcDbLayout
  3
AutoCAD 2000
 90
0
 91
0
280
0
281
0
  0
ENDSEC
  0
SECTION
  2
TABLES
  0
TABLE
  2
VPORT
  5
8
100
AcDbSymbolTable
 70
2
  0
VPORT
  5
1F4
100
AcDbSymbolTableRecord
100
AcDbViewportTableRecord
  2
*ACTIVE
 70
0
 10
0.0
 20
0.0
 11
1.0
 21
1.0
 12
17.4313543612
 22
24.6529154537
 13
0.0
 23
0.0
 14
1.0
 24
1.0
 15
0.0
 25
0.0
 16
0.0
 26
0.0
 36
1.0
 17
0.0
 27
0.0
 37
0.0
 40
49.3058309075
 41
0.7070707071
 42
50.0
 43
0.0
 44
0.0
 50
0.0
 51
0.0
 71
0
 72
100
 73
1
 74
1
 75
0
 76
0
 77
0
 78
0
  0
ENDTAB
  0
TABLE
  2
LTYPE
  5
5
100
AcDbSymbolTable
 70
6
  0
LTYPE
  5
14
100
AcDbSymbolTableRecord
100
AcDbLinetypeTableRecord
  2
BYBLOCK
 70
0
  3

 72
65
 73
0
 40
0.0
  0
LTYPE
  5
15
100
AcDbSymbolTableRecord
100
AcDbLinetypeTableRecord
  2
BYLAYER
 70
0
  3

 72
65
 73
0
 40
0.0
  0
LTYPE
  5
16
100
AcDbSymbolTableRecord
100
AcDbLinetypeTableRecord
  2
CONTINUOUS
 70
64
  3
Solid line
 72
65
 73
0
 40
0.0
  0
LTYPE
  5
1F5
100
AcDbSymbolTableRecord
100
AcDbLinetypeTableRecord
  2
CENTER
 70
64
  3
____ _ ____ _ ____ _ ____ _ ____ _ ____ _ ____
 72
65
 73
4
 40
0.6
 49
0.375
 74
0
 49
-0.075
 74
0
 49
0.075
 74
0
 49
-0.075
 74
0
  0
LTYPE
  5
1F6
100
AcDbSymbolTableRecord
100
AcDbLinetypeTableRecord
  2
HIDDEN
 70
64
  3
- - - - - - - - - - - - - - - - - - - -
 72
65
 73
2
 40
0.2
 49
0.1
 74
0
 49
-0.1
 74
0
  0
LTYPE
  5
1F7
100
AcDbSymbolTableRecord
100
AcDbLinetypeTableRecord
  2
PHANTOM
 70
64
  3
_____ _ _ _____ _ _ _____ _ _ _____
 72
65
 73
6
 40
0.8
 49
0.45
 74
0
 49
-0.05
 74
0
 49
0.1
 74
0
 49
-0.05
 74
0
 49
0.1
 74
0
 49
-0.05
 74
0
  0
LTYPE
  5
1F8
100
AcDbSymbolTableRecord
100
AcDbLinetypeTableRecord
  2
DOT
 70
64
  3
. . . . . . . . . . . . . . . . . . . .
 72
65
 73
2
 40
0.2
 49
0.1
 74
0
 49
-0.1
 74
0
  0
LTYPE
  5
1F9
100
AcDbSymbolTableRecord
100
AcDbLinetypeTableRecord
  2
DASHED
 70
64
  3
- - - - - - - - - - - - - - - - - - - -
 72
65
 73
2
 40
0.2
 49
0.1
 74
0
 49
-0.1
 74
0
  0
ENDTAB
  0
TABLE
  2
LAYER
  5
2
100
AcDbSymbolTable
 70
36
  0
LAYER
  5
10
100
AcDbSymbolTableRecord
100
AcDbLayerTableRecord
  2
0
 70
0
 62
7
  6
CONTINUOUS
370
-3
390
F
  0
LAYER
  5
1FA
100
AcDbSymbolTableRecord
100
AcDbLayerTableRecord
  2
DEFAULT_1
 70
0
 62
7
  6
CENTER
370
-3
390
F
  0
LAYER
  5
1FB
100
AcDbSymbolTableRecord
100
AcDbLayerTableRecord
  2
DEFAULT_2
 70
0
 62
7
  6
HIDDEN
370
-3
390
F
  0
LAYER
  5
1FC
100
AcDbSymbolTableRecord
100
AcDbLayerTableRecord
  2
DEFAULT_3
 70
0
 62
7
  6
PHANTOM
370
-3
390
F
  0
LAYER
  5
1FD
100
AcDbSymbolTableRecord
100
AcDbLayerTableRecord
  2
00_COMPONENTS
 70
0
 62
7
  6
CONTINUOUS
370
-3
390
F
  0
LAYER
  5
1FE
100
AcDbSymbolTableRecord
100
AcDbLayerTableRecord
  2
01_1_DEFAULT_DATUMS
 70
0
 62
7
  6
CONTINUOUS
370
-3
390
F
  0
LAYER
  5
1FF
100
AcDbSymbolTableRecord
100
AcDbLayerTableRecord
  2
01_PLANES
 70
0
 62
7
  6
CONTINUOUS
370
-3
390
F
  0
LAYER
  5
200
100
AcDbSymbolTableRecord
100
AcDbLayerTableRecord
  2
02_COORD_SYS
 70
0
 62
7
  6
CONTINUOUS
370
-3
390
F
  0
LAYER
  5
201
100
AcDbSymbolTableRecord
100
AcDbLayerTableRecord
  2
03_AXES
 70
0
 62
7
  6
CONTINUOUS
370
-3
390
F
  0
LAYER
  5
202
100
AcDbSymbolTableRecord
100
AcDbLayerTableRecord
  2
04_POINTS
 70
0
 62
7
  6
CONTINUOUS
370
-3
390
F
  0
LAYER
  5
203
100
AcDbSymbolTableRecord
100
AcDbLayerTableRecord
  2
05_CURVES
 70
0
 62
7
  6
CONTINUOUS
370
-3
390
F
  0
LAYER
  5
204
100
AcDbSymbolTableRecord
100
AcDbLayerTableRecord
  2
06_SURFS
 70
0
 62
7
  6
CONTINUOUS
370
-3
390
F
  0
LAYER
  5
205
100
AcDbSymbolTableRecord
100
AcDbLayerTableRecord
  2
07_COSMETICS
 70
0
 62
7
  6
CONTINUOUS
370
-3
390
F
  0
LAYER
  5
206
100
AcDbSymbolTableRecord
100
AcDbLayerTableRecord
  2
10_NOTES
 70
0
 62
7
  6
CONTINUOUS
370
-3
390
F
  0
LAYER
  5
207
100
AcDbSymbolTableRecord
100
AcDbLayerTableRecord
  2
11_NOTES_PUB
 70
0
 62
7
  6
CONTINUOUS
370
-3
390
F
  0
LAYER
  5
208
100
AcDbSymbolTableRecord
100
AcDbLayerTableRecord
  2
13_REF_GTOL
 70
0
 62
7
  6
CONTINUOUS
370
-3
390
F
  0
LAYER
  5
209
100
AcDbSymbolTableRecord
100
AcDbLayerTableRecord
  2
16_MISC
 70
0
 62
7
  6
CONTINUOUS
370
-3
390
F
  0
LAYER
  5
20A
100
AcDbSymbolTableRecord
100
AcDbLayerTableRecord
  2
17_NO_PRINT
 70
0
 62
7
  6
CONTINUOUS
370
-3
390
F
  0
LAYER
  5
20B
100
AcDbSymbolTableRecord
100
AcDbLayerTableRecord
  2
18_DATUM_CAMS_JOINTS
 70
0
 62
7
  6
CONTINUOUS
370
-3
390
F
  0
LAYER
  5
20C
100
AcDbSymbolTableRecord
100
AcDbLayerTableRecord
  2
19_DATUM_FUNCTIONAL
 70
0
 62
7
  6
CONTINUOUS
370
-3
390
F
  0
LAYER
  5
20D
100
AcDbSymbolTableRecord
100
AcDbLayerTableRecord
  2
20_DATUM_KINEMATIC_SCHEME
 70
0
 62
7
  6
CONTINUOUS
370
-3
390
F
  0
ENDTAB
  0
TABLE
  2
STYLE
  5
3
100
AcDbSymbolTable
 70
1
  0
STYLE
  5
11
100
AcDbSymbolTableRecord
100
AcDbTextStyleTableRecord
  2
STANDARD
 70
0
 40
0.0
 41
1.0
 50
0.0
 71
0
 42
0.2
  3
ARIAL.TTF
  4

  0
STYLE
  5
20E
100
AcDbSymbolTableRecord
100
AcDbTextStyleTableRecord
  2
TEXTSTYLE_1
 70
0
 40
0.0
 41
0.8
 50
0.0
 71
0
 42
0.2
  3
gdt
  4

  0
ENDTAB
  0
TABLE
  2
VIEW
  5
6
100
AcDbSymbolTable
 70
0
  0
ENDTAB
  0
TABLE
  2
UCS
  5
7
100
AcDbSymbolTable
 70
0
  0
ENDTAB
  0
TABLE
  2
APPID
  5
9
100
AcDbSymbolTable
 70
1
  0
APPID
  5
20F
100
AcDbSymbolTableRecord
100
AcDbRegAppTableRecord
  2
ACAD
 70
0
  0
ENDTAB
  0
TABLE
  2
BLOCK_RECORD
  5
1
100
AcDbSymbolTable
 70
0
  0
BLOCK_RECORD
  5
210
100
AcDbSymbolTableRecord
100
AcDbBlockTableRecord
  2
*Model_Space
  0
BLOCK_RECORD
  5
211
100
AcDbSymbolTableRecord
100
AcDbBlockTableRecord
  2
*Paper_Space
  0
BLOCK_RECORD
  5
212
100
AcDbSymbolTableRecord
100
AcDbBlockTableRecord
  2
_FILLED
  0
ENDTAB
  0
TABLE
  2
DIMSTYLE
  5
A
100
AcDbSymbolTable
 70
1
100
AcDbDimStyleTable
 71
0
  0
DIMSTYLE
105
213
100
AcDbSymbolTableRecord
100
AcDbDimStyleTableRecord
  2
STANDARD
 70
0
  3

  4

 40
1.0
 41
0.4150322467
 42
1.0
 43
0.38
 44
1.0
 45
0.0
 46
0.0
 47
0.01
 48
0.01
140
0.5810451454
141
0.09
142
0.0
143
25.4
144
1.0
145
0.0
146
1.0
147
0.625
 71
1
 72
0
 73
0
 74
0
 75
0
 76
0
 77
1
 78
8
 79
2
170
0
171
1
172
0
173
0
174
0
175
0
176
0
177
0
178
0
270
2
179
2
271
2
272
2
273
2
274
2
275
0
280
0
281
0
282
0
283
1
284
8
285
0
286
0
287
3
288
0
340
11
278
46
341
212
342
212
343
212
344
212
  0
ENDTAB
  0
ENDSEC
  0
SECTION
  2
BLOCKS
  0
BLOCK
  5
20
100
AcDbEntity
  8
0
100
AcDbBlockBegin
  2
*Model_Space
 70
0
 10
0.0
 20
0.0
 30
0.0
  3
*Model_Space
  1

  0
ENDBLK
  5
21
100
AcDbEntity
  8
0
100
AcDbBlockEnd
  0
BLOCK
  5
1C
100
AcDbEntity
  8
0
100
AcDbBlockBegin
  2
*Paper_Space
 70
0
 10
0.0
 20
0.0
 30
0.0
  3
*Paper_Space
  1

  0
ENDBLK
  5
1D
100
AcDbEntity
  8
0
100
AcDbBlockEnd
  0
BLOCK
  5
214
100
AcDbEntity
  8
0
100
AcDbBlockBegin
  2
_FILLED
 70
64
 10
0.0
 20
0.0
  3
_FILLED
  1

  0
SOLID
  5
215
100
AcDbEntity
  8
0
  6
BYBLOCK
 62
0
100
AcDbTrace
 10
0.0
 20
0.0
 11
-1.0
 21
0.25
 12
-1.0
 22
-0.25
 13
-1.0
 23
-0.25
  0
ENDBLK
  5
216
100
AcDbEntity
  8
0
  6
BYBLOCK
 62
0
100
AcDbBlockEnd
  0
ENDSEC
  0
SECTION
  2
ENTITIES
  0
LINE
  5
217
100
AcDbEntity
  8
0
100
AcDbLine
 62
7
  6
BYLAYER
 10
10.5638488461
 20
4.0132653064
 11
25.5638488461
 21
4.0132653064
  0
LINE
  5
218
100
AcDbEntity
  8
0
100
AcDbLine
 62
7
  6
BYLAYER
 10
12.2438488455
 20
6.5132653064
 11
23.8838488531
 21
6.5132653064
  0
LINE
  5
219
100
AcDbEntity
  8
0
100
AcDbLine
 62
7
  6
BYLAYER
 10
15.3638488466
 20
44.9718439509
 11
15.4345595241
 21
45.0425546284
  0
LINE
  5
21A
100
AcDbEntity
  8
0
100
AcDbLine
 62
7
  6
BYLAYER
 10
10.2638488461
 20
9.0132653063
 11
10.463848846
 21
8.8132653064
  0
LINE
  5
21B
100
AcDbEntity
  8
0
100
AcDbLine
 62
7
  6
BYLAYER
 10
10.4638488461
 20
8.8132653064
 11
10.5638488461
 21
8.8132653064
  0
LINE
  5
21C
100
AcDbEntity
  8
0
100
AcDbLine
 62
7
  6
BYLAYER
 10
13.9638488464
 20
9.0455807897
 11
22.1638488433
 21
9.0455807897
  0
LINE
  5
21D
100
AcDbEntity
  8
0
100
AcDbLine
 62
7
  6
BYLAYER
 10
10.5638488461
 20
11.0132652898
 11
12.9638488461
 21
11.0132653064
  0
LINE
  5
21E
100
AcDbEntity
  8
0
100
AcDbLine
 62
7
  6
BYLAYER
 10
23.1638488461
 20
11.0132653064
 11
25.5638488461
 21
11.0132653063
  0
LINE
  5
21F
100
AcDbEntity
  8
0
100
AcDbLine
 62
7
  6
BYLAYER
 10
11.0638488247
 20
11.5132653064
 11
13.0264447347
 21
11.5132653064
  0
LINE
  5
220
100
AcDbEntity
  8
0
100
AcDbLine
 62
7
  6
BYLAYER
 10
23.101251429
 20
11.5132653064
 11
25.0638488462
 21
11.5132653064
  0
LINE
  5
221
100
AcDbEntity
  8
0
100
AcDbLine
 62
7
  6
BYLAYER
 10
20.5931381681
 20
44.9425546284
 11
21.0345595241
 21
45.3839759844
  0
LINE
  5
222
100
AcDbEntity
  8
0
100
AcDbLine
 62
7
  6
BYLAYER
 10
20.7638488452
 20
44.9718439462
 11
20.663848847
 21
44.8718439489
  0
LINE
  5
223
100
AcDbEntity
  8
0
100
AcDbLine
 62
7
  6
BYLAYER
 10
21.1296574431
 20
45.3132653064
 11
20.7638488452
 21
44.9718439471
  0
LINE
  5
224
100
AcDbEntity
  8
0
100
AcDbLine
 62
7
  6
BYLAYER
 10
10.4638488461
 20
11.8132653064
 11
10.5638488461
 21
11.8132653064
  0
LINE
  5
225
100
AcDbEntity
  8
0
100
AcDbLine
 62
7
  6
BYLAYER
 10
18.8638488462
 20
10.41928304
 11
18.0638488461
 21
10.8533084694
  0
LINE
  5
226
100
AcDbEntity
  8
0
100
AcDbLine
 62
7
  6
BYLAYER
 10
19.663848846
 20
11.7213593295
 11
18.8638488464
 21
12.1553847597
  0
LINE
  5
227
100
AcDbEntity
  8
0
100
AcDbLine
 62
7
  6
BYLAYER
 10
19.6638488461
 20
11.1225010537
 11
18.8638488461
 21
11.614023713
  0
LINE
  5
228
100
AcDbEntity
  8
0
100
AcDbLine
 62
7
  6
BYLAYER
 10
10.2638488461
 20
9.0132727564
 11
10.2638488461
 21
11.6132578564
  0
LINE
  5
229
100
AcDbEntity
  8
0
100
AcDbLine
 62
7
  6
BYLAYER
 10
10.4638488461
 20
8.8132653064
 11
10.4638488461
 21
11.8132653064
  0
LINE
  5
22A
100
AcDbEntity
  8
0
100
AcDbLine
 62
7
  6
BYLAYER
 10
10.5638488461
 20
4.0132653064
 11
10.5638488461
 21
16.0132653064
  0
LINE
  5
22B
100
AcDbEntity
  8
0
100
AcDbLine
 62
7
  6
BYLAYER
 10
24.5640389903
 20
16.3554149894
 11
11.5638488461
 21
16.3552854495
  0
LINE
  5
22C
100
AcDbEntity
  8
0
100
AcDbLine
 62
7
  6
BYLAYER
 10
11.5638488421
 20
17.0132653064
 11
24.5640390092
 21
17.0132653064
  0
LINE
  5
22D
100
AcDbEntity
  8
0
100
AcDbLine
 62
7
  6
BYLAYER
 10
11.5638488461
 20
11.5132646364
 11
11.5638488421
 21
17.0132653041
  0
LINE
  5
22E
100
AcDbEntity
  8
0
100
AcDbLine
 62
7
  6
BYLAYER
 10
12.2438488461
 20
11.0132653064
 11
12.2438488461
 21
6.5132653058
  0
LINE
  5
22F
100
AcDbEntity
  8
0
100
AcDbLine
 62
7
  6
BYLAYER
 10
12.9638488461
 20
6.5132653064
 11
12.9638488461
 21
11.0132653064
  0
LINE
  5
230
100
AcDbEntity
  8
0
100
AcDbLine
 62
7
  6
BYLAYER
 10
13.5638488457
 20
4.0132653064
 11
13.5638488457
 21
6.5132653058
  0
LINE
  5
231
100
AcDbEntity
  8
0
100
AcDbLine
 62
7
  6
BYLAYER
 10
15.5638488461
 20
19.2132653079
 11
15.663848848
 21
19.2132653079
  0
LINE
  5
232
100
AcDbEntity
  8
0
100
AcDbLine
 62
7
  6
BYLAYER
 10
20.4638488455
 20
19.2132653083
 11
20.5638488461
 21
19.2132653083
  0
LINE
  5
233
100
AcDbEntity
  8
0
100
AcDbLine
 62
7
  6
BYLAYER
 10
22.1638488465
 20
19.7132653064
 11
21.0638488399
 21
19.7132653064
  0
LINE
  5
234
100
AcDbEntity
  8
0
100
AcDbLine
 62
7
  6
BYLAYER
 10
15.0638488462
 20
19.7132653064
 11
13.963848842
 21
19.7132653064
  0
LINE
  5
235
100
AcDbEntity
  8
0
100
AcDbLine
 62
7
  6
BYLAYER
 10
22.2638488461
 20
19.8132653078
 11
21.0852774244
 21
19.8132653078
  0
LINE
  5
236
100
AcDbEntity
  8
0
100
AcDbLine
 62
7
  6
BYLAYER
 10
15.0424202182
 20
19.8132653113
 11
13.8638488461
 21
19.8132653113
  0
LINE
  5
237
100
AcDbEntity
  8
0
100
AcDbLine
 62
7
  6
BYLAYER
 10
13.8638488461
 20
45.3132653047
 11
13.8638488461
 21
19.8132653103
  0
LINE
  5
238
100
AcDbEntity
  8
0
100
AcDbLine
 62
7
  6
BYLAYER
 10
13.9638488461
 20
6.5132653064
 11
13.9638488464
 21
11.1842753416
  0
LINE
  5
239
100
AcDbEntity
  8
0
100
AcDbLine
 62
7
  6
BYLAYER
 10
16.0638488443
 20
21.9132653073
 11
20.0638488471
 21
21.9132653068
  0
LINE
  5
23A
100
AcDbEntity
  8
0
100
AcDbLine
 62
7
  6
BYLAYER
 10
15.3638488436
 20
19.7328805552
 11
15.363848846
 21
44.9718439493
  0
LINE
  5
23B
100
AcDbEntity
  8
0
100
AcDbLine
 62
7
  6
BYLAYER
 10
15.4638488485
 20
44.8718439513
 11
15.4638488485
 21
39.5132653052
  0
LINE
  5
23C
100
AcDbEntity
  8
0
100
AcDbLine
 62
7
  6
BYLAYER
 10
15.4638488484
 20
36.5132653107
 11
15.4638488484
 21
22.5132653047
  0
LINE
  5
23D
100
AcDbEntity
  8
0
100
AcDbLine
 62
7
  6
BYLAYER
 10
15.5638488461
 20
19.2132653088
 11
15.5638488461
 21
17.0132653064
  0
LINE
  5
23E
100
AcDbEntity
  8
0
100
AcDbLine
 62
7
  6
BYLAYER
 10
15.5638488461
 20
22.5132653055
 11
15.5638488461
 21
36.5132653076
  0
LINE
  5
23F
100
AcDbEntity
  8
0
100
AcDbLine
 62
7
  6
BYLAYER
 10
15.5638488461
 20
39.5132652923
 11
15.5638488461
 21
44.8718439508
  0
LINE
  5
240
100
AcDbEntity
  8
0
100
AcDbLine
 62
7
  6
BYLAYER
 10
15.663848848
 20
17.0132653064
 11
15.663848848
 21
19.2132653067
  0
LINE
  5
241
100
AcDbEntity
  8
0
100
AcDbLine
 62
7
  6
BYLAYER
 10
16.0638488443
 20
21.9132653064
 11
16.0638488443
 21
22.0132653064
  0
LINE
  5
242
100
AcDbEntity
  8
0
100
AcDbLine
 62
7
  6
BYLAYER
 10
16.0638488455
 20
37.0132653064
 11
16.0638488455
 21
37.1132653033
  0
LINE
  5
243
100
AcDbEntity
  8
0
100
AcDbLine
 62
7
  6
BYLAYER
 10
16.0638488446
 20
38.9132652977
 11
16.0638488446
 21
39.0132653064
  0
LINE
  5
244
100
AcDbEntity
  8
0
100
AcDbLine
 62
7
  6
BYLAYER
 10
20.0638488501
 20
22.0132653064
 11
16.0638488352
 21
22.0132653064
  0
LINE
  5
245
100
AcDbEntity
  8
0
100
AcDbLine
 62
7
  6
BYLAYER
 10
20.6638488441
 20
22.5132653045
 11
20.5638488461
 21
22.5132653045
  0
LINE
  5
246
100
AcDbEntity
  8
0
100
AcDbLine
 62
7
  6
BYLAYER
 10
15.5638488461
 20
22.5132653065
 11
15.4638488484
 21
22.5132653065
  0
LINE
  5
247
100
AcDbEntity
  8
0
100
AcDbLine
 62
7
  6
BYLAYER
 10
18.0638488461
 20
11.7213593298
 11
18.0638488461
 21
10.8533084692
  0
LINE
  5
248
100
AcDbEntity
  8
0
100
AcDbLine
 62
7
  6
BYLAYER
 10
20.7638488447
 20
19.7328805493
 11
20.8138488469
 21
19.6462780071
  0
LINE
  5
249
100
AcDbEntity
  8
0
100
AcDbLine
 62
7
  6
BYLAYER
 10
18.8638488464
 20
12.1553847597
 11
18.8638488463
 21
11.614023713
  0
LINE
  5
24A
100
AcDbEntity
  8
0
100
AcDbLine
 62
7
  6
BYLAYER
 10
15.313848839
 20
19.646278011
 11
15.3638488409
 21
19.7328805567
  0
LINE
  5
24B
100
AcDbEntity
  8
0
100
AcDbLine
 62
7
  6
BYLAYER
 10
19.6638488461
 20
10.8533084692
 11
19.6638488461
 21
11.7213593298
  0
LINE
  5
24C
100
AcDbEntity
  8
0
100
AcDbLine
 62
7
  6
BYLAYER
 10
20.0638488474
 20
39.0132653064
 11
20.0638488474
 21
38.9132652977
  0
LINE
  5
24D
100
AcDbEntity
  8
0
100
AcDbLine
 62
7
  6
BYLAYER
 10
20.063848847
 20
37.1132653033
 11
20.063848847
 21
37.0132653064
  0
LINE
  5
24E
100
AcDbEntity
  8
0
100
AcDbLine
 62
7
  6
BYLAYER
 10
20.0638488475
 20
22.0132653064
 11
20.0638488475
 21
21.9132653064
  0
LINE
  5
24F
100
AcDbEntity
  8
0
100
AcDbLine
 62
7
  6
BYLAYER
 10
20.4638488455
 20
19.2132653198
 11
20.4638488455
 21
17.0132653064
  0
LINE
  5
250
100
AcDbEntity
  8
0
100
AcDbLine
 62
7
  6
BYLAYER
 10
20.5638488461
 20
44.8718439504
 11
20.5638488461
 21
39.513265305
  0
LINE
  5
251
100
AcDbEntity
  8
0
100
AcDbLine
 62
7
  6
BYLAYER
 10
20.5638488461
 20
36.5132653064
 11
20.5638488461
 21
22.5132652885
  0
LINE
  5
252
100
AcDbEntity
  8
0
100
AcDbLine
 62
7
  6
BYLAYER
 10
20.5638488461
 20
17.0132653064
 11
20.5638488461
 21
19.2132654304
  0
LINE
  5
253
100
AcDbEntity
  8
0
100
AcDbLine
 62
7
  6
BYLAYER
 10
20.6638488441
 20
22.5132652975
 11
20.6638488441
 21
36.5132653088
  0
LINE
  5
254
100
AcDbEntity
  8
0
100
AcDbLine
 62
7
  6
BYLAYER
 10
20.663848847
 20
39.5132652941
 11
20.663848847
 21
44.8718439489
  0
LINE
  5
255
100
AcDbEntity
  8
0
100
AcDbLine
 62
7
  6
BYLAYER
 10
20.7638488452
 20
44.9718439462
 11
20.7638488452
 21
19.7328805496
  0
LINE
  5
256
100
AcDbEntity
  8
0
100
AcDbLine
 62
7
  6
BYLAYER
 10
22.1638488433
 20
11.1842753779
 11
22.1638488447
 21
6.5132653064
  0
LINE
  5
257
100
AcDbEntity
  8
0
100
AcDbLine
 62
7
  6
BYLAYER
 10
22.2638488461
 20
19.8132653056
 11
22.2638488461
 21
45.3132653064
  0
LINE
  5
258
100
AcDbEntity
  8
0
100
AcDbLine
 62
7
  6
BYLAYER
 10
10.2638488461
 20
11.6132653065
 11
10.463848846
 21
11.8132653064
  0
LINE
  5
259
100
AcDbEntity
  8
0
100
AcDbLine
 62
7
  6
BYLAYER
 10
22.5638488467
 20
6.5132653058
 11
22.5638488467
 21
4.0132653064
  0
LINE
  5
25A
100
AcDbEntity
  8
0
100
AcDbLine
 62
7
  6
BYLAYER
 10
23.1638488461
 20
11.0132653344
 11
23.1638488461
 21
6.5132653064
  0
LINE
  5
25B
100
AcDbEntity
  8
0
100
AcDbLine
 62
7
  6
BYLAYER
 10
23.8838488589
 20
6.5132653064
 11
23.8838488589
 21
11.0132653064
  0
LINE
  5
25C
100
AcDbEntity
  8
0
100
AcDbLine
 62
7
  6
BYLAYER
 10
24.563848846
 20
11.5132653068
 11
24.5640374947
 21
17.0132653041
  0
LINE
  5
25D
100
AcDbEntity
  8
0
100
AcDbLine
 62
7
  6
BYLAYER
 10
25.5638488461
 20
4.0132653064
 11
25.5638488461
 21
16.0135780623
  0
LINE
  5
25E
100
AcDbEntity
  8
0
100
AcDbLine
 62
7
  6
BYLAYER
 10
18.0638488462
 20
11.1225010538
 11
18.8638488462
 21
11.6140237131
  0
LINE
  5
25F
100
AcDbEntity
  8
0
100
AcDbLine
 62
7
  6
BYLAYER
 10
18.8638488463
 20
12.15538476
 11
18.0638488463
 21
11.7213593295
  0
LINE
  5
260
100
AcDbEntity
  8
0
100
AcDbLine
 62
7
  6
BYLAYER
 10
15.4638488484
 20
36.5132653079
 11
15.5638488461
 21
36.5132653079
  0
LINE
  5
261
100
AcDbEntity
  8
0
100
AcDbLine
 62
7
  6
BYLAYER
 10
20.5638488461
 20
36.5132653077
 11
20.6638488441
 21
36.5132653077
  0
LINE
  5
262
100
AcDbEntity
  8
0
100
AcDbLine
 62
7
  6
BYLAYER
 10
19.6638488461
 20
10.8533084693
 11
18.8638488462
 21
10.41928304
  0
LINE
  5
263
100
AcDbEntity
  8
0
100
AcDbLine
 62
7
  6
BYLAYER
 10
16.0638488461
 20
37.0132653064
 11
20.0638488461
 21
37.0132653064
  0
LINE
  5
264
100
AcDbEntity
  8
0
100
AcDbLine
 62
7
  6
BYLAYER
 10
20.0638488576
 20
37.1132653033
 11
16.0638488427
 21
37.1132653033
  0
LINE
  5
265
100
AcDbEntity
  8
0
100
AcDbLine
 62
7
  6
BYLAYER
 10
15.3638488461
 20
44.9718439495
 11
14.9980402509
 21
45.3132653033
  0
LINE
  5
266
100
AcDbEntity
  8
0
100
AcDbLine
 62
7
  6
BYLAYER
 10
15.4638488485
 20
44.8718439513
 11
15.363848846
 21
44.9718439493
  0
LINE
  5
267
100
AcDbEntity
  8
0
100
AcDbLine
 62
7
  6
BYLAYER
 10
15.5345595241
 20
44.9425546284
 11
15.0931381681
 21
45.3839759844
  0
LINE
  5
268
100
AcDbEntity
  8
0
100
AcDbLine
 62
7
  6
BYLAYER
 10
16.0638488909
 20
38.9132652977
 11
20.0638488394
 21
38.9132652977
  0
LINE
  5
269
100
AcDbEntity
  8
0
100
AcDbLine
 62
7
  6
BYLAYER
 10
20.0638488474
 20
39.0132653064
 11
16.0638488283
 21
39.0132653064
  0
LINE
  5
26A
100
AcDbEntity
  8
0
100
AcDbLine
 62
7
  6
BYLAYER
 10
20.663848847
 20
39.5132653045
 11
20.5638488461
 21
39.5132653045
  0
LINE
  5
26B
100
AcDbEntity
  8
0
100
AcDbLine
 62
7
  6
BYLAYER
 10
15.5638488461
 20
39.5132653077
 11
15.4638488485
 21
39.5132653077
  0
LINE
  5
26C
100
AcDbEntity
  8
0
100
AcDbLine
 62
7
  6
BYLAYER
 10
20.5931381681
 20
44.9425546284
 11
20.6148816914
 21
44.9208209882
  0
LINE
  5
26D
100
AcDbEntity
  8
0
100
AcDbLine
 62
7
  6
BYLAYER
 10
20.6931381665
 20
45.0425546268
 11
20.763848846
 21
44.9718439474
  0
LINE
  5
26E
100
AcDbEntity
  8
0
100
AcDbLine
 62
7
  6
BYLAYER
 10
20.6133468924
 20
44.9223568168
 11
20.6154113579
 21
44.9201533312
  0
LINE
  5
26F
100
AcDbEntity
  8
0
100
AcDbLine
 62
7
  6
BYLAYER
 10
15.4938511271
 20
44.8717986847
 11
15.5638488461
 21
44.8718439508
  0
LINE
  5
270
100
AcDbEntity
  8
0
100
AcDbLine
 62
7
  6
BYLAYER
 10
13.8638488461
 20
45.3132653033
 11
14.9980402509
 21
45.3132653033
  0
LINE
  5
271
100
AcDbEntity
  8
0
100
AcDbLine
 62
7
  6
BYLAYER
 10
21.1296574431
 20
45.3132653064
 11
22.2638488461
 21
45.3132653064
  0
LINE
  5
272
100
AcDbEntity
  8
0
100
AcDbLine
 62
7
  6
BYLAYER
 10
13.9638488481
 20
45.4132653064
 11
15.0224274901
 21
45.4132653064
  0
LINE
  5
273
100
AcDbEntity
  8
0
100
AcDbLine
 62
7
  6
BYLAYER
 10
21.1052702019
 20
45.4132653064
 11
22.1638488503
 21
45.4132653064
  0
ARC
  5
274
100
AcDbEntity
  8
0
100
AcDbCircle
 62
7
  6
BYLAYER
 10
11.5621349472
 20
13.5087346739
 40
2.8465512914
100
AcDbArc
 50
89.9655024022
 51
94.5354640999
  0
ARC
  5
275
100
AcDbEntity
  8
0
100
AcDbCircle
 62
7
  6
BYLAYER
 10
11.5638488461
 20
16.0132653064
 40
1.0
100
AcDbArc
 50
90.0000002296
 51
180.0
  0
ARC
  5
276
100
AcDbEntity
  8
0
100
AcDbCircle
 62
7
  6
BYLAYER
 10
16.0630119945
 20
22.5132938701
 40
0.5991631468
100
AcDbArc
 50
180.0027316089
 51
182.8605904975
  0
ARC
  5
277
100
AcDbEntity
  8
0
100
AcDbCircle
 62
7
  6
BYLAYER
 10
15.0779351809
 20
19.2132322562
 40
0.5859136681
100
AcDbArc
 50
0.0032319695
 51
2.4650394404
  0
ARC
  5
278
100
AcDbEntity
  8
0
100
AcDbCircle
 62
7
  6
BYLAYER
 10
16.063895383
 20
22.4980677981
 40
0.5848024927
100
AcDbArc
 50
267.0666507854
 51
269.9954403955
  0
ARC
  5
279
100
AcDbEntity
  8
0
100
AcDbCircle
 62
7
  6
BYLAYER
 10
15.0838526641
 20
19.2480393868
 40
0.5598828619
100
AcDbArc
 50
57.3959253467
 51
59.9935303437
  0
ARC
  5
27A
100
AcDbEntity
  8
0
100
AcDbCircle
 62
7
  6
BYLAYER
 10
12.4638488461
 20
11.0132653064
 40
0.5
100
AcDbArc
 50
0.0
 51
89.9999984378
  0
ARC
  5
27B
100
AcDbEntity
  8
0
100
AcDbCircle
 62
7
  6
BYLAYER
 10
11.0638487801
 20
11.0132652848
 40
0.4999999991
100
AcDbArc
 50
89.9999948901
 51
179.9999976758
  0
ARC
  5
27C
100
AcDbEntity
  8
0
100
AcDbCircle
 62
7
  6
BYLAYER
 10
16.0638488433
 20
22.5132653031
 40
0.4999999957
100
AcDbArc
 50
179.9999996176
 51
269.9999990656
  0
ARC
  5
27D
100
AcDbEntity
  8
0
100
AcDbCircle
 62
7
  6
BYLAYER
 10
15.0638488552
 20
19.213265312
 40
0.4999999894
100
AcDbArc
 50
359.9999993561
 51
89.999999995
  0
ARC
  5
27E
100
AcDbEntity
  8
0
100
AcDbCircle
 62
7
  6
BYLAYER
 10
13.963848844
 20
19.813265312
 40
0.0999999996
100
AcDbArc
 50
180.0000031878
 51
269.9999988599
  0
ARC
  5
27F
100
AcDbEntity
  8
0
100
AcDbCircle
 62
7
  6
BYLAYER
 10
15.5135529676
 20
38.1057393346
 40
6.7660880346
100
AcDbArc
 50
90.1668370114
 51
90.4209022775
  0
ARC
  5
280
100
AcDbEntity
  8
0
100
AcDbCircle
 62
7
  6
BYLAYER
 10
13.8280606123
 20
46.5727798546
 40
2.3593429673
100
AcDbArc
 50
313.8812242623
 51
314.3167793381
  0
ARC
  5
281
100
AcDbEntity
  8
0
100
AcDbCircle
 62
7
  6
BYLAYER
 10
16.0630119917
 20
39.5132938693
 40
0.5991631438
100
AcDbArc
 50
180.0027314826
 51
182.8605917312
  0
ARC
  5
282
100
AcDbEntity
  8
0
100
AcDbCircle
 62
7
  6
BYLAYER
 10
16.0638774091
 20
36.5141021757
 40
0.5991631283
100
AcDbArc
 50
90.0027316952
 51
92.8605905507
  0
ARC
  5
283
100
AcDbEntity
  8
0
100
AcDbCircle
 62
7
  6
BYLAYER
 10
16.0638954295
 20
39.4980680318
 40
0.584802736
100
AcDbArc
 50
267.0666471023
 51
269.9954403991
  0
ARC
  5
284
100
AcDbEntity
  8
0
100
AcDbCircle
 62
7
  6
BYLAYER
 10
16.0486513144
 20
36.5132187736
 40
0.5848024679
100
AcDbArc
 50
177.0666521124
 51
179.9954405486
  0
ARC
  5
285
100
AcDbEntity
  8
0
100
AcDbCircle
 62
7
  6
BYLAYER
 10
16.0638488428
 20
36.5132653092
 40
0.4999999958
100
AcDbArc
 50
89.9999996228
 51
180.000000318
  0
ARC
  5
286
100
AcDbEntity
  8
0
100
AcDbCircle
 62
7
  6
BYLAYER
 10
16.0638488433
 20
39.5132653031
 40
0.4999999958
100
AcDbArc
 50
180.0000012388
 51
269.9999982743
  0
ARC
  5
287
100
AcDbEntity
  8
0
100
AcDbCircle
 62
7
  6
BYLAYER
 10
15.364462394
 20
44.9762945118
 40
0.4975619378
100
AcDbArc
 50
130.3594226447
 51
133.426367266
  0
ARC
  5
288
100
AcDbEntity
  8
0
100
AcDbCircle
 62
7
  6
BYLAYER
 10
15.4638488461
 20
44.8718439504
 40
0.1
100
AcDbArc
 50
0.0
 51
44.9999999999
  0
ARC
  5
289
100
AcDbEntity
  8
0
100
AcDbCircle
 62
7
  6
BYLAYER
 10
15.0224274901
 20
45.3132653064
 40
0.1
100
AcDbArc
 50
44.9999999935
 51
90.0
  0
ARC
  5
28A
100
AcDbEntity
  8
0
100
AcDbCircle
 62
7
  6
BYLAYER
 10
13.9638488464
 20
45.3132652992
 40
0.0999999992
100
AcDbArc
 50
89.9999990726
 51
179.999995862
  0
ARC
  5
28B
100
AcDbEntity
  8
0
100
AcDbCircle
 62
7
  6
BYLAYER
 10
24.5638189611
 20
13.4173117544
 40
2.9381057716
100
AcDbArc
 50
89.5805107528
 51
89.997563473
  0
ARC
  5
28C
100
AcDbEntity
  8
0
100
AcDbCircle
 62
7
  6
BYLAYER
 10
24.5638488461
 20
16.0132653064
 40
1.0
100
AcDbArc
 50
0.0089597946
 51
89.9945529982
  0
CIRCLE
  5
28D
100
AcDbEntity
  8
0
100
AcDbCircle
 62
7
  6
BYLAYER
 10
18.0638488461
 20
14.2132653064
 40
1.0
  0
CIRCLE
  5
28E
100
AcDbEntity
  8
0
100
AcDbCircle
 62
7
  6
BYLAYER
 10
18.0638488461
 20
14.2132653064
 40
0.9435307881
  0
CIRCLE
  5
28F
100
AcDbEntity
  8
0
100
AcDbCircle
 62
7
  6
BYLAYER
 10
18.0638488461
 20
14.2132653064
 40
0.75
  0
ARC
  5
290
100
AcDbEntity
  8
0
100
AcDbCircle
 62
7
  6
BYLAYER
 10
20.0638202801
 20
22.5124284547
 40
0.5991631486
100
AcDbArc
 50
270.0027317632
 51
272.8605911331
  0
ARC
  5
291
100
AcDbEntity
  8
0
100
AcDbCircle
 62
7
  6
BYLAYER
 10
21.0568342674
 20
19.2254810011
 40
0.5859136109
100
AcDbArc
 50
120.0032313567
 51
122.4650337012
  0
ARC
  5
292
100
AcDbEntity
  8
0
100
AcDbCircle
 62
7
  6
BYLAYER
 10
20.0790463655
 20
22.5133118361
 40
0.5848024805
100
AcDbArc
 50
357.0666507734
 51
359.9954403955
  0
ARC
  5
293
100
AcDbEntity
  8
0
100
AcDbCircle
 62
7
  6
BYLAYER
 10
21.0237317679
 20
19.2132020893
 40
0.5598829259
100
AcDbArc
 50
177.3959108628
 51
179.9935292934
  0
ARC
  5
294
100
AcDbEntity
  8
0
100
AcDbCircle
 62
7
  6
BYLAYER
 10
23.6638488461
 20
11.0132653064
 40
0.5
100
AcDbArc
 50
89.9999999821
 51
180.0
  0
ARC
  5
295
100
AcDbEntity
  8
0
100
AcDbCircle
 62
7
  6
BYLAYER
 10
25.0638488582
 20
11.0132653052
 40
0.4999999988
100
AcDbArc
 50
0.0000001416
 51
90.0000013808
  0
ARC
  5
296
100
AcDbEntity
  8
0
100
AcDbCircle
 62
7
  6
BYLAYER
 10
20.0638488494
 20
22.5132653036
 40
0.4999999958
100
AcDbArc
 50
270.0000000706
 51
359.999998273
  0
ARC
  5
297
100
AcDbEntity
  8
0
100
AcDbCircle
 62
7
  6
BYLAYER
 10
21.063848837
 20
19.2132653116
 40
0.4999999896
100
AcDbArc
 50
90.0000007158
 51
179.9999863826
  0
ARC
  5
298
100
AcDbEntity
  8
0
100
AcDbCircle
 62
7
  6
BYLAYER
 10
22.1638475133
 20
19.8132666251
 40
0.1000014995
100
AcDbArc
 50
270.0007638178
 51
359.999243954
  0
ARC
  5
299
100
AcDbEntity
  8
0
100
AcDbCircle
 62
7
  6
BYLAYER
 10
20.0638202727
 20
39.5124286399
 40
0.5991633429
100
AcDbArc
 50
270.0027317328
 51
272.860590727
  0
ARC
  5
29A
100
AcDbEntity
  8
0
100
AcDbCircle
 62
7
  6
BYLAYER
 10
20.0646856943
 20
36.5132367418
 40
0.5991631505
100
AcDbArc
 50
0.0027317572
 51
2.8605906071
  0
ARC
  5
29B
100
AcDbEntity
  8
0
100
AcDbCircle
 62
7
  6
BYLAYER
 10
20.0790462024
 20
39.5133118325
 40
0.5848026465
100
AcDbArc
 50
357.0666536519
 51
359.9954404194
  0
ARC
  5
29C
100
AcDbEntity
  8
0
100
AcDbCircle
 62
7
  6
BYLAYER
 10
20.0638023213
 20
36.5284628658
 40
0.5848024394
100
AcDbArc
 50
87.0666527065
 51
89.995440625
  0
ARC
  5
29D
100
AcDbEntity
  8
0
100
AcDbCircle
 62
7
  6
BYLAYER
 10
20.7151017079
 20
44.9231270425
 40
0.5692658199
100
AcDbArc
 50
43.2619598044
 51
46.1086775056
  0
ARC
  5
29E
100
AcDbEntity
  8
0
100
AcDbCircle
 62
7
  6
BYLAYER
 10
20.7254250625
 20
44.9338083895
 40
0.5544054685
100
AcDbArc
 50
46.1122987148
 51
46.7540943087
  0
ARC
  5
29F
100
AcDbEntity
  8
0
100
AcDbCircle
 62
7
  6
BYLAYER
 10
20.0638488489
 20
36.5132653098
 40
0.4999999958
100
AcDbArc
 50
359.9999996188
 51
90.0000003198
  0
ARC
  5
2A0
100
AcDbEntity
  8
0
100
AcDbCircle
 62
7
  6
BYLAYER
 10
20.0638488495
 20
39.5132653036
 40
0.4999999958
100
AcDbArc
 50
269.9999997685
 51
0.0000003224
  0
ARC
  5
2A1
100
AcDbEntity
  8
0
100
AcDbCircle
 62
7
  6
BYLAYER
 10
21.1052702021
 20
45.3132653064
 40
0.1
100
AcDbArc
 50
90.0000001032
 51
135.0000000101
  0
ARC
  5
2A2
100
AcDbEntity
  8
0
100
AcDbCircle
 62
7
  6
BYLAYER
 10
20.6638488461
 20
44.8718439504
 40
0.1
100
AcDbArc
 50
135.0
 51
180.0
  0
ARC
  5
2A3
100
AcDbEntity
  8
0
100
AcDbCircle
 62
7
  6
BYLAYER
 10
22.1638488478
 20
45.3132652911
 40
0.0999999992
100
AcDbArc
 50
0.000008798
 51
89.999998555
  0
SPLINE
  5
2A4
100
AcDbEntity
  8
0
100
AcDbSpline
 62
7
  6
BYLAYER
 70
0
 71
3
 72
17
 73
13
 74
0
 42
0.0000001
 43
0.0000001
 44
0.0000000001
 40
0.0
 40
0.0
 40
0.0
 40
0.0
 40
0.1211247525
 40
0.2428444696
 40
0.3041701885
 40
0.3658168592
 40
0.4278217271
 40
0.4902022763
 40
0.615954278
 40
0.7430601362
 40
0.8712971342
 40
1.0
 40
1.0
 40
1.0
 40
1.0
 10
20.3638488466
 20
11.2189298717
 30
0.0
 10
20.3638488466
 20
11.3110946357
 30
0.0
 10
20.3444083962
 20
11.4964218081
 30
0.0
 10
20.2725322972
 20
11.7182234554
 30
0.0
 10
20.188678671
 20
11.8847649209
 30
0.0
 10
20.1128160292
 20
12.0036159067
 30
0.0
 10
20.0249248587
 20
12.1148843295
 30
0.0
 10
19.8926046984
 20
12.252058491
 30
0.0
 10
19.7011791568
 20
12.3993067809
 30
0.0
 10
19.4404134811
 20
12.5300106467
 30
0.0
 10
19.1577593071
 20
12.6103463993
 30
0.0
 10
18.9617798553
 20
12.6284688033
 30
0.0
 10
18.8638488461
 20
12.6284688033
 30
0.0
  0
SPLINE
  5
2A5
100
AcDbEntity
  8
0
100
AcDbSpline
 62
7
  6
BYLAYER
 70
0
 71
3
 72
17
 73
13
 74
0
 42
0.0000001
 43
0.0000001
 44
0.0000000001
 40
0.0
 40
0.0
 40
0.0
 40
0.0
 40
0.1287028658
 40
0.2569398638
 40
0.384045722
 40
0.5097977237
 40
0.5721782729
 40
0.6341831408
 40
0.6958298115
 40
0.7571555304
 40
0.8788752475
 40
1.0
 40
1.0
 40
1.0
 40
1.0
 10
18.8638488461
 20
12.6284688032
 30
0.0
 10
18.7659178369
 20
12.6284688032
 30
0.0
 10
18.5699383851
 20
12.6103463992
 30
0.0
 10
18.2872842112
 20
12.5300106466
 30
0.0
 10
18.0265185355
 20
12.3993067808
 30
0.0
 10
17.8350929938
 20
12.2520584909
 30
0.0
 10
17.7027728335
 20
12.1148843294
 30
0.0
 10
17.6148816631
 20
12.0036159067
 30
0.0
 10
17.5390190212
 20
11.8847649209
 30
0.0
 10
17.4551653951
 20
11.7182234553
 30
0.0
 10
17.3832892961
 20
11.496421808
 30
0.0
 10
17.3638488457
 20
11.3110946356
 30
0.0
 10
17.3638488457
 20
11.2189298716
 30
0.0
  0
SPLINE
  5
2A6
100
AcDbEntity
  8
0
100
AcDbSpline
 62
7
  6
BYLAYER
 70
0
 71
3
 72
15
 73
11
 74
0
 42
0.0000001
 43
0.0000001
 44
0.0000000001
 40
0.0
 40
0.0
 40
0.0
 40
0.0
 40
0.1250148265
 40
0.2500898133
 40
0.3750395968
 40
0.5000126733
 40
0.6249578321
 40
0.7498759916
 40
0.8749846133
 40
1.0
 40
1.0
 40
1.0
 40
1.0
 10
20.6631022395
 20
36.5431385692
 30
0.0
 10
20.6612705382
 20
36.5798252583
 30
0.0
 10
20.65090444
 20
36.6530612222
 30
0.0
 10
20.6155657892
 20
36.7580713223
 30
0.0
 10
20.5614853077
 20
36.854802474
 30
0.0
 10
20.4906047304
 20
36.9399172282
 30
0.0
 10
20.4054043826
 20
37.0106909978
 30
0.0
 10
20.3085797866
 20
37.0645749991
 30
0.0
 10
20.2036291611
 20
37.1000085992
 30
0.0
 10
20.1304136786
 20
37.1106219169
 30
0.0
 10
20.0937291219
 20
37.1124990631
 30
0.0
  0
SPLINE
  5
2A7
100
AcDbEntity
  8
0
100
AcDbSpline
 62
7
  6
BYLAYER
 70
0
 71
3
 72
18
 73
14
 74
0
 42
0.0000001
 43
0.0000001
 44
0.0000000001
 40
0.0
 40
0.0
 40
0.0
 40
0.0
 40
0.0323829635
 40
0.0664794864
 40
0.10362362
 40
0.1448060407
 40
0.1906646558
 40
0.2415512954
 40
0.3587776161
 40
0.4959456892
 40
0.6508075363
 40
0.82013354
 40
1.0
 40
1.0
 40
1.0
 40
1.0
 10
10.5638488459
 20
16.0132653056
 30
0.0
 10
10.5638488459
 20
16.0228810273
 30
0.0
 10
10.5663697671
 20
16.0426949755
 30
0.0
 10
10.5773696792
 20
16.0716820146
 30
0.0
 10
10.5953431713
 20
16.1000407344
 30
0.0
 10
10.6200901778
 20
16.127561712
 30
0.0
 10
10.6513597677
 20
16.1541618058
 30
0.0
 10
10.7039825871
 20
16.1899384352
 30
0.0
 10
10.7854977029
 20
16.2304572118
 30
0.0
 10
10.9001799922
 20
16.2712029766
 30
0.0
 10
11.0331143145
 20
16.3049938749
 30
0.0
 10
11.1806445092
 20
16.3308824753
 30
0.0
 10
11.2838001466
 20
16.3421316801
 30
0.0
 10
11.3370406647
 20
16.3463722157
 30
0.0
  0
SPLINE
  5
2A8
100
AcDbEntity
  8
0
100
AcDbSpline
 62
7
  6
BYLAYER
 70
0
 71
3
 72
17
 73
13
 74
0
 42
0.0000001
 43
0.0000001
 44
0.0000000001
 40
0.0
 40
0.0
 40
0.0
 40
0.0
 40
0.1211247525
 40
0.2428444696
 40
0.3041701885
 40
0.3658168592
 40
0.4278217271
 40
0.4902022763
 40
0.615954278
 40
0.7430601362
 40
0.8712971342
 40
1.0
 40
1.0
 40
1.0
 40
1.0
 10
17.3638488457
 20
11.2189298716
 30
0.0
 10
17.3638488457
 20
11.1267651076
 30
0.0
 10
17.3832892961
 20
10.9414379353
 30
0.0
 10
17.4551653951
 20
10.719636288
 30
0.0
 10
17.5390190212
 20
10.5530948224
 30
0.0
 10
17.6148816631
 20
10.4342438366
 30
0.0
 10
17.7027728335
 20
10.3229754139
 30
0.0
 10
17.8350929938
 20
10.1858012523
 30
0.0
 10
18.0265185355
 20
10.0385529625
 30
0.0
 10
18.2872842112
 20
9.9078490967
 30
0.0
 10
18.5699383851
 20
9.8275133441
 30
0.0
 10
18.7659178369
 20
9.80939094
 30
0.0
 10
18.8638488461
 20
9.80939094
 30
0.0
  0
SPLINE
  5
2A9
100
AcDbEntity
  8
0
100
AcDbSpline
 62
7
  6
BYLAYER
 70
0
 71
3
 72
15
 73
11
 74
0
 42
0.0000001
 43
0.0000001
 44
0.0000000001
 40
0.0
 40
0.0
 40
0.0
 40
0.0
 40
0.1250148265
 40
0.2500898133
 40
0.3750395969
 40
0.5000126733
 40
0.6249578321
 40
0.7498759915
 40
0.8749846133
 40
1.0
 40
1.0
 40
1.0
 40
1.0
 10
16.0339755834
 20
37.1125186988
 30
0.0
 10
15.9972888944
 20
37.1106869976
 30
0.0
 10
15.9240529305
 20
37.1003208992
 30
0.0
 10
15.8190428305
 20
37.0649822483
 30
0.0
 10
15.7223116789
 20
37.0109017669
 30
0.0
 10
15.6371969247
 20
36.9400211897
 30
0.0
 10
15.5664231553
 20
36.8548208419
 30
0.0
 10
15.512539154
 20
36.757996246
 30
0.0
 10
15.4771055537
 20
36.6530456207
 30
0.0
 10
15.4664922356
 20
36.5798301383
 30
0.0
 10
15.464615089
 20
36.5431455817
 30
0.0
  0
SPLINE
  5
2AA
100
AcDbEntity
  8
0
100
AcDbSpline
 62
7
  6
BYLAYER
 70
0
 71
3
 72
15
 73
11
 74
0
 42
0.0000001
 43
0.0000001
 44
0.0000000001
 40
0.0
 40
0.0
 40
0.0
 40
0.0
 40
0.1905802489
 40
0.3716051155
 40
0.5331884436
 40
0.6699837035
 40
0.7831608259
 40
0.8757621981
 40
0.9481802115
 40
1.0
 40
1.0
 40
1.0
 40
1.0
 10
21.1270631672
 20
45.3583087004
 30
0.0
 10
21.127329606
 20
45.3622203554
 30
0.0
 10
21.1266523325
 20
45.369940139
 30
0.0
 10
21.1236513419
 20
45.3804982173
 30
0.0
 10
21.1207127363
 20
45.3899123759
 30
0.0
 10
21.1181810704
 20
45.3979901711
 30
0.0
 10
21.1154940224
 20
45.4045338409
 30
0.0
 10
21.1121966764
 20
45.4092905279
 30
0.0
 10
21.1088325456
 20
45.4122527223
 30
0.0
 10
21.1063362662
 20
45.413265306
 30
0.0
 10
21.1052702019
 20
45.4132653059
 30
0.0
  0
SPLINE
  5
2AB
100
AcDbEntity
  8
0
100
AcDbSpline
 62
7
  6
BYLAYER
 70
0
 71
3
 72
13
 73
9
 74
0
 42
0.0000001
 43
0.0000001
 44
0.0000000001
 40
0.0
 40
0.0
 40
0.0
 40
0.0
 40
0.0997083433
 40
0.181567042
 40
0.2893034538
 40
0.4248287221
 40
0.5895701964
 40
1.0
 40
1.0
 40
1.0
 40
1.0
 10
21.0345589825
 20
45.3839754428
 30
0.0
 10
21.0356313605
 20
45.3850478199
 30
0.0
 10
21.0389010057
 20
45.3851235444
 30
0.0
 10
21.043014939
 20
45.3839911763
 30
0.0
 10
21.04764285
 20
45.3820843561
 30
0.0
 10
21.0531085267
 20
45.3791695722
 30
0.0
 10
21.0622893211
 20
45.373435915
 30
0.0
 10
21.0693159913
 20
45.3682077132
 30
0.0
 10
21.0742392394
 20
45.3643694188
 30
0.0
  0
SPLINE
  5
2AC
100
AcDbEntity
  8
0
100
AcDbSpline
 62
7
  6
BYLAYER
 70
0
 71
3
 72
9
 73
5
 74
0
 42
0.0000001
 43
0.0000001
 44
0.0000000001
 40
0.0
 40
0.0
 40
0.0
 40
0.0
 40
0.2372211614
 40
1.0
 40
1.0
 40
1.0
 40
1.0
 10
21.0742392394
 20
45.3643694188
 30
0.0
 10
21.0767932485
 20
45.3623782458
 30
0.0
 10
21.0874393759
 20
45.353831096
 30
0.0
 10
21.0976839217
 20
45.3447865394
 30
0.0
 10
21.105269312
 20
45.3376522922
 30
0.0
  0
SPLINE
  5
2AD
100
AcDbEntity
  8
0
100
AcDbSpline
 62
7
  6
BYLAYER
 70
0
 71
3
 72
9
 73
5
 74
0
 42
0.0000001
 43
0.0000001
 44
0.0000000001
 40
0.0
 40
0.0
 40
0.0
 40
0.0
 40
0.2523888035
 40
1.0
 40
1.0
 40
1.0
 40
1.0
 10
21.1296574422
 20
45.3132653056
 30
0.0
 10
21.1296574422
 20
45.3153764822
 30
0.0
 10
21.1296018567
 20
45.3237410793
 30
0.0
 10
21.1292924113
 20
45.3321046952
 30
0.0
 10
21.1288981235
 20
45.3383458556
 30
0.0
  0
SPLINE
  5
2AE
100
AcDbEntity
  8
0
100
AcDbSpline
 62
7
  6
BYLAYER
 70
0
 71
3
 72
11
 73
7
 74
0
 42
0.0000001
 43
0.0000001
 44
0.0000000001
 40
0.0
 40
0.0
 40
0.0
 40
0.0
 40
0.2500884412
 40
0.4999779256
 40
0.7498767212
 40
1.0
 40
1.0
 40
1.0
 40
1.0
 10
20.7423247435
 20
19.7198275585
 30
0.0
 10
20.7017967387
 20
19.6940460589
 30
0.0
 10
20.6267770962
 20
19.6324449041
 30
0.0
 10
20.5390163345
 20
19.5164387391
 30
0.0
 10
20.4830879375
 20
19.3822734776
 30
0.0
 10
20.4666045417
 20
19.2866306567
 30
0.0
 10
20.4644270164
 20
19.2386399689
 30
0.0
  0
SPLINE
  5
2AF
100
AcDbEntity
  8
0
100
AcDbSpline
 62
7
  6
BYLAYER
 70
0
 71
3
 72
10
 73
6
 74
0
 42
0.0000001
 43
0.0000001
 44
0.0000000001
 40
0.0
 40
0.0
 40
0.0
 40
0.0
 40
0.4966548599
 40
0.7480323247
 40
1.0
 40
1.0
 40
1.0
 40
1.0
 10
21.0852774244
 20
19.8132653078
 30
0.0
 10
21.0299411139
 20
19.8132884565
 30
0.0
 10
20.9460800505
 20
19.8034445531
 30
0.0
 10
20.8396497549
 20
19.7697772261
 30
0.0
 10
20.7885801684
 20
19.7461657634
 30
0.0
 10
20.7638488452
 20
19.7328805496
 30
0.0
  0
SPLINE
  5
2B0
100
AcDbEntity
  8
0
100
AcDbSpline
 62
7
  6
BYLAYER
 70
0
 71
3
 72
15
 73
11
 74
0
 42
0.0000001
 43
0.0000001
 44
0.0000000001
 40
0.0
 40
0.0
 40
0.0
 40
0.0
 40
0.0402011562
 40
0.0683056897
 40
0.1037057519
 40
0.1988803634
 40
0.3261988291
 40
0.4800264205
 40
0.6508326056
 40
1.0
 40
1.0
 40
1.0
 40
1.0
 10
21.0638488347
 20
19.7132653064
 30
0.0
 10
21.0652626918
 20
19.7132653065
 30
0.0
 10
21.0676075561
 20
19.7145170756
 30
0.0
 10
21.0699632862
 20
19.7172767178
 30
0.0
 10
21.0728999874
 20
19.7220607681
 30
0.0
 10
21.0761371127
 20
19.7305847206
 30
0.0
 10
21.079392187
 20
19.7434247295
 30
0.0
 10
21.0820334162
 20
19.7591148927
 30
0.0
 10
21.0845869379
 20
19.7826814608
 30
0.0
 10
21.0852773764
 20
19.8009852426
 30
0.0
 10
21.0852774022
 20
19.813265307
 30
0.0
  0
SPLINE
  5
2B1
100
AcDbEntity
  8
0
100
AcDbSpline
 62
7
  6
BYLAYER
 70
0
 71
3
 72
9
 73
5
 74
0
 42
0.0000001
 43
0.0000001
 44
0.0000000001
 40
0.0
 40
0.0
 40
0.0
 40
0.0
 40
0.256718435
 40
1.0
 40
1.0
 40
1.0
 40
1.0
 10
21.1288981235
 20
45.3383458556
 30
0.0
 10
21.1287899779
 20
45.3400576848
 30
0.0
 10
21.1283222251
 20
45.3467227333
 30
0.0
 10
21.1276665717
 20
45.3533750065
 30
0.0
 10
21.1270602761
 20
45.358304029
 30
0.0
  0
SPLINE
  5
2B2
100
AcDbEntity
  8
0
100
AcDbSpline
 62
7
  6
BYLAYER
 70
0
 71
3
 72
17
 73
13
 74
0
 42
0.0000001
 43
0.0000001
 44
0.0000000001
 40
0.0
 40
0.0
 40
0.0
 40
0.0
 40
0.1662536794
 40
0.3274816948
 40
0.4787931254
 40
0.6161326662
 40
0.7365472553
 40
0.7899402474
 40
0.8388478761
 40
0.9245078715
 40
0.9630292898
 40
1.0
 40
1.0
 40
1.0
 40
1.0
 10
23.8838488596
 20
11.0132653068
 30
0.0
 10
23.8838488596
 20
11.0457676439
 30
0.0
 10
23.8813174434
 20
11.10983848
 30
0.0
 10
23.8688850315
 20
11.2027411598
 30
0.0
 10
23.8491726183
 20
11.288611278
 30
0.0
 10
23.8225533503
 20
11.3642265842
 30
0.0
 10
23.7943035645
 20
11.4184469927
 30
0.0
 10
23.7686698
 20
11.453761895
 30
0.0
 10
23.743833495
 20
11.4808722104
 30
0.0
 10
23.7158624453
 20
11.5012324473
 30
0.0
 10
23.6858824524
 20
11.5115499921
 30
0.0
 10
23.6710765621
 20
11.5132653066
 30
0.0
 10
23.6638488455
 20
11.5132653064
 30
0.0
  0
SPLINE
  5
2B3
100
AcDbEntity
  8
0
100
AcDbSpline
 62
7
  6
BYLAYER
 70
0
 71
3
 72
19
 73
15
 74
0
 42
0.0000001
 43
0.0000001
 44
0.0000000001
 40
0.0
 40
0.0
 40
0.0
 40
0.0
 40
0.1751733246
 40
0.344261392
 40
0.5012164205
 40
0.6415785107
 40
0.7044047654
 40
0.7618161099
 40
0.8136423846
 40
0.8599093303
 40
0.9008511707
 40
0.9370660509
 40
0.9696014871
 40
1.0
 40
1.0
 40
1.0
 40
1.0
 10
24.5853300179
 20
16.3553387794
 30
0.0
 10
24.6493359131
 20
16.3548789973
 30
0.0
 10
24.7751334508
 20
16.3498258844
 30
0.0
 10
24.957370169
 20
16.3301561026
 30
0.0
 10
25.1250999513
 20
16.2990187263
 30
0.0
 10
25.2520672534
 20
16.2634170737
 30
0.0
 10
25.3410979705
 20
16.2294673752
 30
0.0
 10
25.3981718934
 20
16.2029468947
 30
0.0
 10
25.4475439798
 20
16.1746550302
 30
0.0
 10
25.488818281
 20
16.144832388
 30
0.0
 10
25.5216097183
 20
16.113618505
 30
0.0
 10
25.5455696058
 20
16.0811667577
 30
0.0
 10
25.5603855579
 20
16.0477353626
 30
0.0
 10
25.5638437534
 20
16.0246353496
 30
0.0
 10
25.5638488344
 20
16.0135278706
 30
0.0
  0
SPLINE
  5
2B4
100
AcDbEntity
  8
0
100
AcDbSpline
 62
7
  6
BYLAYER
 70
0
 71
3
 72
15
 73
11
 74
0
 42
0.0000001
 43
0.0000001
 44
0.0000000001
 40
0.0
 40
0.0
 40
0.0
 40
0.0
 40
0.1250148265
 40
0.2500898133
 40
0.3750395968
 40
0.5000126732
 40
0.624957832
 40
0.7498759915
 40
0.8749846132
 40
1.0
 40
1.0
 40
1.0
 40
1.0
 10
15.4645954529
 20
22.4833920441
 30
0.0
 10
15.4664271541
 20
22.4467053554
 30
0.0
 10
15.476793252
 20
22.3734693923
 30
0.0
 10
15.512131902
 20
22.2684592931
 30
0.0
 10
15.5662123824
 20
22.1717281422
 30
0.0
 10
15.6370929582
 20
22.0866133884
 30
0.0
 10
15.7222933044
 20
22.0158396188
 30
0.0
 10
15.8191178986
 20
21.9619556168
 30
0.0
 10
15.9240685224
 20
21.9265220153
 30
0.0
 10
15.9972840038
 20
21.915908696
 30
0.0
 10
16.03396856
 20
21.9140315486
 30
0.0
  0
SPLINE
  5
2B5
100
AcDbEntity
  8
0
100
AcDbSpline
 62
7
  6
BYLAYER
 70
0
 71
3
 72
21
 73
17
 74
0
 42
0.0000001
 43
0.0000001
 44
0.0000000001
 40
0.0
 40
0.0
 40
0.0
 40
0.0
 40
0.0081600726
 40
0.0169358436
 40
0.0268214858
 40
0.0381604069
 40
0.0659544672
 40
0.1012222364
 40
0.1441717164
 40
0.1946694261
 40
0.2524193378
 40
0.3169723349
 40
0.4642653906
 40
0.6313736935
 40
0.8121867507
 40
1.0
 40
1.0
 40
1.0
 40
1.0
 10
23.1638488461
 20
11.0132653829
 30
0.0
 10
23.1638488466
 20
11.0160911962
 30
0.0
 10
23.1629664415
 20
11.0219842569
 30
0.0
 10
23.1591374238
 20
11.0305427213
 30
0.0
 10
23.1529189158
 20
11.038943462
 30
0.0
 10
23.140659825
 20
11.0507672901
 30
0.0
 10
23.1188605144
 20
11.0648562926
 30
0.0
 10
23.0855065589
 20
11.080307767
 30
0.0
 10
23.0434305155
 20
11.0951829031
 30
0.0
 10
22.9929988355
 20
11.1093478604
 30
0.0
 10
22.9346322537
 20
11.1226396755
 30
0.0
 10
22.8428405767
 20
11.1397805225
 30
0.0
 10
22.7127308618
 20
11.1574751228
 30
0.0
 10
22.5418774804
 20
11.1727410449
 30
0.0
 10
22.3565528603
 20
11.1821781141
 30
0.0
 10
22.2288880875
 20
11.1842421868
 30
0.0
 10
22.1638488251
 20
11.1842746134
 30
0.0
  0
SPLINE
  5
2B6
100
AcDbEntity
  8
0
100
AcDbSpline
 62
7
  6
BYLAYER
 70
0
 71
3
 72
15
 73
11
 74
0
 42
0.0000001
 43
0.0000001
 44
0.0000000001
 40
0.0
 40
0.0
 40
0.0
 40
0.0
 40
0.1250148266
 40
0.250089813
 40
0.3750395968
 40
0.5000126733
 40
0.6249578321
 40
0.7498759918
 40
0.8749846133
 40
1.0
 40
1.0
 40
1.0
 40
1.0
 10
20.0937221109
 20
38.9140119026
 30
0.0
 10
20.1304088006
 20
38.915843604
 30
0.0
 10
20.2036447659
 20
38.9262097006
 30
0.0
 10
20.3086548686
 20
38.9615483508
 30
0.0
 10
20.4053860216
 20
39.0156288341
 30
0.0
 10
20.4905007774
 20
39.0865094128
 30
0.0
 10
20.5612745481
 20
39.1717097623
 30
0.0
 10
20.6151585496
 20
39.2685343606
 30
0.0
 10
20.6505921468
 20
39.3734849894
 30
0.0
 10
20.6612054614
 20
39.4467004736
 30
0.0
 10
20.663082607
 20
39.4833850309
 30
0.0
  0
SPLINE
  5
2B7
100
AcDbEntity
  8
0
100
AcDbSpline
 62
7
  6
BYLAYER
 70
0
 71
3
 72
21
 73
17
 74
0
 42
0.0000001
 43
0.0000001
 44
0.0000000001
 40
0.0
 40
0.0
 40
0.0
 40
0.0
 40
0.1888526145
 40
0.370358302
 40
0.5376163455
 40
0.6844982111
 40
0.7486945256
 40
0.8060313926
 40
0.8561185667
 40
0.8987035571
 40
0.9337201549
 40
0.9614175019
 40
0.9727897475
 40
0.9827637017
 40
0.991675916
 40
1.0
 40
1.0
 40
1.0
 40
1.0
 10
22.1638488433
 20
9.0455807897
 30
0.0
 10
22.2293744136
 20
9.0455807894
 30
0.0
 10
22.3578877157
 20
9.0477882941
 30
0.0
 10
22.544206769
 20
9.0576253263
 30
0.0
 10
22.715489419
 20
9.0735244583
 30
0.0
 10
22.8455499913
 20
9.0918984818
 30
0.0
 10
22.9369960671
 20
9.1096363519
 30
0.0
 10
22.9949629274
 20
9.1233551388
 30
0.0
 10
23.0449531532
 20
9.1379394713
 30
0.0
 10
23.0865900323
 20
9.1532420695
 30
0.0
 10
23.1195592611
 20
9.1691068409
 30
0.0
 10
23.141048538
 20
9.1835650731
 30
0.0
 10
23.1531064959
 20
9.1956530314
 30
0.0
 10
23.1592287117
 20
9.2042586944
 30
0.0
 10
23.162986205
 20
9.213012018
 30
0.0
 10
23.163848846
 20
9.2190195921
 30
0.0
 10
23.1638488459
 20
9.2219077722
 30
0.0
  0
SPLINE
  5
2B8
100
AcDbEntity
  8
0
100
AcDbSpline
 62
7
  6
BYLAYER
 70
0
 71
3
 72
12
 73
8
 74
0
 42
0.0000001
 43
0.0000001
 44
0.0000000001
 40
0.0
 40
0.0
 40
0.0
 40
0.0
 40
0.2517906651
 40
0.3774596352
 40
0.5027883939
 40
0.7521209748
 40
1.0
 40
1.0
 40
1.0
 40
1.0
 10
13.0264408383
 20
11.5132646364
 30
0.0
 10
13.1109930638
 20
11.5132646325
 30
0.0
 10
13.2380907278
 20
11.4996951136
 30
0.0
 10
13.4021445795
 20
11.4592960072
 30
0.0
 10
13.5615635481
 20
11.4057636789
 30
0.0
 10
13.7522679168
 20
11.3182171761
 30
0.0
 10
13.8936711541
 20
11.2290388286
 30
0.0
 10
13.9638488464
 20
11.1842753416
 30
0.0
  0
SPLINE
  5
2B9
100
AcDbEntity
  8
0
100
AcDbSpline
 62
7
  6
BYLAYER
 70
0
 71
3
 72
14
 73
10
 74
0
 42
0.0000001
 43
0.0000001
 44
0.0000000001
 40
0.0
 40
0.0
 40
0.0
 40
0.0
 40
0.2477667657
 40
0.3722017274
 40
0.4971427556
 40
0.6224139105
 40
0.7480195717
 40
0.8739492535
 40
1.0
 40
1.0
 40
1.0
 40
1.0
 10
22.1638488433
 20
11.1842753779
 30
0.0
 10
22.2345896933
 20
11.2281453194
 30
0.0
 10
22.3398601886
 20
11.2959865248
 30
0.0
 10
22.4894376323
 20
11.370702996
 30
0.0
 10
22.6057560813
 20
11.4190187756
 30
0.0
 10
22.7255456564
 20
11.4593005747
 30
0.0
 10
22.8486331804
 20
11.4895800233
 30
0.0
 10
22.9742130055
 20
11.5086825032
 30
0.0
 10
23.0589212075
 20
11.5132653027
 30
0.0
 10
23.1012691803
 20
11.5132653068
 30
0.0
  0
SPLINE
  5
2BA
100
AcDbEntity
  8
0
100
AcDbSpline
 62
7
  6
BYLAYER
 70
0
 71
3
 72
9
 73
5
 74
0
 42
0.0000001
 43
0.0000001
 44
0.0000000001
 40
0.0
 40
0.0
 40
0.0
 40
0.0
 40
0.2729895924
 40
1.0
 40
1.0
 40
1.0
 40
1.0
 10
15.0422513191
 20
45.3554351243
 30
0.0
 10
15.0443557436
 20
45.357167405
 30
0.0
 10
15.0521005712
 20
45.3634664594
 30
0.0
 10
15.0600097916
 20
45.3695828989
 30
0.0
 10
15.0659999252
 20
45.373682907
 30
0.0
  0
SPLINE
  5
2BB
100
AcDbEntity
  8
0
100
AcDbSpline
 62
7
  6
BYLAYER
 70
0
 71
3
 72
9
 73
5
 74
0
 42
0.0000001
 43
0.0000001
 44
0.0000000001
 40
0.0
 40
0.0
 40
0.0
 40
0.0
 40
0.5669942758
 40
1.0
 40
1.0
 40
1.0
 40
1.0
 10
15.0659999252
 20
45.373682907
 30
0.0
 10
15.0691833767
 20
45.3758618529
 30
0.0
 10
15.0749271308
 20
45.3795163101
 30
0.0
 10
15.0810237636
 20
45.3826010871
 30
0.0
 10
15.0837765697
 20
45.3836506527
 30
0.0
  0
SPLINE
  5
2BC
100
AcDbEntity
  8
0
100
AcDbSpline
 62
7
  6
BYLAYER
 70
0
 71
3
 72
10
 73
6
 74
0
 42
0.0000001
 43
0.0000001
 44
0.0000000001
 40
0.0
 40
0.0
 40
0.0
 40
0.0
 40
0.3442632998
 40
0.6179426215
 40
1.0
 40
1.0
 40
1.0
 40
1.0
 10
15.0837765697
 20
45.3836506527
 30
0.0
 10
15.0848183494
 20
45.3840478532
 30
0.0
 10
15.0867384423
 20
45.3846749495
 30
0.0
 10
15.0898724124
 20
45.3852801081
 30
0.0
 10
15.0922632422
 20
45.3848509101
 30
0.0
 10
15.093138168
 20
45.3839759843
 30
0.0
  0
SPLINE
  5
2BD
100
AcDbEntity
  8
0
100
AcDbSpline
 62
7
  6
BYLAYER
 70
0
 71
3
 72
17
 73
13
 74
0
 42
0.0000001
 43
0.0000001
 44
0.0000000001
 40
0.0
 40
0.0
 40
0.0
 40
0.0
 40
0.121118584
 40
0.2428335808
 40
0.3041570645
 40
0.3658017569
 40
0.4278048949
 40
0.4901848759
 40
0.6159402442
 40
0.7430520683
 40
0.8712963944
 40
1.0
 40
1.0
 40
1.0
 40
1.0
 10
20.3638400939
 20
11.184727858
 30
0.0
 10
20.3638379772
 20
11.0925681149
 30
0.0
 10
20.344405744
 20
10.9072493157
 30
0.0
 10
20.2725307062
 20
10.6854587818
 30
0.0
 10
20.1886879155
 20
10.5189201928
 30
0.0
 10
20.1128267036
 20
10.4000743635
 30
0.0
 10
20.0249457653
 20
10.2888027007
 30
0.0
 10
19.8926249376
 20
10.1516287987
 30
0.0
 10
19.7012029097
 20
10.0043670329
 30
0.0
 10
19.4404274857
 20
9.8736547342
 30
0.0
 10
19.1577649414
 20
9.7933136236
 30
0.0
 10
18.9617800706
 20
9.7751889258
 30
0.0
 10
18.8638488461
 20
9.7751889258
 30
0.0
  0
SPLINE
  5
2BE
100
AcDbEntity
  8
0
100
AcDbSpline
 62
7
  6
BYLAYER
 70
0
 71
3
 72
17
 73
13
 74
0
 42
0.0000001
 43
0.0000001
 44
0.0000000001
 40
0.0
 40
0.0
 40
0.0
 40
0.0
 40
0.1287059887
 40
0.2569472948
 40
0.3840555034
 40
0.509807322
 40
0.5721860614
 40
0.6341886099
 40
0.6958336405
 40
0.7571587834
 40
0.8788775952
 40
1.0
 40
1.0
 40
1.0
 40
1.0
 10
18.8638488461
 20
9.7751889258
 30
0.0
 10
18.7659157785
 20
9.7751889258
 30
0.0
 10
18.5699313679
 20
9.7933134727
 30
0.0
 10
18.2872715032
 20
9.8736531543
 30
0.0
 10
18.0265040961
 20
10.0043631688
 30
0.0
 10
17.8350827941
 20
10.1516158336
 30
0.0
 10
17.702766043
 20
10.2887877683
 30
0.0
 10
17.6148793007
 20
10.4000536425
 30
0.0
 10
17.5390221802
 20
10.518903419
 30
0.0
 10
17.4551699469
 20
10.6854422424
 30
0.0
 10
17.3832984029
 20
10.9072412246
 30
0.0
 10
17.3638554815
 20
11.0925651783
 30
0.0
 10
17.3638575983
 20
11.1847278569
 30
0.0
  0
SPLINE
  5
2BF
100
AcDbEntity
  8
0
100
AcDbSpline
 62
7
  6
BYLAYER
 70
0
 71
3
 72
22
 73
18
 74
0
 42
0.0000001
 43
0.0000001
 44
0.0000000001
 40
0.0
 40
0.0
 40
0.0
 40
0.0
 40
0.0012143604
 40
0.004843505
 40
0.0108654791
 40
0.019258293
 40
0.029999953
 40
0.0430684644
 40
0.0760980579
 40
0.1181014037
 40
0.1685847354
 40
0.226999114
 40
0.2927955886
 40
0.4441017155
 40
0.6170508868
 40
0.8052270214
 40
1.0
 40
1.0
 40
1.0
 40
1.0
 10
20.5638488461
 20
44.8718439495
 30
0.0
 10
20.5638474756
 20
44.8718844152
 30
0.0
 10
20.5641106464
 20
44.8717892498
 30
0.0
 10
20.5643750433
 20
44.8718828191
 30
0.0
 10
20.5650321827
 20
44.8718313908
 30
0.0
 10
20.5658465435
 20
44.8718553664
 30
0.0
 10
20.566929641
 20
44.8718471992
 30
0.0
 10
20.5688203377
 20
44.8718520469
 30
0.0
 10
20.5717606799
 20
44.8718491258
 30
0.0
 10
20.5759443723
 20
44.8718485985
 30
0.0
 10
20.5809761181
 20
44.8718461232
 30
0.0
 10
20.5868005864
 20
44.8718450737
 30
0.0
 10
20.595986862
 20
44.8718450089
 30
0.0
 10
20.6089919075
 20
44.871861766
 30
0.0
 10
20.6260765256
 20
44.8720894592
 30
0.0
 10
20.6446032598
 20
44.8726525951
 30
0.0
 10
20.6573610811
 20
44.8731702663
 30
0.0
 10
20.663848847
 20
44.8734564608
 30
0.0
  0
SPLINE
  5
2C0
100
AcDbEntity
  8
0
100
AcDbSpline
 62
7
  6
BYLAYER
 70
0
 71
3
 72
9
 73
5
 74
0
 42
0.0000001
 43
0.0000001
 44
0.0000000001
 40
0.0
 40
0.0
 40
0.0
 40
0.0
 40
0.4608145189
 40
1.0
 40
1.0
 40
1.0
 40
1.0
 10
20.6148816914
 20
44.9208209882
 30
0.0
 10
20.622405416
 20
44.9132889753
 30
0.0
 10
20.6385936555
 20
44.8967983503
 30
0.0
 10
20.6539822494
 20
44.8795575748
 30
0.0
 10
20.6622091241
 20
44.8702042255
 30
0.0
  0
SPLINE
  5
2C1
100
AcDbEntity
  8
0
100
AcDbSpline
 62
7
  6
BYLAYER
 70
0
 71
3
 72
21
 73
17
 74
0
 42
0.0000001
 43
0.0000001
 44
0.0000000001
 40
0.0
 40
0.0
 40
0.0
 40
0.0
 40
0.1878131687
 40
0.368626359
 40
0.535734603
 40
0.6830276681
 40
0.7475806838
 40
0.8053305648
 40
0.855828266
 40
0.8987777579
 40
0.9340455318
 40
0.9618395891
 40
0.9731785099
 40
0.9830641534
 40
0.9918399262
 40
1.0
 40
1.0
 40
1.0
 40
1.0
 10
13.9638488681
 20
11.184274456
 30
0.0
 10
13.8988096324
 20
11.1842392354
 30
0.0
 10
13.7711447488
 20
11.1821824197
 30
0.0
 10
13.5858203328
 20
11.1727393108
 30
0.0
 10
13.414966805
 20
11.157475535
 30
0.0
 10
13.2848571093
 20
11.1397804943
 30
0.0
 10
13.193065481
 20
11.1226394247
 30
0.0
 10
13.1346988586
 20
11.1093478122
 30
0.0
 10
13.0842671792
 20
11.095182867
 30
0.0
 10
13.0421911475
 20
11.0803076845
 30
0.0
 10
13.0088371904
 20
11.0648562024
 30
0.0
 10
12.9870378731
 20
11.0507672075
 30
0.0
 10
12.9747787806
 20
11.038943381
 30
0.0
 10
12.9685602714
 20
11.0305426393
 30
0.0
 10
12.9647312525
 20
11.0219841734
 30
0.0
 10
12.9638488462
 20
11.0160911116
 30
0.0
 10
12.9638488461
 20
11.0132652979
 30
0.0
  0
SPLINE
  5
2C2
100
AcDbEntity
  8
0
100
AcDbSpline
 62
7
  6
BYLAYER
 70
0
 71
3
 72
15
 73
11
 74
0
 42
0.0000001
 43
0.0000001
 44
0.0000000001
 40
0.0
 40
0.0
 40
0.0
 40
0.0
 40
0.1250148265
 40
0.2500898133
 40
0.3750395968
 40
0.5000126732
 40
0.624957832
 40
0.7498759916
 40
0.874984613
 40
1.0
 40
1.0
 40
1.0
 40
1.0
 10
15.4645954536
 20
39.4833920305
 30
0.0
 10
15.4664271556
 20
39.4467053425
 30
0.0
 10
15.4767932548
 20
39.3734693808
 30
0.0
 10
15.5121319062
 20
39.2684592841
 30
0.0
 10
15.566212387
 20
39.1717281356
 30
0.0
 10
15.6370929628
 20
39.0866133841
 30
0.0
 10
15.7222933078
 20
39.0158396162
 30
0.0
 10
15.8191178996
 20
38.961955614
 30
0.0
 10
15.9240685213
 20
38.926522012
 30
0.0
 10
15.997284001
 20
38.915908691
 30
0.0
 10
16.0339685566
 20
38.9140315413
 30
0.0
  0
SPLINE
  5
2C3
100
AcDbEntity
  8
0
100
AcDbSpline
 62
7
  6
BYLAYER
 70
0
 71
3
 72
21
 73
17
 74
0
 42
0.0000001
 43
0.0000001
 44
0.0000000001
 40
0.0
 40
0.0
 40
0.0
 40
0.0
 40
0.0083240814
 40
0.0172362918
 40
0.0272102462
 40
0.0385824994
 40
0.0662798587
 40
0.1012964505
 40
0.1438814474
 40
0.1939686497
 40
0.2513055507
 40
0.3155018341
 40
0.4623838057
 40
0.629641794
 40
0.8111474645
 40
1.0
 40
1.0
 40
1.0
 40
1.0
 10
12.9638488469
 20
9.2219077712
 30
0.0
 10
12.9638488469
 20
9.2190195921
 30
0.0
 10
12.9647114872
 20
9.2130120201
 30
0.0
 10
12.968468982
 20
9.2042586995
 30
0.0
 10
12.9745912016
 20
9.1956530377
 30
0.0
 10
12.9866491667
 20
9.1835650773
 30
0.0
 10
13.0081384425
 20
9.1691068359
 30
0.0
 10
13.041107677
 20
9.1532420652
 30
0.0
 10
13.0827445659
 20
9.1379394671
 30
0.0
 10
13.1327348139
 20
9.1233551266
 30
0.0
 10
13.1907016858
 20
9.1096363445
 30
0.0
 10
13.2821477965
 20
9.0918984609
 30
0.0
 10
13.4122083772
 20
9.0735244535
 30
0.0
 10
13.5834910367
 20
9.057625319
 30
0.0
 10
13.7698100363
 20
9.0477882936
 30
0.0
 10
13.8983233039
 20
9.0455807898
 30
0.0
 10
13.9638488461
 20
9.0455807898
 30
0.0
  0
LINE
  5
2C4
100
AcDbEntity
  8
0
100
AcDbLine
 62
7
  6
BYLAYER
 10
15.5345595238
 20
44.9425546287
 11
15.5138536577
 21
44.9216794705
  0
SPLINE
  5
2C5
100
AcDbEntity
  8
0
100
AcDbSpline
 62
7
  6
BYLAYER
 70
0
 71
3
 72
9
 73
5
 74
0
 42
0.0000001
 43
0.0000001
 44
0.0000000001
 40
0.0
 40
0.0
 40
0.0
 40
0.0
 40
0.2173688371
 40
1.0
 40
1.0
 40
1.0
 40
1.0
 10
15.5138536577
 20
44.9216794705
 30
0.0
 10
15.5111883725
 20
44.9189483897
 30
0.0
 10
15.498878587
 20
44.9064308929
 30
0.0
 10
15.4862751005
 20
44.8942055898
 30
0.0
 10
15.4763562376
 20
44.8846978753
 30
0.0
  0
SPLINE
  5
2C6
100
AcDbEntity
  8
0
100
AcDbSpline
 62
7
  6
BYLAYER
 70
0
 71
3
 72
15
 73
11
 74
0
 42
0.0000001
 43
0.0000001
 44
0.0000000001
 40
0.0
 40
0.0
 40
0.0
 40
0.0
 40
0.3491673836
 40
0.5199735679
 40
0.6738011625
 40
0.8011196328
 40
0.8962942469
 40
0.9316943046
 40
0.9597988431
 40
1.0
 40
1.0
 40
1.0
 40
1.0
 10
15.0424202754
 20
19.8132653087
 30
0.0
 10
15.0424203029
 20
19.8009852444
 30
0.0
 10
15.0431107401
 20
19.7826814625
 30
0.0
 10
15.0456642627
 20
19.7591148942
 30
0.0
 10
15.0483054921
 20
19.7434247303
 30
0.0
 10
15.0515605672
 20
19.730584721
 30
0.0
 10
15.0547976921
 20
19.7220607678
 30
0.0
 10
15.0577343946
 20
19.7172767181
 30
0.0
 10
15.0600901242
 20
19.7145170753
 30
0.0
 10
15.0624349891
 20
19.7132653064
 30
0.0
 10
15.0638488462
 20
19.7132653064
 30
0.0
  0
SPLINE
  5
2C7
100
AcDbEntity
  8
0
100
AcDbSpline
 62
7
  6
BYLAYER
 70
0
 71
3
 72
9
 73
5
 74
0
 42
0.0000001
 43
0.0000001
 44
0.0000000001
 40
0.0
 40
0.0
 40
0.0
 40
0.0
 40
0.5028496473
 40
1.0
 40
1.0
 40
1.0
 40
1.0
 10
15.3638488461
 20
19.7328805552
 30
0.0
 10
15.3145733854
 20
19.7594267896
 30
0.0
 10
15.2095615724
 20
19.8002882749
 30
0.0
 10
15.0977570208
 20
19.8132400099
 30
0.0
 10
15.0424202182
 20
19.8132653113
 30
0.0
  0
SPLINE
  5
2C8
100
AcDbEntity
  8
0
100
AcDbSpline
 62
7
  6
BYLAYER
 70
0
 71
3
 72
12
 73
8
 74
0
 42
0.0000001
 43
0.0000001
 44
0.0000000001
 40
0.0
 40
0.0
 40
0.0
 40
0.0
 40
0.0299664438
 40
0.083665797
 40
0.2768853564
 40
0.5851136375
 40
1.0
 40
1.0
 40
1.0
 40
1.0
 10
15.0771401677
 20
45.3969702813
 30
0.0
 10
15.0769214977
 20
45.3971132122
 30
0.0
 10
15.0760901944
 20
45.3969827232
 30
0.0
 10
15.0741281366
 20
45.3956586413
 30
0.0
 10
15.0705921691
 20
45.3922464313
 30
0.0
 10
15.0653749428
 20
45.3862387603
 30
0.0
 10
15.0614338153
 20
45.3813027548
 30
0.0
 10
15.0592150922
 20
45.3784463654
 30
0.0
  0
SPLINE
  5
2C9
100
AcDbEntity
  8
0
100
AcDbSpline
 62
7
  6
BYLAYER
 70
0
 71
3
 72
9
 73
5
 74
0
 42
0.0000001
 43
0.0000001
 44
0.0000000001
 40
0.0
 40
0.0
 40
0.0
 40
0.0
 40
0.2231796266
 40
1.0
 40
1.0
 40
1.0
 40
1.0
 10
15.0592150922
 20
45.3784463654
 30
0.0
 10
15.0579103886
 20
45.3767666868
 30
0.0
 10
15.0521240638
 20
45.3691942522
 30
0.0
 10
15.0465291763
 20
45.3614769872
 30
0.0
 10
15.0422513191
 20
45.3554351243
 30
0.0
  0
SPLINE
  5
2CA
100
AcDbEntity
  8
0
100
AcDbSpline
 62
7
  6
BYLAYER
 70
0
 71
3
 72
9
 73
5
 74
0
 42
0.0000001
 43
0.0000001
 44
0.0000000001
 40
0.0
 40
0.0
 40
0.0
 40
0.0
 40
0.4901002342
 40
1.0
 40
1.0
 40
1.0
 40
1.0
 10
12.2649569676
 20
11.2269744108
 30
0.0
 10
12.2578026879
 20
11.1925826412
 30
0.0
 10
12.2472752736
 20
11.1215290323
 30
0.0
 10
12.2438488451
 20
11.0498124575
 30
0.0
 10
12.2438488449
 20
11.0132653064
 30
0.0
  0
SPLINE
  5
2CB
100
AcDbEntity
  8
0
100
AcDbSpline
 62
7
  6
BYLAYER
 70
0
 71
3
 72
11
 73
7
 74
0
 42
0.0000001
 43
0.0000001
 44
0.0000000001
 40
0.0
 40
0.0
 40
0.0
 40
0.0
 40
0.2500884415
 40
0.4999779257
 40
0.749876722
 40
1.0
 40
1.0
 40
1.0
 40
1.0
 10
15.6633066744
 20
19.238432276
 30
0.0
 10
15.6612432381
 20
19.2864213155
 30
0.0
 10
15.6454048814
 20
19.3821908242
 30
0.0
 10
15.588820945
 20
19.5161969703
 30
0.0
 10
15.5005945817
 20
19.6317150165
 30
0.0
 10
15.4260071414
 20
19.6938114623
 30
0.0
 10
15.385534736
 20
19.7196925926
 30
0.0
  0
SPLINE
  5
2CC
100
AcDbEntity
  8
0
100
AcDbSpline
 62
7
  6
BYLAYER
 70
0
 71
3
 72
15
 73
11
 74
0
 42
0.0000001
 43
0.0000001
 44
0.0000000001
 40
0.0
 40
0.0
 40
0.0
 40
0.0
 40
0.0843053228
 40
0.175264888
 40
0.2774962195
 40
0.3936576799
 40
0.5247582048
 40
0.670517876
 40
0.8297515425
 40
1.0
 40
1.0
 40
1.0
 40
1.0
 10
12.4638488607
 20
11.5132653063
 30
0.0
 10
12.4534090153
 20
11.5132653075
 30
0.0
 10
12.4315840118
 20
11.5095854277
 30
0.0
 10
12.4005537301
 20
11.4939061399
 30
0.0
 10
12.3713118835
 20
11.4687082844
 30
0.0
 10
12.3441667856
 20
11.4347635239
 30
0.0
 10
12.3194752762
 20
11.3926696338
 30
0.0
 10
12.2975953505
 20
11.3431924318
 30
0.0
 10
12.2789902675
 20
11.2872839531
 30
0.0
 10
12.2692506957
 20
11.2476150505
 30
0.0
 10
12.2649569676
 20
11.2269744108
 30
0.0
  0
SPLINE
  5
2CD
100
AcDbEntity
  8
0
100
AcDbSpline
 62
7
  6
BYLAYER
 70
0
 71
3
 72
15
 73
11
 74
0
 42
0.0000001
 43
0.0000001
 44
0.0000000001
 40
0.0
 40
0.0
 40
0.0
 40
0.0
 40
0.1250148266
 40
0.2500898133
 40
0.3750395968
 40
0.5000126733
 40
0.624957832
 40
0.7498759915
 40
0.8749846132
 40
1.0
 40
1.0
 40
1.0
 40
1.0
 10
20.0937221129
 20
21.9140119116
 30
0.0
 10
20.1304088011
 20
21.9158436132
 30
0.0
 10
20.2036447633
 20
21.9262097117
 30
0.0
 10
20.3086548611
 20
21.9615483619
 30
0.0
 10
20.4053860108
 20
22.0156288419
 30
0.0
 10
20.4905007638
 20
22.0865094169
 30
0.0
 10
20.5612745328
 20
22.1717097619
 30
0.0
 10
20.6151585347
 20
22.2685343548
 30
0.0
 10
20.6505921361
 20
22.3734849773
 30
0.0
 10
20.6612054554
 20
22.4467004579
 30
0.0
 10
20.6630826028
 20
22.4833850137
 30
0.0
  0
SPLINE
  5
2CE
100
AcDbEntity
  8
0
100
AcDbSpline
 62
7
  6
BYLAYER
 70
0
 71
3
 72
9
 73
5
 74
0
 42
0.0000001
 43
0.0000001
 44
0.0000000001
 40
0.0
 40
0.0
 40
0.0
 40
0.0
 40
0.2366668827
 40
1.0
 40
1.0
 40
1.0
 40
1.0
 10
14.9980407065
 20
45.3132654676
 30
0.0
 10
14.999901418
 20
45.3152438418
 30
0.0
 10
15.0078397497
 20
45.3235312899
 30
0.0
 10
15.0160409501
 20
45.3315660329
 30
0.0
 10
15.0224267293
 20
45.3375623321
 30
0.0
  0
SPLINE
  5
2CF
100
AcDbEntity
  8
0
100
AcDbSpline
 62
7
  6
BYLAYER
 70
0
 71
3
 72
9
 73
5
 74
0
 42
0.0000001
 43
0.0000001
 44
0.0000000001
 40
0.0
 40
0.0
 40
0.0
 40
0.0
 40
0.2466734049
 40
1.0
 40
1.0
 40
1.0
 40
1.0
 10
14.9987998708
 20
45.338364164
 30
0.0
 10
14.9986698705
 20
45.3363033882
 30
0.0
 10
14.9982308511
 20
45.3279439639
 30
0.0
 10
14.9980209185
 20
45.3195712692
 30
0.0
 10
14.9980402496
 20
45.313265296
 30
0.0
  0
SPLINE
  5
2D0
100
AcDbEntity
  8
0
100
AcDbSpline
 62
7
  6
BYLAYER
 70
0
 71
3
 72
12
 73
8
 74
0
 42
0.0000001
 43
0.0000001
 44
0.0000000001
 40
0.0
 40
0.0
 40
0.0
 40
0.0
 40
0.1171597046
 40
0.2096181223
 40
0.3270910242
 40
0.6302828308
 40
1.0
 40
1.0
 40
1.0
 40
1.0
 10
15.0224274899
 20
45.4132652926
 30
0.0
 10
15.0192475206
 20
45.4132652929
 30
0.0
 10
15.0143833582
 20
45.408502132
 30
0.0
 10
15.0104548688
 20
45.4008369106
 30
0.0
 10
15.0056110587
 20
45.3876160925
 30
0.0
 10
15.0013529647
 20
45.36658131
 30
0.0
 10
14.9994367693
 20
45.3483788607
 30
0.0
 10
14.9987998708
 20
45.338364164
 30
0.0
  0
SPLINE
  5
2D1
100
AcDbEntity
  8
0
100
AcDbSpline
 62
7
  6
BYLAYER
 70
0
 71
3
 72
17
 73
13
 74
0
 42
0.0000001
 43
0.0000001
 44
0.0000000001
 40
0.0
 40
0.0
 40
0.0
 40
0.0
 40
0.1287028658
 40
0.2569398638
 40
0.384045722
 40
0.5097977237
 40
0.5721782729
 40
0.6341831408
 40
0.6958298115
 40
0.7571555304
 40
0.8788752475
 40
1.0
 40
1.0
 40
1.0
 40
1.0
 10
18.8638488461
 20
9.8093909401
 30
0.0
 10
18.9617798553
 20
9.8093909401
 30
0.0
 10
19.1577593071
 20
9.8275133442
 30
0.0
 10
19.4404134811
 20
9.9078490967
 30
0.0
 10
19.7011791568
 20
10.0385529626
 30
0.0
 10
19.8926046984
 20
10.1858012524
 30
0.0
 10
20.0249248587
 20
10.3229754139
 30
0.0
 10
20.1128160292
 20
10.4342438367
 30
0.0
 10
20.188678671
 20
10.5530948225
 30
0.0
 10
20.2725322972
 20
10.7196362881
 30
0.0
 10
20.3444083962
 20
10.9414379354
 30
0.0
 10
20.3638488466
 20
11.1267651077
 30
0.0
 10
20.3638488466
 20
11.2189298717
 30
0.0
  0
SPLINE
  5
2D2
100
AcDbEntity
  8
0
100
AcDbSpline
 62
7
  6
BYLAYER
 70
0
 71
3
 72
25
 73
21
 74
0
 42
0.0000001
 43
0.0000001
 44
0.0000000001
 40
0.0
 40
0.0
 40
0.0
 40
0.0
 40
0.0643622696
 40
0.1284921755
 40
0.1920554631
 40
0.2549404735
 40
0.2861343617
 40
0.3171401291
 40
0.3785547845
 40
0.4394230045
 40
0.4999929533
 40
0.560562726
 40
0.6214307319
 40
0.6828460287
 40
0.713852947
 40
0.7450483213
 40
0.8079368669
 40
0.8715037735
 40
0.9356370415
 40
1.0
 40
1.0
 40
1.0
 40
1.0
 10
18.8638488461
 20
12.5089343075
 30
0.0
 10
18.7789747738
 20
12.5089343075
 30
0.0
 10
18.6091240821
 20
12.4932267033
 30
0.0
 10
18.3641557103
 20
12.4236015765
 30
0.0
 10
18.1381591235
 20
12.3103207673
 30
0.0
 10
17.9722638299
 20
12.1827114929
 30
0.0
 10
17.8575853282
 20
12.0638197306
 30
0.0
 10
17.7563883695
 20
11.9357359196
 30
0.0
 10
17.6555073711
 20
11.7588299976
 30
0.0
 10
17.5807342793
 20
11.5278113715
 30
0.0
 10
17.5554416346
 20
11.287362791
 30
0.0
 10
17.5807206415
 20
11.0469130006
 30
0.0
 10
17.655484023
 20
10.8158903674
 30
0.0
 10
17.7563612356
 20
10.6389803963
 30
0.0
 10
17.8575516881
 20
10.510885855
 30
0.0
 10
17.9722335409
 20
10.3919858813
 30
0.0
 10
18.1381319419
 20
10.2643618748
 30
0.0
 10
18.3641404003
 20
10.1510725822
 30
0.0
 10
18.6091177687
 20
10.0814421541
 30
0.0
 10
18.7789738653
 20
10.0657334932
 30
0.0
 10
18.8638488461
 20
10.0657334932
 30
0.0
  0
SPLINE
  5
2D3
100
AcDbEntity
  8
0
100
AcDbSpline
 62
7
  6
BYLAYER
 70
0
 71
3
 72
25
 73
21
 74
0
 42
0.0000001
 43
0.0000001
 44
0.0000000001
 40
0.0
 40
0.0
 40
0.0
 40
0.0
 40
0.0643622696
 40
0.1284921755
 40
0.1920554631
 40
0.2549404735
 40
0.2861343617
 40
0.3171401291
 40
0.3785547845
 40
0.4394230045
 40
0.4999929533
 40
0.560562726
 40
0.6214307319
 40
0.6828460287
 40
0.713852947
 40
0.7450483213
 40
0.8079368669
 40
0.8715037735
 40
0.9356370415
 40
1.0
 40
1.0
 40
1.0
 40
1.0
 10
18.8638488461
 20
10.0657334932
 30
0.0
 10
18.9487229185
 20
10.0657334932
 30
0.0
 10
19.1185736102
 20
10.0814410974
 30
0.0
 10
19.363541982
 20
10.1510662242
 30
0.0
 10
19.5895385688
 20
10.2643470334
 30
0.0
 10
19.7554338624
 20
10.3919563078
 30
0.0
 10
19.8701123642
 20
10.5108480701
 30
0.0
 10
19.9713093228
 20
10.6389318811
 30
0.0
 10
20.0721903213
 20
10.8158378031
 30
0.0
 10
20.146963413
 20
11.0468564292
 30
0.0
 10
20.1722560578
 20
11.2873050098
 30
0.0
 10
20.1469770509
 20
11.5277548001
 30
0.0
 10
20.0722136693
 20
11.7587774333
 30
0.0
 10
19.9713364568
 20
11.9356874044
 30
0.0
 10
19.8701460043
 20
12.0637819457
 30
0.0
 10
19.7554641515
 20
12.1826819195
 30
0.0
 10
19.5895657504
 20
12.3103059259
 30
0.0
 10
19.363557292
 20
12.4235952185
 30
0.0
 10
19.1185799236
 20
12.4932256467
 30
0.0
 10
18.9487238269
 20
12.5089343075
 30
0.0
 10
18.8638488461
 20
12.5089343075
 30
0.0
  0
ENDSEC
  0
SECTION
  2
OBJECTS
  0
DICTIONARY
  5
C
100
AcDbDictionary
280
0
281
1
  3
ACAD_GROUP
350
D
  3
ACAD_MLINESTYLE
350
17
  3
ACAD_LAYOUT
350
1A
  3
ACAD_PLOTSETTINGS
350
19
  3
ACAD_PLOTSTYLENAME
350
E
  0
DICTIONARY
  5
D
102
{ACAD_REACTORS
330
C
102
}
100
AcDbDictionary
280
0
281
1
  0
ACDBDICTIONARYWDFLT
  5
E
102
{ACAD_REACTORS
330
C
102
}
100
AcDbDictionary
281
1
  3
Normal
350
F
100
AcDbDictionaryWithDefault
340
F
  0
DICTIONARY
  5
17
102
{ACAD_REACTORS
330
C
102
}
100
AcDbDictionary
280
0
281
1
  3
Standard
350
18
  0
DICTIONARY
  5
19
102
{ACAD_REACTORS
330
C
102
}
100
AcDbDictionary
281
1
  0
DICTIONARY
  5
1A
102
{ACAD_REACTORS
330
C
102
}
100
AcDbDictionary
281
1
  3
Model
350
2D4
  3
Layout1
350
2D5
  0
ACDBPLACEHOLDER
  5
F
102
{ACAD_REACTORS
330
E
102
}
  0
MLINESTYLE
  5
18
102
{ACAD_REACTORS
330
17
102
}
100
AcDbMlineStyle
  2
STANDARD
 70
0
  3

 62
256
 51
90.0
 52
90.0
 71
2
 49
0.5
 62
256
  6
BYLAYER
 49
-0.5
 62
256
  6
BYLAYER
  0
LAYOUT
  5
2D4
102
{ACAD_REACTORS
330
1A
102
}
100
AcDbPlotSettings
  1

  2
none_device
  4

  6

 40
0.0
 41
0.0
 42
0.0
 43
0.0
 44
210.0
 45
297.0
 46
0.0
 47
0.0
 48
0.0
 49
0.0
140
0.0
141
0.0
142
1.0
143
1.0
 70
1024
 72
1
 73
0
 74
0
  7

 75
0
147
1.0
148
0.0
149
0.0
100
AcDbLayout
  1
Model
 70
0
 71
0
 10
0.0
 20
0.0
 11
210.0
 21
297.0
 12
0.0
 22
0.0
 32
0.0
 14
0.0
 24
0.0
 34
0.0
 15
0.0
 25
0.0
 35
0.0
146
0.0
 13
0.0
 23
0.0
 33
0.0
 16
1.0
 26
0.0
 36
0.0
 17
0.0
 27
1.0
 37
0.0
 76
0
330
210
345
0
346
0
  0
LAYOUT
  5
2D5
102
{ACAD_REACTORS
330
1A
102
}
100
AcDbPlotSettings
  1

  2
none_device
  4

  6

 40
0.0
 41
0.0
 42
0.0
 43
0.0
 44
210.0
 45
297.0
 46
0.0
 47
0.0
 48
0.0
 49
0.0
140
0.0
141
0.0
142
1.0
143
1.0
 70
0
 72
1
 73
0
 74
0
  7

 75
0
147
1.0
148
0.0
149
0.0
100
AcDbLayout
  1
Layout1
 70
0
 71
1
 10
0.0
 20
0.0
 11
210.0
 21
297.0
 12
0.0
 22
0.0
 32
0.0
 14
0.0
 24
0.0
 34
0.0
 15
0.0
 25
0.0
 35
0.0
146
0.0
 13
0.0
 23
0.0
 33
0.0
 16
1.0
 26
0.0
 36
0.0
 17
0.0
 27
1.0
 37
0.0
 76
0
330
211
345
0
346
0
  0
ENDSEC
  0
EOF
