999
DXF file: C:\Users\sesa63760\Dev\_Creo\CAD\MCADID0004033_3D-CAD\drw0001_1.dxf
999
Pro/ENGINEER 2019471 by Parametric Technology Corporation
  0
SECTION
  2
HEADER
  9
$ACADVER
  1
AC1024
  9
$DWGCODEPAGE
  3
ANSI_1252
  9
$EXTMAX
 10
72.043319271
 20
101.8898372547
 30
0.0
  9
$EXTMIN
 10
0.0
 20
0.0
 30
0.0
  9
$LIMMIN
 10
0.0
 20
0.0
  9
$LIMMAX
 10
72.043319271
 20
101.8898372547
  9
$VIEWCTR
 10
36.0216596355
 20
50.9449186274
  9
$VIEWSIZE
 40
101.8898372547
  9
$CLAYER
  8
0
  9
$LTSCALE
 40
6.6417079099
  9
$CELTYPE
  6
BYLAYER
  9
$DIMSCALE
 40
1.0
  9
$DIMASZ
 40
0.8576585628
  9
$DIMEXO
 40
1.0
  9
$DIMDLI
 40
4.5888163741
  9
$DIMEXE
 40
1.0
  9
$DIMCEN
 40
1.0868249307
  9
$DIMLFAC
 40
1.0
  9
$DIMBLK
  1
_FILLED
  9
$DIMALT
 70
0
  9
$DIMALTF
 40
0.0393700787
  9
$DIMTXT
 40
1.2007219879
  9
$DIMTOL
 70
1
  9
$DIMLIM
 70
0
  9
$DIMTFAC
 40
1.0
  9
$DIMTP
 40
0.01
  9
$DIMTM
 40
0.01
  9
$DIMGAP
 40
0.625
  9
$DIMDSEP
 70
46
  9
$AUNITS
 70
0
  9
$PDMODE
 70
3
  9
$PDSIZE
 40
0.3125
  9
$HANDSEED
  5
381
  9
$TILEMODE
 70
1
  9
$MEASUREMENT
 70
1
  9
$INSUNITS
 70
4
  0
ENDSEC
  0
SECTION
  2
CLASSES
  0
CLASS
  1
ACDBDICTIONARYWDFLT
  2
AcDbDictionaryWithDefault
  3
AutoCAD 2000
 90
0
 91
1
280
0
281
0
  0
CLASS
  1
ACDBPLACEHOLDER
  2
AcDbPlaceHolder
  3
AutoCAD 2000
 90
0
 91
1
280
0
281
0
  0
CLASS
  1
LAYOUT
  2
AcDbLayout
  3
AutoCAD 2000
 90
0
 91
0
280
0
281
0
  0
ENDSEC
  0
SECTION
  2
TABLES
  0
TABLE
  2
VPORT
  5
8
100
AcDbSymbolTable
 70
2
  0
VPORT
  5
1F4
100
AcDbSymbolTableRecord
100
AcDbViewportTableRecord
  2
*ACTIVE
 70
0
 10
0.0
 20
0.0
 11
1.0
 21
1.0
 12
36.0216596355
 22
50.9449186274
 13
0.0
 23
0.0
 14
1.0
 24
1.0
 15
0.0
 25
0.0
 16
0.0
 26
0.0
 36
1.0
 17
0.0
 27
0.0
 37
0.0
 40
101.8898372547
 41
0.7070707071
 42
50.0
 43
0.0
 44
0.0
 50
0.0
 51
0.0
 71
0
 72
100
 73
1
 74
1
 75
0
 76
0
 77
0
 78
0
  0
ENDTAB
  0
TABLE
  2
LTYPE
  5
5
100
AcDbSymbolTable
 70
6
  0
LTYPE
  5
14
100
AcDbSymbolTableRecord
100
AcDbLinetypeTableRecord
  2
BYBLOCK
 70
0
  3

 72
65
 73
0
 40
0.0
  0
LTYPE
  5
15
100
AcDbSymbolTableRecord
100
AcDbLinetypeTableRecord
  2
BYLAYER
 70
0
  3

 72
65
 73
0
 40
0.0
  0
LTYPE
  5
16
100
AcDbSymbolTableRecord
100
AcDbLinetypeTableRecord
  2
CONTINUOUS
 70
64
  3
Solid line
 72
65
 73
0
 40
0.0
  0
LTYPE
  5
1F5
100
AcDbSymbolTableRecord
100
AcDbLinetypeTableRecord
  2
CENTER
 70
64
  3
____ _ ____ _ ____ _ ____ _ ____ _ ____ _ ____
 72
65
 73
4
 40
0.6
 49
0.375
 74
0
 49
-0.075
 74
0
 49
0.075
 74
0
 49
-0.075
 74
0
  0
LTYPE
  5
1F6
100
AcDbSymbolTableRecord
100
AcDbLinetypeTableRecord
  2
HIDDEN
 70
64
  3
- - - - - - - - - - - - - - - - - - - -
 72
65
 73
2
 40
0.2
 49
0.1
 74
0
 49
-0.1
 74
0
  0
LTYPE
  5
1F7
100
AcDbSymbolTableRecord
100
AcDbLinetypeTableRecord
  2
PHANTOM
 70
64
  3
_____ _ _ _____ _ _ _____ _ _ _____
 72
65
 73
6
 40
0.8
 49
0.45
 74
0
 49
-0.05
 74
0
 49
0.1
 74
0
 49
-0.05
 74
0
 49
0.1
 74
0
 49
-0.05
 74
0
  0
LTYPE
  5
1F8
100
AcDbSymbolTableRecord
100
AcDbLinetypeTableRecord
  2
DOT
 70
64
  3
. . . . . . . . . . . . . . . . . . . .
 72
65
 73
2
 40
0.2
 49
0.1
 74
0
 49
-0.1
 74
0
  0
LTYPE
  5
1F9
100
AcDbSymbolTableRecord
100
AcDbLinetypeTableRecord
  2
DASHED
 70
64
  3
- - - - - - - - - - - - - - - - - - - -
 72
65
 73
2
 40
0.2
 49
0.1
 74
0
 49
-0.1
 74
0
  0
ENDTAB
  0
TABLE
  2
LAYER
  5
2
100
AcDbSymbolTable
 70
36
  0
LAYER
  5
10
100
AcDbSymbolTableRecord
100
AcDbLayerTableRecord
  2
0
 70
0
 62
7
  6
CONTINUOUS
370
-3
390
F
  0
LAYER
  5
1FA
100
AcDbSymbolTableRecord
100
AcDbLayerTableRecord
  2
DEFAULT_1
 70
0
 62
7
  6
CENTER
370
-3
390
F
  0
LAYER
  5
1FB
100
AcDbSymbolTableRecord
100
AcDbLayerTableRecord
  2
DEFAULT_2
 70
0
 62
7
  6
HIDDEN
370
-3
390
F
  0
LAYER
  5
1FC
100
AcDbSymbolTableRecord
100
AcDbLayerTableRecord
  2
DEFAULT_3
 70
0
 62
7
  6
PHANTOM
370
-3
390
F
  0
LAYER
  5
1FD
100
AcDbSymbolTableRecord
100
AcDbLayerTableRecord
  2
00_COMPONENTS
 70
0
 62
7
  6
CONTINUOUS
370
-3
390
F
  0
LAYER
  5
1FE
100
AcDbSymbolTableRecord
100
AcDbLayerTableRecord
  2
01_1_DEFAULT_DATUMS
 70
0
 62
7
  6
CONTINUOUS
370
-3
390
F
  0
LAYER
  5
1FF
100
AcDbSymbolTableRecord
100
AcDbLayerTableRecord
  2
01_PLANES
 70
0
 62
7
  6
CONTINUOUS
370
-3
390
F
  0
LAYER
  5
200
100
AcDbSymbolTableRecord
100
AcDbLayerTableRecord
  2
02_COORD_SYS
 70
0
 62
7
  6
CONTINUOUS
370
-3
390
F
  0
LAYER
  5
201
100
AcDbSymbolTableRecord
100
AcDbLayerTableRecord
  2
03_AXES
 70
0
 62
7
  6
CONTINUOUS
370
-3
390
F
  0
LAYER
  5
202
100
AcDbSymbolTableRecord
100
AcDbLayerTableRecord
  2
04_POINTS
 70
0
 62
7
  6
CONTINUOUS
370
-3
390
F
  0
LAYER
  5
203
100
AcDbSymbolTableRecord
100
AcDbLayerTableRecord
  2
05_CURVES
 70
0
 62
7
  6
CONTINUOUS
370
-3
390
F
  0
LAYER
  5
204
100
AcDbSymbolTableRecord
100
AcDbLayerTableRecord
  2
06_SURFS
 70
0
 62
7
  6
CONTINUOUS
370
-3
390
F
  0
LAYER
  5
205
100
AcDbSymbolTableRecord
100
AcDbLayerTableRecord
  2
07_COSMETICS
 70
0
 62
7
  6
CONTINUOUS
370
-3
390
F
  0
LAYER
  5
206
100
AcDbSymbolTableRecord
100
AcDbLayerTableRecord
  2
10_NOTES
 70
0
 62
7
  6
CONTINUOUS
370
-3
390
F
  0
LAYER
  5
207
100
AcDbSymbolTableRecord
100
AcDbLayerTableRecord
  2
11_NOTES_PUB
 70
0
 62
7
  6
CONTINUOUS
370
-3
390
F
  0
LAYER
  5
208
100
AcDbSymbolTableRecord
100
AcDbLayerTableRecord
  2
13_REF_GTOL
 70
0
 62
7
  6
CONTINUOUS
370
-3
390
F
  0
LAYER
  5
209
100
AcDbSymbolTableRecord
100
AcDbLayerTableRecord
  2
16_MISC
 70
0
 62
7
  6
CONTINUOUS
370
-3
390
F
  0
LAYER
  5
20A
100
AcDbSymbolTableRecord
100
AcDbLayerTableRecord
  2
17_NO_PRINT
 70
0
 62
7
  6
CONTINUOUS
370
-3
390
F
  0
LAYER
  5
20B
100
AcDbSymbolTableRecord
100
AcDbLayerTableRecord
  2
18_DATUM_CAMS_JOINTS
 70
0
 62
7
  6
CONTINUOUS
370
-3
390
F
  0
LAYER
  5
20C
100
AcDbSymbolTableRecord
100
AcDbLayerTableRecord
  2
19_DATUM_FUNCTIONAL
 70
0
 62
7
  6
CONTINUOUS
370
-3
390
F
  0
LAYER
  5
20D
100
AcDbSymbolTableRecord
100
AcDbLayerTableRecord
  2
20_DATUM_KINEMATIC_SCHEME
 70
0
 62
7
  6
CONTINUOUS
370
-3
390
F
  0
ENDTAB
  0
TABLE
  2
STYLE
  5
3
100
AcDbSymbolTable
 70
1
  0
STYLE
  5
11
100
AcDbSymbolTableRecord
100
AcDbTextStyleTableRecord
  2
STANDARD
 70
0
 40
0.0
 41
1.0
 50
0.0
 71
0
 42
0.2
  3
ARIAL.TTF
  4

  0
STYLE
  5
20E
100
AcDbSymbolTableRecord
100
AcDbTextStyleTableRecord
  2
TEXTSTYLE_1
 70
0
 40
0.0
 41
0.8
 50
0.0
 71
0
 42
0.2
  3
gdt
  4

  0
ENDTAB
  0
TABLE
  2
VIEW
  5
6
100
AcDbSymbolTable
 70
0
  0
ENDTAB
  0
TABLE
  2
UCS
  5
7
100
AcDbSymbolTable
 70
0
  0
ENDTAB
  0
TABLE
  2
APPID
  5
9
100
AcDbSymbolTable
 70
1
  0
APPID
  5
20F
100
AcDbSymbolTableRecord
100
AcDbRegAppTableRecord
  2
ACAD
 70
0
  0
ENDTAB
  0
TABLE
  2
BLOCK_RECORD
  5
1
100
AcDbSymbolTable
 70
0
  0
BLOCK_RECORD
  5
210
100
AcDbSymbolTableRecord
100
AcDbBlockTableRecord
  2
*Model_Space
  0
BLOCK_RECORD
  5
211
100
AcDbSymbolTableRecord
100
AcDbBlockTableRecord
  2
*Paper_Space
  0
BLOCK_RECORD
  5
212
100
AcDbSymbolTableRecord
100
AcDbBlockTableRecord
  2
_FILLED
  0
ENDTAB
  0
TABLE
  2
DIMSTYLE
  5
A
100
AcDbSymbolTable
 70
1
100
AcDbDimStyleTable
 71
0
  0
DIMSTYLE
105
213
100
AcDbSymbolTableRecord
100
AcDbDimStyleTableRecord
  2
STANDARD
 70
0
  3

  4

 40
1.0
 41
0.8576585628
 42
1.0
 43
0.38
 44
1.0
 45
0.0
 46
0.0
 47
0.01
 48
0.01
140
1.2007219879
141
0.09
142
0.0
143
25.4
144
1.0
145
0.0
146
1.0
147
0.625
 71
1
 72
0
 73
0
 74
0
 75
0
 76
0
 77
1
 78
8
 79
2
170
0
171
1
172
0
173
0
174
0
175
0
176
0
177
0
178
0
270
2
179
2
271
2
272
2
273
2
274
2
275
0
280
0
281
0
282
0
283
1
284
8
285
0
286
0
287
3
288
0
340
11
278
46
341
212
342
212
343
212
344
212
  0
ENDTAB
  0
ENDSEC
  0
SECTION
  2
BLOCKS
  0
BLOCK
  5
20
100
AcDbEntity
  8
0
100
AcDbBlockBegin
  2
*Model_Space
 70
0
 10
0.0
 20
0.0
 30
0.0
  3
*Model_Space
  1

  0
ENDBLK
  5
21
100
AcDbEntity
  8
0
100
AcDbBlockEnd
  0
BLOCK
  5
1C
100
AcDbEntity
  8
0
100
AcDbBlockBegin
  2
*Paper_Space
 70
0
 10
0.0
 20
0.0
 30
0.0
  3
*Paper_Space
  1

  0
ENDBLK
  5
1D
100
AcDbEntity
  8
0
100
AcDbBlockEnd
  0
BLOCK
  5
214
100
AcDbEntity
  8
0
100
AcDbBlockBegin
  2
_FILLED
 70
64
 10
0.0
 20
0.0
  3
_FILLED
  1

  0
SOLID
  5
215
100
AcDbEntity
  8
0
  6
BYBLOCK
 62
0
100
AcDbTrace
 10
0.0
 20
0.0
 11
-1.0
 21
0.25
 12
-1.0
 22
-0.25
 13
-1.0
 23
-0.25
  0
ENDBLK
  5
216
100
AcDbEntity
  8
0
  6
BYBLOCK
 62
0
100
AcDbBlockEnd
  0
ENDSEC
  0
SECTION
  2
ENTITIES
  0
LINE
  5
217
100
AcDbEntity
  8
0
100
AcDbLine
 62
7
  6
BYLAYER
 10
11.132520211
 20
39.4607312035
 11
11.1325356
 21
39.4474457059
  0
LINE
  5
218
100
AcDbEntity
  8
0
100
AcDbLine
 62
7
  6
BYLAYER
 10
11.132520211
 20
39.4607312035
 11
11.1345943727
 21
39.446263463
  0
LWPOLYLINE
  5
219
100
AcDbEntity
  8
0
100
AcDbPolyline
 62
7
  6
BYLAYER
 90
3
 70
0
 10
25.0772090044
 20
33.4556117658
 10
26.5395005532
 20
33.2714702608
 10
27.7283230055
 20
33.6644188921
  0
LWPOLYLINE
  5
21A
100
AcDbEntity
  8
0
100
AcDbPolyline
 62
7
  6
BYLAYER
 90
7
 70
0
 10
20.3571836157
 20
42.3368072245
 10
18.4306507527
 20
44.1745546456
 10
16.4121705092
 20
45.2143987435
 10
14.5575610798
 20
45.3195953183
 10
13.1349571864
 20
44.4693578199
 10
12.6482499443
 20
43.7200704009
 10
12.3854870824
 20
42.5321958068
  0
LWPOLYLINE
  5
21B
100
AcDbEntity
  8
0
100
AcDbPolyline
 62
7
  6
BYLAYER
 90
3
 70
0
 10
23.1660563609
 20
44.0489913986
 10
21.2065367926
 20
45.918155774
 10
19.1363149847
 20
46.9845624508
  0
LINE
  5
21C
100
AcDbEntity
  8
0
100
AcDbLine
 62
7
  6
BYLAYER
 10
41.8963337696
 20
67.5418944038
 11
40.3863573014
 21
66.6701142873
  0
LINE
  5
21D
100
AcDbEntity
  8
0
100
AcDbLine
 62
7
  6
BYLAYER
 10
45.336084162
 20
69.5278233644
 11
46.8460606164
 21
70.3996034731
  0
LINE
  5
21E
100
AcDbEntity
  8
0
100
AcDbLine
 62
7
  6
BYLAYER
 10
12.0471911626
 20
42.2245960705
 11
13.5899188575
 21
43.627340249
  0
LINE
  5
21F
100
AcDbEntity
  8
0
100
AcDbLine
 62
7
  6
BYLAYER
 10
13.9843964121
 20
43.9159128793
 11
13.5899188575
 21
43.627340249
  0
LINE
  5
220
100
AcDbEntity
  8
0
100
AcDbLine
 62
7
  6
BYLAYER
 10
49.7692754855
 20
68.2451956888
 11
48.2592990322
 21
67.3734155809
  0
LINE
  5
221
100
AcDbEntity
  8
0
100
AcDbLine
 62
7
  6
BYLAYER
 10
53.2090258791
 20
70.2311246501
 11
54.719002346
 21
71.1029047659
  0
LINE
  5
222
100
AcDbEntity
  8
0
100
AcDbLine
 62
7
  6
BYLAYER
 10
50.2410672663
 20
68.0335537231
 11
48.7673072292
 21
67.182683048
  0
LINE
  5
223
100
AcDbEntity
  8
0
100
AcDbLine
 62
7
  6
BYLAYER
 10
53.7170340747
 20
70.0403921164
 11
55.1907941309
 21
70.8912628026
  0
LINE
  5
224
100
AcDbEntity
  8
0
100
AcDbLine
 62
7
  6
BYLAYER
 10
43.5081276767
 20
63.5594176591
 11
18.7283632974
 21
49.2528994227
  0
LINE
  5
225
100
AcDbEntity
  8
0
100
AcDbLine
 62
7
  6
BYLAYER
 10
18.4010592276
 20
37.1021243187
 11
18.133098517
 21
36.7975810223
  0
LINE
  5
226
100
AcDbEntity
  8
0
100
AcDbLine
 62
7
  6
BYLAYER
 10
18.5212572218
 20
47.9786285727
 11
16.4706560938
 21
46.7947205265
  0
LINE
  5
227
100
AcDbEntity
  8
0
100
AcDbLine
 62
7
  6
BYLAYER
 10
14.3379483307
 20
44.1200349562
 11
13.9843964121
 21
43.9159128793
  0
LINE
  5
228
100
AcDbEntity
  8
0
100
AcDbLine
 62
7
  6
BYLAYER
 10
13.8543718962
 20
45.2842171572
 11
16.4089341414
 21
46.759031496
  0
LINE
  5
229
100
AcDbEntity
  8
0
100
AcDbLine
 62
7
  6
BYLAYER
 10
16.4681566789
 20
46.7919292973
 11
16.4773421659
 21
46.7968572921
  0
LINE
  5
22A
100
AcDbEntity
  8
0
100
AcDbLine
 62
7
  6
BYLAYER
 10
19.1363149847
 20
46.9845624508
 11
17.425095335
 21
47.0814795916
  0
LINE
  5
22B
100
AcDbEntity
  8
0
100
AcDbLine
 62
7
  6
BYLAYER
 10
16.4777128042
 20
46.7974385741
 11
16.4706718268
 21
46.7946932633
  0
LINE
  5
22C
100
AcDbEntity
  8
0
100
AcDbLine
 62
7
  6
BYLAYER
 10
16.40002863
 20
46.7537525038
 11
16.4101163811
 21
46.7569776884
  0
LINE
  5
22D
100
AcDbEntity
  8
0
100
AcDbLine
 62
7
  6
BYLAYER
 10
16.4759960082
 20
46.7780402575
 11
16.4861109683
 21
46.7812741411
  0
LINE
  5
22E
100
AcDbEntity
  8
0
100
AcDbLine
 62
7
  6
BYLAYER
 10
58.3548275075
 20
60.7381668141
 11
58.4489868567
 21
60.7672336473
  0
LINE
  5
22F
100
AcDbEntity
  8
0
100
AcDbLine
 62
7
  6
BYLAYER
 10
59.0995356862
 20
60.5484487859
 11
58.8282329158
 21
60.4646980759
  0
LINE
  5
230
100
AcDbEntity
  8
0
100
AcDbLine
 62
7
  6
BYLAYER
 10
15.5419122794
 20
38.6423375627
 11
16.6440617084
 21
39.3766838241
  0
LINE
  5
231
100
AcDbEntity
  8
0
100
AcDbLine
 62
7
  6
BYLAYER
 10
58.8794479835
 20
59.8709375022
 11
58.7852886342
 21
59.841870669
  0
LINE
  5
232
100
AcDbEntity
  8
0
100
AcDbLine
 62
7
  6
BYLAYER
 10
8.5649658771
 20
34.1475455931
 11
15.6360042492
 21
38.2299871318
  0
LINE
  5
233
100
AcDbEntity
  8
0
100
AcDbLine
 62
7
  6
BYLAYER
 10
57.683499018
 20
61.928687473
 11
57.7674221717
 21
61.9771419138
  0
LINE
  5
234
100
AcDbEntity
  8
0
100
AcDbLine
 62
7
  6
BYLAYER
 10
58.4438525438
 20
61.7903288866
 11
58.2020434797
 21
61.6507163667
  0
LINE
  5
235
100
AcDbEntity
  8
0
100
AcDbLine
 62
7
  6
BYLAYER
 10
58.2674242534
 20
61.1111177119
 11
58.1835010996
 21
61.0626632712
  0
LINE
  5
236
100
AcDbEntity
  8
0
100
AcDbLine
 62
7
  6
BYLAYER
 10
9.5649614002
 20
32.4154922008
 11
16.6359997724
 21
36.4979337395
  0
LINE
  5
237
100
AcDbEntity
  8
0
100
AcDbLine
 62
7
  6
BYLAYER
 10
16.9460582488
 20
36.2102708851
 11
18.133098517
 21
36.7975810223
  0
LINE
  5
238
100
AcDbEntity
  8
0
100
AcDbLine
 62
7
  6
BYLAYER
 10
56.9271508294
 20
63.0602418886
 11
56.9994018392
 21
63.1272548681
  0
LINE
  5
239
100
AcDbEntity
  8
0
100
AcDbLine
 62
7
  6
BYLAYER
 10
57.6961892141
 20
62.979102683
 11
57.4880112765
 21
62.7860171623
  0
LINE
  5
23A
100
AcDbEntity
  8
0
100
AcDbLine
 62
7
  6
BYLAYER
 10
57.5603897016
 20
62.3063205236
 11
57.4881386918
 21
62.2393075441
  0
LINE
  5
23B
100
AcDbEntity
  8
0
100
AcDbLine
 62
7
  6
BYLAYER
 10
58.3589589768
 20
57.9348488286
 11
56.8851989208
 21
57.0839781425
  0
LINE
  5
23C
100
AcDbEntity
  8
0
100
AcDbLine
 62
7
  6
BYLAYER
 10
61.8349257855
 20
59.9416872221
 11
63.3086858223
 21
60.792557897
  0
LINE
  5
23D
100
AcDbEntity
  8
0
100
AcDbLine
 62
7
  6
BYLAYER
 10
58.5607796337
 20
57.3085128876
 11
57.0508032747
 21
56.4367328341
  0
LINE
  5
23E
100
AcDbEntity
  8
0
100
AcDbLine
 62
7
  6
BYLAYER
 10
62.0005301196
 20
59.2944419022
 11
63.5105064907
 21
60.1662219627
  0
LINE
  5
23F
100
AcDbEntity
  8
0
100
AcDbLine
 62
7
  6
BYLAYER
 10
59.3859889962
 20
58.6069997216
 11
59.283204544
 21
58.5978178377
  0
LINE
  5
240
100
AcDbEntity
  8
0
100
AcDbLine
 62
7
  6
BYLAYER
 10
59.6520197209
 20
59.2747112939
 11
59.3558653098
 21
59.2482553914
  0
LINE
  5
241
100
AcDbEntity
  8
0
100
AcDbLine
 62
7
  6
BYLAYER
 10
58.9296496814
 20
59.5090500504
 11
59.0324341336
 21
59.5182319344
  0
LINE
  5
242
100
AcDbEntity
  8
0
100
AcDbLine
 62
7
  6
BYLAYER
 10
56.098724269
 20
64.1134688511
 11
56.1580669001
 21
64.1978937585
  0
LINE
  5
243
100
AcDbEntity
  8
0
100
AcDbLine
 62
7
  6
BYLAYER
 10
56.869338424
 20
64.0944299259
 11
56.6983535951
 21
63.8511751512
  0
LINE
  5
244
100
AcDbEntity
  8
0
100
AcDbLine
 62
7
  6
BYLAYER
 10
56.7704418854
 20
63.4360956857
 11
56.7110992542
 21
63.3516707782
  0
LINE
  5
245
100
AcDbEntity
  8
0
100
AcDbLine
 62
7
  6
BYLAYER
 10
21.0879181117
 20
32.4286745582
 11
20.7343661931
 21
32.2245524813
  0
LINE
  5
246
100
AcDbEntity
  8
0
100
AcDbLine
 62
7
  6
BYLAYER
 10
59.7783802343
 20
57.3409306961
 11
59.6687293497
 21
57.3517908659
  0
LINE
  5
247
100
AcDbEntity
  8
0
100
AcDbLine
 62
7
  6
BYLAYER
 10
60.0918514929
 20
57.990910412
 11
59.7759127252
 21
58.0222019851
  0
LINE
  5
248
100
AcDbEntity
  8
0
100
AcDbLine
 62
7
  6
BYLAYER
 10
59.398130173
 20
58.2623677105
 11
59.5077810576
 21
58.2515075407
  0
LINE
  5
249
100
AcDbEntity
  8
0
100
AcDbLine
 62
7
  6
BYLAYER
 10
55.2123939449
 20
65.070347355
 11
55.2578128285
 21
65.170739657
  0
LINE
  5
24A
100
AcDbEntity
  8
0
100
AcDbLine
 62
7
  6
BYLAYER
 10
24.3999098951
 20
32.8974689728
 11
21.8543360811
 21
31.4277900188
  0
LINE
  5
24B
100
AcDbEntity
  8
0
100
AcDbLine
 62
7
  6
BYLAYER
 10
52.5081645839
 20
47.9709816992
 11
27.7283230055
 21
33.6644188921
  0
LINE
  5
24C
100
AcDbEntity
  8
0
100
AcDbLine
 62
7
  6
BYLAYER
 10
24.4641382559
 20
32.9345777626
 11
26.5212214067
 21
34.1222014344
  0
LINE
  5
24D
100
AcDbEntity
  8
0
100
AcDbLine
 62
7
  6
BYLAYER
 10
20.287215167
 20
32.0272135245
 11
20.7343661931
 21
32.2245524813
  0
LINE
  5
24E
100
AcDbEntity
  8
0
100
AcDbLine
 62
7
  6
BYLAYER
 10
60.049907775
 20
56.0943932176
 11
59.935266615
 21
56.1251096207
  0
LINE
  5
24F
100
AcDbEntity
  8
0
100
AcDbLine
 62
7
  6
BYLAYER
 10
60.4115053586
 20
56.7190123295
 11
60.0811880343
 21
56.8075159705
  0
LINE
  5
250
100
AcDbEntity
  8
0
100
AcDbLine
 62
7
  6
BYLAYER
 10
59.7522531511
 20
57.0194508749
 11
59.8668943111
 21
56.9887344718
  0
LINE
  5
251
100
AcDbEntity
  8
0
100
AcDbLine
 62
7
  6
BYLAYER
 10
54.2833252148
 20
65.9145049441
 11
54.314043221
 21
66.0291469004
  0
LINE
  5
252
100
AcDbEntity
  8
0
100
AcDbLine
 62
7
  6
BYLAYER
 10
55.0357778968
 20
66.0299937337
 11
54.9472696364
 21
65.699674115
  0
LINE
  5
253
100
AcDbEntity
  8
0
100
AcDbLine
 62
7
  6
BYLAYER
 10
54.9970587665
 20
65.4234902363
 11
54.9663407603
 21
65.30884828
  0
LINE
  5
254
100
AcDbEntity
  8
0
100
AcDbLine
 62
7
  6
BYLAYER
 10
55.9774478197
 20
65.117227057
 11
55.8465816973
 21
64.8279651848
  0
LINE
  5
255
100
AcDbEntity
  8
0
100
AcDbLine
 62
7
  6
BYLAYER
 10
55.9110970308
 20
64.481112432
 11
55.8656781472
 21
64.3807201301
  0
LINE
  5
256
100
AcDbEntity
  8
0
100
AcDbLine
 62
7
  6
BYLAYER
 10
24.4635635684
 20
32.9355753405
 11
24.4706045458
 21
32.9383206514
  0
LINE
  5
257
100
AcDbEntity
  8
0
100
AcDbLine
 62
7
  6
BYLAYER
 10
18.3010359451
 20
31.3925545063
 11
20.287215167
 21
32.0272135245
  0
LINE
  5
258
100
AcDbEntity
  8
0
100
AcDbLine
 62
7
  6
BYLAYER
 10
60.1959257067
 20
54.8887158881
 11
60.0782558133
 21
54.9387629582
  0
LINE
  5
259
100
AcDbEntity
  8
0
100
AcDbLine
 62
7
  6
BYLAYER
 10
60.605511952
 20
55.480779575
 11
60.2664678919
 21
55.6249809621
  0
LINE
  5
25A
100
AcDbEntity
  8
0
100
AcDbLine
 62
7
  6
BYLAYER
 10
59.9859594734
 20
55.8015661952
 11
60.1036293668
 21
55.7515191251
  0
LINE
  5
25B
100
AcDbEntity
  8
0
100
AcDbLine
 62
7
  6
BYLAYER
 10
60.2139356222
 20
53.7445281809
 11
60.09525036
 21
53.8130495989
  0
LINE
  5
25C
100
AcDbEntity
  8
0
100
AcDbLine
 62
7
  6
BYLAYER
 10
52.3610183007
 20
67.3461044639
 11
52.3610183007
 21
67.2090581187
  0
LINE
  5
25D
100
AcDbEntity
  8
0
100
AcDbLine
 62
7
  6
BYLAYER
 10
53.3274147021
 20
66.6314978477
 11
53.3429062374
 21
66.7584279027
  0
LINE
  5
25E
100
AcDbEntity
  8
0
100
AcDbLine
 62
7
  6
BYLAYER
 10
54.0604408886
 20
66.8171122653
 11
54.0158048913
 21
66.4513867602
  0
LINE
  5
25F
100
AcDbEntity
  8
0
100
AcDbLine
 62
7
  6
BYLAYER
 10
54.0439665408
 20
66.247104753
 11
54.0284750055
 21
66.120174698
  0
LINE
  5
260
100
AcDbEntity
  8
0
100
AcDbLine
 62
7
  6
BYLAYER
 10
59.1464163296
 20
49.7874849985
 11
59.139852097
 21
49.7819302023
  0
LINE
  5
261
100
AcDbEntity
  8
0
100
AcDbLine
 62
7
  6
BYLAYER
 10
59.0891494998
 20
49.8741101184
 11
59.0823885122
 21
49.8690029675
  0
LINE
  5
262
100
AcDbEntity
  8
0
100
AcDbLine
 62
7
  6
BYLAYER
 10
58.560779404
 20
46.8112258043
 11
57.0508035109
 21
45.9394460198
  0
LINE
  5
263
100
AcDbEntity
  8
0
100
AcDbLine
 62
7
  6
BYLAYER
 10
62.0005303493
 20
48.7971550842
 11
63.510506223
 21
49.6689348575
  0
LINE
  5
264
100
AcDbEntity
  8
0
100
AcDbLine
 62
7
  6
BYLAYER
 10
58.3589589769
 20
46.3761087357
 11
56.8851989248
 21
45.5252380519
  0
LINE
  5
265
100
AcDbEntity
  8
0
100
AcDbLine
 62
7
  6
BYLAYER
 10
61.8349257853
 20
48.3829471291
 11
63.3086858416
 21
49.2338178152
  0
LINE
  5
266
100
AcDbEntity
  8
0
100
AcDbLine
 62
7
  6
BYLAYER
 10
60.09525036
 20
54.629552016
 11
60.6705517661
 21
54.2973986543
  0
LINE
  5
267
100
AcDbEntity
  8
0
100
AcDbLine
 62
7
  6
BYLAYER
 10
60.1036293668
 20
52.6814074649
 11
59.9859594734
 21
52.7672308102
  0
LINE
  5
268
100
AcDbEntity
  8
0
100
AcDbLine
 62
7
  6
BYLAYER
 10
60.0782558133
 20
53.5234618248
 11
60.1959257067
 21
53.4376384795
  0
LINE
  5
269
100
AcDbEntity
  8
0
100
AcDbLine
 62
7
  6
BYLAYER
 10
59.8668943111
 20
51.7175440304
 11
59.7522531511
 21
51.8192008418
  0
LINE
  5
26A
100
AcDbEntity
  8
0
100
AcDbLine
 62
7
  6
BYLAYER
 10
51.4006713211
 20
67.6373035405
 11
51.3851797857
 21
67.7821212751
  0
LINE
  5
26B
100
AcDbEntity
  8
0
100
AcDbLine
 62
7
  6
BYLAYER
 10
52.0862400891
 20
67.4839480282
 11
52.1017316245
 21
67.3391302937
  0
LINE
  5
26C
100
AcDbEntity
  8
0
100
AcDbLine
 62
7
  6
BYLAYER
 10
53.0681280259
 20
66.8008173642
 11
53.0681250819
 21
67.4651148352
  0
LINE
  5
26D
100
AcDbEntity
  8
0
100
AcDbLine
 62
7
  6
BYLAYER
 10
59.935266615
 20
52.5022211315
 11
60.049907775
 21
52.40056432
  0
LINE
  5
26E
100
AcDbEntity
  8
0
100
AcDbLine
 62
7
  6
BYLAYER
 10
59.5077810576
 20
50.8694298478
 11
59.398130173
 21
50.9851807492
  0
LINE
  5
26F
100
AcDbEntity
  8
0
100
AcDbLine
 62
7
  6
BYLAYER
 10
59.6687293497
 20
51.5833036474
 11
59.7783802343
 21
51.4675527461
  0
LINE
  5
270
100
AcDbEntity
  8
0
100
AcDbLine
 62
7
  6
BYLAYER
 10
59.0324341336
 20
50.1515763861
 11
58.9296496814
 21
50.2794408474
  0
LINE
  5
271
100
AcDbEntity
  8
0
100
AcDbLine
 62
7
  6
BYLAYER
 10
59.283204544
 20
50.7824323056
 11
59.3859889962
 21
50.6545678443
  0
LINE
  5
272
100
AcDbEntity
  8
0
100
AcDbLine
 62
7
  6
BYLAYER
 10
58.8021164437
 20
50.0886848791
 11
58.8794479835
 21
49.9755200119
  0
LINE
  5
273
100
AcDbEntity
  8
0
100
AcDbLine
 62
7
  6
BYLAYER
 10
50.1713334981
 20
68.1073534325
 11
50.1858200672
 21
68.0586055594
  0
LINE
  5
274
100
AcDbEntity
  8
0
100
AcDbLine
 62
7
  6
BYLAYER
 10
50.4628055663
 20
67.9089067154
 11
50.43208756
 21
68.0590179676
  0
LINE
  5
275
100
AcDbEntity
  8
0
100
AcDbLine
 62
7
  6
BYLAYER
 10
51.1151031056
 20
67.8760140554
 11
51.1458211118
 21
67.7259028032
  0
LINE
  5
276
100
AcDbEntity
  8
0
100
AcDbLine
 62
7
  6
BYLAYER
 10
56.456012002
 20
48.6426535535
 11
56.4580964089
 21
48.659732319
  0
LINE
  5
277
100
AcDbEntity
  8
0
100
AcDbLine
 62
7
  6
BYLAYER
 10
56.456012002
 20
48.6426535535
 11
56.4600966879
 21
48.6579631908
  0
LINE
  5
278
100
AcDbEntity
  8
0
100
AcDbLine
 62
7
  6
BYLAYER
 10
64.4720018571
 20
55.9582396075
 11
63.8116699818
 21
54.943749126
  0
LWPOLYLINE
  5
279
100
AcDbEntity
  8
0
100
AcDbPolyline
 62
7
  6
BYLAYER
 90
3
 70
0
 10
56.2128913589
 20
69.8401625063
 10
57.1894401292
 20
69.7171889718
 10
58.4422772099
 20
69.1376456861
  0
LINE
  5
27A
100
AcDbEntity
  8
0
100
AcDbLine
 62
7
  6
BYLAYER
 10
64.8061017708
 20
58.1151124209
 11
64.4720018571
 21
55.9582396075
  0
ARC
  5
27B
100
AcDbEntity
  8
0
100
AcDbCircle
 62
7
  6
BYLAYER
 10
8.6138041673
 20
42.8228552906
 40
57.5711758913
100
AcDbArc
 50
17.5327486091
 51
18.1876531958
  0
ARC
  5
27C
100
AcDbEntity
  8
0
100
AcDbCircle
 62
7
  6
BYLAYER
 10
3.7032447361
 20
39.9777661102
 40
57.5300262378
100
AcDbArc
 50
17.5325151481
 51
18.1878881734
  0
ARC
  5
27D
100
AcDbEntity
  8
0
100
AcDbCircle
 62
7
  6
BYLAYER
 10
13.4442734541
 20
35.9605487964
 40
12.6195730498
100
AcDbArc
 50
39.6148277177
 51
39.7470354286
  0
ARC
  5
27E
100
AcDbEntity
  8
0
100
AcDbCircle
 62
7
  6
BYLAYER
 10
21.3133787591
 20
40.3107335885
 40
10.3095177233
100
AcDbArc
 50
215.4503352458
 51
219.5807001843
  0
ARC
  5
27F
100
AcDbEntity
  8
0
100
AcDbCircle
 62
7
  6
BYLAYER
 10
21.1655896288
 20
40.2242874189
 40
10.1015527932
100
AcDbArc
 50
215.5481238898
 51
219.5820659569
  0
ARC
  5
280
100
AcDbEntity
  8
0
100
AcDbCircle
 62
7
  6
BYLAYER
 10
20.8391730797
 20
39.9616069175
 40
9.6826054955
100
AcDbArc
 50
219.6148234607
 51
219.7648551917
  0
ARC
  5
281
100
AcDbEntity
  8
0
100
AcDbCircle
 62
7
  6
BYLAYER
 10
20.6681474072
 20
39.817423444
 40
9.4589169969
100
AcDbArc
 50
219.756158051
 51
223.4960464572
  0
ARC
  5
282
100
AcDbEntity
  8
0
100
AcDbCircle
 62
7
  6
BYLAYER
 10
20.0900125482
 20
39.2707825218
 40
8.6632700206
100
AcDbArc
 50
223.5052232772
 51
228.1485742445
  0
ARC
  5
283
100
AcDbEntity
  8
0
100
AcDbCircle
 62
7
  6
BYLAYER
 10
18.0634765625
 20
36.478421197
 40
5.2000959217
100
AcDbArc
 50
242.1080020977
 51
244.9615918003
  0
ARC
  5
284
100
AcDbEntity
  8
0
100
AcDbCircle
 62
7
  6
BYLAYER
 10
23.1393819988
 20
35.2442960466
 40
2.6626636461
100
AcDbArc
 50
299.0804655214
 51
299.8367503147
  0
ARC
  5
285
100
AcDbEntity
  8
0
100
AcDbCircle
 62
7
  6
BYLAYER
 10
23.0691244919
 20
35.2026003966
 40
2.6616832791
100
AcDbArc
 50
300.8400937978
 51
301.711170331
  0
ARC
  5
286
100
AcDbEntity
  8
0
100
AcDbCircle
 62
7
  6
BYLAYER
 10
23.0698450511
 20
35.2014074544
 40
2.6602896271
100
AcDbArc
 50
299.9978614248
 51
300.8399404797
  0
ARC
  5
287
100
AcDbEntity
  8
0
100
AcDbCircle
 62
7
  6
BYLAYER
 10
17.3731900808
 20
38.9421653458
 40
1.0115774443
100
AcDbArc
 50
164.3787886659
 51
164.7177492028
  0
ARC
  5
288
100
AcDbEntity
  8
0
100
AcDbCircle
 62
7
  6
BYLAYER
 10
17.7350496705
 20
44.4415118391
 40
2.6701085665
100
AcDbArc
 50
118.3252110183
 51
119.7787632194
  0
ARC
  5
289
100
AcDbEntity
  8
0
100
AcDbCircle
 62
7
  6
BYLAYER
 10
17.8016876891
 20
44.4891642751
 40
2.6621741059
100
AcDbArc
 50
120.9974172322
 51
121.8868688349
  0
ARC
  5
28A
100
AcDbEntity
  8
0
100
AcDbCircle
 62
7
  6
BYLAYER
 10
17.8007550983
 20
44.4907006638
 40
2.6603768443
100
AcDbArc
 50
119.9976223939
 51
120.9972413049
  0
ARC
  5
28B
100
AcDbEntity
  8
0
100
AcDbCircle
 62
7
  6
BYLAYER
 10
37.4178928125
 20
31.9036284658
 40
42.8475396313
100
AcDbArc
 50
65.4936571678
 51
66.1851118006
  0
ARC
  5
28C
100
AcDbEntity
  8
0
100
AcDbCircle
 62
7
  6
BYLAYER
 10
32.5072132591
 20
29.1329669144
 40
42.7521371631
100
AcDbArc
 50
65.4928838246
 51
66.1858814585
  0
ARC
  5
28D
100
AcDbEntity
  8
0
100
AcDbCircle
 62
7
  6
BYLAYER
 10
42.1593490636
 20
52.3903481955
 40
18.3171657181
100
AcDbArc
 50
31.5590862753
 51
32.7754923155
  0
ARC
  5
28E
100
AcDbEntity
  8
0
100
AcDbCircle
 62
7
  6
BYLAYER
 10
42.1739441217
 20
52.3942707505
 40
18.3025551139
100
AcDbArc
 50
27.2242987738
 51
28.4416768038
  0
ARC
  5
28F
100
AcDbEntity
  8
0
100
AcDbCircle
 62
7
  6
BYLAYER
 10
42.327813245
 20
52.4837610113
 40
18.0277675081
100
AcDbArc
 50
27.2498616959
 51
28.4161138817
  0
ARC
  5
290
100
AcDbEntity
  8
0
100
AcDbCircle
 62
7
  6
BYLAYER
 10
42.3378922974
 20
52.4940186792
 40
18.0139007677
100
AcDbArc
 50
31.5837147482
 51
32.7508638426
  0
ARC
  5
291
100
AcDbEntity
  8
0
100
AcDbCircle
 62
7
  6
BYLAYER
 10
42.6555163159
 20
52.7326679846
 40
17.7142453518
100
AcDbArc
 50
35.9297253794
 51
37.1732475156
  0
ARC
  5
292
100
AcDbEntity
  8
0
100
AcDbCircle
 62
7
  6
BYLAYER
 10
42.7444201095
 20
52.6628324472
 40
17.6718958512
100
AcDbArc
 50
22.8255513391
 51
24.0720564284
  0
ARC
  5
293
100
AcDbEntity
  8
0
100
AcDbCircle
 62
7
  6
BYLAYER
 10
42.8642176397
 20
52.7383825224
 40
17.4338763751
100
AcDbArc
 50
22.8526609221
 51
24.0449468454
  0
ARC
  5
294
100
AcDbEntity
  8
0
100
AcDbCircle
 62
7
  6
BYLAYER
 10
42.847156238
 20
52.8478004485
 40
17.3936829872
100
AcDbArc
 50
35.9539672181
 51
37.149005677
  0
ARC
  5
295
100
AcDbEntity
  8
0
100
AcDbCircle
 62
7
  6
BYLAYER
 10
43.5583241785
 20
53.460065953
 40
16.5545903795
100
AcDbArc
 50
40.4384976541
 51
41.7390910013
  0
ARC
  5
296
100
AcDbEntity
  8
0
100
AcDbCircle
 62
7
  6
BYLAYER
 10
43.8492136611
 20
53.0854721044
 40
16.4887432826
100
AcDbArc
 50
18.258627233
 51
19.5644195866
  0
ARC
  5
297
100
AcDbEntity
  8
0
100
AcDbCircle
 62
7
  6
BYLAYER
 10
43.928912716
 20
53.150006547
 40
16.2921123676
100
AcDbArc
 50
18.2880020057
 51
19.5350448139
  0
ARC
  5
298
100
AcDbEntity
  8
0
100
AcDbCircle
 62
7
  6
BYLAYER
 10
43.7507989977
 20
53.5811741654
 40
16.2296176742
100
AcDbArc
 50
40.4628742184
 51
41.714714437
  0
ARC
  5
299
100
AcDbEntity
  8
0
100
AcDbCircle
 62
7
  6
BYLAYER
 10
44.7209885595
 20
54.5611419773
 40
14.9528669024
100
AcDbArc
 50
45.1971772266
 51
46.5887020483
  0
ARC
  5
29A
100
AcDbEntity
  8
0
100
AcDbCircle
 62
7
  6
BYLAYER
 10
45.4022451812
 20
53.5406946586
 40
14.8699378951
100
AcDbArc
 50
13.4077750226
 51
14.8070680571
  0
ARC
  5
29B
100
AcDbEntity
  8
0
100
AcDbCircle
 62
7
  6
BYLAYER
 10
45.4398980802
 20
53.5991304617
 40
14.715369496
100
AcDbArc
 50
13.4402867514
 51
14.7745563283
  0
ARC
  5
29C
100
AcDbEntity
  8
0
100
AcDbCircle
 62
7
  6
BYLAYER
 10
44.9029294602
 20
54.6806009077
 40
14.6366625021
100
AcDbArc
 50
45.2222207687
 51
46.5636585062
  0
ARC
  5
29D
100
AcDbEntity
  8
0
100
AcDbCircle
 62
7
  6
BYLAYER
 10
50.3539855883
 20
57.2575720579
 40
14.4593627699
100
AcDbArc
 50
38.715945288
 51
39.3845402302
  0
ARC
  5
29E
100
AcDbEntity
  8
0
100
AcDbCircle
 62
7
  6
BYLAYER
 10
50.4537197804
 20
57.3392443961
 40
14.3304548395
100
AcDbArc
 50
39.3851743211
 51
39.6147542762
  0
ARC
  5
29F
100
AcDbEntity
  8
0
100
AcDbCircle
 62
7
  6
BYLAYER
 10
50.7227892638
 20
57.4787239528
 40
14.0765977212
100
AcDbArc
 50
38.9295032395
 51
39.6140610967
  0
ARC
  5
2A0
100
AcDbEntity
  8
0
100
AcDbCircle
 62
7
  6
BYLAYER
 10
45.9765693199
 20
55.974295807
 40
13.0619103335
100
AcDbArc
 50
50.3345065746
 51
51.8568995572
  0
ARC
  5
2A1
100
AcDbEntity
  8
0
100
AcDbCircle
 62
7
  6
BYLAYER
 10
47.2646186731
 20
53.9155455732
 40
12.9696181315
100
AcDbArc
 50
8.1381018359
 51
9.6713391318
  0
ARC
  5
2A2
100
AcDbEntity
  8
0
100
AcDbCircle
 62
7
  6
BYLAYER
 10
47.2624791732
 20
53.9737913671
 40
12.8540931914
100
AcDbArc
 50
8.1748230772
 51
9.6346178905
  0
ARC
  5
2A3
100
AcDbEntity
  8
0
100
AcDbCircle
 62
7
  6
BYLAYER
 10
46.1389244132
 20
56.0833174628
 40
12.7664995871
100
AcDbArc
 50
50.3608023322
 51
51.8306037995
  0
ARC
  5
2A4
100
AcDbEntity
  8
0
100
AcDbCircle
 62
7
  6
BYLAYER
 10
49.2640984653
 20
54.1235540222
 40
10.9585728777
100
AcDbArc
 50
2.2879095886
 51
4.0038284949
  0
ARC
  5
2A5
100
AcDbEntity
  8
0
100
AcDbCircle
 62
7
  6
BYLAYER
 10
49.2281420036
 20
54.1873572221
 40
10.8761013357
100
AcDbArc
 50
2.3301438626
 51
3.9615942209
  0
ARC
  5
2A6
100
AcDbEntity
  8
0
100
AcDbCircle
 62
7
  6
BYLAYER
 10
51.219426278
 20
54.1184003887
 40
9.0022763105
100
AcDbArc
 50
355.6630907535
 51
357.6197728683
  0
ARC
  5
2A7
100
AcDbEntity
  8
0
100
AcDbCircle
 62
7
  6
BYLAYER
 10
51.1583435976
 20
54.1922221389
 40
8.9449468581
100
AcDbArc
 50
355.7123355965
 51
357.5705280253
  0
ARC
  5
2A8
100
AcDbEntity
  8
0
100
AcDbCircle
 62
7
  6
BYLAYER
 10
52.9658091084
 20
53.9012187082
 40
7.2412994352
100
AcDbArc
 50
348.0396048732
 51
350.3021737841
  0
ARC
  5
2A9
100
AcDbEntity
  8
0
100
AcDbCircle
 62
7
  6
BYLAYER
 10
52.8896281299
 20
53.9873121824
 40
7.2004525616
100
AcDbArc
 50
348.0973359725
 51
350.2444426848
  0
ARC
  5
2AA
100
AcDbEntity
  8
0
100
AcDbCircle
 62
7
  6
BYLAYER
 10
54.3777337231
 20
53.5204180439
 40
5.7776499262
100
AcDbArc
 50
339.187465041
 51
341.8176181786
  0
ARC
  5
2AB
100
AcDbEntity
  8
0
100
AcDbCircle
 62
7
  6
BYLAYER
 10
54.2962804218
 20
53.6182545699
 40
5.7449310475
100
AcDbArc
 50
339.2545503035
 51
341.7505329161
  0
ARC
  5
2AC
100
AcDbEntity
  8
0
100
AcDbCircle
 62
7
  6
BYLAYER
 10
55.3856733553
 20
53.0640500855
 40
4.6699175472
100
AcDbArc
 50
328.9384762149
 51
331.9690534604
  0
ARC
  5
2AD
100
AcDbEntity
  8
0
100
AcDbCircle
 62
7
  6
BYLAYER
 10
55.3071061598
 20
53.1701844135
 40
4.6379649082
100
AcDbArc
 50
329.0140711542
 51
331.8934585211
  0
ARC
  5
2AE
100
AcDbEntity
  8
0
100
AcDbCircle
 62
7
  6
BYLAYER
 10
55.9841842416
 20
52.6458894317
 40
3.9387085413
100
AcDbArc
 50
317.3139306739
 51
320.7073235547
  0
ARC
  5
2AF
100
AcDbEntity
  8
0
100
AcDbCircle
 62
7
  6
BYLAYER
 10
55.9080330065
 20
52.7591455999
 40
3.9088493179
100
AcDbArc
 50
317.7962462954
 51
320.6258154358
  0
ARC
  5
2B0
100
AcDbEntity
  8
0
100
AcDbCircle
 62
7
  6
BYLAYER
 10
56.283543195
 20
53.2189631951
 40
3.8675929305
100
AcDbArc
 50
320.5474505693
 51
320.9120991213
  0
ARC
  5
2B1
100
AcDbEntity
  8
0
100
AcDbCircle
 62
7
  6
BYLAYER
 10
56.7741640764
 20
52.5833184616
 40
3.6666409683
100
AcDbArc
 50
304.371602074
 51
310.1800847874
  0
ARC
  5
2B2
100
AcDbEntity
  8
0
100
AcDbCircle
 62
7
  6
BYLAYER
 10
11.1777763383
 20
68.5245287857
 40
52.1211713787
100
AcDbArc
 50
334.8530742396
 51
335.380339303
  0
ARC
  5
2B3
100
AcDbEntity
  8
0
100
AcDbCircle
 62
7
  6
BYLAYER
 10
16.5362709817
 20
71.192636954
 40
51.6705770221
100
AcDbArc
 50
334.8507773023
 51
335.3826403973
  0
ARC
  5
2B4
100
AcDbEntity
  8
0
100
AcDbCircle
 62
7
  6
BYLAYER
 10
47.1632131823
 20
57.5952909628
 40
11.0522253341
100
AcDbArc
 50
56.0039576452
 51
57.7053217361
  0
ARC
  5
2B5
100
AcDbEntity
  8
0
100
AcDbCircle
 62
7
  6
BYLAYER
 10
47.3003065198
 20
57.6851014718
 40
10.787216562
100
AcDbArc
 50
56.0321992333
 51
57.6770801481
  0
ARC
  5
2B6
100
AcDbEntity
  8
0
100
AcDbCircle
 62
7
  6
BYLAYER
 10
48.1482931439
 20
59.2912262189
 40
9.0900009235
100
AcDbArc
 50
62.3902996935
 51
64.328078943
  0
ARC
  5
2B7
100
AcDbEntity
  8
0
100
AcDbCircle
 62
7
  6
BYLAYER
 10
48.2583630266
 20
59.354267701
 40
8.8616879207
100
AcDbArc
 50
62.4213717097
 51
64.2970069267
  0
ARC
  5
2B8
100
AcDbEntity
  8
0
100
AcDbCircle
 62
7
  6
BYLAYER
 10
56.1862052998
 20
58.1148164385
 40
8.619893045
100
AcDbArc
 50
0.0019805407
 51
0.9807498478
  0
ARC
  5
2B9
100
AcDbEntity
  8
0
100
AcDbCircle
 62
7
  6
BYLAYER
 10
54.1436265011
 20
61.6934836051
 40
8.5961548665
100
AcDbArc
 50
58.943704196
 51
59.995587745
  0
ARC
  5
2BA
100
AcDbEntity
  8
0
100
AcDbCircle
 62
7
  6
BYLAYER
 10
48.8477779415
 20
60.9188200693
 40
7.3173295375
100
AcDbArc
 50
69.7103574347
 51
71.9493921994
  0
ARC
  5
2BB
100
AcDbEntity
  8
0
100
AcDbCircle
 62
7
  6
BYLAYER
 10
48.9329181569
 20
60.9497966324
 40
7.1282925253
100
AcDbArc
 50
69.7454632448
 51
71.9142863894
  0
ARC
  5
2BC
100
AcDbEntity
  8
0
100
AcDbCircle
 62
7
  6
BYLAYER
 10
49.2278145938
 20
62.2941049935
 40
5.8893543769
100
AcDbArc
 50
78.2007628145
 51
79.9269051862
  0
ARC
  5
2BD
100
AcDbEntity
  8
0
100
AcDbCircle
 62
7
  6
BYLAYER
 10
49.2844151197
 20
62.2426355091
 40
5.7875066677
100
AcDbArc
 50
78.2518964195
 51
79.5044768712
  0
ARC
  5
2BE
100
AcDbEntity
  8
0
100
AcDbCircle
 62
7
  6
BYLAYER
 10
49.2621610853
 20
62.4827154588
 40
5.6976439703
100
AcDbArc
 50
79.9352341536
 51
80.8180681006
  0
ARC
  5
2BF
100
AcDbEntity
  8
0
100
AcDbCircle
 62
7
  6
BYLAYER
 10
49.6316126048
 20
65.2671590605
 40
4.6042882329
100
AcDbArc
 50
140.9562231973
 51
142.1828065995
  0
ARC
  5
2C0
100
AcDbEntity
  8
0
100
AcDbCircle
 62
7
  6
BYLAYER
 10
49.6286689736
 20
64.9645889913
 40
3.6484307237
100
AcDbArc
 50
109.4717819584
 51
116.265524028
  0
ARC
  5
2C1
100
AcDbEntity
  8
0
100
AcDbCircle
 62
7
  6
BYLAYER
 10
107.6723321261
 20
0.6575494126
 40
92.8919934356
100
AcDbArc
 50
132.1490510823
 51
132.3891711297
  0
ARC
  5
2C2
100
AcDbEntity
  8
0
100
AcDbCircle
 62
7
  6
BYLAYER
 10
102.2527763813
 20
-1.6832679426
 40
92.1934849727
100
AcDbArc
 50
132.1481401686
 51
132.3900795245
  0
ARC
  5
2C3
100
AcDbEntity
  8
0
100
AcDbCircle
 62
7
  6
BYLAYER
 10
95.8759211254
 20
30.1765570284
 40
41.9029644195
100
AcDbArc
 50
157.9029853366
 51
158.5129419843
  0
ARC
  5
2C4
100
AcDbEntity
  8
0
100
AcDbCircle
 62
7
  6
BYLAYER
 10
100.6354057528
 20
33.1103287731
 40
41.6980828954
100
AcDbArc
 50
157.901489244
 51
158.5144428803
  0
ARC
  5
2C5
100
AcDbEntity
  8
0
100
AcDbCircle
 62
7
  6
BYLAYER
 10
105.862189184
 20
102.0848804397
 40
80.9889379348
100
AcDbArc
 50
224.4341790556
 51
224.6637851718
  0
ARC
  5
2C6
100
AcDbEntity
  8
0
100
AcDbCircle
 62
7
  6
BYLAYER
 10
116.1663805258
 20
109.9556361471
 40
74.1157714538
100
AcDbArc
 50
212.5851647104
 51
212.9744777576
  0
ARC
  5
2C7
100
AcDbEntity
  8
0
100
AcDbCircle
 62
7
  6
BYLAYER
 10
115.8058903459
 20
61.7995232509
 40
71.150729048
100
AcDbArc
 50
173.9763757144
 51
175.0510454169
  0
ARC
  5
2C8
100
AcDbEntity
  8
0
100
AcDbCircle
 62
7
  6
BYLAYER
 10
115.3469194322
 20
71.6971995556
 40
60.2604265271
100
AcDbArc
 50
194.0342061182
 51
194.669436199
  0
ARC
  5
2C9
100
AcDbEntity
  8
0
100
AcDbCircle
 62
7
  6
BYLAYER
 10
120.0830731755
 20
74.5002629622
 40
60.0399766985
100
AcDbArc
 50
194.0330391713
 51
194.6706016638
  0
ARC
  5
2CA
100
AcDbEntity
  8
0
100
AcDbCircle
 62
7
  6
BYLAYER
 10
80.0077807373
 20
90.1690479681
 40
55.0845959115
100
AcDbArc
 50
234.8051671636
 51
235.4492287957
  0
ARC
  5
2CB
100
AcDbEntity
  8
0
100
AcDbCircle
 62
7
  6
BYLAYER
 10
70.9273617554
 20
116.651281989
 40
49.6867229106
100
AcDbArc
 50
249.1084010955
 51
249.7341370651
  0
ARC
  5
2CC
100
AcDbEntity
  8
0
100
AcDbCircle
 62
7
  6
BYLAYER
 10
65.8647479376
 20
113.4928990703
 40
49.3655607533
100
AcDbArc
 50
249.1063639548
 51
249.7361708592
  0
SPLINE
  5
2CD
100
AcDbEntity
  8
0
100
AcDbSpline
 62
7
  6
BYLAYER
 70
0
 71
3
 72
11
 73
7
 74
0
 42
0.0000001
 43
0.0000001
 44
0.0000000001
 40
0.0
 40
0.0
 40
0.0
 40
0.0
 40
0.2438909401
 40
0.4915600864
 40
0.7434920037
 40
1.0
 40
1.0
 40
1.0
 40
1.0
 10
63.5105064786
 20
60.1662219557
 30
0.0
 10
63.5585269742
 20
59.7556962315
 30
0.0
 10
63.6453764755
 20
58.9270780601
 30
0.0
 10
63.7424986989
 20
57.6706508875
 30
0.0
 10
63.80280426
 20
56.3904859567
 30
0.0
 10
63.8161740639
 20
55.5287616217
 30
0.0
 10
63.8161740639
 20
55.0940546167
 30
0.0
  0
SPLINE
  5
2CE
100
AcDbEntity
  8
0
100
AcDbSpline
 62
7
  6
BYLAYER
 70
0
 71
3
 72
10
 73
6
 74
0
 42
0.0000001
 43
0.0000001
 44
0.0000000001
 40
0.0
 40
0.0
 40
0.0
 40
0.0
 40
0.2518572263
 40
0.5024569043
 40
1.0
 40
1.0
 40
1.0
 40
1.0
 10
59.5735150435
 20
66.0288407147
 30
0.0
 10
59.9119722535
 20
65.6077991007
 30
0.0
 10
60.5743315739
 20
64.7573726298
 30
0.0
 10
61.8408969035
 20
63.0260442235
 30
0.0
 10
62.7339094352
 20
61.6917360682
 30
0.0
 10
63.3086858223
 20
60.792557897
 30
0.0
  0
SPLINE
  5
2CF
100
AcDbEntity
  8
0
100
AcDbSpline
 62
7
  6
BYLAYER
 70
0
 71
3
 72
10
 73
6
 74
0
 42
0.0000001
 43
0.0000001
 44
0.0000000001
 40
0.0
 40
0.0
 40
0.0
 40
0.0
 40
0.2442470485
 40
0.4926262734
 40
1.0
 40
1.0
 40
1.0
 40
1.0
 10
63.8161740639
 20
55.0940546167
 30
0.0
 10
63.8161740623
 20
54.6514934313
 30
0.0
 10
63.8020836443
 20
53.7588251818
 30
0.0
 10
63.7203354615
 20
51.9485407057
 30
0.0
 10
63.6047477386
 20
50.5834228477
 30
0.0
 10
63.510506223
 20
49.6689348575
 30
0.0
  0
SPLINE
  5
2D0
100
AcDbEntity
  8
0
100
AcDbSpline
 62
7
  6
BYLAYER
 70
0
 71
3
 72
9
 73
5
 74
0
 42
0.0000001
 43
0.0000001
 44
0.0000000001
 40
0.0
 40
0.0
 40
0.0
 40
0.0
 40
0.4887648512
 40
1.0
 40
1.0
 40
1.0
 40
1.0
 10
58.6443866288
 20
47.9537556214
 30
0.0
 10
59.1656517946
 20
48.0120639764
 30
0.0
 10
60.2305854119
 20
48.1454867059
 30
0.0
 10
61.2925932037
 20
48.3000594405
 30
0.0
 10
61.8349257853
 20
48.382947129
 30
0.0
  0
SPLINE
  5
2D1
100
AcDbEntity
  8
0
100
AcDbSpline
 62
7
  6
BYLAYER
 70
0
 71
3
 72
10
 73
6
 74
0
 42
0.0000001
 43
0.0000001
 44
0.0000000001
 40
0.0
 40
0.0
 40
0.0
 40
0.0
 40
0.5016857922
 40
0.7513585179
 40
1.0
 40
1.0
 40
1.0
 40
1.0
 10
55.1907941112
 20
70.8912627912
 30
0.0
 10
55.9624681832
 20
70.1141883061
 30
0.0
 10
57.0958473269
 20
68.9275190843
 30
0.0
 10
58.5388067279
 20
67.2892260135
 30
0.0
 10
59.2334611127
 20
66.4518716159
 30
0.0
 10
59.5735150435
 20
66.0288407147
 30
0.0
  0
SPLINE
  5
2D2
100
AcDbEntity
  8
0
100
AcDbSpline
 62
7
  6
BYLAYER
 70
0
 71
3
 72
9
 73
5
 74
0
 42
0.0000001
 43
0.0000001
 44
0.0000000001
 40
0.0
 40
0.0
 40
0.0
 40
0.0
 40
0.5215743723
 40
1.0
 40
1.0
 40
1.0
 40
1.0
 10
51.0881982746
 20
70.9277298661
 30
0.0
 10
51.7178114898
 20
70.9839741577
 30
0.0
 10
52.9272532177
 20
71.0682409373
 30
0.0
 10
54.1391857836
 20
71.0995217609
 30
0.0
 10
54.719002346
 20
71.1029047659
 30
0.0
  0
SPLINE
  5
2D3
100
AcDbEntity
  8
0
100
AcDbSpline
 62
7
  6
BYLAYER
 70
0
 71
3
 72
9
 73
5
 74
0
 42
0.0000001
 43
0.0000001
 44
0.0000000001
 40
0.0
 40
0.0
 40
0.0
 40
0.0
 40
0.5170221285
 40
1.0
 40
1.0
 40
1.0
 40
1.0
 10
46.8460606301
 20
70.3996034809
 30
0.0
 10
47.5745661436
 20
70.5100018464
 30
0.0
 10
48.9857665171
 20
70.7097813591
 30
0.0
 10
50.4026227941
 20
70.8664864499
 30
0.0
 10
51.0881982746
 20
70.9277298661
 30
0.0
  0
SPLINE
  5
2D4
100
AcDbEntity
  8
0
100
AcDbSpline
 62
7
  6
BYLAYER
 70
0
 71
3
 72
9
 73
5
 74
0
 42
0.0000001
 43
0.0000001
 44
0.0000000001
 40
0.0
 40
0.0
 40
0.0
 40
0.0
 40
0.4948395905
 40
1.0
 40
1.0
 40
1.0
 40
1.0
 10
48.4124916998
 20
68.4043505505
 30
0.0
 10
48.542470296
 20
68.4503755011
 30
0.0
 10
48.8104978172
 20
68.5288276591
 30
0.0
 10
49.0852993064
 20
68.578251917
 30
0.0
 10
49.2249152628
 20
68.5961817861
 30
0.0
  0
SPLINE
  5
2D5
100
AcDbEntity
  8
0
100
AcDbSpline
 62
7
  6
BYLAYER
 70
0
 71
3
 72
25
 73
21
 74
0
 42
0.0000001
 43
0.0000001
 44
0.0000000001
 40
0.0
 40
0.0
 40
0.0
 40
0.0
 40
0.0220114265
 40
0.044737398
 40
0.0682806086
 40
0.0927185121
 40
0.1444450052
 40
0.2001497054
 40
0.259734973
 40
0.3228744129
 40
0.3890644984
 40
0.4576683486
 40
0.5279533727
 40
0.5991244088
 40
0.6703547039
 40
0.7408149421
 40
0.8097042818
 40
0.8762778423
 40
0.9398867515
 40
1.0
 40
1.0
 40
1.0
 40
1.0
 10
49.2249152628
 20
68.5961817861
 30
0.0
 10
49.3708804432
 20
68.6149270403
 30
0.0
 10
49.6697362791
 20
68.6374729198
 30
0.0
 10
50.12676791
 20
68.6273558952
 30
0.0
 10
50.5971001215
 20
68.5738763418
 30
0.0
 10
51.2513901895
 20
68.4428015646
 30
0.0
 10
52.0923668668
 20
68.1667135514
 30
0.0
 10
53.0997317775
 20
67.678676357
 30
0.0
 10
54.1079060274
 20
67.036492679
 30
0.0
 10
55.0997998226
 20
66.2513880943
 30
0.0
 10
56.0586701657
 20
65.3368634333
 30
0.0
 10
56.9680788847
 20
64.3086766192
 30
0.0
 10
57.8123654444
 20
63.184573029
 30
0.0
 10
58.5769368428
 20
61.9839928178
 30
0.0
 10
59.2485526769
 20
60.7277214724
 30
0.0
 10
59.8155946976
 20
59.4375052993
 30
0.0
 10
60.2682296853
 20
58.1356760056
 30
0.0
 10
60.5986682202
 20
56.8446109243
 30
0.0
 10
60.8011186372
 20
55.5867329334
 30
0.0
 10
60.8498664295
 20
54.7590748711
 30
0.0
 10
60.8498664295
 20
54.357169929
 30
0.0
  0
SPLINE
  5
2D6
100
AcDbEntity
  8
0
100
AcDbSpline
 62
7
  6
BYLAYER
 70
0
 71
3
 72
15
 73
11
 74
0
 42
0.0000001
 43
0.0000001
 44
0.0000000001
 40
0.0
 40
0.0
 40
0.0
 40
0.0
 40
0.1108410465
 40
0.2280578197
 40
0.3507094003
 40
0.477625969
 40
0.6074737799
 40
0.7388131746
 40
0.8701524765
 40
1.0
 40
1.0
 40
1.0
 40
1.0
 10
61.6948625511
 20
53.8693222273
 30
0.0
 10
61.6948625511
 20
54.3102567267
 30
0.0
 10
61.6420480997
 20
55.2180038658
 30
0.0
 10
61.4224521061
 20
56.5977093093
 30
0.0
 10
61.0639289203
 20
58.0139922171
 30
0.0
 10
60.5725592212
 20
59.4428402036
 30
0.0
 10
59.9566496211
 20
60.8602450967
 30
0.0
 10
59.2265881835
 20
62.2422710256
 30
0.0
 10
58.3948029456
 20
63.565447662
 30
0.0
 10
57.7758320939
 20
64.4015140982
 30
0.0
 10
57.4522042115
 20
64.8041087663
 30
0.0
  0
SPLINE
  5
2D7
100
AcDbEntity
  8
0
100
AcDbSpline
 62
7
  6
BYLAYER
 70
0
 71
3
 72
17
 73
13
 74
0
 42
0.0000001
 43
0.0000001
 44
0.0000000001
 40
0.0
 40
0.0
 40
0.0
 40
0.0
 40
0.0547196619
 40
0.1092905362
 40
0.1640333615
 40
0.2192590015
 40
0.3322254308
 40
0.4504194291
 40
0.5754669708
 40
0.7084399928
 40
0.8499273241
 40
1.0
 40
1.0
 40
1.0
 40
1.0
 10
58.7151575179
 20
48.134052298
 30
0.0
 10
58.8310493445
 20
48.1812541056
 30
0.0
 10
59.0583166438
 20
48.2862749498
 30
0.0
 10
59.3830570607
 20
48.4750856593
 30
0.0
 10
59.6896905802
 20
48.694148524
 30
0.0
 10
60.0758823971
 20
49.0279152706
 30
0.0
 10
60.510660687
 20
49.5226459865
 30
0.0
 10
60.9399773142
 20
50.2188753399
 30
0.0
 10
61.2773048473
 20
51.0135107429
 30
0.0
 10
61.5195597457
 20
51.89691578
 30
0.0
 10
61.664601816
 20
52.8588019419
 30
0.0
 10
61.6948625467
 20
53.5261286054
 30
0.0
 10
61.6948625511
 20
53.8693222273
 30
0.0
  0
SPLINE
  5
2D8
100
AcDbEntity
  8
0
100
AcDbSpline
 62
7
  6
BYLAYER
 70
0
 71
3
 72
15
 73
11
 74
0
 42
0.0000001
 43
0.0000001
 44
0.0000000001
 40
0.0
 40
0.0
 40
0.0
 40
0.0
 40
0.1289736283
 40
0.2552347869
 40
0.379464624
 40
0.5024842544
 40
0.6251806648
 40
0.7484373997
 40
0.8731075239
 40
1.0
 40
1.0
 40
1.0
 40
1.0
 10
48.9668874984
 20
69.7029978345
 30
0.0
 10
48.8220062419
 20
69.6900554561
 30
0.0
 10
48.5362529418
 20
69.6514152882
 30
0.0
 10
48.1189608953
 20
69.5535061834
 30
0.0
 10
47.7198280674
 20
69.4165310946
 30
0.0
 10
47.340478101
 20
69.241042981
 30
0.0
 10
46.982345014
 20
69.0276609422
 30
0.0
 10
46.646746041
 20
68.7772249712
 30
0.0
 10
46.334982941
 20
68.4907259343
 30
0.0
 10
46.1457727215
 20
68.2786126719
 30
0.0
 10
46.0556235317
 20
68.1674646102
 30
0.0
  0
SPLINE
  5
2D9
100
AcDbEntity
  8
0
100
AcDbSpline
 62
7
  6
BYLAYER
 70
0
 71
3
 72
15
 73
11
 74
0
 42
0.0000001
 43
0.0000001
 44
0.0000000001
 40
0.0
 40
0.0
 40
0.0
 40
0.0
 40
0.1491363323
 40
0.2932607276
 40
0.4309986235
 40
0.5612444633
 40
0.6832502652
 40
0.7967301516
 40
0.9019803556
 40
1.0
 40
1.0
 40
1.0
 40
1.0
 10
57.4522042115
 20
64.8041087663
 30
0.0
 10
57.1358828563
 20
65.1976145834
 30
0.0
 10
56.4834225258
 20
65.9475953855
 30
0.0
 10
55.4362295913
 20
66.9661318803
 30
0.0
 10
54.3510249469
 20
67.8462388153
 30
0.0
 10
53.2458719669
 20
68.5730188551
 30
0.0
 10
52.1388959343
 20
69.1341977777
 30
0.0
 10
51.0477405325
 20
69.5199301302
 30
0.0
 10
49.9903472002
 20
69.7227978775
 30
0.0
 10
49.2974044335
 20
69.7325235585
 30
0.0
 10
48.9668874984
 20
69.7029978345
 30
0.0
  0
SPLINE
  5
2DA
100
AcDbEntity
  8
0
100
AcDbSpline
 62
7
  6
BYLAYER
 70
0
 71
3
 72
10
 73
6
 74
0
 42
0.0000001
 43
0.0000001
 44
0.0000000001
 40
0.0
 40
0.0
 40
0.0
 40
0.0
 40
0.2723292994
 40
0.5297736699
 40
1.0
 40
1.0
 40
1.0
 40
1.0
 10
60.8498664295
 20
54.357169929
 30
0.0
 10
60.8498664295
 20
54.0603352328
 30
0.0
 10
60.8245970552
 20
53.4821936181
 30
0.0
 10
60.6691656785
 20
52.4027758363
 30
0.0
 10
60.4269440983
 20
51.6358473242
 30
0.0
 10
60.2017617636
 20
51.1754241161
 30
0.0
  0
SPLINE
  5
2DB
100
AcDbEntity
  8
0
100
AcDbSpline
 62
7
  6
BYLAYER
 70
0
 71
3
 72
10
 73
6
 74
0
 42
0.0000001
 43
0.0000001
 44
0.0000000001
 40
0.0
 40
0.0
 40
0.0
 40
0.0
 40
0.5131960811
 40
0.7591559101
 40
1.0
 40
1.0
 40
1.0
 40
1.0
 10
60.2017617636
 20
51.1754241161
 30
0.0
 10
60.0699182821
 20
50.9058479134
 30
0.0
 10
59.8384802039
 20
50.5225809742
 30
0.0
 10
59.4606097495
 20
50.0752663703
 30
0.0
 10
59.2538174323
 20
49.8785834071
 30
0.0
 10
59.1464163296
 20
49.7874849985
 30
0.0
  0
SPLINE
  5
2DC
100
AcDbEntity
  8
0
100
AcDbSpline
 62
7
  6
BYLAYER
 70
0
 71
3
 72
10
 73
6
 74
0
 42
0.0000001
 43
0.0000001
 44
0.0000000001
 40
0.0
 40
0.0
 40
0.0
 40
0.0
 40
0.244247004
 40
0.4926262622
 40
1.0
 40
1.0
 40
1.0
 40
1.0
 10
61.69486255
 20
53.8693221539
 30
0.0
 10
61.69486255
 20
54.311883258
 30
0.0
 10
61.708952193
 20
55.2045514997
 30
0.0
 10
61.790701125
 20
57.0148359506
 30
0.0
 10
61.9062885876
 20
58.3799538945
 30
0.0
 10
62.0005301196
 20
59.2944419022
 30
0.0
  0
SPLINE
  5
2DD
100
AcDbEntity
  8
0
100
AcDbSpline
 62
7
  6
BYLAYER
 70
0
 71
3
 72
10
 73
6
 74
0
 42
0.0000001
 43
0.0000001
 44
0.0000000001
 40
0.0
 40
0.0
 40
0.0
 40
0.0
 40
0.501685792
 40
0.7513585178
 40
1.0
 40
1.0
 40
1.0
 40
1.0
 10
61.8349257855
 20
59.9416872221
 30
0.0
 10
61.0632517294
 20
60.718761688
 30
0.0
 10
59.929872856
 20
61.9054310825
 30
0.0
 10
58.4869128754
 20
63.5437236243
 30
0.0
 10
57.7922597095
 20
64.3810789711
 30
0.0
 10
57.4522049582
 20
64.8041091974
 30
0.0
  0
SPLINE
  5
2DE
100
AcDbEntity
  8
0
100
AcDbSpline
 62
7
  6
BYLAYER
 70
0
 71
3
 72
10
 73
6
 74
0
 42
0.0000001
 43
0.0000001
 44
0.0000000001
 40
0.0
 40
0.0
 40
0.0
 40
0.0
 40
0.2517194001
 40
0.5022822194
 40
1.0
 40
1.0
 40
1.0
 40
1.0
 10
57.4522049582
 20
64.8041091974
 30
0.0
 10
57.1404034806
 20
65.1919919931
 30
0.0
 10
56.5291473426
 20
65.9748311112
 30
0.0
 10
55.3561069228
 20
67.5665385392
 30
0.0
 10
54.5252722036
 20
68.7914830016
 30
0.0
 10
53.9896894817
 20
69.6169863307
 30
0.0
  0
SPLINE
  5
2DF
100
AcDbEntity
  8
0
100
AcDbSpline
 62
7
  6
BYLAYER
 70
0
 71
3
 72
9
 73
5
 74
0
 42
0.0000001
 43
0.0000001
 44
0.0000000001
 40
0.0
 40
0.0
 40
0.0
 40
0.0
 40
0.5170221283
 40
1.0
 40
1.0
 40
1.0
 40
1.0
 10
53.2090258791
 20
70.2311246501
 30
0.0
 10
52.4805203702
 20
70.1207262809
 30
0.0
 10
51.0693200029
 20
69.9209467756
 30
0.0
 10
49.6524637336
 20
69.7642416828
 30
0.0
 10
48.9668882564
 20
69.7029982667
 30
0.0
  0
SPLINE
  5
2E0
100
AcDbEntity
  8
0
100
AcDbSpline
 62
7
  6
BYLAYER
 70
0
 71
3
 72
9
 73
5
 74
0
 42
0.0000001
 43
0.0000001
 44
0.0000000001
 40
0.0
 40
0.0
 40
0.0
 40
0.0
 40
0.5215743725
 40
1.0
 40
1.0
 40
1.0
 40
1.0
 10
48.9668882564
 20
69.7029982667
 30
0.0
 10
48.3372750371
 20
69.6467539744
 30
0.0
 10
47.1278333014
 20
69.5624871969
 30
0.0
 10
45.9159007278
 20
69.5312063631
 30
0.0
 10
45.3360841619
 20
69.5278233644
 30
0.0
  0
SPLINE
  5
2E1
100
AcDbEntity
  8
0
100
AcDbSpline
 62
7
  6
BYLAYER
 70
0
 71
3
 72
9
 73
5
 74
0
 42
0.0000001
 43
0.0000001
 44
0.0000000001
 40
0.0
 40
0.0
 40
0.0
 40
0.0
 40
0.2474419075
 40
1.0
 40
1.0
 40
1.0
 40
1.0
 10
58.8635120666
 20
50.3397159002
 30
0.0
 10
58.8997488461
 20
50.3716948914
 30
0.0
 10
59.0435390481
 20
50.5039195869
 30
0.0
 10
59.1765073424
 20
50.647847494
 30
0.0
 10
59.2699093258
 20
50.7613439389
 30
0.0
  0
SPLINE
  5
2E2
100
AcDbEntity
  8
0
100
AcDbSpline
 62
7
  6
BYLAYER
 70
0
 71
3
 72
11
 73
7
 74
0
 42
0.0000001
 43
0.0000001
 44
0.0000000001
 40
0.0
 40
0.0
 40
0.0
 40
0.0
 40
0.24389067
 40
0.4915598082
 40
0.7434921438
 40
1.0
 40
1.0
 40
1.0
 40
1.0
 10
62.0005303493
 20
48.7971550842
 30
0.0
 10
61.9525099072
 20
49.207680342
 30
0.0
 10
61.8656571243
 20
50.0362976471
 30
0.0
 10
61.7685342533
 20
51.2927250767
 30
0.0
 10
61.7082353918
 20
52.5728907019
 30
0.0
 10
61.6948625515
 20
53.4346153985
 30
0.0
 10
61.69486255
 20
53.8693221539
 30
0.0
  0
SPLINE
  5
2E3
100
AcDbEntity
  8
0
100
AcDbSpline
 62
7
  6
BYLAYER
 70
0
 71
3
 72
10
 73
6
 74
0
 42
0.0000001
 43
0.0000001
 44
0.0000000001
 40
0.0
 40
0.0
 40
0.0
 40
0.0
 40
0.5065063732
 40
0.7550831489
 40
1.0
 40
1.0
 40
1.0
 40
1.0
 10
40.0982781401
 20
66.4082661775
 30
0.0
 10
40.0095760097
 20
65.566445492
 30
0.0
 10
39.8978155723
 20
64.3090462527
 30
0.0
 10
39.8075582829
 20
62.6401368721
 30
0.0
 10
39.7843891438
 20
61.8156037597
 30
0.0
 10
39.7786841195
 20
61.406334814
 30
0.0
  0
SPLINE
  5
2E4
100
AcDbEntity
  8
0
100
AcDbSpline
 62
7
  6
BYLAYER
 70
0
 71
3
 72
9
 73
5
 74
0
 42
0.0000001
 43
0.0000001
 44
0.0000000001
 40
0.0
 40
0.0
 40
0.0
 40
0.0
 40
0.4778397043
 40
1.0
 40
1.0
 40
1.0
 40
1.0
 10
48.7673072143
 20
44.8000550289
 30
0.0
 10
49.3630399228
 20
44.8021315175
 30
0.0
 10
50.6098346889
 20
44.8318541043
 30
0.0
 10
51.8540680635
 20
44.9177926142
 30
0.0
 10
52.5024780752
 20
44.9757160816
 30
0.0
  0
SPLINE
  5
2E5
100
AcDbEntity
  8
0
100
AcDbSpline
 62
7
  6
BYLAYER
 70
0
 71
3
 72
9
 73
5
 74
0
 42
0.0000001
 43
0.0000001
 44
0.0000000001
 40
0.0
 40
0.0
 40
0.0
 40
0.0
 40
0.5170221285
 40
1.0
 40
1.0
 40
1.0
 40
1.0
 10
41.8963337696
 20
67.5418944038
 30
0.0
 10
42.6248392825
 20
67.6522927736
 30
0.0
 10
44.0360396569
 20
67.85207228
 30
0.0
 10
45.4528959336
 20
68.0087773728
 30
0.0
 10
46.1384714141
 20
68.070020789
 30
0.0
  0
SPLINE
  5
2E6
100
AcDbEntity
  8
0
100
AcDbSpline
 62
7
  6
BYLAYER
 70
0
 71
3
 72
9
 73
5
 74
0
 42
0.0000001
 43
0.0000001
 44
0.0000000001
 40
0.0
 40
0.0
 40
0.0
 40
0.0
 40
0.5215743723
 40
1.0
 40
1.0
 40
1.0
 40
1.0
 10
46.1384714141
 20
68.070020789
 30
0.0
 10
46.7680846292
 20
68.1262650806
 30
0.0
 10
47.9775263572
 20
68.2105318568
 30
0.0
 10
49.1894589231
 20
68.2418126902
 30
0.0
 10
49.7692754855
 20
68.2451956888
 30
0.0
  0
SPLINE
  5
2E7
100
AcDbEntity
  8
0
100
AcDbSpline
 62
7
  6
BYLAYER
 70
0
 71
3
 72
10
 73
6
 74
0
 42
0.0000001
 43
0.0000001
 44
0.0000000001
 40
0.0
 40
0.0
 40
0.0
 40
0.0
 40
0.501685792
 40
0.7513585178
 40
1.0
 40
1.0
 40
1.0
 40
1.0
 10
50.2410672663
 20
68.0335537231
 30
0.0
 10
51.0127413266
 20
67.2564792529
 30
0.0
 10
52.1461202059
 20
66.0698098515
 30
0.0
 10
53.5890801939
 20
64.4315173003
 30
0.0
 10
54.283733363
 20
63.5941619485
 30
0.0
 10
54.6237881159
 20
63.1711317197
 30
0.0
  0
SPLINE
  5
2E8
100
AcDbEntity
  8
0
100
AcDbSpline
 62
7
  6
BYLAYER
 70
0
 71
3
 72
10
 73
6
 74
0
 42
0.0000001
 43
0.0000001
 44
0.0000000001
 40
0.0
 40
0.0
 40
0.0
 40
0.0
 40
0.2518572354
 40
0.5024569308
 40
1.0
 40
1.0
 40
1.0
 40
1.0
 10
54.6237881159
 20
63.1711317197
 30
0.0
 10
54.9622448261
 20
62.7500896637
 30
0.0
 10
55.6246052282
 20
61.8996639582
 30
0.0
 10
56.8911706281
 20
60.1683355015
 30
0.0
 10
57.7841826097
 20
58.8340269728
 30
0.0
 10
58.3589589768
 20
57.9348488286
 30
0.0
  0
SPLINE
  5
2E9
100
AcDbEntity
  8
0
100
AcDbSpline
 62
7
  6
BYLAYER
 70
0
 71
3
 72
11
 73
7
 74
0
 42
0.0000001
 43
0.0000001
 44
0.0000000001
 40
0.0
 40
0.0
 40
0.0
 40
0.0
 40
0.2438907357
 40
0.4915600264
 40
0.7434918948
 40
1.0
 40
1.0
 40
1.0
 40
1.0
 10
58.5607796337
 20
57.3085128876
 30
0.0
 10
58.6088000911
 20
56.8979874992
 30
0.0
 10
58.6956528947
 20
56.0693697379
 30
0.0
 10
58.7927712946
 20
54.8129424152
 30
0.0
 10
58.8530792
 20
53.5327772417
 30
0.0
 10
58.8664472034
 20
52.6710527381
 30
0.0
 10
58.8664472034
 20
52.2363455397
 30
0.0
  0
SPLINE
  5
2EA
100
AcDbEntity
  8
0
100
AcDbSpline
 62
7
  6
BYLAYER
 70
0
 71
3
 72
9
 73
5
 74
0
 42
0.0000001
 43
0.0000001
 44
0.0000000001
 40
0.0
 40
0.0
 40
0.0
 40
0.0
 40
0.482622489
 40
1.0
 40
1.0
 40
1.0
 40
1.0
 10
52.5024780752
 20
44.9757160816
 30
0.0
 10
53.2103328688
 20
45.0389497324
 30
0.0
 10
54.6742202337
 20
45.2018690259
 30
0.0
 10
56.132092756
 20
45.4101366711
 30
0.0
 10
56.8851989248
 20
45.5252380519
 30
0.0
  0
SPLINE
  5
2EB
100
AcDbEntity
  8
0
100
AcDbSpline
 62
7
  6
BYLAYER
 70
0
 71
3
 72
10
 73
6
 74
0
 42
0.0000001
 43
0.0000001
 44
0.0000000001
 40
0.0
 40
0.0
 40
0.0
 40
0.0
 40
0.2442471984
 40
0.4926260394
 40
1.0
 40
1.0
 40
1.0
 40
1.0
 10
58.8664472034
 20
52.2363455397
 30
0.0
 10
58.8664472018
 20
51.793784082
 30
0.0
 10
58.8523531067
 20
50.9011163561
 30
0.0
 10
58.7706147545
 20
49.0908314538
 30
0.0
 10
58.6550209776
 20
47.725714216
 30
0.0
 10
58.560779404
 20
46.8112258043
 30
0.0
  0
SPLINE
  5
2EC
100
AcDbEntity
  8
0
100
AcDbSpline
 62
7
  6
BYLAYER
 70
0
 71
3
 72
15
 73
11
 74
0
 42
0.0000001
 43
0.0000001
 44
0.0000000001
 40
0.0
 40
0.0
 40
0.0
 40
0.0
 40
0.1491363323
 40
0.2932607276
 40
0.4309986235
 40
0.5612444633
 40
0.6832502652
 40
0.7967301516
 40
0.9019803556
 40
1.0
 40
1.0
 40
1.0
 40
1.0
 10
52.502477351
 20
61.9463996892
 30
0.0
 10
52.1861573258
 20
62.3399065754
 30
0.0
 10
51.5336950684
 20
63.0898858286
 30
0.0
 10
50.486502881
 20
64.1084229239
 30
0.0
 10
49.4012980492
 20
64.9885297083
 30
0.0
 10
48.2961451155
 20
65.7153097853
 30
0.0
 10
47.1891690716
 20
66.2764886988
 30
0.0
 10
46.0980136725
 20
66.6622210535
 30
0.0
 10
45.0406203396
 20
66.8650888003
 30
0.0
 10
44.347677573
 20
66.8748144814
 30
0.0
 10
44.017160638
 20
66.8452887574
 30
0.0
  0
SPLINE
  5
2ED
100
AcDbEntity
  8
0
100
AcDbSpline
 62
7
  6
BYLAYER
 70
0
 71
3
 72
20
 73
16
 74
0
 42
0.0000001
 43
0.0000001
 44
0.0000000001
 40
0.0
 40
0.0
 40
0.0
 40
0.0
 40
0.0593673998
 40
0.1174681759
 40
0.1746295937
 40
0.2312464457
 40
0.2877430759
 40
0.3445405734
 40
0.4020449079
 40
0.4606389181
 40
0.5206695808
 40
0.5824400092
 40
0.7120557381
 40
0.8510135929
 40
1.0
 40
1.0
 40
1.0
 40
1.0
 10
44.017160638
 20
66.8452887574
 30
0.0
 10
43.8695992879
 20
66.8321069638
 30
0.0
 10
43.5786184175
 20
66.7925115997
 30
0.0
 10
43.1539520913
 20
66.6916513518
 30
0.0
 10
42.7481922324
 20
66.5502477388
 30
0.0
 10
42.3630487191
 20
66.3689013264
 30
0.0
 10
42.0000388881
 20
66.1482660853
 30
0.0
 10
41.6605502607
 20
65.8892724271
 30
0.0
 10
41.3459365623
 20
65.59292354
 30
0.0
 10
41.0573892738
 20
65.2604452328
 30
0.0
 10
40.7959532117
 20
64.8931433712
 30
0.0
 10
40.4797962588
 20
64.3503721621
 30
0.0
 10
40.1596490096
 20
63.5863899507
 30
0.0
 10
39.9037469228
 20
62.5731192298
 30
0.0
 10
39.8190215298
 20
61.8574877891
 30
0.0
 10
39.7955347557
 20
61.4864408184
 30
0.0
  0
SPLINE
  5
2EE
100
AcDbEntity
  8
0
100
AcDbSpline
 62
7
  6
BYLAYER
 70
0
 71
3
 72
11
 73
7
 74
0
 42
0.0000001
 43
0.0000001
 44
0.0000000001
 40
0.0
 40
0.0
 40
0.0
 40
0.0
 40
0.2744645877
 40
0.5318276113
 40
0.7730164771
 40
1.0
 40
1.0
 40
1.0
 40
1.0
 10
48.8565236023
 20
45.7922397689
 30
0.0
 10
49.1663501963
 20
45.6385843562
 30
0.0
 10
49.7825421854
 20
45.3711246269
 30
0.0
 10
50.7182609535
 20
45.0914527142
 30
0.0
 10
51.6245167614
 20
44.9501531353
 30
0.0
 10
52.2176037755
 20
44.9502672056
 30
0.0
 10
52.5024773285
 20
44.9757156505
 30
0.0
  0
SPLINE
  5
2EF
100
AcDbEntity
  8
0
100
AcDbSpline
 62
7
  6
BYLAYER
 70
0
 71
3
 72
9
 73
5
 74
0
 42
0.0000001
 43
0.0000001
 44
0.0000000001
 40
0.0
 40
0.0
 40
0.0
 40
0.0
 40
0.5170221283
 40
1.0
 40
1.0
 40
1.0
 40
1.0
 10
48.2592990186
 20
67.373415573
 30
0.0
 10
47.530793509
 20
67.2630172082
 30
0.0
 10
46.1195931427
 20
67.0632376964
 30
0.0
 10
44.7027368731
 20
66.9065326058
 30
0.0
 10
44.0171613959
 20
66.8452891896
 30
0.0
  0
SPLINE
  5
2F0
100
AcDbEntity
  8
0
100
AcDbSpline
 62
7
  6
BYLAYER
 70
0
 71
3
 72
10
 73
6
 74
0
 42
0.0000001
 43
0.0000001
 44
0.0000000001
 40
0.0
 40
0.0
 40
0.0
 40
0.0
 40
0.2518572262
 40
0.5024569044
 40
1.0
 40
1.0
 40
1.0
 40
1.0
 10
52.502478139
 20
61.9464000676
 30
0.0
 10
52.1640209165
 20
62.3674416938
 30
0.0
 10
51.5016615789
 20
63.2178681959
 30
0.0
 10
50.2350961913
 20
64.9491966459
 30
0.0
 10
49.3420836348
 20
66.2835048479
 30
0.0
 10
48.7673072292
 20
67.182683048
 30
0.0
  0
SPLINE
  5
2F1
100
AcDbEntity
  8
0
100
AcDbSpline
 62
7
  6
BYLAYER
 70
0
 71
3
 72
15
 73
11
 74
0
 42
0.0000001
 43
0.0000001
 44
0.0000000001
 40
0.0
 40
0.0
 40
0.0
 40
0.0
 40
0.1229786501
 40
0.2423714906
 40
0.3602463093
 40
0.4788812392
 40
0.600449336
 40
0.7268721972
 40
0.8596900089
 40
1.0
 40
1.0
 40
1.0
 40
1.0
 10
52.5024773285
 20
44.9757156505
 30
0.0
 10
52.7380411022
 20
44.9967587574
 30
0.0
 10
53.2001899348
 20
45.0726278063
 30
0.0
 10
53.8596331605
 20
45.2948768301
 30
0.0
 10
54.4648869891
 20
45.6216295778
 30
0.0
 10
55.0089170182
 20
46.0491269707
 30
0.0
 10
55.4859674324
 20
46.5724048684
 30
0.0
 10
55.8915252194
 20
47.1854247545
 30
0.0
 10
56.2221322318
 20
47.8814928577
 30
0.0
 10
56.3861716939
 20
48.3820166407
 30
0.0
 10
56.456012002
 20
48.6426535535
 30
0.0
  0
SPLINE
  5
2F2
100
AcDbEntity
  8
0
100
AcDbSpline
 62
7
  6
BYLAYER
 70
0
 71
3
 72
9
 73
5
 74
0
 42
0.0000001
 43
0.0000001
 44
0.0000000001
 40
0.0
 40
0.0
 40
0.0
 40
0.0
 40
0.4820362504
 40
1.0
 40
1.0
 40
1.0
 40
1.0
 10
56.4600966879
 20
48.6579631908
 30
0.0
 10
56.5581074858
 20
49.0269081529
 30
0.0
 10
56.7023113844
 20
49.8086266956
 30
0.0
 10
56.7451356853
 20
50.6014194973
 30
0.0
 10
56.7451356906
 20
51.0116131502
 30
0.0
  0
SPLINE
  5
2F3
100
AcDbEntity
  8
0
100
AcDbSpline
 62
7
  6
BYLAYER
 70
0
 71
3
 72
15
 73
11
 74
0
 42
0.0000001
 43
0.0000001
 44
0.0000000001
 40
0.0
 40
0.0
 40
0.0
 40
0.0
 40
0.1108410465
 40
0.2280578197
 40
0.3507094003
 40
0.477625969
 40
0.6074737799
 40
0.7388131746
 40
0.8701524765
 40
1.0
 40
1.0
 40
1.0
 40
1.0
 10
56.7451356906
 20
51.0116131502
 30
0.0
 10
56.7451356906
 20
51.4525476496
 30
0.0
 10
56.6923212388
 20
52.3602947885
 30
0.0
 10
56.4727252468
 20
53.7400002332
 30
0.0
 10
56.114202055
 20
55.1562831361
 30
0.0
 10
55.6228323794
 20
56.5851311416
 30
0.0
 10
55.0069226886
 20
58.0025359617
 30
0.0
 10
54.2768615949
 20
59.3845621671
 30
0.0
 10
53.4450750758
 20
60.7077377736
 30
0.0
 10
52.8261073821
 20
61.5438067484
 30
0.0
 10
52.502477351
 20
61.9463996892
 30
0.0
  0
SPLINE
  5
2F4
100
AcDbEntity
  8
0
100
AcDbSpline
 62
7
  6
BYLAYER
 70
0
 71
3
 72
11
 73
7
 74
0
 42
0.0000001
 43
0.0000001
 44
0.0000000001
 40
0.0
 40
0.0
 40
0.0
 40
0.0
 40
0.2438909749
 40
0.4915600476
 40
0.7434919406
 40
1.0
 40
1.0
 40
1.0
 40
1.0
 10
57.0508035303
 20
45.939446031
 30
0.0
 10
57.0027830376
 20
46.3499717938
 30
0.0
 10
56.9159340958
 20
47.1785899103
 30
0.0
 10
56.8188107125
 20
48.4350168104
 30
0.0
 10
56.7585047994
 20
49.7151816213
 30
0.0
 10
56.745135691
 20
50.5769059869
 30
0.0
 10
56.7451356895
 20
51.0116130767
 30
0.0
  0
SPLINE
  5
2F5
100
AcDbEntity
  8
0
100
AcDbSpline
 62
7
  6
BYLAYER
 70
0
 71
3
 72
9
 73
5
 74
0
 42
0.0000001
 43
0.0000001
 44
0.0000000001
 40
0.0
 40
0.0
 40
0.0
 40
0.0
 40
0.5215743725
 40
1.0
 40
1.0
 40
1.0
 40
1.0
 10
44.0171613959
 20
66.8452891896
 30
0.0
 10
43.3875481766
 20
66.7890448973
 30
0.0
 10
42.1781064409
 20
66.7047781163
 30
0.0
 10
40.9661738672
 20
66.6734972924
 30
0.0
 10
40.3863573014
 20
66.6701142873
 30
0.0
  0
SPLINE
  5
2F6
100
AcDbEntity
  8
0
100
AcDbSpline
 62
7
  6
BYLAYER
 70
0
 71
3
 72
10
 73
6
 74
0
 42
0.0000001
 43
0.0000001
 44
0.0000000001
 40
0.0
 40
0.0
 40
0.0
 40
0.0
 40
0.5016857921
 40
0.7513585178
 40
1.0
 40
1.0
 40
1.0
 40
1.0
 10
56.8851989404
 20
57.0839781539
 30
0.0
 10
56.1135248932
 20
57.8610526141
 30
0.0
 10
54.9801457849
 20
59.0477217971
 30
0.0
 10
53.5371864262
 20
60.6860148125
 30
0.0
 10
52.8425320607
 20
61.5233691811
 30
0.0
 10
52.502478139
 20
61.9464000676
 30
0.0
  0
SPLINE
  5
2F7
100
AcDbEntity
  8
0
100
AcDbSpline
 62
7
  6
BYLAYER
 70
0
 71
3
 72
10
 73
6
 74
0
 42
0.0000001
 43
0.0000001
 44
0.0000000001
 40
0.0
 40
0.0
 40
0.0
 40
0.0
 40
0.2442471007
 40
0.4926263069
 40
1.0
 40
1.0
 40
1.0
 40
1.0
 10
56.7451356895
 20
51.0116130767
 30
0.0
 10
56.7451356895
 20
51.4541743532
 30
0.0
 10
56.7592268436
 20
52.3468426438
 30
0.0
 10
56.8409742419
 20
54.157127126
 30
0.0
 10
56.9565617536
 20
55.5222449128
 30
0.0
 10
57.0508032747
 20
56.4367328341
 30
0.0
  0
SPLINE
  5
2F8
100
AcDbEntity
  8
0
100
AcDbSpline
 62
7
  6
BYLAYER
 70
0
 71
3
 72
11
 73
7
 74
0
 42
0.0000001
 43
0.0000001
 44
0.0000000001
 40
0.0
 40
0.0
 40
0.0
 40
0.0
 40
0.2177239861
 40
0.4508730345
 40
0.7104683317
 40
1.0
 40
1.0
 40
1.0
 40
1.0
 10
8.5649876612
 20
34.1475077171
 30
0.0
 10
8.532009853
 20
34.128469777
 30
0.0
 10
8.4702550939
 20
34.076646595
 30
0.0
 10
8.4045385712
 20
33.9691724175
 30
0.0
 10
8.3655869098
 20
33.8367548245
 30
0.0
 10
8.3578539135
 20
33.7403969643
 30
0.0
 10
8.3578539135
 20
33.6897596514
 30
0.0
  0
SPLINE
  5
2F9
100
AcDbEntity
  8
0
100
AcDbSpline
 62
7
  6
BYLAYER
 70
0
 71
3
 72
11
 73
7
 74
0
 42
0.0000001
 43
0.0000001
 44
0.0000000001
 40
0.0
 40
0.0
 40
0.0
 40
0.0
 40
0.2390934366
 40
0.4816799562
 40
0.7341959618
 40
1.0
 40
1.0
 40
1.0
 40
1.0
 10
16.9460582488
 20
36.2102708851
 30
0.0
 10
16.8949245406
 20
36.1849715368
 30
0.0
 10
16.7840059628
 20
36.1486650362
 30
0.0
 10
16.6072850542
 20
36.1401855457
 30
0.0
 10
16.427432736
 20
36.1733940015
 30
0.0
 10
16.3117082233
 20
36.2190811257
 30
0.0
 10
16.2547315637
 20
36.2469415272
 30
0.0
  0
SPLINE
  5
2FA
100
AcDbEntity
  8
0
100
AcDbSpline
 62
7
  6
BYLAYER
 70
0
 71
3
 72
20
 73
16
 74
0
 42
0.0000001
 43
0.0000001
 44
0.0000000001
 40
0.0
 40
0.0
 40
0.0
 40
0.0
 40
0.1481871322
 40
0.2976260674
 40
0.4431346947
 40
0.5129369038
 40
0.5800401883
 40
0.6440153268
 40
0.7045521024
 40
0.7614789683
 40
0.8147984211
 40
0.8647272617
 40
0.9117208681
 40
0.9564955046
 40
1.0
 40
1.0
 40
1.0
 40
1.0
 10
23.1119794893
 20
43.9923004571
 30
0.0
 10
23.4982346935
 20
43.5256443511
 30
0.0
 10
24.2086775815
 20
42.5324900893
 30
0.0
 10
25.0631035466
 20
40.9298620347
 30
0.0
 10
25.5855072985
 20
39.5274774155
 30
0.0
 10
25.8660340308
 20
38.4065986973
 30
0.0
 10
26.0020785305
 20
37.5957994035
 30
0.0
 10
26.0647503948
 20
36.8139424109
 30
0.0
 10
26.0532583019
 20
36.0710679385
 30
0.0
 10
25.9675036425
 20
35.3766806099
 30
0.0
 10
25.8081927368
 20
34.7396659018
 30
0.0
 10
25.5769384232
 20
34.1682520522
 30
0.0
 10
25.2757310035
 20
33.6702058991
 30
0.0
 10
24.908093964
 20
33.2530430583
 30
0.0
 10
24.6194967069
 20
33.0317634224
 30
0.0
 10
24.4682050748
 20
32.9382834133
 30
0.0
  0
SPLINE
  5
2FB
100
AcDbEntity
  8
0
100
AcDbSpline
 62
7
  6
BYLAYER
 70
0
 71
3
 72
11
 73
7
 74
0
 42
0.0000001
 43
0.0000001
 44
0.0000000001
 40
0.0
 40
0.0
 40
0.0
 40
0.0
 40
0.2667076236
 40
0.5195053432
 40
0.7617565518
 40
1.0
 40
1.0
 40
1.0
 40
1.0
 10
15.2265506774
 20
37.9997239061
 30
0.0
 10
15.2297142912
 20
38.0655524247
 30
0.0
 10
15.2460166155
 20
38.1936757507
 30
0.0
 10
15.3063383117
 20
38.3735003639
 30
0.0
 10
15.4034392732
 20
38.5287161048
 30
0.0
 10
15.4929201265
 20
38.6096947981
 30
0.0
 10
15.5419122794
 20
38.6423375626
 30
0.0
  0
SPLINE
  5
2FC
100
AcDbEntity
  8
0
100
AcDbSpline
 62
7
  6
BYLAYER
 70
0
 71
3
 72
15
 73
11
 74
0
 42
0.0000001
 43
0.0000001
 44
0.0000000001
 40
0.0
 40
0.0
 40
0.0
 40
0.0
 40
0.1297766732
 40
0.26109593
 40
0.3924235325
 40
0.5222946767
 40
0.6492407423
 40
0.7719221022
 40
0.889158791
 40
1.0
 40
1.0
 40
1.0
 40
1.0
 10
61.6732517878
 20
66.3239471786
 30
0.0
 10
61.9120807192
 20
66.0282831168
 30
0.0
 10
62.3689761745
 20
65.4139852417
 30
0.0
 10
62.9830135826
 20
64.4412544876
 30
0.0
 10
63.5220482212
 20
63.4246466868
 30
0.0
 10
63.9769476863
 20
62.3816459492
 30
0.0
 10
64.3399122694
 20
61.329875763
 30
0.0
 10
64.6047764637
 20
60.2871862978
 30
0.0
 10
64.7670304473
 20
59.271379527
 30
0.0
 10
64.806099774
 20
58.6030319561
 30
0.0
 10
64.8060910866
 20
58.2784135394
 30
0.0
  0
SPLINE
  5
2FD
100
AcDbEntity
  8
0
100
AcDbSpline
 62
7
  6
BYLAYER
 70
0
 71
3
 72
11
 73
7
 74
0
 42
0.0000001
 43
0.0000001
 44
0.0000000001
 40
0.0
 40
0.0
 40
0.0
 40
0.0
 40
0.2325802766
 40
0.4780002557
 40
0.734607181
 40
1.0
 40
1.0
 40
1.0
 40
1.0
 10
58.5836943445
 20
69.0559845741
 30
0.0
 10
58.8507355083
 20
68.9017900366
 30
0.0
 10
59.3822674344
 20
68.5542721539
 30
0.0
 10
60.1437540618
 20
67.9450149865
 30
0.0
 10
60.8809219595
 20
67.2420384299
 30
0.0
 10
61.3424341033
 20
66.7252054831
 30
0.0
 10
61.5667918675
 20
66.4541465577
 30
0.0
  0
SPLINE
  5
2FE
100
AcDbEntity
  8
0
100
AcDbSpline
 62
7
  6
BYLAYER
 70
0
 71
3
 72
11
 73
7
 74
0
 42
0.0000001
 43
0.0000001
 44
0.0000000001
 40
0.0
 40
0.0
 40
0.0
 40
0.0
 40
0.2352685781
 40
0.4768878716
 40
0.7303966085
 40
1.0
 40
1.0
 40
1.0
 40
1.0
 10
18.7283726921
 20
49.2528831511
 30
0.0
 10
18.5508155634
 20
49.1503596228
 30
0.0
 10
18.2114549899
 20
48.9045913713
 30
0.0
 10
17.7784014078
 20
48.4328799943
 30
0.0
 10
17.4239483719
 20
47.8645657855
 30
0.0
 10
17.2486789714
 20
47.4414537374
 30
0.0
 10
17.1741001897
 20
47.2186516469
 30
0.0
  0
SPLINE
  5
2FF
100
AcDbEntity
  8
0
100
AcDbSpline
 62
7
  6
BYLAYER
 70
0
 71
3
 72
17
 73
13
 74
0
 42
0.0000001
 43
0.0000001
 44
0.0000000001
 40
0.0
 40
0.0
 40
0.0
 40
0.0
 40
0.1286846513
 40
0.2703032228
 40
0.4174430309
 40
0.5617811216
 40
0.695448235
 40
0.8127121431
 40
0.8646788239
 40
0.9125086207
 40
0.9571391214
 40
1.0
 40
1.0
 40
1.0
 40
1.0
 10
8.3578539135
 20
33.6897596514
 30
0.0
 10
8.3578539135
 20
33.6042881545
 30
0.0
 10
8.3817836382
 20
33.4245528344
 30
0.0
 10
8.4710108121
 20
33.1606552643
 30
0.0
 10
8.6085702116
 20
32.9064606274
 30
0.0
 10
8.7833023892
 20
32.682792714
 30
0.0
 10
8.9809978526
 20
32.507705753
 30
0.0
 10
9.1599416409
 20
32.409899241
 30
0.0
 10
9.29990575
 20
32.3726074372
 30
0.0
 10
9.3962416758
 20
32.3655697513
 30
0.0
 10
9.4859587744
 20
32.3786563139
 30
0.0
 10
9.5402850955
 20
32.4012971332
 30
0.0
 10
9.5649396161
 20
32.4155300768
 30
0.0
  0
SPLINE
  5
300
100
AcDbEntity
  8
0
100
AcDbSpline
 62
7
  6
BYLAYER
 70
0
 71
3
 72
15
 73
11
 74
0
 42
0.0000001
 43
0.0000001
 44
0.0000000001
 40
0.0
 40
0.0
 40
0.0
 40
0.0
 40
0.1510449707
 40
0.2962681929
 40
0.434049833
 40
0.5634358609
 40
0.6839721056
 40
0.7959868385
 40
0.9006556433
 40
1.0
 40
1.0
 40
1.0
 40
1.0
 10
13.3675456869
 20
33.741875813
 30
0.0
 10
13.5525651972
 20
33.5183435906
 30
0.0
 10
13.9348767626
 20
33.0954568367
 30
0.0
 10
14.5508847448
 20
32.5315293382
 30
0.0
 10
15.1890109142
 20
32.0593049902
 30
0.0
 10
15.8372182586
 20
31.6884872357
 30
0.0
 10
16.4842715574
 20
31.4272717518
 30
0.0
 10
17.1191776135
 20
31.2827495836
 30
0.0
 10
17.7298909567
 20
31.2614168046
 30
0.0
 10
18.1192422888
 20
31.3344645906
 30
0.0
 10
18.3010359451
 20
31.3925545062
 30
0.0
  0
SPLINE
  5
301
100
AcDbEntity
  8
0
100
AcDbSpline
 62
7
  6
BYLAYER
 70
0
 71
3
 72
15
 73
11
 74
0
 42
0.0000001
 43
0.0000001
 44
0.0000000001
 40
0.0
 40
0.0
 40
0.0
 40
0.0
 40
0.0973466475
 40
0.2007064043
 40
0.312343309
 40
0.433383401
 40
0.5638664881
 40
0.7029231135
 40
0.8489872129
 40
1.0
 40
1.0
 40
1.0
 40
1.0
 10
12.0471911625
 20
42.2245960705
 30
0.0
 10
11.8908743888
 20
42.0824631166
 30
0.0
 10
11.6080617887
 20
41.7437387646
 30
0.0
 10
11.3078064827
 20
41.1302406249
 30
0.0
 10
11.1236340306
 20
40.4202691319
 30
0.0
 10
11.0553802054
 20
39.6320080083
 30
0.0
 10
11.1014770195
 20
38.7831875426
 30
0.0
 10
11.2593272395
 20
37.8931200153
 30
0.0
 10
11.5243312444
 20
36.9827528435
 30
0.0
 10
11.7653306139
 20
36.3834676662
 30
0.0
 10
11.9016255143
 20
36.0854041833
 30
0.0
  0
SPLINE
  5
302
100
AcDbEntity
  8
0
100
AcDbSpline
 62
7
  6
BYLAYER
 70
0
 71
3
 72
13
 73
9
 74
0
 42
0.0000001
 43
0.0000001
 44
0.0000000001
 40
0.0
 40
0.0
 40
0.0
 40
0.0
 40
0.1139649695
 40
0.229103527
 40
0.3466026315
 40
0.4675373856
 40
0.7226908055
 40
1.0
 40
1.0
 40
1.0
 40
1.0
 10
21.8543360811
 20
31.4277900188
 30
0.0
 10
21.7406709809
 20
31.3621658343
 30
0.0
 10
21.5024872675
 20
31.2462914319
 30
0.0
 10
21.1216990274
 20
31.1226735861
 30
0.0
 10
20.7198751244
 20
31.0497579671
 30
0.0
 10
20.150937434
 20
31.0193280973
 30
0.0
 10
19.3980173682
 20
31.1141488345
 30
0.0
 10
18.812802165
 20
31.308789217
 30
0.0
 10
18.5184186736
 20
31.4326158522
 30
0.0
  0
SPLINE
  5
303
100
AcDbEntity
  8
0
100
AcDbSpline
 62
7
  6
BYLAYER
 70
0
 71
3
 72
13
 73
9
 74
0
 42
0.0000001
 43
0.0000001
 44
0.0000000001
 40
0.0
 40
0.0
 40
0.0
 40
0.0
 40
0.2763383627
 40
0.531241934
 40
0.6523062759
 40
0.7700801479
 40
0.8855999356
 40
1.0
 40
1.0
 40
1.0
 40
1.0
 10
12.2037782771
 20
42.4910302702
 30
0.0
 10
12.2474639648
 20
42.7970704717
 30
0.0
 10
12.3769948812
 20
43.380534121
 30
0.0
 10
12.6717593278
 20
44.0546482562
 30
0.0
 10
12.9787078514
 20
44.5153280939
 30
0.0
 10
13.2382448486
 20
44.8164502695
 30
0.0
 10
13.5293996145
 20
45.0760273635
 30
0.0
 10
13.7435373902
 20
45.2202272072
 30
0.0
 10
13.8543718962
 20
45.2842171572
 30
0.0
  0
SPLINE
  5
304
100
AcDbEntity
  8
0
100
AcDbSpline
 62
7
  6
BYLAYER
 70
0
 71
3
 72
17
 73
13
 74
0
 42
0.0000001
 43
0.0000001
 44
0.0000000001
 40
0.0
 40
0.0
 40
0.0
 40
0.0
 40
0.0474258447
 40
0.0955740814
 40
0.1449793774
 40
0.1961105929
 40
0.3048299803
 40
0.4238582685
 40
0.5537869295
 40
0.6941029483
 40
0.8434937646
 40
1.0
 40
1.0
 40
1.0
 40
1.0
 10
16.4773421659
 20
46.7968572921
 30
0.0
 10
16.5851631143
 20
46.854432425
 30
0.0
 10
16.8107493009
 20
46.955596228
 30
0.0
 10
17.1701948297
 20
47.0613850478
 30
0.0
 10
17.5497156259
 20
47.1214560695
 30
0.0
 10
18.0898356746
 20
47.1404422172
 30
0.0
 10
18.8075700942
 20
47.0414522588
 30
0.0
 10
19.6850478856
 20
46.7453914518
 30
0.0
 10
20.5773285358
 20
46.2791504382
 30
0.0
 10
21.4636263513
 20
45.6546006367
 30
0.0
 10
22.3230122627
 20
44.8871262931
 30
0.0
 10
22.8547860237
 20
44.303029995
 30
0.0
 10
23.1119794893
 20
43.9923004571
 30
0.0
  0
SPLINE
  5
305
100
AcDbEntity
  8
0
100
AcDbSpline
 62
7
  6
BYLAYER
 70
0
 71
3
 72
11
 73
7
 74
0
 42
0.0000001
 43
0.0000001
 44
0.0000000001
 40
0.0
 40
0.0
 40
0.0
 40
0.0
 40
0.2180508542
 40
0.4501732534
 40
0.7091887944
 40
1.0
 40
1.0
 40
1.0
 40
1.0
 10
16.9460569173
 20
36.2102733093
 30
0.0
 10
16.9960154714
 20
36.2350078451
 30
0.0
 10
17.0905061943
 20
36.3056501075
 30
0.0
 10
17.1918404386
 20
36.4594642921
 30
0.0
 10
17.2518533003
 20
36.6522622695
 30
0.0
 10
17.2635935905
 20
36.7933618244
 30
0.0
 10
17.2635935905
 20
36.8677098949
 30
0.0
  0
SPLINE
  5
306
100
AcDbEntity
  8
0
100
AcDbSpline
 62
7
  6
BYLAYER
 70
0
 71
3
 72
9
 73
5
 74
0
 42
0.0000001
 43
0.0000001
 44
0.0000000001
 40
0.0
 40
0.0
 40
0.0
 40
0.0
 40
0.2698562496
 40
1.0
 40
1.0
 40
1.0
 40
1.0
 10
18.7450786877
 20
37.4906064095
 30
0.0
 10
18.7450786877
 20
37.4498102551
 30
0.0
 10
18.7393096471
 20
37.2988597294
 30
0.0
 10
18.7086565229
 20
37.1475897899
 30
0.0
 10
18.667088666
 20
37.0453346042
 30
0.0
  0
SPLINE
  5
307
100
AcDbEntity
  8
0
100
AcDbSpline
 62
7
  6
BYLAYER
 70
0
 71
3
 72
9
 73
5
 74
0
 42
0.0000001
 43
0.0000001
 44
0.0000000001
 40
0.0
 40
0.0
 40
0.0
 40
0.0
 40
0.2618447095
 40
1.0
 40
1.0
 40
1.0
 40
1.0
 10
16.3989773286
 20
39.2145592503
 30
0.0
 10
16.4049181571
 20
39.2358062279
 30
0.0
 10
16.430242358
 20
39.3161554009
 30
0.0
 10
16.4667078186
 20
39.3932539923
 30
0.0
 10
16.500451326
 20
39.4454980409
 30
0.0
  0
SPLINE
  5
308
100
AcDbEntity
  8
0
100
AcDbSpline
 62
7
  6
BYLAYER
 70
0
 71
3
 72
21
 73
17
 74
0
 42
0.0000001
 43
0.0000001
 44
0.0000000001
 40
0.0
 40
0.0
 40
0.0
 40
0.0
 40
0.0458462424
 40
0.0899502657
 40
0.1346817139
 40
0.1822108575
 40
0.2340976182
 40
0.2911472596
 40
0.3534681397
 40
0.4206474033
 40
0.4918793626
 40
0.5660742189
 40
0.718043315
 40
0.8658879388
 40
0.9352332647
 40
1.0
 40
1.0
 40
1.0
 40
1.0
 10
16.500451326
 20
39.4454980409
 30
0.0
 10
16.5307620701
 20
39.4924272463
 30
0.0
 10
16.6018051009
 20
39.5778905174
 30
0.0
 10
16.7396866996
 20
39.670980524
 30
0.0
 10
16.9004483699
 20
39.7211369084
 30
0.0
 10
17.0777705883
 20
39.7273818494
 30
0.0
 10
17.2662917163
 20
39.6910349428
 30
0.0
 10
17.4612702921
 20
39.6139188986
 30
0.0
 10
17.658005134
 20
39.498535171
 30
0.0
 10
17.8515678089
 20
39.3480046009
 30
0.0
 10
18.036940957
 20
39.166271948
 30
0.0
 10
18.2684421798
 20
38.8867630265
 30
0.0
 10
18.5065989029
 20
38.4948866072
 30
0.0
 10
18.6661313878
 20
38.0707460995
 30
0.0
 10
18.7329682093
 20
37.7330847364
 30
0.0
 10
18.7450786877
 20
37.5695290327
 30
0.0
 10
18.7450786877
 20
37.4906064095
 30
0.0
  0
SPLINE
  5
309
100
AcDbEntity
  8
0
100
AcDbSpline
 62
7
  6
BYLAYER
 70
0
 71
3
 72
17
 73
13
 74
0
 42
0.0000001
 43
0.0000001
 44
0.0000000001
 40
0.0
 40
0.0
 40
0.0
 40
0.0
 40
0.0475142442
 40
0.095631986
 40
0.1449219258
 40
0.1958806288
 40
0.3042051757
 40
0.4229317671
 40
0.5527627217
 40
0.6932115144
 40
0.8429738958
 40
1.0
 40
1.0
 40
1.0
 40
1.0
 10
14.3379569306
 20
44.1200200292
 30
0.0
 10
14.4284633583
 20
44.172261888
 30
0.0
 10
14.6182437329
 20
44.2647816588
 30
0.0
 10
14.922113003
 20
44.3640356455
 30
0.0
 10
15.2439277801
 20
44.4234364348
 30
0.0
 10
15.7029208431
 20
44.44992012
 30
0.0
 10
16.315152226
 20
44.3760267515
 30
0.0
 10
17.0653290777
 20
44.132460958
 30
0.0
 10
17.8293021665
 20
43.7404378814
 30
0.0
 10
18.588869952
 20
43.2103499504
 30
0.0
 10
19.3255145525
 20
42.5555927737
 30
0.0
 10
19.7810172715
 20
42.0559858759
 30
0.0
 10
20.0012268318
 20
41.7899386232
 30
0.0
  0
SPLINE
  5
30A
100
AcDbEntity
  8
0
100
AcDbSpline
 62
7
  6
BYLAYER
 70
0
 71
3
 72
14
 73
10
 74
0
 42
0.0000001
 43
0.0000001
 44
0.0000000001
 40
0.0
 40
0.0
 40
0.0
 40
0.0
 40
0.2604088758
 40
0.3914472029
 40
0.5211097782
 40
0.6479994799
 40
0.7708333536
 40
0.8884769345
 40
1.0
 40
1.0
 40
1.0
 40
1.0
 10
61.6359955459
 20
66.3013225535
 30
0.0
 10
62.1128447353
 20
65.7064721121
 30
0.0
 10
62.7615200825
 20
64.7548306535
 30
0.0
 10
63.478170349
 20
63.4070201374
 30
0.0
 10
63.9354684755
 20
62.3672262384
 30
0.0
 10
64.3035994979
 20
61.318117002
 30
0.0
 10
64.5766933349
 20
60.2765016535
 30
0.0
 10
64.750318375
 20
59.2593518123
 30
0.0
 10
64.7992535129
 20
58.5888113512
 30
0.0
 10
64.8048355507
 20
58.262358649
 30
0.0
  0
SPLINE
  5
30B
100
AcDbEntity
  8
0
100
AcDbSpline
 62
7
  6
BYLAYER
 70
0
 71
3
 72
19
 73
15
 74
0
 42
0.0000001
 43
0.0000001
 44
0.0000000001
 40
0.0
 40
0.0
 40
0.0
 40
0.0
 40
0.1600535169
 40
0.3117067639
 40
0.4525963173
 40
0.5813187384
 40
0.6410881306
 40
0.6979058094
 40
0.7520314507
 40
0.8038532727
 40
0.8538920096
 40
0.9027801239
 40
0.9512334785
 40
1.0
 40
1.0
 40
1.0
 40
1.0
 10
17.7038418992
 20
40.3182488273
 30
0.0
 10
17.4786864347
 20
40.5902714982
 30
0.0
 10
17.0119915567
 20
41.0976046078
 30
0.0
 10
16.2535210552
 20
41.7508703681
 30
0.0
 10
15.4733283409
 20
42.2613471164
 30
0.0
 10
14.8073230554
 20
42.5620963066
 30
0.0
 10
14.2861976259
 20
42.7112584099
 30
0.0
 10
13.9144354793
 20
42.776330634
 30
0.0
 10
13.5550245783
 20
42.7967819866
 30
0.0
 10
13.2107379987
 20
42.7721252212
 30
0.0
 10
12.88435735
 20
42.7024703391
 30
0.0
 10
12.5786870918
 20
42.5879950617
 30
0.0
 10
12.2964232884
 20
42.4298175743
 30
0.0
 10
12.1268048685
 20
42.2969623776
 30
0.0
 10
12.0472009529
 20
42.2245816371
 30
0.0
  0
SPLINE
  5
30C
100
AcDbEntity
  8
0
100
AcDbSpline
 62
7
  6
BYLAYER
 70
0
 71
3
 72
15
 73
11
 74
0
 42
0.0000001
 43
0.0000001
 44
0.0000000001
 40
0.0
 40
0.0
 40
0.0
 40
0.0
 40
0.0981217028
 40
0.2032722692
 40
0.3165373538
 40
0.4383064781
 40
0.5683827959
 40
0.7060776277
 40
0.8504154293
 40
1.0
 40
1.0
 40
1.0
 40
1.0
 10
17.5846819919
 20
47.1031751121
 30
0.0
 10
17.7989112394
 20
47.127479826
 30
0.0
 10
18.2487316843
 20
47.1318268679
 30
0.0
 10
18.9374090172
 20
47.0156002914
 30
0.0
 10
19.6495852478
 20
46.7803890819
 30
0.0
 10
20.3737975417
 20
46.4306923131
 30
0.0
 10
21.0987204279
 20
45.9725473181
 30
0.0
 10
21.8128910639
 20
45.4135827042
 30
0.0
 10
22.5045235648
 20
44.7629924382
 30
0.0
 10
22.9369867144
 20
44.2822102352
 30
0.0
 10
23.1471466303
 20
44.029493962
 30
0.0
  0
SPLINE
  5
30D
100
AcDbEntity
  8
0
100
AcDbSpline
 62
7
  6
BYLAYER
 70
0
 71
3
 72
17
 73
13
 74
0
 42
0.0000001
 43
0.0000001
 44
0.0000000001
 40
0.0
 40
0.0
 40
0.0
 40
0.0
 40
0.1570274606
 40
0.3067858387
 40
0.4472364023
 40
0.577067081
 40
0.6957938793
 40
0.8041185875
 40
0.8550779632
 40
0.9043677096
 40
0.952485714
 40
1.0
 40
1.0
 40
1.0
 40
1.0
 10
19.6476749132
 20
41.5858165462
 30
0.0
 10
19.4274631309
 20
41.8518664834
 30
0.0
 10
18.971967304
 20
42.3514734509
 30
0.0
 10
18.2353195715
 20
43.0062257792
 30
0.0
 10
17.4757610559
 20
43.5363201989
 30
0.0
 10
16.7117819592
 20
43.9283416036
 30
0.0
 10
15.961603777
 20
44.1719127092
 30
0.0
 10
15.3493700034
 20
44.2457933663
 30
0.0
 10
14.8903731962
 20
44.2193331327
 30
0.0
 10
14.5685578764
 20
44.1599187771
 30
0.0
 10
14.2646894567
 20
44.060665916
 30
0.0
 10
14.0749001356
 20
43.9681599103
 30
0.0
 10
13.9843967134
 20
43.9159123574
 30
0.0
  0
SPLINE
  5
30E
100
AcDbEntity
  8
0
100
AcDbSpline
 62
7
  6
BYLAYER
 70
0
 71
3
 72
17
 73
13
 74
0
 42
0.0000001
 43
0.0000001
 44
0.0000000001
 40
0.0
 40
0.0
 40
0.0
 40
0.0
 40
0.047514286
 40
0.0956322904
 40
0.1449220368
 40
0.1958814125
 40
0.3042061207
 40
0.422932919
 40
0.5527635977
 40
0.6932141613
 40
0.8429725394
 40
1.0
 40
1.0
 40
1.0
 40
1.0
 10
18.5212575789
 20
47.9786279542
 30
0.0
 10
18.6285208942
 20
48.0405509798
 30
0.0
 10
18.8534563858
 20
48.1501877273
 30
0.0
 10
19.2135967351
 20
48.2678207479
 30
0.0
 10
19.5950074844
 20
48.3382377619
 30
0.0
 10
20.1390037004
 20
48.3695980388
 30
0.0
 10
20.8646140988
 20
48.2820357786
 30
0.0
 10
21.7537141665
 20
47.9933589126
 30
0.0
 10
22.6591708738
 20
47.5287409515
 30
0.0
 10
23.5593883737
 20
46.9004808986
 30
0.0
 10
24.432452353
 20
46.1244781391
 30
0.0
 10
24.9722992589
 20
45.5323513629
 30
0.0
 10
25.2332910009
 20
45.2170329187
 30
0.0
  0
SPLINE
  5
30F
100
AcDbEntity
  8
0
100
AcDbSpline
 62
7
  6
BYLAYER
 70
0
 71
3
 72
17
 73
13
 74
0
 42
0.0000001
 43
0.0000001
 44
0.0000000001
 40
0.0
 40
0.0
 40
0.0
 40
0.0
 40
0.0428570455
 40
0.087485165
 40
0.1353123244
 40
0.1872781392
 40
0.3045378316
 40
0.4381995438
 40
0.5825378192
 40
0.7296849502
 40
0.8713141218
 40
1.0
 40
1.0
 40
1.0
 40
1.0
 10
15.6360247886
 20
38.2299515073
 30
0.0
 10
15.660676294
 20
38.2441845784
 30
0.0
 10
15.7149994301
 20
38.2668232854
 30
0.0
 10
15.8047101739
 20
38.2799080962
 30
0.0
 10
15.9010427699
 20
38.2728781786
 30
0.0
 10
16.0410017203
 20
38.2355855858
 30
0.0
 10
16.2199426207
 20
38.1377906544
 30
0.0
 10
16.4176374986
 20
37.962711404
 30
0.0
 10
16.5923744316
 20
37.7390458932
 30
0.0
 10
16.7299468923
 20
37.4848443818
 30
0.0
 10
16.8191797461
 20
37.2209349797
 30
0.0
 10
16.8431117359
 20
37.0411919884
 30
0.0
 10
16.8431117359
 20
36.9557196811
 30
0.0
  0
SPLINE
  5
310
100
AcDbEntity
  8
0
100
AcDbSpline
 62
7
  6
BYLAYER
 70
0
 71
3
 72
27
 73
23
 74
0
 42
0.0000001
 43
0.0000001
 44
0.0000000001
 40
0.0
 40
0.0
 40
0.0
 40
0.0
 40
0.0566319115
 40
0.1085378914
 40
0.133063636
 40
0.1568579798
 40
0.1801505567
 40
0.203198159
 40
0.2262713248
 40
0.2496390998
 40
0.2735540631
 40
0.298239673
 40
0.3505541077
 40
0.4076610016
 40
0.4699292595
 40
0.5372138952
 40
0.6089746317
 40
0.6843762337
 40
0.7623841923
 40
0.8418157354
 40
0.9214505848
 40
1.0
 40
1.0
 40
1.0
 40
1.0
 10
18.6802949222
 20
31.4458809008
 30
0.0
 10
18.9468540231
 20
31.3468116518
 30
0.0
 10
19.4736470205
 20
31.1955696108
 30
0.0
 10
20.1446222251
 20
31.1367681438
 30
0.0
 10
20.6471148675
 20
31.180185391
 30
0.0
 10
20.9999120209
 20
31.2545831518
 30
0.0
 10
21.3332837108
 20
31.3711928586
 30
0.0
 10
21.645138925
 20
31.5291947318
 30
0.0
 10
21.9333125243
 20
31.7277803195
 30
0.0
 10
22.196062159
 20
31.965426719
 30
0.0
 10
22.4316906889
 20
32.2406758546
 30
0.0
 10
22.7132669235
 20
32.6632444908
 30
0.0
 10
22.9879477882
 20
33.2839834638
 30
0.0
 10
23.1835620485
 20
34.1277458993
 30
0.0
 10
23.2500630196
 20
35.0659889982
 30
0.0
 10
23.1868179192
 20
36.077449075
 30
0.0
 10
22.9958139612
 20
37.1393644521
 30
0.0
 10
22.6816288795
 20
38.2274240166
 30
0.0
 10
22.2515600652
 20
39.3164283019
 30
0.0
 10
21.7156705563
 20
40.3812328531
 30
0.0
 10
21.086421219
 20
41.396728238
 30
0.0
 10
20.6086823103
 20
42.0329578518
 30
0.0
 10
20.3571836157
 20
42.3368072245
 30
0.0
  0
SPLINE
  5
311
100
AcDbEntity
  8
0
100
AcDbSpline
 62
7
  6
BYLAYER
 70
0
 71
3
 72
11
 73
7
 74
0
 42
0.0000001
 43
0.0000001
 44
0.0000000001
 40
0.0
 40
0.0
 40
0.0
 40
0.0
 40
0.2177239861
 40
0.4508730345
 40
0.7104683317
 40
1.0
 40
1.0
 40
1.0
 40
1.0
 10
9.5649396161
 20
32.4155300768
 30
0.0
 10
9.5979174243
 20
32.4345680168
 30
0.0
 10
9.6596721834
 20
32.4863911989
 30
0.0
 10
9.7253887061
 20
32.5938653763
 30
0.0
 10
9.7643403676
 20
32.7262829694
 30
0.0
 10
9.7720733638
 20
32.8226408295
 30
0.0
 10
9.7720733638
 20
32.8732781424
 30
0.0
  0
SPLINE
  5
312
100
AcDbEntity
  8
0
100
AcDbSpline
 62
7
  6
BYLAYER
 70
0
 71
3
 72
20
 73
16
 74
0
 42
0.0000001
 43
0.0000001
 44
0.0000000001
 40
0.0
 40
0.0
 40
0.0
 40
0.0
 40
0.1486272465
 40
0.2984716792
 40
0.4442414486
 40
0.5140930684
 40
0.5811814787
 40
0.6450760061
 40
0.7054693064
 40
0.7622013615
 40
0.8152934646
 40
0.8649926632
 40
0.9117955923
 40
0.9564656728
 40
1.0
 40
1.0
 40
1.0
 40
1.0
 10
20.0012268318
 20
41.7899386232
 30
0.0
 10
20.3302092584
 20
41.3924769023
 30
0.0
 10
20.9347190707
 20
40.5462412314
 30
0.0
 10
21.659651088
 20
39.1804991137
 30
0.0
 10
22.1004093391
 20
37.9857528148
 30
0.0
 10
22.3344871938
 20
37.0317910086
 30
0.0
 10
22.4460263986
 20
36.3427392718
 30
0.0
 10
22.4944223408
 20
35.6792167889
 30
0.0
 10
22.4790245068
 20
35.0498941449
 30
0.0
 10
22.3998478338
 20
34.4629672819
 30
0.0
 10
22.2575214843
 20
33.9260901762
 30
0.0
 10
22.053511166
 20
33.4463507742
 30
0.0
 10
21.789645652
 20
33.030431257
 30
0.0
 10
21.4690423046
 20
32.6848772807
 30
0.0
 10
21.2187955552
 20
32.5042419407
 30
0.0
 10
21.0879129906
 20
32.4286834309
 30
0.0
  0
SPLINE
  5
313
100
AcDbEntity
  8
0
100
AcDbSpline
 62
7
  6
BYLAYER
 70
0
 71
3
 72
17
 73
13
 74
0
 42
0.0000001
 43
0.0000001
 44
0.0000000001
 40
0.0
 40
0.0
 40
0.0
 40
0.0
 40
0.1570329619
 40
0.3067830496
 40
0.447238153
 40
0.5770674791
 40
0.6957943117
 40
0.8041183553
 40
0.8550785523
 40
0.9043673917
 40
0.9524860681
 40
1.0
 40
1.0
 40
1.0
 40
1.0
 10
26.2794012989
 20
46.146104312
 30
0.0
 10
25.9857751281
 20
46.5008502003
 30
0.0
 10
25.3784617268
 20
47.1669969639
 30
0.0
 10
24.3962449652
 20
48.0399845507
 30
0.0
 10
23.3835278809
 20
48.7467943341
 30
0.0
 10
22.3648723487
 20
49.2694733176
 30
0.0
 10
21.3646377456
 20
49.594253108
 30
0.0
 10
20.5483291267
 20
49.6926937348
 30
0.0
 10
19.9363242554
 20
49.6575099993
 30
0.0
 10
19.5072570691
 20
49.5781869047
 30
0.0
 10
19.102065749
 20
49.4459598937
 30
0.0
 10
18.8490372262
 20
49.3225562409
 30
0.0
 10
18.7283726921
 20
49.2528831511
 30
0.0
  0
SPLINE
  5
314
100
AcDbEntity
  8
0
100
AcDbSpline
 62
7
  6
BYLAYER
 70
0
 71
3
 72
9
 73
5
 74
0
 42
0.0000001
 43
0.0000001
 44
0.0000000001
 40
0.0
 40
0.0
 40
0.0
 40
0.0
 40
0.5033607359
 40
1.0
 40
1.0
 40
1.0
 40
1.0
 10
18.8062025275
 20
38.7004276881
 30
0.0
 10
18.6464500762
 20
38.9878326174
 30
0.0
 10
18.3031827413
 20
39.5447879404
 30
0.0
 10
17.9107054711
 20
40.0683255955
 30
0.0
 10
17.7038418992
 20
40.3182488273
 30
0.0
  0
SPLINE
  5
315
100
AcDbEntity
  8
0
100
AcDbSpline
 62
7
  6
BYLAYER
 70
0
 71
3
 72
9
 73
5
 74
0
 42
0.0000001
 43
0.0000001
 44
0.0000000001
 40
0.0
 40
0.0
 40
0.0
 40
0.0
 40
0.2698564128
 40
1.0
 40
1.0
 40
1.0
 40
1.0
 10
18.4698311802
 20
37.4947670032
 30
0.0
 10
18.4698311802
 20
37.4587927469
 30
0.0
 10
18.4647442743
 20
37.3256838725
 30
0.0
 10
18.4377139446
 20
37.1922933865
 30
0.0
 10
18.4010592276
 20
37.1021243187
 30
0.0
  0
SPLINE
  5
316
100
AcDbEntity
  8
0
100
AcDbSpline
 62
7
  6
BYLAYER
 70
0
 71
3
 72
11
 73
7
 74
0
 42
0.0000001
 43
0.0000001
 44
0.0000000001
 40
0.0
 40
0.0
 40
0.0
 40
0.0
 40
0.2336341691
 40
0.4793276755
 40
0.7355342609
 40
1.0
 40
1.0
 40
1.0
 40
1.0
 10
58.5782111611
 20
69.0574728353
 30
0.0
 10
58.8390959606
 20
68.900395095
 30
0.0
 10
59.3578698392
 20
68.55020786
 30
0.0
 10
60.1016152869
 20
67.9434900189
 30
0.0
 10
60.8216564847
 20
67.2496687584
 30
0.0
 10
61.273377481
 20
66.7422094672
 30
0.0
 10
61.4931723922
 20
66.4766631748
 30
0.0
  0
SPLINE
  5
317
100
AcDbEntity
  8
0
100
AcDbSpline
 62
7
  6
BYLAYER
 70
0
 71
3
 72
9
 73
5
 74
0
 42
0.0000001
 43
0.0000001
 44
0.0000000001
 40
0.0
 40
0.0
 40
0.0
 40
0.0
 40
0.2372406965
 40
1.0
 40
1.0
 40
1.0
 40
1.0
 10
17.2635935905
 20
36.8677098949
 30
0.0
 10
17.2635935905
 20
36.9000768741
 30
0.0
 10
17.2585879317
 20
37.0364975954
 30
0.0
 10
17.2350576586
 20
37.1719357521
 30
0.0
 10
17.2093852313
 20
37.2727833668
 30
0.0
  0
SPLINE
  5
318
100
AcDbEntity
  8
0
100
AcDbSpline
 62
7
  6
BYLAYER
 70
0
 71
3
 72
18
 73
14
 74
0
 42
0.0000001
 43
0.0000001
 44
0.0000000001
 40
0.0
 40
0.0
 40
0.0
 40
0.0
 40
0.1439031642
 40
0.2927597343
 40
0.4400148377
 40
0.5794292902
 40
0.7058534894
 40
0.7632923464
 40
0.8166845506
 40
0.8662934885
 40
0.9126943067
 40
0.9568469788
 40
1.0
 40
1.0
 40
1.0
 40
1.0
 10
17.2093852313
 20
37.2727833668
 30
0.0
 10
17.1807213826
 20
37.3853820212
 30
0.0
 10
17.102384427
 20
37.6096675902
 30
0.0
 10
16.9359924056
 20
37.9249002602
 30
0.0
 10
16.7273800678
 20
38.2096951005
 30
0.0
 10
16.4899281487
 20
38.4459221599
 30
0.0
 10
16.2730266954
 20
38.5948685723
 30
0.0
 10
16.0979841206
 20
38.6738508105
 30
0.0
 10
15.9733640269
 20
38.7108493931
 30
0.0
 10
15.8532458268
 20
38.7269664141
 30
0.0
 10
15.7394957897
 20
38.7214420639
 30
0.0
 10
15.6341987807
 20
38.6942626824
 30
0.0
 10
15.5709152248
 20
38.6616443113
 30
0.0
 10
15.5419256132
 20
38.6423155741
 30
0.0
  0
SPLINE
  5
319
100
AcDbEntity
  8
0
100
AcDbSpline
 62
7
  6
BYLAYER
 70
0
 71
3
 72
16
 73
12
 74
0
 42
0.0000001
 43
0.0000001
 44
0.0000000001
 40
0.0
 40
0.0
 40
0.0
 40
0.0
 40
0.1425070582
 40
0.2899720525
 40
0.436252218
 40
0.5755074761
 40
0.7027670071
 40
0.8150067331
 40
0.9123605949
 40
0.956945923
 40
1.0
 40
1.0
 40
1.0
 40
1.0
 10
16.9418429969
 20
37.2193660923
 30
0.0
 10
16.9180063974
 20
37.3130021234
 30
0.0
 10
16.8533460243
 20
37.4996619564
 30
0.0
 10
16.7165814324
 20
37.7629838455
 30
0.0
 10
16.5450953607
 20
38.002564464
 30
0.0
 10
16.3492300324
 20
38.2041210951
 30
0.0
 10
16.1400637865
 20
38.3557963352
 30
0.0
 10
15.9292219799
 20
38.448814021
 30
0.0
 10
15.7547436638
 20
38.4716941503
 30
0.0
 10
15.6301887939
 20
38.4513666493
 30
0.0
 10
15.5742944067
 20
38.4296512401
 30
0.0
 10
15.5484165913
 20
38.4161427313
 30
0.0
  0
SPLINE
  5
31A
100
AcDbEntity
  8
0
100
AcDbSpline
 62
7
  6
BYLAYER
 70
0
 71
3
 72
11
 73
7
 74
0
 42
0.0000001
 43
0.0000001
 44
0.0000000001
 40
0.0
 40
0.0
 40
0.0
 40
0.0
 40
0.2324920592
 40
0.472001528
 40
0.726014764
 40
1.0
 40
1.0
 40
1.0
 40
1.0
 10
15.5484165913
 20
38.4161427313
 30
0.0
 10
15.519945133
 20
38.4012803119
 30
0.0
 10
15.4655980174
 20
38.3639357694
 30
0.0
 10
15.3979758803
 20
38.2887539881
 30
0.0
 10
15.3451634135
 20
38.1960133544
 30
0.0
 10
15.3212398782
 20
38.1266716882
 30
0.0
 10
15.3116618538
 20
38.0900544148
 30
0.0
  0
SPLINE
  5
31B
100
AcDbEntity
  8
0
100
AcDbSpline
 62
7
  6
BYLAYER
 70
0
 71
3
 72
9
 73
5
 74
0
 42
0.0000001
 43
0.0000001
 44
0.0000000001
 40
0.0
 40
0.0
 40
0.0
 40
0.0
 40
0.2372407711
 40
1.0
 40
1.0
 40
1.0
 40
1.0
 10
16.9883460708
 20
36.8718707476
 30
0.0
 10
16.9883460708
 20
36.8996370141
 30
0.0
 10
16.9840517688
 20
37.0166665553
 30
0.0
 10
16.9638662807
 20
37.1328532119
 30
0.0
 10
16.9418429969
 20
37.2193660923
 30
0.0
  0
SPLINE
  5
31C
100
AcDbEntity
  8
0
100
AcDbSpline
 62
7
  6
BYLAYER
 70
0
 71
3
 72
10
 73
6
 74
0
 42
0.0000001
 43
0.0000001
 44
0.0000000001
 40
0.0
 40
0.0
 40
0.0
 40
0.0
 40
0.527133373
 40
0.7678446626
 40
1.0
 40
1.0
 40
1.0
 40
1.0
 10
16.3468428993
 20
36.2886349128
 30
0.0
 10
16.4120982674
 20
36.2702109795
 30
0.0
 10
16.5124461427
 20
36.2558992561
 30
0.0
 10
16.6402494378
 20
36.2759872931
 30
0.0
 10
16.6975351022
 20
36.2981402516
 30
0.0
 10
16.7239923282
 20
36.3119892387
 30
0.0
  0
SPLINE
  5
31D
100
AcDbEntity
  8
0
100
AcDbSpline
 62
7
  6
BYLAYER
 70
0
 71
3
 72
9
 73
5
 74
0
 42
0.0000001
 43
0.0000001
 44
0.0000000001
 40
0.0
 40
0.0
 40
0.0
 40
0.0
 40
0.4945502649
 40
1.0
 40
1.0
 40
1.0
 40
1.0
 10
16.7239923282
 20
36.3119892387
 30
0.0
 10
16.7485323126
 20
36.3248346491
 30
0.0
 10
16.7955641476
 20
36.3560738875
 30
0.0
 10
16.8352403174
 20
36.3961792693
 30
0.0
 10
16.8531858658
 20
36.4180736272
 30
0.0
  0
SPLINE
  5
31E
100
AcDbEntity
  8
0
100
AcDbSpline
 62
7
  6
BYLAYER
 70
0
 71
3
 72
10
 73
6
 74
0
 42
0.0000001
 43
0.0000001
 44
0.0000000001
 40
0.0
 40
0.0
 40
0.0
 40
0.0
 40
0.4591054983
 40
0.7191302894
 40
1.0
 40
1.0
 40
1.0
 40
1.0
 10
16.8531858658
 20
36.4180736272
 30
0.0
 10
16.8998527706
 20
36.4750093025
 30
0.0
 10
16.9512344649
 20
36.5826247201
 30
0.0
 10
16.983100061
 20
36.739877594
 30
0.0
 10
16.9883460708
 20
36.8268336011
 30
0.0
 10
16.9883460708
 20
36.8718707476
 30
0.0
  0
SPLINE
  5
31F
100
AcDbEntity
  8
0
100
AcDbSpline
 62
7
  6
BYLAYER
 70
0
 71
3
 72
11
 73
7
 74
0
 42
0.0000001
 43
0.0000001
 44
0.0000000001
 40
0.0
 40
0.0
 40
0.0
 40
0.0
 40
0.2895453772
 40
0.5491366158
 40
0.7822776227
 40
1.0
 40
1.0
 40
1.0
 40
1.0
 10
16.8431117359
 20
36.9557196811
 30
0.0
 10
16.8431117359
 20
36.9050798549
 30
0.0
 10
16.835379338
 20
36.8087198315
 30
0.0
 10
16.7964251583
 20
36.6763025289
 30
0.0
 10
16.7307100288
 20
36.5688297066
 30
0.0
 10
16.6689557908
 20
36.5170090812
 30
0.0
 10
16.635979233
 20
36.497969364
 30
0.0
  0
SPLINE
  5
320
100
AcDbEntity
  8
0
100
AcDbSpline
 62
7
  6
BYLAYER
 70
0
 71
3
 72
17
 73
13
 74
0
 42
0.0000001
 43
0.0000001
 44
0.0000000001
 40
0.0
 40
0.0
 40
0.0
 40
0.0
 40
0.1570274606
 40
0.3067858387
 40
0.4472364023
 40
0.577067081
 40
0.6957938793
 40
0.8041185875
 40
0.8550779632
 40
0.9043677096
 40
0.952485714
 40
1.0
 40
1.0
 40
1.0
 40
1.0
 10
20.5664056753
 20
42.5226215032
 30
0.0
 10
20.3054139333
 20
42.8379399473
 30
0.0
 10
19.7655670273
 20
43.4300667235
 30
0.0
 10
18.8925030481
 20
44.206069483
 30
0.0
 10
17.9922855482
 20
44.8343295359
 30
0.0
 10
17.0868288409
 20
45.2989474971
 30
0.0
 10
16.1977287732
 20
45.587624363
 30
0.0
 10
15.4721183748
 20
45.6751866232
 30
0.0
 10
14.9281221588
 20
45.6438263464
 30
0.0
 10
14.5467114095
 20
45.5734093324
 30
0.0
 10
14.1865710602
 20
45.4557763117
 30
0.0
 10
13.9616355685
 20
45.3461395643
 30
0.0
 10
13.8543722532
 20
45.2842165386
 30
0.0
  0
SPLINE
  5
321
100
AcDbEntity
  8
0
100
AcDbSpline
 62
7
  6
BYLAYER
 70
0
 71
3
 72
17
 73
13
 74
0
 42
0.0000001
 43
0.0000001
 44
0.0000000001
 40
0.0
 40
0.0
 40
0.0
 40
0.0
 40
0.1286846513
 40
0.2703032228
 40
0.4174430309
 40
0.5617811216
 40
0.695448235
 40
0.8127121431
 40
0.8646788239
 40
0.9125086207
 40
0.9571391214
 40
1.0
 40
1.0
 40
1.0
 40
1.0
 10
9.7720733638
 20
32.8732781424
 30
0.0
 10
9.7720733638
 20
32.9587496394
 30
0.0
 10
9.7481436392
 20
33.1384849594
 30
0.0
 10
9.6589164652
 20
33.4023825296
 30
0.0
 10
9.5213570657
 20
33.6565771664
 30
0.0
 10
9.3466248882
 20
33.8802450798
 30
0.0
 10
9.1489294247
 20
34.0553320408
 30
0.0
 10
8.9699856364
 20
34.1531385528
 30
0.0
 10
8.8300215273
 20
34.1904303566
 30
0.0
 10
8.7336856015
 20
34.1974680426
 30
0.0
 10
8.6439685029
 20
34.1843814799
 30
0.0
 10
8.5896421818
 20
34.1617406607
 30
0.0
 10
8.5649876612
 20
34.1475077171
 30
0.0
  0
SPLINE
  5
322
100
AcDbEntity
  8
0
100
AcDbSpline
 62
7
  6
BYLAYER
 70
0
 71
3
 72
20
 73
16
 74
0
 42
0.0000001
 43
0.0000001
 44
0.0000000001
 40
0.0
 40
0.0
 40
0.0
 40
0.0
 40
0.0463502603
 40
0.0925015543
 40
0.13944238
 40
0.1880797382
 40
0.2391612418
 40
0.2932385098
 40
0.3506537376
 40
0.4115673717
 40
0.4759668116
 40
0.5437098702
 40
0.68799181
 40
0.8414261952
 40
1.0
 40
1.0
 40
1.0
 40
1.0
 10
18.3010334325
 20
31.392559692
 30
0.0
 10
18.4220438288
 20
31.4312385248
 30
0.0
 10
18.6574038854
 20
31.529734829
 30
0.0
 10
18.9791030857
 20
31.7398075682
 30
0.0
 10
19.2626981299
 20
32.0082321157
 30
0.0
 10
19.5047807231
 20
32.3313561719
 30
0.0
 10
19.7031070211
 20
32.7050507066
 30
0.0
 10
19.8557939787
 20
33.1250268572
 30
0.0
 10
19.961746096
 20
33.5866291526
 30
0.0
 10
20.0199159007
 20
34.0849667109
 30
0.0
 10
20.0300329776
 20
34.6147794223
 30
0.0
 10
19.9780967282
 20
35.3714454358
 30
0.0
 10
19.7887173423
 20
36.3592094518
 30
0.0
 10
19.3888732677
 20
37.547476448
 30
0.0
 10
19.0173640762
 20
38.3205344882
 30
0.0
 10
18.8062025275
 20
38.7004276881
 30
0.0
  0
SPLINE
  5
323
100
AcDbEntity
  8
0
100
AcDbSpline
 62
7
  6
BYLAYER
 70
0
 71
3
 72
9
 73
5
 74
0
 42
0.0000001
 43
0.0000001
 44
0.0000000001
 40
0.0
 40
0.0
 40
0.0
 40
0.0
 40
0.5168917181
 40
1.0
 40
1.0
 40
1.0
 40
1.0
 10
14.3098675045
 20
32.8177080047
 30
0.0
 10
14.5182005007
 20
32.6315600978
 30
0.0
 10
14.9401511718
 20
32.2918401385
 30
0.0
 10
15.4000295616
 20
32.004527364
 30
0.0
 10
15.6308385117
 20
31.882415354
 30
0.0
  0
SPLINE
  5
324
100
AcDbEntity
  8
0
100
AcDbSpline
 62
7
  6
BYLAYER
 70
0
 71
3
 72
25
 73
21
 74
0
 42
0.0000001
 43
0.0000001
 44
0.0000000001
 40
0.0
 40
0.0
 40
0.0
 40
0.0
 40
0.0619534628
 40
0.0911437934
 40
0.1191900972
 40
0.1721405464
 40
0.2218885751
 40
0.2699404972
 40
0.318096665
 40
0.3681381524
 40
0.4215243602
 40
0.4498240987
 40
0.4792818741
 40
0.5417889081
 40
0.6091391353
 40
0.6810345416
 40
0.7569086911
 40
0.8359779895
 40
0.9173678211
 40
1.0
 40
1.0
 40
1.0
 40
1.0
 10
15.8626622752
 20
31.767008026
 30
0.0
 10
16.0548075549
 20
31.6773770495
 30
0.0
 10
16.3466390084
 20
31.5632126059
 30
0.0
 10
16.7418665082
 20
31.4607111852
 30
0.0
 10
17.1139163064
 20
31.3971107445
 30
0.0
 10
17.5641676349
 20
31.3814993986
 30
0.0
 10
18.0762135118
 20
31.4735096219
 30
0.0
 10
18.5379463716
 20
31.676686369
 30
0.0
 10
18.9371441418
 20
31.9866760425
 30
0.0
 10
19.2643886009
 20
32.394656933
 30
0.0
 10
19.4686383324
 20
32.7999054392
 30
0.0
 10
19.5936198633
 20
33.1595049812
 30
0.0
 10
19.6962189938
 20
33.5585423486
 30
0.0
 10
19.7697236497
 20
34.1008353425
 30
0.0
 10
19.7728866491
 20
34.7928783048
 30
0.0
 10
19.6929791447
 20
35.5261489639
 30
0.0
 10
19.5316270523
 20
36.2866980236
 30
0.0
 10
19.292018614
 20
37.0602983257
 30
0.0
 10
18.9786715965
 20
37.831946892
 30
0.0
 10
18.7255107796
 20
38.3337552577
 30
0.0
 10
18.5881207912
 20
38.5809286786
 30
0.0
  0
SPLINE
  5
325
100
AcDbEntity
  8
0
100
AcDbSpline
 62
7
  6
BYLAYER
 70
0
 71
3
 72
11
 73
7
 74
0
 42
0.0000001
 43
0.0000001
 44
0.0000000001
 40
0.0
 40
0.0
 40
0.0
 40
0.0
 40
0.2304259801
 40
0.4759658876
 40
0.7336645806
 40
1.0
 40
1.0
 40
1.0
 40
1.0
 10
11.1325356
 20
39.4474457059
 30
0.0
 10
11.1331506047
 20
39.1817787203
 30
0.0
 10
11.1720414479
 20
38.6327229335
 30
0.0
 10
11.3281126542
 20
37.7998221601
 30
0.0
 10
11.5802634866
 20
36.9476719456
 30
0.0
 10
11.8059814638
 20
36.3861629605
 30
0.0
 10
11.9331006763
 20
36.1066416029
 30
0.0
  0
SPLINE
  5
326
100
AcDbEntity
  8
0
100
AcDbSpline
 62
7
  6
BYLAYER
 70
0
 71
3
 72
21
 73
17
 74
0
 42
0.0000001
 43
0.0000001
 44
0.0000000001
 40
0.0
 40
0.0
 40
0.0
 40
0.0
 40
0.0435303245
 40
0.0881970494
 40
0.1349956428
 40
0.1846893858
 40
0.237777694
 40
0.2945034027
 40
0.3548901155
 40
0.418779041
 40
0.4858598167
 40
0.5557058945
 40
0.6277996261
 40
0.7015552195
 40
0.8513868856
 40
1.0
 40
1.0
 40
1.0
 40
1.0
 10
27.7283136108
 20
33.6644351637
 30
0.0
 10
27.9028155293
 20
33.7651945785
 30
0.0
 10
28.2365375128
 20
34.0059638629
 30
0.0
 10
28.6639604361
 20
34.4667675912
 30
0.0
 10
29.0157712174
 20
35.0213215766
 30
0.0
 10
29.2878487019
 20
35.6609534814
 30
0.0
 10
29.4775438948
 20
36.376807711
 30
0.0
 10
29.5831395745
 20
37.1593650442
 30
0.0
 10
29.603699017
 20
37.9984551702
 30
0.0
 10
29.5391174076
 20
38.8831458751
 30
0.0
 10
29.3904357295
 20
39.8018559454
 30
0.0
 10
29.1596754127
 20
40.7424774819
 30
0.0
 10
28.849860645
 20
41.6926017094
 30
0.0
 10
28.3342822565
 20
42.9615294492
 30
0.0
 10
27.5239427796
 20
44.4880109206
 30
0.0
 10
26.718043798
 20
45.6161562406
 30
0.0
 10
26.2794012989
 20
46.146104312
 30
0.0
  0
SPLINE
  5
327
100
AcDbEntity
  8
0
100
AcDbSpline
 62
7
  6
BYLAYER
 70
0
 71
3
 72
23
 73
19
 74
0
 42
0.0000001
 43
0.0000001
 44
0.0000000001
 40
0.0
 40
0.0
 40
0.0
 40
0.0
 40
0.0832713096
 40
0.1640180052
 40
0.241522484
 40
0.3153125244
 40
0.385025563
 40
0.4504565982
 40
0.5116351272
 40
0.5688560773
 40
0.6227133511
 40
0.6741244265
 40
0.7242806022
 40
0.7745320717
 40
0.8262181977
 40
0.8804982427
 40
0.938234459
 40
1.0
 40
1.0
 40
1.0
 40
1.0
 10
17.5202073521
 20
40.1481952265
 30
0.0
 10
17.373625593
 20
40.3252886925
 30
0.0
 10
17.0724323411
 20
40.6640306309
 30
0.0
 10
16.5927722958
 20
41.1281127569
 30
0.0
 10
16.0972570681
 20
41.5353190298
 30
0.0
 10
15.5927501874
 20
41.8800065007
 30
0.0
 10
15.0859648487
 20
42.1576350238
 30
0.0
 10
14.583521488
 20
42.3642174651
 30
0.0
 10
14.0920284119
 20
42.4967577973
 30
0.0
 10
13.6178956967
 20
42.5530555055
 30
0.0
 10
13.1675074547
 20
42.5314381718
 30
0.0
 10
12.7474799003
 20
42.4313794906
 30
0.0
 10
12.3646866381
 20
42.2535902424
 30
0.0
 10
12.0258035633
 20
42.0007653811
 30
0.0
 10
11.7362390711
 20
41.6775907132
 30
0.0
 10
11.4999786711
 20
41.2896604734
 30
0.0
 10
11.3195103745
 20
40.8432023229
 30
0.0
 10
11.240344094
 20
40.5217603497
 30
0.0
 10
11.2095929208
 20
40.3540396281
 30
0.0
  0
SPLINE
  5
328
100
AcDbEntity
  8
0
100
AcDbSpline
 62
7
  6
BYLAYER
 70
0
 71
3
 72
9
 73
5
 74
0
 42
0.0000001
 43
0.0000001
 44
0.0000000001
 40
0.0
 40
0.0
 40
0.0
 40
0.0
 40
0.2406410392
 40
1.0
 40
1.0
 40
1.0
 40
1.0
 10
11.2095929208
 20
40.3540396281
 30
0.0
 10
11.1966122595
 20
40.2832414875
 30
0.0
 10
11.1501990766
 20
39.987671389
 30
0.0
 10
11.132520211
 20
39.6878635327
 30
0.0
 10
11.132520211
 20
39.4607312035
 30
0.0
  0
SPLINE
  5
329
100
AcDbEntity
  8
0
100
AcDbSpline
 62
7
  6
BYLAYER
 70
0
 71
3
 72
9
 73
5
 74
0
 42
0.0000001
 43
0.0000001
 44
0.0000000001
 40
0.0
 40
0.0
 40
0.0
 40
0.0
 40
0.5033607104
 40
1.0
 40
1.0
 40
1.0
 40
1.0
 10
18.5881207912
 20
38.5809286786
 30
0.0
 10
18.4333603851
 20
38.8593525973
 30
0.0
 10
18.1008191157
 20
39.3989034978
 30
0.0
 10
17.720606741
 20
39.9060817289
 30
0.0
 10
17.5202073521
 20
40.1481952265
 30
0.0
  0
LINE
  5
32A
100
AcDbEntity
  8
0
100
AcDbLine
 62
7
  6
BYLAYER
 10
23.182689873
 20
44.0331248725
 11
23.1675762148
 21
44.0513498859
  0
SPLINE
  5
32B
100
AcDbEntity
  8
0
100
AcDbSpline
 62
7
  6
BYLAYER
 70
0
 71
3
 72
9
 73
5
 74
0
 42
0.0000001
 43
0.0000001
 44
0.0000000001
 40
0.0
 40
0.0
 40
0.0
 40
0.0
 40
0.5054551122
 40
1.0
 40
1.0
 40
1.0
 40
1.0
 10
17.4061971714
 20
47.1262535187
 30
0.0
 10
17.2418127329
 20
47.0988402629
 30
0.0
 10
16.9203829273
 20
47.0174200224
 30
0.0
 10
16.6185815155
 20
46.8795622635
 30
0.0
 10
16.4771381168
 20
46.7984361521
 30
0.0
  0
SPLINE
  5
32C
100
AcDbEntity
  8
0
100
AcDbSpline
 62
7
  6
BYLAYER
 70
0
 71
3
 72
17
 73
13
 74
0
 42
0.0000001
 43
0.0000001
 44
0.0000000001
 40
0.0
 40
0.0
 40
0.0
 40
0.0
 40
0.1389006987
 40
0.279520257
 40
0.4186214288
 40
0.5530704807
 40
0.6800867378
 40
0.7401339435
 40
0.7975770475
 40
0.8522900513
 40
0.9042361934
 40
1.0
 40
1.0
 40
1.0
 40
1.0
 10
23.1657395499
 20
44.0070835105
 30
0.0
 10
23.4764010101
 20
43.6317563546
 30
0.0
 10
24.0587516768
 20
42.8400468796
 30
0.0
 10
24.7984419329
 20
41.568551302
 30
0.0
 10
25.3917562496
 20
40.2392118609
 30
0.0
 10
25.8183872286
 20
38.8973424913
 30
0.0
 10
26.027051625
 20
37.7853450422
 30
0.0
 10
26.0938565169
 20
36.9295875071
 30
0.0
 10
26.0945095245
 20
36.3249330345
 30
0.0
 10
26.0463746778
 20
35.750421253
 30
0.0
 10
25.9215152622
 20
35.0510225449
 30
0.0
 10
25.7524979975
 20
34.5548259304
 30
0.0
 10
25.6025852529
 20
34.254226273
 30
0.0
  0
SPLINE
  5
32D
100
AcDbEntity
  8
0
100
AcDbSpline
 62
7
  6
BYLAYER
 70
0
 71
3
 72
20
 73
16
 74
0
 42
0.0000001
 43
0.0000001
 44
0.0000000001
 40
0.0
 40
0.0
 40
0.0
 40
0.0
 40
0.043534671
 40
0.0882049046
 40
0.1350078182
 40
0.1847067168
 40
0.2377982833
 40
0.2945294903
 40
0.3549217445
 40
0.4188152874
 40
0.4859032368
 40
0.5557546714
 40
0.7015245691
 40
0.851370418
 40
1.0
 40
1.0
 40
1.0
 40
1.0
 10
24.4706140881
 20
32.9383041231
 30
0.0
 10
24.6257356742
 20
33.0278551552
 30
0.0
 10
24.9223251258
 20
33.2419440833
 30
0.0
 10
25.3023015908
 20
33.651490219
 30
0.0
 10
25.615028196
 20
34.1444329679
 30
0.0
 10
25.8568178469
 20
34.7130091591
 30
0.0
 10
26.025498352
 20
35.3493014862
 30
0.0
 10
26.1193377829
 20
36.0449082174
 30
0.0
 10
26.1375885883
 20
36.7907601897
 30
0.0
 10
26.0802339438
 20
37.5771470968
 30
0.0
 10
25.9480442593
 20
38.3937949986
 30
0.0
 10
25.6706227484
 20
39.5244151939
 30
0.0
 10
25.1482465657
 20
40.9404181627
 30
0.0
 10
24.2890651851
 20
42.5590923073
 30
0.0
 10
23.5726010889
 20
43.5620517381
 30
0.0
 10
23.182689873
 20
44.0331248725
 30
0.0
  0
SPLINE
  5
32E
100
AcDbEntity
  8
0
100
AcDbSpline
 62
7
  6
BYLAYER
 70
0
 71
3
 72
20
 73
16
 74
0
 42
0.0000001
 43
0.0000001
 44
0.0000000001
 40
0.0
 40
0.0
 40
0.0
 40
0.0
 40
0.0435345262
 40
0.0882047632
 40
0.1350077917
 40
0.1847069576
 40
0.2377988579
 40
0.2945304704
 40
0.3549231553
 40
0.4188169367
 40
0.4859047283
 40
0.5557568282
 40
0.7015284593
 40
0.8513725962
 40
1.0
 40
1.0
 40
1.0
 40
1.0
 10
20.7343658918
 20
32.2245530032
 30
0.0
 10
20.8652492384
 20
32.3001118539
 30
0.0
 10
21.1154971985
 20
32.4807481903
 30
0.0
 10
21.4361020982
 20
32.8263036075
 30
0.0
 10
21.6999673818
 20
33.2422248297
 30
0.0
 10
21.9039773548
 20
33.7219644254
 30
0.0
 10
22.0463024242
 20
34.2588400278
 30
0.0
 10
22.1254785897
 20
34.8457631249
 30
0.0
 10
22.140876095
 20
35.4750801715
 30
0.0
 10
22.0924810304
 20
36.138596433
 30
0.0
 10
21.9809447594
 20
36.8276463112
 30
0.0
 10
21.7468634286
 20
37.7816144901
 30
0.0
 10
21.3061059862
 20
38.9763700597
 30
0.0
 10
20.5811678827
 20
40.3421177569
 30
0.0
 10
19.9766580299
 20
41.1883539917
 30
0.0
 10
19.6476749132
 20
41.5858165462
 30
0.0
  0
SPLINE
  5
32F
100
AcDbEntity
  8
0
100
AcDbSpline
 62
7
  6
BYLAYER
 70
0
 71
3
 72
18
 73
14
 74
0
 42
0.0000001
 43
0.0000001
 44
0.0000000001
 40
0.0
 40
0.0
 40
0.0
 40
0.0
 40
0.0428885764
 40
0.0871813938
 40
0.134464411
 40
0.1858087569
 40
0.2417501366
 40
0.3023289712
 40
0.4356081132
 40
0.5802279363
 40
0.728121451
 40
0.8705863325
 40
1.0
 40
1.0
 40
1.0
 40
1.0
 10
16.6440607907
 20
39.3766853378
 30
0.0
 10
16.6797697572
 20
39.4004794596
 30
0.0
 10
16.7591122231
 20
39.439434644
 30
0.0
 10
16.8922115679
 20
39.466452598
 30
0.0
 10
17.0362374515
 20
39.46209211
 30
0.0
 10
17.1877569079
 20
39.4273084004
 30
0.0
 10
17.3436887792
 20
39.3632081324
 30
0.0
 10
17.560030976
 20
39.2368003477
 30
0.0
 10
17.8187994536
 20
39.0139007357
 30
0.0
 10
18.0854138249
 20
38.6790618767
 30
0.0
 10
18.2960664989
 20
38.2957297536
 30
0.0
 10
18.4330218574
 20
37.8965751592
 30
0.0
 10
18.4698311802
 20
37.6242461033
 30
0.0
 10
18.4698311802
 20
37.4947670032
 30
0.0
  0
SPLINE
  5
330
100
AcDbEntity
  8
0
100
AcDbSpline
 62
7
  6
BYLAYER
 70
0
 71
3
 72
20
 73
16
 74
0
 42
0.0000001
 43
0.0000001
 44
0.0000000001
 40
0.0
 40
0.0
 40
0.0
 40
0.0
 40
0.0435345262
 40
0.0882047632
 40
0.1350077917
 40
0.1847069576
 40
0.2377988579
 40
0.2945304704
 40
0.3549231553
 40
0.4188169367
 40
0.4859047283
 40
0.5557568282
 40
0.7015284593
 40
0.8513725962
 40
1.0
 40
1.0
 40
1.0
 40
1.0
 10
21.854335724
 20
31.4277906374
 30
0.0
 10
22.0094567274
 20
31.5173418679
 30
0.0
 10
22.3060469024
 20
31.7314293777
 30
0.0
 10
22.6860230798
 20
32.1409765388
 30
0.0
 10
22.9987523047
 20
32.6339202095
 30
0.0
 10
23.2405419023
 20
33.2025004711
 30
0.0
 10
23.4092234661
 20
33.8387974813
 30
0.0
 10
23.5030618845
 20
34.5344100408
 30
0.0
 10
23.5213107796
 20
35.2802672813
 30
0.0
 10
23.463953666
 20
36.0666569246
 30
0.0
 10
23.33176253
 20
36.883308632
 30
0.0
 10
23.0543328047
 20
38.0139375848
 30
0.0
 10
22.5319536136
 20
39.4299441858
 30
0.0
 10
21.6727677132
 20
41.0486081232
 30
0.0
 10
20.9563115914
 20
42.0515547719
 30
0.0
 10
20.5664056753
 20
42.5226215032
 30
0.0
  0
SPLINE
  5
331
100
AcDbEntity
  8
0
100
AcDbSpline
 62
7
  6
BYLAYER
 70
0
 71
3
 72
11
 73
7
 74
0
 42
0.0000001
 43
0.0000001
 44
0.0000000001
 40
0.0
 40
0.0
 40
0.0
 40
0.0
 40
0.2660509123
 40
0.5145281402
 40
0.7551114389
 40
1.0
 40
1.0
 40
1.0
 40
1.0
 10
18.667088666
 20
37.0453346042
 30
0.0
 10
18.6454847103
 20
36.9921897784
 30
0.0
 10
18.5932400393
 20
36.8930847579
 30
0.0
 10
18.4834552741
 20
36.7703640549
 30
0.0
 10
18.3480319966
 20
36.6845791171
 30
0.0
 10
18.246114635
 20
36.6548688289
 30
0.0
 10
18.193982784
 20
36.6464645883
 30
0.0
  0
SPLINE
  5
332
100
AcDbEntity
  8
0
100
AcDbSpline
 62
7
  6
BYLAYER
 70
0
 71
3
 72
9
 73
5
 74
0
 42
0.0000001
 43
0.0000001
 44
0.0000000001
 40
0.0
 40
0.0
 40
0.0
 40
0.0
 40
0.2451290653
 40
1.0
 40
1.0
 40
1.0
 40
1.0
 10
18.193982784
 20
36.6464645883
 30
0.0
 10
18.1838170316
 20
36.6448257546
 30
0.0
 10
18.1421895102
 20
36.6391324255
 30
0.0
 10
18.1000444679
 20
36.6373789132
 30
0.0
 10
18.0683424161
 20
36.6380641117
 30
0.0
  0
SPLINE
  5
333
100
AcDbEntity
  8
0
100
AcDbSpline
 62
7
  6
BYLAYER
 70
0
 71
3
 72
9
 73
5
 74
0
 42
0.0000001
 43
0.0000001
 44
0.0000000001
 40
0.0
 40
0.0
 40
0.0
 40
0.0
 40
0.2435840429
 40
1.0
 40
1.0
 40
1.0
 40
1.0
 10
18.0683424161
 20
36.6380641117
 30
0.0
 10
18.056716286
 20
36.6383153954
 30
0.0
 10
18.0090135565
 20
36.6404516416
 30
0.0
 10
17.9615325588
 20
36.6468848435
 30
0.0
 10
17.9260862049
 20
36.6537851268
 30
0.0
  0
SPLINE
  5
334
100
AcDbEntity
  8
0
100
AcDbSpline
 62
7
  6
BYLAYER
 70
0
 71
3
 72
20
 73
16
 74
0
 42
0.0000001
 43
0.0000001
 44
0.0000000001
 40
0.0
 40
0.0
 40
0.0
 40
0.0
 40
0.1486274038
 40
0.2984715407
 40
0.4442431718
 40
0.5140952717
 40
0.5811830633
 40
0.6450768447
 40
0.7054695296
 40
0.7622011421
 40
0.8152930424
 40
0.8649922083
 40
0.9117952368
 40
0.9564654738
 40
1.0
 40
1.0
 40
1.0
 40
1.0
 10
25.2332910009
 20
45.2170329187
 30
0.0
 10
25.623196917
 20
44.7459661874
 30
0.0
 10
26.3396530388
 20
43.7430195388
 30
0.0
 10
27.1988389392
 20
42.1243556013
 30
0.0
 10
27.7212181303
 20
40.7083490004
 30
0.0
 10
27.9986478556
 20
39.5777200476
 30
0.0
 10
28.1308389916
 20
38.7610683401
 30
0.0
 10
28.1881961052
 20
37.9746786968
 30
0.0
 10
28.1699472101
 20
37.2288214564
 30
0.0
 10
28.0761087917
 20
36.5332088969
 30
0.0
 10
27.907427228
 20
35.8969118867
 30
0.0
 10
27.6656376303
 20
35.3283316251
 30
0.0
 10
27.3529084054
 20
34.8353879544
 30
0.0
 10
26.972932228
 20
34.4258407932
 30
0.0
 10
26.676342053
 20
34.2117532834
 30
0.0
 10
26.5212210496
 20
34.1222020529
 30
0.0
  0
ELLIPSE
  5
335
100
AcDbEntity
  8
0
100
AcDbEllipse
 62
7
  6
BYLAYER
 10
53.9267313177
 20
58.7144658217
 30
0.0
 11
-6.697911533
 21
9.0224519243
 31
0.0
 40
0.237653632
 41
-3.621220487
 42
-3.5761173952
  0
ELLIPSE
  5
336
100
AcDbEntity
  8
0
100
AcDbEllipse
 62
7
  6
BYLAYER
 10
54.1654225809
 20
58.3924985797
 30
0.0
 11
-7.771919411
 21
8.4178689616
 31
0.0
 40
0.2080881539
 41
-3.776150951
 42
-3.7310478592
  0
ELLIPSE
  5
337
100
AcDbEntity
  8
0
100
AcDbEllipse
 62
7
  6
BYLAYER
 10
54.4228892211
 20
58.0972424802
 30
0.0
 11
8.7768884855
 21
-7.8725830182
 31
0.0
 40
0.1645667058
 41
-0.7761845743
 42
-0.7310814825
  0
ELLIPSE
  5
338
100
AcDbEntity
  8
0
100
AcDbEllipse
 62
7
  6
BYLAYER
 10
54.6947259129
 20
57.833749437
 30
0.0
 11
9.7084977198
 21
-7.3902123918
 31
0.0
 40
0.1126524607
 41
-0.9033914073
 42
-0.8582883155
  0
ELLIPSE
  5
339
100
AcDbEntity
  8
0
100
AcDbEllipse
 62
7
  6
BYLAYER
 10
54.976281455
 20
57.6065278889
 30
0.0
 11
10.5718375853
 21
-6.960304009
 31
0.0
 40
0.0568047358
 41
-1.0174361609
 42
-0.9723330691
  0
ELLIPSE
  5
33A
100
AcDbEntity
  8
0
100
AcDbEllipse
 62
7
  6
BYLAYER
 10
47.0796977714
 20
57.7162610282
 30
0.0
 11
16.5193159623
 21
2.2787596211
 31
0.0
 40
0.6026731265
 41
1.241942007
 42
1.282314114
  0
ELLIPSE
  5
33B
100
AcDbEntity
  8
0
100
AcDbEllipse
 62
7
  6
BYLAYER
 10
47.0019636413
 20
58.2123933729
 30
0.0
 11
16.6864275756
 21
1.0715200677
 31
0.0
 40
0.5717395885
 41
1.2247899469
 42
1.2675199254
  0
ELLIPSE
  5
33C
100
AcDbEntity
  8
0
100
AcDbEllipse
 62
7
  6
BYLAYER
 10
46.9759036332
 20
58.6865478069
 30
0.0
 11
16.7382408644
 21
0.0000566019
 31
0.0
 40
0.5377539929
 41
1.1982675425
 42
1.2432434606
  0
ELLIPSE
  5
33D
100
AcDbEntity
  8
0
100
AcDbEllipse
 62
7
  6
BYLAYER
 10
47.0019636413
 20
59.1306114163
 30
0.0
 11
16.6908877101
 21
-0.9487317066
 31
0.0
 40
0.5015815387
 41
1.1657997255
 42
1.2107756436
  0
ELLIPSE
  5
33E
100
AcDbEntity
  8
0
100
AcDbEllipse
 62
7
  6
BYLAYER
 10
47.0796977714
 20
59.5369861497
 30
0.0
 11
16.5555197785
 21
-1.7893382479
 31
0.0
 40
0.4637735253
 41
1.1263386505
 42
1.1713145686
  0
ELLIPSE
  5
33F
100
AcDbEntity
  8
0
100
AcDbEllipse
 62
7
  6
BYLAYER
 10
47.207775971
 20
59.8987188228
 30
0.0
 11
16.3397602127
 21
-2.5350802267
 31
0.0
 40
0.4246314928
 41
1.080862291
 42
1.1258382091
  0
ELLIPSE
  5
340
100
AcDbEntity
  8
0
100
AcDbEllipse
 62
7
  6
BYLAYER
 10
47.3840067867
 20
60.2096200891
 30
0.0
 11
16.0490376495
 21
-3.1974474626
 31
0.0
 40
0.3842666715
 41
1.0301020743
 42
1.0750779924
  0
ELLIPSE
  5
341
100
AcDbEntity
  8
0
100
AcDbEllipse
 62
7
  6
BYLAYER
 10
47.6053748603
 20
60.4643703419
 30
0.0
 11
15.6875399451
 21
-3.7863161236
 31
0.0
 40
0.3426475445
 41
0.9745550181
 42
1.0195309362
  0
ELLIPSE
  5
342
100
AcDbEntity
  8
0
100
AcDbEllipse
 62
7
  6
BYLAYER
 10
47.8680925227
 20
60.6586107337
 30
0.0
 11
15.2588119763
 21
-4.3104779181
 31
0.0
 40
0.2996367937
 41
0.9145032477
 42
0.9594791658
  0
ELLIPSE
  5
343
100
AcDbEntity
  8
0
100
AcDbEllipse
 62
7
  6
BYLAYER
 10
48.1676646019
 20
60.7890177575
 30
0.0
 11
14.7660832651
 21
-4.7782447927
 31
0.0
 40
0.2550219721
 41
0.8500268312
 42
0.8950027493
  0
ELLIPSE
  5
344
100
AcDbEntity
  8
0
100
AcDbEllipse
 62
7
  6
BYLAYER
 10
48.4989653365
 20
60.8533601129
 30
0.0
 11
14.2123980506
 21
-5.198047032
 31
0.0
 40
0.2085456475
 41
0.7810034854
 42
0.8259794035
  0
ELLIPSE
  5
345
100
AcDbEntity
  8
0
100
AcDbEllipse
 62
7
  6
BYLAYER
 10
48.8563260791
 20
60.8505368846
 30
0.0
 11
13.6005907232
 21
-5.5790156486
 31
0.0
 40
0.1599424749
 41
0.707091337
 42
0.7520672551
  0
ELLIPSE
  5
346
100
AcDbEntity
  8
0
100
AcDbEllipse
 62
7
  6
BYLAYER
 10
49.2336322884
 20
60.7805963786
 30
0.0
 11
12.9331195969
 21
-5.9315691201
 31
0.0
 40
0.1089938613
 41
0.6276915302
 42
0.6726674484
  0
ELLIPSE
  5
347
100
AcDbEntity
  8
0
100
AcDbEllipse
 62
7
  6
BYLAYER
 10
49.6244281505
 20
60.6447352964
 30
0.0
 11
12.21174523
 21
-6.2680235371
 31
0.0
 40
0.0556166323
 41
0.5418884945
 42
0.5868644126
  0
ELLIPSE
  5
348
100
AcDbEntity
  8
0
100
AcDbEllipse
 62
7
  6
BYLAYER
 10
50.419625929
 20
53.2110795515
 30
0.0
 11
7.5237871239
 21
14.9291080089
 31
0.0
 40
0.5015766464
 41
-1.2107708716
 42
-1.1657949534
  0
ELLIPSE
  5
349
100
AcDbEntity
  8
0
100
AcDbEllipse
 62
7
  6
BYLAYER
 10
50.8104217911
 20
53.0752184693
 30
0.0
 11
6.7281241514
 21
15.2321670699
 31
0.0
 40
0.4637684418
 41
-1.1713089434
 42
-1.1263330252
  0
ELLIPSE
  5
34A
100
AcDbEntity
  8
0
100
AcDbEllipse
 62
7
  6
BYLAYER
 10
51.1877280003
 20
53.0052779633
 30
0.0
 11
5.9744188766
 21
15.4181739787
 31
0.0
 40
0.4246262441
 41
-1.1258318434
 42
-1.0808559253
  0
ELLIPSE
  5
34B
100
AcDbEntity
  8
0
100
AcDbEllipse
 62
7
  6
BYLAYER
 10
51.545088743
 20
53.0024547349
 30
0.0
 11
5.2554352934
 21
15.4975747121
 31
0.0
 40
0.384261262
 41
-1.0750709669
 42
-1.0300950488
  0
ELLIPSE
  5
34C
100
AcDbEntity
  8
0
100
AcDbEllipse
 62
7
  6
BYLAYER
 10
51.8763894776
 20
53.0667970904
 30
0.0
 11
4.5647144603
 21
15.4789339848
 31
0.0
 40
0.3426419623
 41
-1.019523302
 42
-0.9745473839
  0
ELLIPSE
  5
34D
100
AcDbEntity
  8
0
100
AcDbEllipse
 62
7
  6
BYLAYER
 10
52.1759615568
 20
53.1972041142
 30
0.0
 11
3.8964150721
 21
15.3697175322
 31
0.0
 40
0.2996310152
 41
-0.9594709466
 42
-0.9144950285
  0
ELLIPSE
  5
34E
100
AcDbEntity
  8
0
100
AcDbEllipse
 62
7
  6
BYLAYER
 10
52.4386792192
 20
53.391444506
 30
0.0
 11
3.2449535743
 21
15.1768781678
 31
0.0
 40
0.2550159655
 41
-0.8949939425
 42
-0.8500180243
  0
ELLIPSE
  5
34F
100
AcDbEntity
  8
0
100
AcDbEllipse
 62
7
  6
BYLAYER
 10
52.6600472928
 20
53.6461947588
 30
0.0
 11
2.6045512229
 21
14.9072674593
 31
0.0
 40
0.2085393773
 41
-0.825969979
 42
-0.7809940609
  0
ELLIPSE
  5
350
100
AcDbEntity
  8
0
100
AcDbEllipse
 62
7
  6
BYLAYER
 10
52.8362781085
 20
53.9570960251
 30
0.0
 11
1.9687174295
 21
14.5679056351
 31
0.0
 40
0.1599359076
 41
-0.7520571518
 42
-0.7070812337
  0
ELLIPSE
  5
351
100
AcDbEntity
  8
0
100
AcDbEllipse
 62
7
  6
BYLAYER
 10
52.9643563081
 20
54.3188286981
 30
0.0
 11
1.3296585074
 21
14.1661309836
 31
0.0
 40
0.1089869747
 41
-0.672656568
 42
-0.6276806499
  0
ELLIPSE
  5
352
100
AcDbEntity
  8
0
100
AcDbEllipse
 62
7
  6
BYLAYER
 10
53.0420904382
 20
54.7252034316
 30
0.0
 11
0.6775884151
 21
13.7096263296
 31
0.0
 40
0.0556094299
 41
-0.58685261
 42
-0.5418766919
  0
ELLIPSE
  5
353
100
AcDbEntity
  8
0
100
AcDbEllipse
 62
7
  6
BYLAYER
 10
53.0868821848
 20
60.8790452541
 30
0.0
 11
-0.7419176185
 21
12.6355676962
 31
0.0
 40
0.0568122221
 41
0.9723187931
 42
1.0174218849
  0
ELLIPSE
  5
354
100
AcDbEntity
  8
0
100
AcDbEllipse
 62
7
  6
BYLAYER
 10
53.1428870643
 20
60.521598247
 30
0.0
 11
-1.5459112751
 21
12.1028473128
 31
0.0
 40
0.1126596549
 41
0.8582724333
 42
0.9033755251
  0
ELLIPSE
  5
355
100
AcDbEntity
  8
0
100
AcDbEllipse
 62
7
  6
BYLAYER
 10
53.235163187
 20
60.1544328969
 30
0.0
 11
-2.4294755358
 21
11.5372356716
 31
0.0
 40
0.1645731193
 41
0.7310637474
 42
0.7761668392
  0
ELLIPSE
  5
356
100
AcDbEntity
  8
0
100
AcDbEllipse
 62
7
  6
BYLAYER
 10
53.362131683
 20
59.7838315045
 30
0.0
 11
-3.4042068376
 21
10.9395507359
 31
0.0
 40
0.2080931049
 41
0.5894355681
 42
0.6262250063
  0
ELLIPSE
  5
357
100
AcDbEntity
  8
0
100
AcDbEllipse
 62
7
  6
BYLAYER
 10
53.5216200861
 20
59.4161351626
 30
0.0
 11
-4.4648080884
 21
10.3117260248
 31
0.0
 40
0.2376563695
 41
0.4345035838
 42
0.4553625155
  0
ELLIPSE
  5
358
100
AcDbEntity
  8
0
100
AcDbEllipse
 62
7
  6
BYLAYER
 10
48.8563260791
 20
54.3512830394
 30
0.0
 11
11.2490381238
 21
12.2291827176
 31
0.0
 40
0.6293304387
 41
-1.2865712493
 42
-1.2476111437
  0
ELLIPSE
  5
359
100
AcDbEntity
  8
0
100
AcDbEllipse
 62
7
  6
BYLAYER
 10
50.0220270397
 20
53.4105365891
 30
0.0
 11
8.3691291807
 21
14.4957367517
 31
0.0
 40
0.5377493467
 41
-1.2432396868
 42
-1.1982637687
  0
ELLIPSE
  5
35A
100
AcDbEntity
  8
0
100
AcDbEllipse
 62
7
  6
BYLAYER
 10
49.6244281505
 20
53.6701768169
 30
0.0
 11
9.2711262905
 21
13.9151494528
 31
0.0
 40
0.5717352805
 41
-1.2675173186
 42
-1.2247870382
  0
ELLIPSE
  5
35B
100
AcDbEntity
  8
0
100
AcDbEllipse
 62
7
  6
BYLAYER
 10
49.2336322884
 20
53.9855577185
 30
0.0
 11
10.2330589334
 21
13.1668254015
 31
0.0
 40
0.6026692941
 41
-1.2823128393
 42
-1.2419403487
  0
ELLIPSE
  5
35C
100
AcDbEntity
  8
0
100
AcDbEllipse
 62
7
  6
BYLAYER
 10
54.6947259129
 20
62.7293508988
 30
0.0
 11
6.6306715163
 21
14.8897619847
 31
0.0
 40
0.479536451
 41
-1.8113149985
 42
-1.7662119067
  0
ELLIPSE
  5
35D
100
AcDbEntity
  8
0
100
AcDbEllipse
 62
7
  6
BYLAYER
 10
54.4228892211
 20
62.7797407289
 30
0.0
 11
5.9141983598
 21
15.0712064093
 31
0.0
 40
0.4387975103
 41
-1.7638760346
 42
-1.7187729428
  0
ELLIPSE
  5
35E
100
AcDbEntity
  8
0
100
AcDbEllipse
 62
7
  6
BYLAYER
 10
54.1654225809
 20
62.7817747719
 30
0.0
 11
5.2280102737
 21
15.1544817399
 31
0.0
 40
0.3966858117
 41
-1.7112369927
 42
-1.6661339009
  0
ELLIPSE
  5
35F
100
AcDbEntity
  8
0
100
AcDbEllipse
 62
7
  6
BYLAYER
 10
53.9267313177
 20
62.7354182248
 30
0.0
 11
4.5645094692
 21
15.1480683359
 31
0.0
 40
0.3531954297
 41
-1.6539313455
 42
-1.6088282537
  0
ELLIPSE
  5
360
100
AcDbEntity
  8
0
100
AcDbEllipse
 62
7
  6
BYLAYER
 10
53.7108995054
 20
62.641464261
 30
0.0
 11
3.9170278359
 21
15.0590602294
 31
0.0
 40
0.3082317889
 41
-1.5922649381
 42
-1.5471618463
  0
ELLIPSE
  5
361
100
AcDbEntity
  8
0
100
AcDbEllipse
 62
7
  6
BYLAYER
 10
53.5216200861
 20
62.5015204589
 30
0.0
 11
3.2794335677
 21
14.893779084
 31
0.0
 40
0.2616433071
 41
-1.5263339993
 42
-1.4812309074
  0
ELLIPSE
  5
362
100
AcDbEntity
  8
0
100
AcDbEllipse
 62
7
  6
BYLAYER
 10
53.362131683
 20
62.3179812956
 30
0.0
 11
2.6456676367
 21
14.6582013007
 31
0.0
 40
0.2132528315
 41
-1.456028525
 42
-1.4109254332
  0
ELLIPSE
  5
363
100
AcDbEntity
  8
0
100
AcDbEllipse
 62
7
  6
BYLAYER
 10
53.235163187
 20
62.0939871773
 30
0.0
 11
2.0092326326
 21
14.3582391263
 31
0.0
 40
0.1628962535
 41
-1.3810187119
 42
-1.3359156201
  0
ELLIPSE
  5
364
100
AcDbEntity
  8
0
100
AcDbEllipse
 62
7
  6
BYLAYER
 10
53.1428870643
 20
61.8333707052
 30
0.0
 11
1.362623573
 21
13.9998992874
 31
0.0
 40
0.1104783762
 41
-1.3007229657
 42
-1.2556198739
  0
ELLIPSE
  5
365
100
AcDbEntity
  8
0
100
AcDbEllipse
 62
7
  6
BYLAYER
 10
53.0868821848
 20
61.5405910996
 30
0.0
 11
0.6966883468
 21
13.5893161587
 31
0.0
 40
0.0560608308
 41
-1.214257747
 42
-1.1691546551
  0
ELLIPSE
  5
366
100
AcDbEntity
  8
0
100
AcDbEllipse
 62
7
  6
BYLAYER
 10
48.4989653365
 20
54.7610951179
 30
0.0
 11
12.296402924
 21
11.0872384992
 31
0.0
 40
0.6501830562
 41
-1.2800991874
 42
-1.2419234609
  0
ELLIPSE
  5
367
100
AcDbEntity
  8
0
100
AcDbEllipse
 62
7
  6
BYLAYER
 10
55.5491952531
 20
57.2757634363
 30
0.0
 11
12.1170997036
 21
-6.1913219507
 31
0.0
 40
0.0560681352
 41
1.1691665273
 42
1.2142696191
  0
ELLIPSE
  5
368
100
AcDbEntity
  8
0
100
AcDbEllipse
 62
7
  6
BYLAYER
 10
55.8307507952
 20
57.1778800031
 30
0.0
 11
12.8056374116
 21
-5.8198998215
 31
0.0
 40
0.1104854318
 41
1.2556308579
 42
1.3007339497
  0
ELLIPSE
  5
369
100
AcDbEntity
  8
0
100
AcDbEllipse
 62
7
  6
BYLAYER
 10
56.102587487
 20
57.127490173
 30
0.0
 11
13.4392680365
 21
-5.439091141
 31
0.0
 40
0.1629030364
 41
1.3359258553
 42
1.3810289471
  0
ELLIPSE
  5
36A
100
AcDbEntity
  8
0
100
AcDbEllipse
 62
7
  6
BYLAYER
 10
56.3600541272
 20
57.12545613
 30
0.0
 11
14.0172550462
 21
-5.0379029907
 31
0.0
 40
0.2132593463
 41
1.410935015
 42
1.4560381068
  0
ELLIPSE
  5
36B
100
AcDbEntity
  8
0
100
AcDbEllipse
 62
7
  6
BYLAYER
 10
56.5987453903
 20
57.1718126771
 30
0.0
 11
14.5381489316
 21
-4.6068326535
 31
0.0
 40
0.2616495724
 41
1.4812398951
 42
1.5263429869
  0
ELLIPSE
  5
36C
100
AcDbEntity
  8
0
100
AcDbEllipse
 62
7
  6
BYLAYER
 10
56.8145772026
 20
57.2657666409
 30
0.0
 11
15.0000782432
 21
-4.1372971579
 31
0.0
 40
0.3082378281
 41
1.5471702683
 42
1.5922733601
  0
ELLIPSE
  5
36D
100
AcDbEntity
  8
0
100
AcDbEllipse
 62
7
  6
BYLAYER
 10
57.003856622
 20
57.405710443
 30
0.0
 11
15.4008967901
 21
-3.6210610279
 31
0.0
 40
0.3532012654
 41
1.6088361109
 42
1.6539392027
  0
ELLIPSE
  5
36E
100
AcDbEntity
  8
0
100
AcDbEllipse
 62
7
  6
BYLAYER
 10
57.1633450251
 20
57.5892496063
 30
0.0
 11
15.7381957576
 21
-3.0496530487
 31
0.0
 40
0.3966914607
 41
1.666141167
 42
1.7112442588
  0
ELLIPSE
  5
36F
100
AcDbEntity
  8
0
100
AcDbEllipse
 62
7
  6
BYLAYER
 10
57.2903135211
 20
57.8132437247
 30
0.0
 11
16.0091655673
 21
-2.4137512819
 31
0.0
 40
0.43880298
 41
1.7187795629
 42
1.7638826547
  0
ELLIPSE
  5
370
100
AcDbEntity
  8
0
100
AcDbEllipse
 62
7
  6
BYLAYER
 10
57.3825896438
 20
58.0738601967
 30
0.0
 11
16.2102608323
 21
-1.7025354109
 31
0.0
 40
0.4795417348
 41
1.7662177942
 42
1.811320886
  0
ELLIPSE
  5
371
100
AcDbEntity
  8
0
100
AcDbEllipse
 62
7
  6
BYLAYER
 10
57.4385945232
 20
58.3666398023
 30
0.0
 11
16.336585227
 21
-0.9030705418
 31
0.0
 40
0.5187870566
 41
1.807666998
 42
1.8527700899
  0
ELLIPSE
  5
372
100
AcDbEntity
  8
0
100
AcDbEllipse
 62
7
  6
BYLAYER
 10
57.4573699004
 20
58.6865730012
 30
0.0
 11
16.3808846694
 21
0.0000570158
 31
0.0
 40
0.5562423032
 41
1.8420581444
 42
1.8871612363
  0
ELLIPSE
  5
373
100
AcDbEntity
  8
0
100
AcDbEllipse
 62
7
  6
BYLAYER
 10
57.4385945232
 20
59.0281856478
 30
0.0
 11
16.3320724217
 21
1.0242973174
 31
0.0
 40
0.5913711198
 41
1.8680513647
 42
1.9131544565
  0
ELLIPSE
  5
374
100
AcDbEntity
  8
0
100
AcDbEllipse
 62
7
  6
BYLAYER
 10
57.3825896438
 20
59.3856326549
 30
0.0
 11
16.173473457
 21
2.1867295896
 31
0.0
 40
0.6233241255
 41
1.8841476047
 42
1.9292506965
  0
ELLIPSE
  5
375
100
AcDbEntity
  8
0
100
AcDbEllipse
 62
7
  6
BYLAYER
 10
57.2903135211
 20
59.752798005
 30
0.0
 11
15.8818151041
 21
3.4978039193
 31
0.0
 40
0.6508809859
 41
1.8890242343
 42
1.9239004561
  0
ELLIPSE
  5
376
100
AcDbEntity
  8
0
100
AcDbEllipse
 62
7
  6
BYLAYER
 10
57.1633450251
 20
60.1233993974
 30
0.0
 11
15.4296988941
 21
4.9496122113
 31
0.0
 40
0.6724718307
 41
1.8822336013
 42
1.9150040014
  0
ELLIPSE
  5
377
100
AcDbEntity
  8
0
100
AcDbEllipse
 62
7
  6
BYLAYER
 10
57.003856622
 20
60.4910957393
 30
0.0
 11
14.7956511638
 21
6.5011827944
 31
0.0
 40
0.6863820082
 41
1.8652191791
 42
1.8778868028
  0
ELLIPSE
  5
378
100
AcDbEntity
  8
0
100
AcDbEllipse
 62
7
  6
BYLAYER
 10
56.5987453903
 20
61.1927650802
 30
0.0
 11
13.027932106
 21
9.5629382959
 31
0.0
 40
0.686380748
 41
-1.8866318297
 42
-1.8652219499
  0
ELLIPSE
  5
379
100
AcDbEntity
  8
0
100
AcDbEllipse
 62
7
  6
BYLAYER
 10
56.3600541272
 20
61.5147323222
 30
0.0
 11
12.0012584943
 21
10.8878046916
 31
0.0
 40
0.6724694506
 41
-1.9273383237
 42
-1.8822352318
  0
ELLIPSE
  5
37A
100
AcDbEntity
  8
0
100
AcDbEllipse
 62
7
  6
BYLAYER
 10
56.102587487
 20
61.8099884217
 30
0.0
 11
10.9700225626
 21
12.0052300839
 31
0.0
 40
0.6508777042
 41
-1.9341274585
 42
-1.8890243667
  0
ELLIPSE
  5
37B
100
AcDbEntity
  8
0
100
AcDbEllipse
 62
7
  6
BYLAYER
 10
55.262738354
 20
62.4877652421
 30
0.0
 11
8.1904552171
 21
14.1862548219
 31
0.0
 40
0.5562374973
 41
-1.8871572184
 42
-1.8420541266
  0
ELLIPSE
  5
37C
100
AcDbEntity
  8
0
100
AcDbEllipse
 62
7
  6
BYLAYER
 10
54.976281455
 20
62.6314674657
 30
0.0
 11
7.3861833181
 21
14.5994409912
 31
0.0
 40
0.518781985
 41
-1.8527650572
 42
-1.8076619654
  0
ELLIPSE
  5
37D
100
AcDbEntity
  8
0
100
AcDbEllipse
 62
7
  6
BYLAYER
 10
55.5491952531
 20
62.300703013
 30
0.0
 11
9.0530561034
 21
13.6318776265
 31
0.0
 40
0.5913666693
 41
-1.9131516451
 42
-1.8680485533
  0
ELLIPSE
  5
37E
100
AcDbEntity
  8
0
100
AcDbEllipse
 62
7
  6
BYLAYER
 10
55.8307507952
 20
62.0734814649
 30
0.0
 11
9.9804401156
 21
12.9133293138
 31
0.0
 40
0.6233201663
 41
-1.9292492886
 42
-1.8841461968
  0
ENDSEC
  0
SECTION
  2
OBJECTS
  0
DICTIONARY
  5
C
100
AcDbDictionary
280
0
281
1
  3
ACAD_GROUP
350
D
  3
ACAD_MLINESTYLE
350
17
  3
ACAD_LAYOUT
350
1A
  3
ACAD_PLOTSETTINGS
350
19
  3
ACAD_PLOTSTYLENAME
350
E
  0
DICTIONARY
  5
D
102
{ACAD_REACTORS
330
C
102
}
100
AcDbDictionary
280
0
281
1
  0
ACDBDICTIONARYWDFLT
  5
E
102
{ACAD_REACTORS
330
C
102
}
100
AcDbDictionary
281
1
  3
Normal
350
F
100
AcDbDictionaryWithDefault
340
F
  0
DICTIONARY
  5
17
102
{ACAD_REACTORS
330
C
102
}
100
AcDbDictionary
280
0
281
1
  3
Standard
350
18
  0
DICTIONARY
  5
19
102
{ACAD_REACTORS
330
C
102
}
100
AcDbDictionary
281
1
  0
DICTIONARY
  5
1A
102
{ACAD_REACTORS
330
C
102
}
100
AcDbDictionary
281
1
  3
Model
350
37F
  3
Layout1
350
380
  0
ACDBPLACEHOLDER
  5
F
102
{ACAD_REACTORS
330
E
102
}
  0
MLINESTYLE
  5
18
102
{ACAD_REACTORS
330
17
102
}
100
AcDbMlineStyle
  2
STANDARD
 70
0
  3

 62
256
 51
90.0
 52
90.0
 71
2
 49
0.5
 62
256
  6
BYLAYER
 49
-0.5
 62
256
  6
BYLAYER
  0
LAYOUT
  5
37F
102
{ACAD_REACTORS
330
1A
102
}
100
AcDbPlotSettings
  1

  2
none_device
  4

  6

 40
0.0
 41
0.0
 42
0.0
 43
0.0
 44
210.0
 45
297.0
 46
0.0
 47
0.0
 48
0.0
 49
0.0
140
0.0
141
0.0
142
1.0
143
1.0
 70
1024
 72
1
 73
0
 74
0
  7

 75
0
147
1.0
148
0.0
149
0.0
100
AcDbLayout
  1
Model
 70
0
 71
0
 10
0.0
 20
0.0
 11
210.0
 21
297.0
 12
0.0
 22
0.0
 32
0.0
 14
0.0
 24
0.0
 34
0.0
 15
0.0
 25
0.0
 35
0.0
146
0.0
 13
0.0
 23
0.0
 33
0.0
 16
1.0
 26
0.0
 36
0.0
 17
0.0
 27
1.0
 37
0.0
 76
0
330
210
345
0
346
0
  0
LAYOUT
  5
380
102
{ACAD_REACTORS
330
1A
102
}
100
AcDbPlotSettings
  1

  2
none_device
  4

  6

 40
0.0
 41
0.0
 42
0.0
 43
0.0
 44
210.0
 45
297.0
 46
0.0
 47
0.0
 48
0.0
 49
0.0
140
0.0
141
0.0
142
1.0
143
1.0
 70
0
 72
1
 73
0
 74
0
  7

 75
0
147
1.0
148
0.0
149
0.0
100
AcDbLayout
  1
Layout1
 70
0
 71
1
 10
0.0
 20
0.0
 11
210.0
 21
297.0
 12
0.0
 22
0.0
 32
0.0
 14
0.0
 24
0.0
 34
0.0
 15
0.0
 25
0.0
 35
0.0
146
0.0
 13
0.0
 23
0.0
 33
0.0
 16
1.0
 26
0.0
 36
0.0
 17
0.0
 27
1.0
 37
0.0
 76
0
330
211
345
0
346
0
  0
ENDSEC
  0
EOF
