999
DXF file: C:\Users\sesa63760\Dev\_Creo\CAD\MCADPD0004087_3D-CAD\drw0001_1.dxf
999
Pro/ENGINEER 2019471 by Parametric Technology Corporation
  0
SECTION
  2
HEADER
  9
$ACADVER
  1
AC1024
  9
$DWGCODEPAGE
  3
ANSI_1252
  9
$EXTMAX
 10
51.8479964412
 20
73.3278806812
 30
0.0
  9
$EXTMIN
 10
0.0
 20
0.0
 30
0.0
  9
$LIMMIN
 10
0.0
 20
0.0
  9
$LIMMAX
 10
51.8479964412
 20
73.3278806812
  9
$VIEWCTR
 10
25.9239982206
 20
36.6639403406
  9
$VIEWSIZE
 40
73.3278806812
  9
$CLAYER
  8
0
  9
$LTSCALE
 40
4.7798914814
  9
$CELTYPE
  6
BYLAYER
  9
$DIMSCALE
 40
1.0
  9
$DIMASZ
 40
0.6172380529
  9
$DIMEXO
 40
1.0
  9
$DIMDLI
 40
3.3024704781
  9
$DIMEXE
 40
1.0
  9
$DIMCEN
 40
0.7821640606
  9
$DIMLFAC
 40
1.0
  9
$DIMBLK
  1
_FILLED
  9
$DIMALT
 70
0
  9
$DIMALTF
 40
0.0393700787
  9
$DIMTXT
 40
0.864133274
  9
$DIMTOL
 70
1
  9
$DIMLIM
 70
0
  9
$DIMTFAC
 40
1.0
  9
$DIMTP
 40
0.01
  9
$DIMTM
 40
0.01
  9
$DIMGAP
 40
0.625
  9
$DIMDSEP
 70
46
  9
$AUNITS
 70
0
  9
$PDMODE
 70
3
  9
$PDSIZE
 40
0.3125
  9
$HANDSEED
  5
31F
  9
$TILEMODE
 70
1
  9
$MEASUREMENT
 70
1
  9
$INSUNITS
 70
4
  0
ENDSEC
  0
SECTION
  2
CLASSES
  0
CLASS
  1
ACDBDICTIONARYWDFLT
  2
AcDbDictionaryWithDefault
  3
AutoCAD 2000
 90
0
 91
1
280
0
281
0
  0
CLASS
  1
ACDBPLACEHOLDER
  2
AcDbPlaceHolder
  3
AutoCAD 2000
 90
0
 91
1
280
0
281
0
  0
CLASS
  1
LAYOUT
  2
AcDbLayout
  3
AutoCAD 2000
 90
0
 91
0
280
0
281
0
  0
ENDSEC
  0
SECTION
  2
TABLES
  0
TABLE
  2
VPORT
  5
8
100
AcDbSymbolTable
 70
2
  0
VPORT
  5
1F4
100
AcDbSymbolTableRecord
100
AcDbViewportTableRecord
  2
*ACTIVE
 70
0
 10
0.0
 20
0.0
 11
1.0
 21
1.0
 12
25.9239982206
 22
36.6639403406
 13
0.0
 23
0.0
 14
1.0
 24
1.0
 15
0.0
 25
0.0
 16
0.0
 26
0.0
 36
1.0
 17
0.0
 27
0.0
 37
0.0
 40
73.3278806812
 41
0.7070707071
 42
50.0
 43
0.0
 44
0.0
 50
0.0
 51
0.0
 71
0
 72
100
 73
1
 74
1
 75
0
 76
0
 77
0
 78
0
  0
ENDTAB
  0
TABLE
  2
LTYPE
  5
5
100
AcDbSymbolTable
 70
6
  0
LTYPE
  5
14
100
AcDbSymbolTableRecord
100
AcDbLinetypeTableRecord
  2
BYBLOCK
 70
0
  3

 72
65
 73
0
 40
0.0
  0
LTYPE
  5
15
100
AcDbSymbolTableRecord
100
AcDbLinetypeTableRecord
  2
BYLAYER
 70
0
  3

 72
65
 73
0
 40
0.0
  0
LTYPE
  5
16
100
AcDbSymbolTableRecord
100
AcDbLinetypeTableRecord
  2
CONTINUOUS
 70
64
  3
Solid line
 72
65
 73
0
 40
0.0
  0
LTYPE
  5
1F5
100
AcDbSymbolTableRecord
100
AcDbLinetypeTableRecord
  2
CENTER
 70
64
  3
____ _ ____ _ ____ _ ____ _ ____ _ ____ _ ____
 72
65
 73
4
 40
0.6
 49
0.375
 74
0
 49
-0.075
 74
0
 49
0.075
 74
0
 49
-0.075
 74
0
  0
LTYPE
  5
1F6
100
AcDbSymbolTableRecord
100
AcDbLinetypeTableRecord
  2
HIDDEN
 70
64
  3
- - - - - - - - - - - - - - - - - - - -
 72
65
 73
2
 40
0.2
 49
0.1
 74
0
 49
-0.1
 74
0
  0
LTYPE
  5
1F7
100
AcDbSymbolTableRecord
100
AcDbLinetypeTableRecord
  2
PHANTOM
 70
64
  3
_____ _ _ _____ _ _ _____ _ _ _____
 72
65
 73
6
 40
0.8
 49
0.45
 74
0
 49
-0.05
 74
0
 49
0.1
 74
0
 49
-0.05
 74
0
 49
0.1
 74
0
 49
-0.05
 74
0
  0
LTYPE
  5
1F8
100
AcDbSymbolTableRecord
100
AcDbLinetypeTableRecord
  2
DOT
 70
64
  3
. . . . . . . . . . . . . . . . . . . .
 72
65
 73
2
 40
0.2
 49
0.1
 74
0
 49
-0.1
 74
0
  0
LTYPE
  5
1F9
100
AcDbSymbolTableRecord
100
AcDbLinetypeTableRecord
  2
DASHED
 70
64
  3
- - - - - - - - - - - - - - - - - - - -
 72
65
 73
2
 40
0.2
 49
0.1
 74
0
 49
-0.1
 74
0
  0
ENDTAB
  0
TABLE
  2
LAYER
  5
2
100
AcDbSymbolTable
 70
36
  0
LAYER
  5
10
100
AcDbSymbolTableRecord
100
AcDbLayerTableRecord
  2
0
 70
0
 62
7
  6
CONTINUOUS
370
-3
390
F
  0
LAYER
  5
1FA
100
AcDbSymbolTableRecord
100
AcDbLayerTableRecord
  2
DEFAULT_1
 70
0
 62
7
  6
CENTER
370
-3
390
F
  0
LAYER
  5
1FB
100
AcDbSymbolTableRecord
100
AcDbLayerTableRecord
  2
DEFAULT_2
 70
0
 62
7
  6
HIDDEN
370
-3
390
F
  0
LAYER
  5
1FC
100
AcDbSymbolTableRecord
100
AcDbLayerTableRecord
  2
DEFAULT_3
 70
0
 62
7
  6
PHANTOM
370
-3
390
F
  0
LAYER
  5
1FD
100
AcDbSymbolTableRecord
100
AcDbLayerTableRecord
  2
00_COMPONENTS
 70
0
 62
7
  6
CONTINUOUS
370
-3
390
F
  0
LAYER
  5
1FE
100
AcDbSymbolTableRecord
100
AcDbLayerTableRecord
  2
01_1_DEFAULT_DATUMS
 70
0
 62
7
  6
CONTINUOUS
370
-3
390
F
  0
LAYER
  5
1FF
100
AcDbSymbolTableRecord
100
AcDbLayerTableRecord
  2
01_PLANES
 70
0
 62
7
  6
CONTINUOUS
370
-3
390
F
  0
LAYER
  5
200
100
AcDbSymbolTableRecord
100
AcDbLayerTableRecord
  2
02_COORD_SYS
 70
0
 62
7
  6
CONTINUOUS
370
-3
390
F
  0
LAYER
  5
201
100
AcDbSymbolTableRecord
100
AcDbLayerTableRecord
  2
03_AXES
 70
0
 62
7
  6
CONTINUOUS
370
-3
390
F
  0
LAYER
  5
202
100
AcDbSymbolTableRecord
100
AcDbLayerTableRecord
  2
04_POINTS
 70
0
 62
7
  6
CONTINUOUS
370
-3
390
F
  0
LAYER
  5
203
100
AcDbSymbolTableRecord
100
AcDbLayerTableRecord
  2
05_CURVES
 70
0
 62
7
  6
CONTINUOUS
370
-3
390
F
  0
LAYER
  5
204
100
AcDbSymbolTableRecord
100
AcDbLayerTableRecord
  2
06_SURFS
 70
0
 62
7
  6
CONTINUOUS
370
-3
390
F
  0
LAYER
  5
205
100
AcDbSymbolTableRecord
100
AcDbLayerTableRecord
  2
07_COSMETICS
 70
0
 62
7
  6
CONTINUOUS
370
-3
390
F
  0
LAYER
  5
206
100
AcDbSymbolTableRecord
100
AcDbLayerTableRecord
  2
10_NOTES
 70
0
 62
7
  6
CONTINUOUS
370
-3
390
F
  0
LAYER
  5
207
100
AcDbSymbolTableRecord
100
AcDbLayerTableRecord
  2
11_NOTES_PUB
 70
0
 62
7
  6
CONTINUOUS
370
-3
390
F
  0
LAYER
  5
208
100
AcDbSymbolTableRecord
100
AcDbLayerTableRecord
  2
13_REF_GTOL
 70
0
 62
7
  6
CONTINUOUS
370
-3
390
F
  0
LAYER
  5
209
100
AcDbSymbolTableRecord
100
AcDbLayerTableRecord
  2
16_MISC
 70
0
 62
7
  6
CONTINUOUS
370
-3
390
F
  0
LAYER
  5
20A
100
AcDbSymbolTableRecord
100
AcDbLayerTableRecord
  2
17_NO_PRINT
 70
0
 62
7
  6
CONTINUOUS
370
-3
390
F
  0
LAYER
  5
20B
100
AcDbSymbolTableRecord
100
AcDbLayerTableRecord
  2
18_DATUM_CAMS_JOINTS
 70
0
 62
7
  6
CONTINUOUS
370
-3
390
F
  0
LAYER
  5
20C
100
AcDbSymbolTableRecord
100
AcDbLayerTableRecord
  2
19_DATUM_FUNCTIONAL
 70
0
 62
7
  6
CONTINUOUS
370
-3
390
F
  0
LAYER
  5
20D
100
AcDbSymbolTableRecord
100
AcDbLayerTableRecord
  2
20_DATUM_KINEMATIC_SCHEME
 70
0
 62
7
  6
CONTINUOUS
370
-3
390
F
  0
ENDTAB
  0
TABLE
  2
STYLE
  5
3
100
AcDbSymbolTable
 70
1
  0
STYLE
  5
11
100
AcDbSymbolTableRecord
100
AcDbTextStyleTableRecord
  2
STANDARD
 70
0
 40
0.0
 41
1.0
 50
0.0
 71
0
 42
0.2
  3
ARIAL.TTF
  4

  0
STYLE
  5
20E
100
AcDbSymbolTableRecord
100
AcDbTextStyleTableRecord
  2
TEXTSTYLE_1
 70
0
 40
0.0
 41
0.8
 50
0.0
 71
0
 42
0.2
  3
gdt
  4

  0
ENDTAB
  0
TABLE
  2
VIEW
  5
6
100
AcDbSymbolTable
 70
0
  0
ENDTAB
  0
TABLE
  2
UCS
  5
7
100
AcDbSymbolTable
 70
0
  0
ENDTAB
  0
TABLE
  2
APPID
  5
9
100
AcDbSymbolTable
 70
1
  0
APPID
  5
20F
100
AcDbSymbolTableRecord
100
AcDbRegAppTableRecord
  2
ACAD
 70
0
  0
ENDTAB
  0
TABLE
  2
BLOCK_RECORD
  5
1
100
AcDbSymbolTable
 70
0
  0
BLOCK_RECORD
  5
210
100
AcDbSymbolTableRecord
100
AcDbBlockTableRecord
  2
*Model_Space
  0
BLOCK_RECORD
  5
211
100
AcDbSymbolTableRecord
100
AcDbBlockTableRecord
  2
*Paper_Space
  0
BLOCK_RECORD
  5
212
100
AcDbSymbolTableRecord
100
AcDbBlockTableRecord
  2
_FILLED
  0
ENDTAB
  0
TABLE
  2
DIMSTYLE
  5
A
100
AcDbSymbolTable
 70
1
100
AcDbDimStyleTable
 71
0
  0
DIMSTYLE
105
213
100
AcDbSymbolTableRecord
100
AcDbDimStyleTableRecord
  2
STANDARD
 70
0
  3

  4

 40
1.0
 41
0.6172380529
 42
1.0
 43
0.38
 44
1.0
 45
0.0
 46
0.0
 47
0.01
 48
0.01
140
0.864133274
141
0.09
142
0.0
143
25.4
144
1.0
145
0.0
146
1.0
147
0.625
 71
1
 72
0
 73
0
 74
0
 75
0
 76
0
 77
1
 78
8
 79
2
170
0
171
1
172
0
173
0
174
0
175
0
176
0
177
0
178
0
270
2
179
2
271
2
272
2
273
2
274
2
275
0
280
0
281
0
282
0
283
1
284
8
285
0
286
0
287
3
288
0
340
11
278
46
341
212
342
212
343
212
344
212
  0
ENDTAB
  0
ENDSEC
  0
SECTION
  2
BLOCKS
  0
BLOCK
  5
20
100
AcDbEntity
  8
0
100
AcDbBlockBegin
  2
*Model_Space
 70
0
 10
0.0
 20
0.0
 30
0.0
  3
*Model_Space
  1

  0
ENDBLK
  5
21
100
AcDbEntity
  8
0
100
AcDbBlockEnd
  0
BLOCK
  5
1C
100
AcDbEntity
  8
0
100
AcDbBlockBegin
  2
*Paper_Space
 70
0
 10
0.0
 20
0.0
 30
0.0
  3
*Paper_Space
  1

  0
ENDBLK
  5
1D
100
AcDbEntity
  8
0
100
AcDbBlockEnd
  0
BLOCK
  5
214
100
AcDbEntity
  8
0
100
AcDbBlockBegin
  2
_FILLED
 70
64
 10
0.0
 20
0.0
  3
_FILLED
  1

  0
SOLID
  5
215
100
AcDbEntity
  8
0
  6
BYBLOCK
 62
0
100
AcDbTrace
 10
0.0
 20
0.0
 11
-1.0
 21
0.25
 12
-1.0
 22
-0.25
 13
-1.0
 23
-0.25
  0
ENDBLK
  5
216
100
AcDbEntity
  8
0
  6
BYBLOCK
 62
0
100
AcDbBlockEnd
  0
ENDSEC
  0
SECTION
  2
ENTITIES
  0
LINE
  5
217
100
AcDbEntity
  8
0
100
AcDbLine
 62
7
  6
BYLAYER
 10
11.919307826
 20
58.0995885303
 11
11.6604728065
 21
57.9108287294
  0
LINE
  5
218
100
AcDbEntity
  8
0
100
AcDbLine
 62
7
  6
BYLAYER
 10
16.4397353558
 20
60.7094687683
 11
11.9193003499
 21
58.0996099796
  0
LINE
  5
219
100
AcDbEntity
  8
0
100
AcDbLine
 62
7
  6
BYLAYER
 10
16.9397331173
 20
60.6599444893
 11
12.6263997103
 21
58.1696551507
  0
LINE
  5
21A
100
AcDbEntity
  8
0
100
AcDbLine
 62
7
  6
BYLAYER
 10
14.641662427
 20
57.0061690003
 11
18.954995834
 21
59.4964583389
  0
LINE
  5
21B
100
AcDbEntity
  8
0
100
AcDbLine
 62
7
  6
BYLAYER
 10
10.8586342294
 20
53.6380668636
 11
10.6465030782
 21
53.2706428923
  0
LINE
  5
21C
100
AcDbEntity
  8
0
100
AcDbLine
 62
7
  6
BYLAYER
 10
10.8586342294
 20
53.6380668636
 11
11.5657380666
 21
54.0463110175
  0
LINE
  5
21D
100
AcDbEntity
  8
0
100
AcDbLine
 62
7
  6
BYLAYER
 10
19.6621055592
 20
58.2717151672
 11
14.9952202335
 21
55.5773037517
  0
LINE
  5
21E
100
AcDbEntity
  8
0
100
AcDbLine
 62
7
  6
BYLAYER
 10
6.0149641126
 20
30.9189091685
 11
6.0149641126
 21
37.5325787472
  0
LINE
  5
21F
100
AcDbEntity
  8
0
100
AcDbLine
 62
7
  6
BYLAYER
 10
9.5858384905
 20
45.1056030399
 11
7.1428311067
 21
39.0002515901
  0
LINE
  5
220
100
AcDbEntity
  8
0
100
AcDbLine
 62
7
  6
BYLAYER
 10
14.9952202335
 20
53.495222588
 11
19.6621055592
 21
56.1896340036
  0
LINE
  5
221
100
AcDbEntity
  8
0
100
AcDbLine
 62
7
  6
BYLAYER
 10
18.9196762641
 20
54.5363124354
 11
19.0661222638
 21
54.6208625681
  0
LINE
  5
222
100
AcDbEntity
  8
0
100
AcDbLine
 62
7
  6
BYLAYER
 10
8.4898481506
 20
29.4900665277
 11
8.4898481506
 21
29.7350172528
  0
LINE
  5
223
100
AcDbEntity
  8
0
100
AcDbLine
 62
7
  6
BYLAYER
 10
9.5858384905
 20
45.1056030399
 11
9.5858384905
 21
47.4326349287
  0
LINE
  5
224
100
AcDbEntity
  8
0
100
AcDbLine
 62
7
  6
BYLAYER
 10
19.9803408519
 20
53.9239513037
 11
20.1267868515
 21
54.0085014363
  0
LINE
  5
225
100
AcDbEntity
  8
0
100
AcDbLine
 62
7
  6
BYLAYER
 10
10.6465030782
 20
48.0450062586
 11
9.5858384905
 21
47.4326349287
  0
LINE
  5
226
100
AcDbEntity
  8
0
100
AcDbLine
 62
7
  6
BYLAYER
 10
21.1470621833
 20
53.1686749276
 11
20.3338927705
 21
52.6991941506
  0
LINE
  5
227
100
AcDbEntity
  8
0
100
AcDbLine
 62
7
  6
BYLAYER
 10
10.6465030782
 20
53.2706428923
 11
10.6465030782
 21
46.820273797
  0
LINE
  5
228
100
AcDbEntity
  8
0
100
AcDbLine
 62
7
  6
BYLAYER
 10
11.5657380666
 20
54.0463110175
 11
11.5657380666
 21
57.5572714111
  0
LINE
  5
229
100
AcDbEntity
  8
0
100
AcDbLine
 62
7
  6
BYLAYER
 10
18.9196762641
 20
54.5363124354
 11
18.5661243455
 21
53.9239391499
  0
LINE
  5
22A
100
AcDbEntity
  8
0
100
AcDbLine
 62
7
  6
BYLAYER
 10
19.6267889333
 20
50.8212456459
 11
21.5006141019
 21
51.9030926537
  0
LINE
  5
22B
100
AcDbEntity
  8
0
100
AcDbLine
 62
7
  6
BYLAYER
 10
37.4813468816
 20
12.7521955923
 11
35.0064628436
 21
14.1810382332
  0
LINE
  5
22C
100
AcDbEntity
  8
0
100
AcDbLine
 62
7
  6
BYLAYER
 10
29.6324289325
 20
17.2836679675
 11
28.9253192073
 21
17.691908722
  0
LINE
  5
22D
100
AcDbEntity
  8
0
100
AcDbLine
 62
7
  6
BYLAYER
 10
23.5512852962
 20
20.7945384564
 11
19.9450256979
 21
22.8765663044
  0
LINE
  5
22E
100
AcDbEntity
  8
0
100
AcDbLine
 62
7
  6
BYLAYER
 10
14.5709917868
 20
25.9791960388
 11
13.8638820617
 21
26.3874367933
  0
LINE
  5
22F
100
AcDbEntity
  8
0
100
AcDbLine
 62
7
  6
BYLAYER
 10
8.4898481506
 20
29.4900665277
 11
6.0149641126
 21
30.9189091685
  0
LINE
  5
230
100
AcDbEntity
  8
0
100
AcDbLine
 62
7
  6
BYLAYER
 10
35.0064628436
 20
14.4259889583
 11
29.6324289325
 21
17.5286186927
  0
LINE
  5
231
100
AcDbEntity
  8
0
100
AcDbLine
 62
7
  6
BYLAYER
 10
28.9253192073
 20
17.9368594472
 11
23.5512852962
 21
21.0394891815
  0
LINE
  5
232
100
AcDbEntity
  8
0
100
AcDbLine
 62
7
  6
BYLAYER
 10
19.9450256979
 20
23.1215170296
 11
14.5709917868
 21
26.2241467639
  0
LINE
  5
233
100
AcDbEntity
  8
0
100
AcDbLine
 62
7
  6
BYLAYER
 10
13.8638820617
 20
26.6323875185
 11
8.4898481506
 21
29.7350172528
  0
LINE
  5
234
100
AcDbEntity
  8
0
100
AcDbLine
 62
7
  6
BYLAYER
 10
13.8638820617
 20
26.3874367933
 11
13.8638820617
 21
26.6323875185
  0
LINE
  5
235
100
AcDbEntity
  8
0
100
AcDbLine
 62
7
  6
BYLAYER
 10
19.6267889333
 20
53.3115780181
 11
19.9803408519
 21
53.9239513037
  0
LINE
  5
236
100
AcDbEntity
  8
0
100
AcDbLine
 62
7
  6
BYLAYER
 10
14.5709917868
 20
25.9791960388
 11
14.5709917868
 21
26.2241467639
  0
LINE
  5
237
100
AcDbEntity
  8
0
100
AcDbLine
 62
7
  6
BYLAYER
 10
14.9952202335
 20
55.5773037517
 11
14.9952202335
 21
53.495222588
  0
LINE
  5
238
100
AcDbEntity
  8
0
100
AcDbLine
 62
7
  6
BYLAYER
 10
6.7220679498
 20
38.7573253183
 11
7.1428311067
 21
39.0002515901
  0
LINE
  5
239
100
AcDbEntity
  8
0
100
AcDbLine
 62
7
  6
BYLAYER
 10
16.5188989709
 20
49.5752303299
 11
16.5188989709
 21
53.4944419321
  0
LINE
  5
23A
100
AcDbEntity
  8
0
100
AcDbLine
 62
7
  6
BYLAYER
 10
16.6389338081
 20
53.8453798808
 11
16.6389338081
 21
53.4730699969
  0
LINE
  5
23B
100
AcDbEntity
  8
0
100
AcDbLine
 62
7
  6
BYLAYER
 10
16.6389338081
 20
49.7628677951
 11
16.6389338081
 21
53.4730699969
  0
LINE
  5
23C
100
AcDbEntity
  8
0
100
AcDbLine
 62
7
  6
BYLAYER
 10
17.3988641336
 20
49.3875928647
 11
17.3988641336
 21
53.3068044669
  0
LINE
  5
23D
100
AcDbEntity
  8
0
100
AcDbLine
 62
7
  6
BYLAYER
 10
17.4085186482
 20
54.025927723
 11
17.4085186482
 21
55.7020564503
  0
LINE
  5
23E
100
AcDbEntity
  8
0
100
AcDbLine
 62
7
  6
BYLAYER
 10
17.5707155554
 20
54.2387540882
 11
17.5707155554
 21
56.2346843985
  0
LINE
  5
23F
100
AcDbEntity
  8
0
100
AcDbLine
 62
7
  6
BYLAYER
 10
18.1703075093
 20
54.6972708134
 11
18.1703075093
 21
53.9350961946
  0
LINE
  5
240
100
AcDbEntity
  8
0
100
AcDbLine
 62
7
  6
BYLAYER
 10
18.1703075093
 20
50.6147587278
 11
18.1703075093
 21
53.9350961946
  0
LINE
  5
241
100
AcDbEntity
  8
0
100
AcDbLine
 62
7
  6
BYLAYER
 10
18.1703075093
 20
54.6972708134
 11
18.1703075093
 21
57.0651278231
  0
LINE
  5
242
100
AcDbEntity
  8
0
100
AcDbLine
 62
7
  6
BYLAYER
 10
24.5876431679
 20
53.5121589855
 11
24.5018732491
 21
53.3504360569
  0
LINE
  5
243
100
AcDbEntity
  8
0
100
AcDbLine
 62
7
  6
BYLAYER
 10
24.5018732491
 20
50.9825790472
 11
24.5876432947
 21
51.1443019757
  0
LINE
  5
244
100
AcDbEntity
  8
0
100
AcDbLine
 62
7
  6
BYLAYER
 10
37.4813468816
 20
19.3658651711
 11
6.0149641126
 21
37.5325787472
  0
LINE
  5
245
100
AcDbEntity
  8
0
100
AcDbLine
 62
7
  6
BYLAYER
 10
18.2463217409
 20
53.8131013577
 11
18.2463217409
 21
55.7718827488
  0
LINE
  5
246
100
AcDbEntity
  8
0
100
AcDbLine
 62
7
  6
BYLAYER
 10
18.5661243455
 20
53.9239391499
 11
18.5661243455
 21
51.4336067777
  0
LINE
  5
247
100
AcDbEntity
  8
0
100
AcDbLine
 62
7
  6
BYLAYER
 10
18.7916519795
 20
50.1623895953
 11
18.7916519795
 21
56.6127586906
  0
LINE
  5
248
100
AcDbEntity
  8
0
100
AcDbLine
 62
7
  6
BYLAYER
 10
18.9809797444
 20
50.3885741615
 11
18.9809797444
 21
56.8389432569
  0
LINE
  5
249
100
AcDbEntity
  8
0
100
AcDbLine
 62
7
  6
BYLAYER
 10
19.6267889333
 20
53.3115780181
 11
19.6267889333
 21
50.8212456459
  0
LINE
  5
24A
100
AcDbEntity
  8
0
100
AcDbLine
 62
7
  6
BYLAYER
 10
19.6621055592
 20
58.2717151672
 11
19.6621055592
 21
56.1896340036
  0
LINE
  5
24B
100
AcDbEntity
  8
0
100
AcDbLine
 62
7
  6
BYLAYER
 10
19.9450256979
 20
22.8765663044
 11
19.9450256979
 21
23.1215170296
  0
LINE
  5
24C
100
AcDbEntity
  8
0
100
AcDbLine
 62
7
  6
BYLAYER
 10
6.7220679498
 20
38.7573253183
 11
38.1884507188
 21
20.5906117421
  0
LINE
  5
24D
100
AcDbEntity
  8
0
100
AcDbLine
 62
7
  6
BYLAYER
 10
38.6092138758
 20
20.833538014
 11
7.1428311067
 21
39.0002515901
  0
LINE
  5
24E
100
AcDbEntity
  8
0
100
AcDbLine
 62
7
  6
BYLAYER
 10
20.3338927705
 20
52.6991941506
 11
20.3338927705
 21
53.1007030337
  0
LINE
  5
24F
100
AcDbEntity
  8
0
100
AcDbLine
 62
7
  6
BYLAYER
 10
21.5006141019
 20
51.9030926537
 11
21.5006141019
 21
52.9645457959
  0
LINE
  5
250
100
AcDbEntity
  8
0
100
AcDbLine
 62
7
  6
BYLAYER
 10
33.2032927121
 20
46.2898491941
 11
33.3497387118
 21
46.3743993268
  0
LINE
  5
251
100
AcDbEntity
  8
0
100
AcDbLine
 62
7
  6
BYLAYER
 10
37.2105951895
 20
46.672724461
 11
37.1452353802
 21
46.640931458
  0
LINE
  5
252
100
AcDbEntity
  8
0
100
AcDbLine
 62
7
  6
BYLAYER
 10
42.6785539028
 20
32.6463638273
 11
42.3603545265
 21
32.6179386162
  0
LINE
  5
253
100
AcDbEntity
  8
0
100
AcDbLine
 62
7
  6
BYLAYER
 10
22.4280126538
 20
50.3196745554
 11
22.4280126538
 21
51.7957594958
  0
LINE
  5
254
100
AcDbEntity
  8
0
100
AcDbLine
 62
7
  6
BYLAYER
 10
23.2872186578
 20
50.118869851
 11
23.2872186578
 21
51.8123200318
  0
LINE
  5
255
100
AcDbEntity
  8
0
100
AcDbLine
 62
7
  6
BYLAYER
 10
23.5512852962
 20
20.7945384564
 11
23.5512852962
 21
21.0394891815
  0
LINE
  5
256
100
AcDbEntity
  8
0
100
AcDbLine
 62
7
  6
BYLAYER
 10
24.5018732491
 20
50.9825790473
 11
24.5018732491
 21
53.3504360569
  0
LINE
  5
257
100
AcDbEntity
  8
0
100
AcDbLine
 62
7
  6
BYLAYER
 10
34.2639572998
 20
45.6774880623
 11
34.4104032995
 21
45.762038195
  0
LINE
  5
258
100
AcDbEntity
  8
0
100
AcDbLine
 62
7
  6
BYLAYER
 10
8.7019847339
 20
29.6125429101
 11
8.4898481506
 21
29.4900665277
  0
LINE
  5
259
100
AcDbEntity
  8
0
100
AcDbLine
 62
7
  6
BYLAYER
 10
35.4306786312
 20
44.9222116863
 11
34.6175092184
 21
44.4527309093
  0
LINE
  5
25A
100
AcDbEntity
  8
0
100
AcDbLine
 62
7
  6
BYLAYER
 10
24.5877054989
 20
51.1443018876
 11
24.5877054989
 21
53.5121588973
  0
LINE
  5
25B
100
AcDbEntity
  8
0
100
AcDbLine
 62
7
  6
BYLAYER
 10
33.9104053812
 20
42.5747824046
 11
35.7842305498
 21
43.6566294124
  0
LINE
  5
25C
100
AcDbEntity
  8
0
100
AcDbLine
 62
7
  6
BYLAYER
 10
41.7896190023
 20
46.0740377187
 11
37.2691839964
 21
43.46417893
  0
LINE
  5
25D
100
AcDbEntity
  8
0
100
AcDbLine
 62
7
  6
BYLAYER
 10
42.2896167639
 20
46.0245134397
 11
37.9762833569
 21
43.5342241011
  0
LINE
  5
25E
100
AcDbEntity
  8
0
100
AcDbLine
 62
7
  6
BYLAYER
 10
41.0522212595
 20
26.9388894638
 11
9.5858384905
 21
45.1056030399
  0
LINE
  5
25F
100
AcDbEntity
  8
0
100
AcDbLine
 62
7
  6
BYLAYER
 10
33.2032927121
 20
46.2898491941
 11
32.8497407935
 21
45.6774759086
  0
LINE
  5
260
100
AcDbEntity
  8
0
100
AcDbLine
 62
7
  6
BYLAYER
 10
37.2691914725
 20
43.4641574807
 11
37.010356453
 21
43.2753976799
  0
LINE
  5
261
100
AcDbEntity
  8
0
100
AcDbLine
 62
7
  6
BYLAYER
 10
41.0522212595
 20
29.2659213526
 11
39.9915566718
 21
29.8782824844
  0
LINE
  5
262
100
AcDbEntity
  8
0
100
AcDbLine
 62
7
  6
BYLAYER
 10
9.5858384905
 20
47.4326349287
 11
10.6465030782
 21
46.820273797
  0
LINE
  5
263
100
AcDbEntity
  8
0
100
AcDbLine
 62
7
  6
BYLAYER
 10
28.9253192073
 20
17.691908722
 11
28.9253192073
 21
17.9368594472
  0
LINE
  5
264
100
AcDbEntity
  8
0
100
AcDbLine
 62
7
  6
BYLAYER
 10
29.6324289325
 20
17.2836679675
 11
29.6324289325
 21
17.5286186927
  0
LINE
  5
265
100
AcDbEntity
  8
0
100
AcDbLine
 62
7
  6
BYLAYER
 10
33.9104053812
 20
45.0651147768
 11
34.2639572998
 21
45.6774880623
  0
LINE
  5
266
100
AcDbEntity
  8
0
100
AcDbLine
 62
7
  6
BYLAYER
 10
36.4458455392
 20
45.5540075914
 11
37.1452353802
 21
46.640931458
  0
LINE
  5
267
100
AcDbEntity
  8
0
100
AcDbLine
 62
7
  6
BYLAYER
 10
40.5572338536
 20
42.0441453471
 11
44.8705672606
 21
44.5344346857
  0
LINE
  5
268
100
AcDbEntity
  8
0
100
AcDbLine
 62
7
  6
BYLAYER
 10
14.7831283701
 20
26.1016724212
 11
14.5709917868
 21
25.9791960388
  0
LINE
  5
269
100
AcDbEntity
  8
0
100
AcDbLine
 62
7
  6
BYLAYER
 10
45.5776769858
 20
43.3096915141
 11
40.9107916602
 21
40.6152800985
  0
LINE
  5
26A
100
AcDbEntity
  8
0
100
AcDbLine
 62
7
  6
BYLAYER
 10
31.4389141715
 20
40.9613504095
 11
31.4389141715
 21
44.8805620117
  0
LINE
  5
26B
100
AcDbEntity
  8
0
100
AcDbLine
 62
7
  6
BYLAYER
 10
31.5589490087
 20
45.2314999604
 11
31.5589490087
 21
44.8591900765
  0
LINE
  5
26C
100
AcDbEntity
  8
0
100
AcDbLine
 62
7
  6
BYLAYER
 10
31.5589490087
 20
41.1489878747
 11
31.5589490087
 21
44.8591900765
  0
LINE
  5
26D
100
AcDbEntity
  8
0
100
AcDbLine
 62
7
  6
BYLAYER
 10
32.3188793342
 20
40.7737129443
 11
32.3188793342
 21
44.6929245465
  0
LINE
  5
26E
100
AcDbEntity
  8
0
100
AcDbLine
 62
7
  6
BYLAYER
 10
32.3285338488
 20
45.4120478026
 11
32.3285338488
 21
47.0881765299
  0
LINE
  5
26F
100
AcDbEntity
  8
0
100
AcDbLine
 62
7
  6
BYLAYER
 10
32.490730756
 20
45.6248741678
 11
32.490730756
 21
47.6208044781
  0
LINE
  5
270
100
AcDbEntity
  8
0
100
AcDbLine
 62
7
  6
BYLAYER
 10
32.8497407935
 20
45.6774759086
 11
32.8497407935
 21
43.1871435364
  0
LINE
  5
271
100
AcDbEntity
  8
0
100
AcDbLine
 62
7
  6
BYLAYER
 10
37.0901734058
 20
45.0427025654
 11
37.8549229045
 21
46.2312024441
  0
LINE
  5
272
100
AcDbEntity
  8
0
100
AcDbLine
 62
7
  6
BYLAYER
 10
45.5776769858
 20
33.1034113
 11
46.6383415735
 21
32.4910501682
  0
LINE
  5
273
100
AcDbEntity
  8
0
100
AcDbLine
 62
7
  6
BYLAYER
 10
39.9915566718
 20
36.3286515797
 11
10.6465030782
 21
53.2706428923
  0
LINE
  5
274
100
AcDbEntity
  8
0
100
AcDbLine
 62
7
  6
BYLAYER
 10
33.0903227099
 20
42.0008788074
 11
33.0903227099
 21
48.4512479027
  0
LINE
  5
275
100
AcDbEntity
  8
0
100
AcDbLine
 62
7
  6
BYLAYER
 10
33.1663369415
 20
45.1992214373
 11
33.1663369415
 21
47.1580028284
  0
LINE
  5
276
100
AcDbEntity
  8
0
100
AcDbLine
 62
7
  6
BYLAYER
 10
33.7116671801
 20
41.5485096749
 11
33.7116671801
 21
47.9988787702
  0
LINE
  5
277
100
AcDbEntity
  8
0
100
AcDbLine
 62
7
  6
BYLAYER
 10
33.900994945
 20
41.7746942412
 11
33.900994945
 21
48.2250633365
  0
LINE
  5
278
100
AcDbEntity
  8
0
100
AcDbLine
 62
7
  6
BYLAYER
 10
33.9104053812
 20
45.0651147768
 11
33.9104053812
 21
42.5747824046
  0
LINE
  5
279
100
AcDbEntity
  8
0
100
AcDbLine
 62
7
  6
BYLAYER
 10
34.6175092184
 20
44.4527309093
 11
34.6175092184
 21
44.8542397924
  0
LINE
  5
27A
100
AcDbEntity
  8
0
100
AcDbLine
 62
7
  6
BYLAYER
 10
40.203687823
 20
36.696075551
 11
40.9107916602
 21
37.1043197049
  0
LINE
  5
27B
100
AcDbEntity
  8
0
100
AcDbLine
 62
7
  6
BYLAYER
 10
40.203687823
 20
36.696075551
 11
10.8586342294
 21
53.6380668636
  0
LINE
  5
27C
100
AcDbEntity
  8
0
100
AcDbLine
 62
7
  6
BYLAYER
 10
40.9107916602
 20
37.1043197049
 11
11.5657380666
 21
54.0463110175
  0
LINE
  5
27D
100
AcDbEntity
  8
0
100
AcDbLine
 62
7
  6
BYLAYER
 10
35.0064628436
 20
14.1810382332
 11
35.0064628436
 21
14.4259889583
  0
LINE
  5
27E
100
AcDbEntity
  8
0
100
AcDbLine
 62
7
  6
BYLAYER
 10
35.7842305498
 20
43.6566294124
 11
35.7842305498
 21
44.7180825546
  0
LINE
  5
27F
100
AcDbEntity
  8
0
100
AcDbLine
 62
7
  6
BYLAYER
 10
36.2680095483
 20
42.4465302348
 11
36.2680095483
 21
45.0086266499
  0
LINE
  5
280
100
AcDbEntity
  8
0
100
AcDbLine
 62
7
  6
BYLAYER
 10
36.9156217131
 20
40.8397591979
 11
36.9156217131
 21
42.9218403616
  0
LINE
  5
281
100
AcDbEntity
  8
0
100
AcDbLine
 62
7
  6
BYLAYER
 10
42.3603545265
 20
33.9563742691
 11
43.2088791311
 21
34.4462672537
  0
LINE
  5
282
100
AcDbEntity
  8
0
100
AcDbLine
 62
7
  6
BYLAYER
 10
42.7224698443
 20
32.6599548923
 11
42.6785539028
 21
32.6463638273
  0
LINE
  5
283
100
AcDbEntity
  8
0
100
AcDbLine
 62
7
  6
BYLAYER
 10
14.9952202335
 20
53.495222588
 11
18.5661243455
 21
51.4336067777
  0
LINE
  5
284
100
AcDbEntity
  8
0
100
AcDbLine
 62
7
  6
BYLAYER
 10
19.6267889333
 20
50.8212456459
 11
32.8497407935
 21
43.1871435364
  0
LINE
  5
285
100
AcDbEntity
  8
0
100
AcDbLine
 62
7
  6
BYLAYER
 10
33.9104053812
 20
42.5747824046
 11
36.9156217131
 21
40.8397591979
  0
LINE
  5
286
100
AcDbEntity
  8
0
100
AcDbLine
 62
7
  6
BYLAYER
 10
37.0901734058
 20
45.0427025654
 11
37.0901734058
 21
43.333605538
  0
LINE
  5
287
100
AcDbEntity
  8
0
100
AcDbLine
 62
7
  6
BYLAYER
 10
37.4813468816
 20
12.7521955923
 11
37.4813468816
 21
19.3658651711
  0
LINE
  5
288
100
AcDbEntity
  8
0
100
AcDbLine
 62
7
  6
BYLAYER
 10
37.8549229045
 20
43.8023534276
 11
37.8549229045
 21
46.2312024441
  0
LINE
  5
289
100
AcDbEntity
  8
0
100
AcDbLine
 62
7
  6
BYLAYER
 10
38.032759047
 20
43.9050265595
 11
38.032759047
 21
46.4519634526
  0
LINE
  5
28A
100
AcDbEntity
  8
0
100
AcDbLine
 62
7
  6
BYLAYER
 10
39.9915566718
 20
36.3286515797
 11
40.203687823
 21
36.696075551
  0
LINE
  5
28B
100
AcDbEntity
  8
0
100
AcDbLine
 62
7
  6
BYLAYER
 10
42.7561999396
 20
32.9361447944
 11
43.6047245442
 21
33.4260377791
  0
LINE
  5
28C
100
AcDbEntity
  8
0
100
AcDbLine
 62
7
  6
BYLAYER
 10
42.7224867725
 20
32.6599254823
 11
43.5710113771
 21
33.149818467
  0
LINE
  5
28D
100
AcDbEntity
  8
0
100
AcDbLine
 62
7
  6
BYLAYER
 10
23.7634218795
 20
20.9170148388
 11
23.5512852962
 21
20.7945384564
  0
LINE
  5
28E
100
AcDbEntity
  8
0
100
AcDbLine
 62
7
  6
BYLAYER
 10
39.9915566718
 20
29.8782824844
 11
45.5776769858
 21
33.1034113
  0
LINE
  5
28F
100
AcDbEntity
  8
0
100
AcDbLine
 62
7
  6
BYLAYER
 10
40.8160569203
 20
41.0782251973
 11
37.010356453
 21
43.2753976799
  0
LINE
  5
290
100
AcDbEntity
  8
0
100
AcDbLine
 62
7
  6
BYLAYER
 10
33.9104053812
 20
45.0651147768
 11
32.8497407935
 21
45.6774759086
  0
LINE
  5
291
100
AcDbEntity
  8
0
100
AcDbLine
 62
7
  6
BYLAYER
 10
19.6267889333
 20
53.3115780181
 11
18.5661243455
 21
53.9239391499
  0
LINE
  5
292
100
AcDbEntity
  8
0
100
AcDbLine
 62
7
  6
BYLAYER
 10
14.9004854936
 20
56.0402488505
 11
11.6604728065
 21
57.9108287294
  0
LINE
  5
293
100
AcDbEntity
  8
0
100
AcDbLine
 62
7
  6
BYLAYER
 10
35.4306786312
 20
44.9222116863
 11
34.8080118551
 21
45.2817003843
  0
LINE
  5
294
100
AcDbEntity
  8
0
100
AcDbLine
 62
7
  6
BYLAYER
 10
21.1470621833
 20
53.1686749276
 11
20.5243954071
 21
53.5281636257
  0
LINE
  5
295
100
AcDbEntity
  8
0
100
AcDbLine
 62
7
  6
BYLAYER
 10
40.5572338536
 20
42.0441453471
 11
37.9762833569
 21
43.5342241011
  0
LINE
  5
296
100
AcDbEntity
  8
0
100
AcDbLine
 62
7
  6
BYLAYER
 10
34.2639572998
 20
45.6774880623
 11
33.2032927121
 21
46.2898491941
  0
LINE
  5
297
100
AcDbEntity
  8
0
100
AcDbLine
 62
7
  6
BYLAYER
 10
19.9803408519
 20
53.9239513037
 11
18.9196762641
 21
54.5363124354
  0
LINE
  5
298
100
AcDbEntity
  8
0
100
AcDbLine
 62
7
  6
BYLAYER
 10
14.641662427
 20
57.0061690003
 11
12.6263997103
 21
58.1696551507
  0
LINE
  5
299
100
AcDbEntity
  8
0
100
AcDbLine
 62
7
  6
BYLAYER
 10
35.6806743895
 20
44.9469756285
 11
34.7957970484
 21
45.4578482421
  0
LINE
  5
29A
100
AcDbEntity
  8
0
100
AcDbLine
 62
7
  6
BYLAYER
 10
21.3970579415
 20
53.1934388698
 11
20.5121806005
 21
53.7043114834
  0
LINE
  5
29B
100
AcDbEntity
  8
0
100
AcDbLine
 62
7
  6
BYLAYER
 10
20.4424709622
 20
53.8262359189
 11
19.0661222638
 21
54.6208625681
  0
LINE
  5
29C
100
AcDbEntity
  8
0
100
AcDbLine
 62
7
  6
BYLAYER
 10
33.3497387118
 20
46.3743993268
 11
34.7260874102
 21
45.5797726776
  0
LINE
  5
29D
100
AcDbEntity
  8
0
100
AcDbLine
 62
7
  6
BYLAYER
 10
39.9915566718
 20
36.3286515797
 11
39.9915566718
 21
29.8782824844
  0
LINE
  5
29E
100
AcDbEntity
  8
0
100
AcDbLine
 62
7
  6
BYLAYER
 10
40.9107916602
 20
37.1043197049
 11
40.9107916602
 21
40.6152800985
  0
LINE
  5
29F
100
AcDbEntity
  8
0
100
AcDbLine
 62
7
  6
BYLAYER
 10
41.0522212595
 20
26.9388894638
 11
41.0522212595
 21
29.2659213526
  0
LINE
  5
2A0
100
AcDbEntity
  8
0
100
AcDbLine
 62
7
  6
BYLAYER
 10
46.6383415735
 20
32.4910501682
 11
41.0522212595
 21
29.2659213526
  0
LINE
  5
2A1
100
AcDbEntity
  8
0
100
AcDbLine
 62
7
  6
BYLAYER
 10
23.3147493912
 20
53.3868781622
 11
24.0273019141
 21
52.9754950779
  0
LINE
  5
2A2
100
AcDbEntity
  8
0
100
AcDbLine
 62
7
  6
BYLAYER
 10
18.047008823
 20
57.0078426661
 11
18.7580741975
 21
56.597318168
  0
LINE
  5
2A3
100
AcDbEntity
  8
0
100
AcDbLine
 62
7
  6
BYLAYER
 10
32.9670240236
 20
48.3939627457
 11
33.6780893981
 21
47.9834382476
  0
LINE
  5
2A4
100
AcDbEntity
  8
0
100
AcDbLine
 62
7
  6
BYLAYER
 10
19.6621055592
 20
56.1896340036
 11
23.8763626056
 21
53.7565866062
  0
LINE
  5
2A5
100
AcDbEntity
  8
0
100
AcDbLine
 62
7
  6
BYLAYER
 10
24.5877054989
 20
53.3459018862
 11
36.8895590513
 21
46.2435841021
  0
LINE
  5
2A6
100
AcDbEntity
  8
0
100
AcDbLine
 62
7
  6
BYLAYER
 10
38.032759047
 20
45.5835722083
 11
39.4864430019
 21
44.7443063724
  0
LINE
  5
2A7
100
AcDbEntity
  8
0
100
AcDbLine
 62
7
  6
BYLAYER
 10
37.8549229045
 20
46.2312024441
 11
37.1452353802
 21
46.640931458
  0
LINE
  5
2A8
100
AcDbEntity
  8
0
100
AcDbLine
 62
7
  6
BYLAYER
 10
42.3603545265
 20
33.9563742691
 11
42.7561999396
 21
32.9361447944
  0
LINE
  5
2A9
100
AcDbEntity
  8
0
100
AcDbLine
 62
7
  6
BYLAYER
 10
43.6047245443
 20
33.4260377791
 11
43.2088791311
 21
34.4462672537
  0
LINE
  5
2AA
100
AcDbEntity
  8
0
100
AcDbLine
 62
7
  6
BYLAYER
 10
42.3603545265
 20
32.6179386162
 11
42.3603545265
 21
33.9563742691
  0
LINE
  5
2AB
100
AcDbEntity
  8
0
100
AcDbLine
 62
7
  6
BYLAYER
 10
44.8705672606
 20
44.5344346857
 11
42.2896167639
 21
46.0245134397
  0
LINE
  5
2AC
100
AcDbEntity
  8
0
100
AcDbLine
 62
7
  6
BYLAYER
 10
18.954995834
 20
59.4964583389
 11
16.9397331173
 21
60.6599444893
  0
LINE
  5
2AD
100
AcDbEntity
  8
0
100
AcDbLine
 62
7
  6
BYLAYER
 10
38.6092138758
 20
20.833538014
 11
41.0522212595
 21
26.9388894638
  0
LINE
  5
2AE
100
AcDbEntity
  8
0
100
AcDbLine
 62
7
  6
BYLAYER
 10
29.8445655158
 20
17.4061443499
 11
29.6324289325
 21
17.2836679675
  0
LINE
  5
2AF
100
AcDbEntity
  8
0
100
AcDbLine
 62
7
  6
BYLAYER
 10
45.5776769858
 20
33.1034113
 11
45.5776769858
 21
43.3096915141
  0
LINE
  5
2B0
100
AcDbEntity
  8
0
100
AcDbLine
 62
7
  6
BYLAYER
 10
46.6383415735
 20
18.038957385
 11
46.6383415735
 21
32.4910501682
  0
LINE
  5
2B1
100
AcDbEntity
  8
0
100
AcDbLine
 62
7
  6
BYLAYER
 10
38.1884507188
 20
20.5906117421
 11
38.6092138758
 21
20.833538014
  0
LINE
  5
2B2
100
AcDbEntity
  8
0
100
AcDbLine
 62
7
  6
BYLAYER
 10
46.6383415735
 20
18.038957385
 11
37.4813468816
 21
12.7521955923
  0
ARC
  5
2B3
100
AcDbEntity
  8
0
100
AcDbCircle
 62
7
  6
BYLAYER
 10
41.7143910922
 20
41.8946391552
 40
28.0812033469
100
AcDbArc
 50
147.4390516897
 51
149.2919374371
  0
ARC
  5
2B4
100
AcDbEntity
  8
0
100
AcDbCircle
 62
7
  6
BYLAYER
 10
56.6344062618
 20
33.2807592538
 40
28.0812033106
100
AcDbArc
 50
147.4390516883
 51
149.2919374379
  0
ARC
  5
2B5
100
AcDbEntity
  8
0
100
AcDbCircle
 62
7
  6
BYLAYER
 10
23.2262725488
 20
46.0214777694
 40
12.1459865738
100
AcDbArc
 50
114.5990876164
 51
115.2404329072
  0
ARC
  5
2B6
100
AcDbEntity
  8
0
100
AcDbCircle
 62
7
  6
BYLAYER
 10
38.1462877493
 20
37.4075978492
 40
12.1459865735
100
AcDbArc
 50
114.5990876164
 51
115.2404329072
  0
ARC
  5
2B7
100
AcDbEntity
  8
0
100
AcDbCircle
 62
7
  6
BYLAYER
 10
38.3344943037
 20
37.9016008547
 40
11.1052038182
100
AcDbArc
 50
114.5996826818
 51
114.7903613543
  0
ARC
  5
2B8
100
AcDbEntity
  8
0
100
AcDbCircle
 62
7
  6
BYLAYER
 10
23.4144790989
 20
46.5154807842
 40
11.1052038081
100
AcDbArc
 50
114.5996826819
 51
114.7903613544
  0
ARC
  5
2B9
100
AcDbEntity
  8
0
100
AcDbCircle
 62
7
  6
BYLAYER
 10
37.5540879654
 20
36.052884128
 40
10.828702758
100
AcDbArc
 50
117.9614934492
 51
119.9824218076
  0
ARC
  5
2BA
100
AcDbEntity
  8
0
100
AcDbCircle
 62
7
  6
BYLAYER
 10
22.6340727643
 20
44.6667640492
 40
10.8287027571
100
AcDbArc
 50
117.9614934493
 51
119.9824218076
  0
ARC
  5
2BB
100
AcDbEntity
  8
0
100
AcDbCircle
 62
7
  6
BYLAYER
 10
22.1766373127
 20
45.6221449162
 40
9.9140180243
100
AcDbArc
 50
119.9801612404
 51
123.9571735027
  0
ARC
  5
2BC
100
AcDbEntity
  8
0
100
AcDbCircle
 62
7
  6
BYLAYER
 10
37.0966525133
 20
37.0082649958
 40
9.9140180244
100
AcDbArc
 50
119.9801612404
 51
123.9571735026
  0
ARC
  5
2BD
100
AcDbEntity
  8
0
100
AcDbCircle
 62
7
  6
BYLAYER
 10
22.1588444391
 20
45.4867629125
 40
9.8809510515
100
AcDbArc
 50
119.9716877678
 51
123.9620218353
  0
ARC
  5
2BE
100
AcDbEntity
  8
0
100
AcDbCircle
 62
7
  6
BYLAYER
 10
37.0788596397
 20
36.8728829921
 40
9.8809510515
100
AcDbArc
 50
119.9716877678
 51
123.9620218352
  0
ARC
  5
2BF
100
AcDbEntity
  8
0
100
AcDbCircle
 62
7
  6
BYLAYER
 10
22.804172476
 20
45.1924749138
 40
9.7513650853
100
AcDbArc
 50
117.8660603708
 51
119.9917110813
  0
ARC
  5
2C0
100
AcDbEntity
  8
0
100
AcDbCircle
 62
7
  6
BYLAYER
 10
37.7241876762
 20
36.578594994
 40
9.7513650846
100
AcDbArc
 50
117.8660603709
 51
119.9917110813
  0
ARC
  5
2C1
100
AcDbEntity
  8
0
100
AcDbCircle
 62
7
  6
BYLAYER
 10
22.088960685
 20
41.6795405659
 40
9.7489910623
100
AcDbArc
 50
119.9447021579
 51
123.9890558487
  0
ARC
  5
2C2
100
AcDbEntity
  8
0
100
AcDbCircle
 62
7
  6
BYLAYER
 10
37.0089758866
 20
33.0656606462
 40
9.7489910623
100
AcDbArc
 50
119.9447021648
 51
123.9890558556
  0
ARC
  5
2C3
100
AcDbEntity
  8
0
100
AcDbCircle
 62
7
  6
BYLAYER
 10
22.4192353418
 20
41.9339339789
 40
8.9867473379
100
AcDbArc
 50
119.971687768
 51
123.9620218345
  0
ARC
  5
2C4
100
AcDbEntity
  8
0
100
AcDbCircle
 62
7
  6
BYLAYER
 10
37.3392505424
 20
33.3200540586
 40
8.9867473379
100
AcDbArc
 50
119.971687768
 51
123.9620218345
  0
ARC
  5
2C5
100
AcDbEntity
  8
0
100
AcDbCircle
 62
7
  6
BYLAYER
 10
22.3556759122
 20
45.9550000627
 40
8.8667294307
100
AcDbArc
 50
119.9447021744
 51
123.9890558637
  0
ARC
  5
2C6
100
AcDbEntity
  8
0
100
AcDbCircle
 62
7
  6
BYLAYER
 10
37.2756911122
 20
37.341120142
 40
8.8667294306
100
AcDbArc
 50
119.9447021702
 51
123.9890558595
  0
ARC
  5
2C7
100
AcDbEntity
  8
0
100
AcDbCircle
 62
7
  6
BYLAYER
 10
22.340046397
 20
46.1438665038
 40
8.8368010012
100
AcDbArc
 50
119.9396351801
 51
123.9976995633
  0
ARC
  5
2C8
100
AcDbEntity
  8
0
100
AcDbCircle
 62
7
  6
BYLAYER
 10
37.2600615976
 20
37.5299865834
 40
8.8368010012
100
AcDbArc
 50
119.9396351801
 51
123.9976995633
  0
ARC
  5
2C9
100
AcDbEntity
  8
0
100
AcDbCircle
 62
7
  6
BYLAYER
 10
19.2755744063
 20
59.4776731489
 40
8.0533989083
100
AcDbArc
 50
306.1589657317
 51
310.46290968
  0
ARC
  5
2CA
100
AcDbEntity
  8
0
100
AcDbCircle
 62
7
  6
BYLAYER
 10
18.8801615414
 20
59.2984022864
 40
7.3899720479
100
AcDbArc
 50
306.8757575396
 51
310.4385790721
  0
ARC
  5
2CB
100
AcDbEntity
  8
0
100
AcDbCircle
 62
7
  6
BYLAYER
 10
33.5581608093
 20
46.9864312589
 40
1.241706468
100
AcDbArc
 50
149.2763740674
 51
150.7309899353
  0
ARC
  5
2CC
100
AcDbEntity
  8
0
100
AcDbCircle
 62
7
  6
BYLAYER
 10
18.6381455627
 20
55.6003112058
 40
1.2417064149
100
AcDbArc
 50
149.2763740405
 51
150.7309899668
  0
ARC
  5
2CD
100
AcDbEntity
  8
0
100
AcDbCircle
 62
7
  6
BYLAYER
 10
37.4768114787
 20
44.8909117927
 40
1.2258004758
100
AcDbArc
 50
147.2517209351
 51
150.0710426065
  0
ARC
  5
2CE
100
AcDbEntity
  8
0
100
AcDbCircle
 62
7
  6
BYLAYER
 10
22.5180505812
 20
52.3391126063
 40
0.9322713911
100
AcDbArc
 50
324.9833348648
 51
325.5932960946
  0
ARC
  5
2CF
100
AcDbEntity
  8
0
100
AcDbCircle
 62
7
  6
BYLAYER
 10
37.6381771853
 20
46.6780015345
 40
0.4965965505
100
AcDbArc
 50
295.8783848256
 51
299.9784795764
  0
ARC
  5
2D0
100
AcDbEntity
  8
0
100
AcDbCircle
 62
7
  6
BYLAYER
 10
23.0487240153
 20
50.5188798858
 40
0.4657120596
100
AcDbArc
 50
299.9982201764
 51
300.8043120939
  0
ARC
  5
2D1
100
AcDbEntity
  8
0
100
AcDbCircle
 62
7
  6
BYLAYER
 10
17.148289397
 20
53.8421968978
 40
0.4485979447
100
AcDbArc
 50
299.9801605506
 51
303.9571741962
  0
ARC
  5
2D2
100
AcDbEntity
  8
0
100
AcDbCircle
 62
7
  6
BYLAYER
 10
32.0683045976
 20
45.2283169774
 40
0.4485979447
100
AcDbArc
 50
299.9801605506
 51
303.9571741962
  0
ARC
  5
2D3
100
AcDbEntity
  8
0
100
AcDbCircle
 62
7
  6
BYLAYER
 10
17.1490945221
 20
53.6776331069
 40
0.4471016687
100
AcDbArc
 50
299.9716868948
 51
303.9620226485
  0
ARC
  5
2D4
100
AcDbEntity
  8
0
100
AcDbCircle
 62
7
  6
BYLAYER
 10
32.0691097227
 20
45.0637531866
 40
0.4471016687
100
AcDbArc
 50
299.9716868957
 51
303.9620226491
  0
ARC
  5
2D5
100
AcDbEntity
  8
0
100
AcDbCircle
 62
7
  6
BYLAYER
 10
17.1522566782
 20
49.7533541258
 40
0.4411306379
100
AcDbArc
 50
299.9447012495
 51
303.9890565857
  0
ARC
  5
2D6
100
AcDbEntity
  8
0
100
AcDbCircle
 62
7
  6
BYLAYER
 10
32.0722718788
 20
41.1394742054
 40
0.4411306379
100
AcDbArc
 50
299.9447012495
 51
303.9890565857
  0
SPLINE
  5
2D7
100
AcDbEntity
  8
0
100
AcDbSpline
 62
7
  6
BYLAYER
 70
0
 71
3
 72
15
 73
11
 74
0
 42
0.0000001
 43
0.0000001
 44
0.0000000001
 40
0.0
 40
0.0
 40
0.0
 40
0.0
 40
0.1141241598
 40
0.2373483675
 40
0.3669736385
 40
0.5000010132
 40
0.6330282465
 40
0.7626531028
 40
0.8858766831
 40
1.0
 40
1.0
 40
1.0
 40
1.0
 10
19.6621055592
 20
58.2717151672
 30
0.0
 10
19.6621055592
 20
58.3275956373
 30
0.0
 10
19.6518451286
 20
58.4439180628
 30
0.0
 10
19.6110630447
 20
58.6193975608
 30
0.0
 10
19.5456535793
 20
58.7971454068
 30
0.0
 10
19.4581689329
 20
58.9704711116
 30
0.0
 10
19.3518061522
 20
59.132897229
 30
0.0
 10
19.2305763548
 20
59.2784163475
 30
0.0
 10
19.0989975798
 20
59.4014729541
 30
0.0
 10
19.0033896569
 20
59.4685187843
 30
0.0
 10
18.954995834
 20
59.4964583389
 30
0.0
  0
SPLINE
  5
2D8
100
AcDbEntity
  8
0
100
AcDbSpline
 62
7
  6
BYLAYER
 70
0
 71
3
 72
11
 73
7
 74
0
 42
0.0000001
 43
0.0000001
 44
0.0000000001
 40
0.0
 40
0.0
 40
0.0
 40
0.0
 40
0.289702329
 40
0.5490881649
 40
0.7822156415
 40
1.0
 40
1.0
 40
1.0
 40
1.0
 10
16.9397331173
 20
60.6599444893
 30
0.0
 10
16.8958542933
 20
60.6852773671
 30
0.0
 10
16.8085651632
 20
60.7268025175
 30
0.0
 10
16.6744000334
 20
60.7592009925
 30
0.0
 10
16.5485138916
 20
60.7560135783
 30
0.0
 10
16.4727237126
 20
60.7285087354
 30
0.0
 10
16.4397378507
 20
60.7094644469
 30
0.0
  0
SPLINE
  5
2D9
100
AcDbEntity
  8
0
100
AcDbSpline
 62
7
  6
BYLAYER
 70
0
 71
3
 72
15
 73
11
 74
0
 42
0.0000001
 43
0.0000001
 44
0.0000000001
 40
0.0
 40
0.0
 40
0.0
 40
0.0
 40
0.1141241598
 40
0.2373483675
 40
0.3669736385
 40
0.5000010132
 40
0.6330282465
 40
0.7626531028
 40
0.8858766831
 40
1.0
 40
1.0
 40
1.0
 40
1.0
 10
45.5776769858
 20
43.3096915141
 30
0.0
 10
45.5776769858
 20
43.3655719841
 30
0.0
 10
45.5674165553
 20
43.4818944096
 30
0.0
 10
45.5266344714
 20
43.6573739076
 30
0.0
 10
45.4612250059
 20
43.8351217537
 30
0.0
 10
45.3737403595
 20
44.0084474584
 30
0.0
 10
45.2673775789
 20
44.1708735759
 30
0.0
 10
45.1461477814
 20
44.3163926943
 30
0.0
 10
45.0145690064
 20
44.4394493009
 30
0.0
 10
44.9189610835
 20
44.5064951311
 30
0.0
 10
44.8705672606
 20
44.5344346857
 30
0.0
  0
SPLINE
  5
2DA
100
AcDbEntity
  8
0
100
AcDbSpline
 62
7
  6
BYLAYER
 70
0
 71
3
 72
11
 73
7
 74
0
 42
0.0000001
 43
0.0000001
 44
0.0000000001
 40
0.0
 40
0.0
 40
0.0
 40
0.0
 40
0.289702329
 40
0.5490881649
 40
0.7822156415
 40
1.0
 40
1.0
 40
1.0
 40
1.0
 10
42.2896167639
 20
46.0245134397
 30
0.0
 10
42.2457379398
 20
46.0498463175
 30
0.0
 10
42.1584488097
 20
46.091371468
 30
0.0
 10
42.02428368
 20
46.123769943
 30
0.0
 10
41.8983975381
 20
46.1205825287
 30
0.0
 10
41.8226073592
 20
46.0930776859
 30
0.0
 10
41.7896214972
 20
46.0740333974
 30
0.0
  0
SPLINE
  5
2DB
100
AcDbEntity
  8
0
100
AcDbSpline
 62
7
  6
BYLAYER
 70
0
 71
3
 72
9
 73
5
 74
0
 42
0.0000001
 43
0.0000001
 44
0.0000000001
 40
0.0
 40
0.0
 40
0.0
 40
0.0
 40
0.2452336217
 40
1.0
 40
1.0
 40
1.0
 40
1.0
 10
17.9297111675
 20
53.8014114823
 30
0.0
 10
17.993971067
 20
53.8385117312
 30
0.0
 10
18.2577783893
 20
53.9867153829
 30
0.0
 10
18.5283710658
 20
54.1227723729
 30
0.0
 10
18.7354810319
 20
54.2189953321
 30
0.0
  0
SPLINE
  5
2DC
100
AcDbEntity
  8
0
100
AcDbSpline
 62
7
  6
BYLAYER
 70
0
 71
3
 72
17
 73
13
 74
0
 42
0.0000001
 43
0.0000001
 44
0.0000000001
 40
0.0
 40
0.0
 40
0.0
 40
0.0
 40
0.0428593079
 40
0.0874858238
 40
0.1353222198
 40
0.1872839944
 40
0.3045479545
 40
0.4382102165
 40
0.582556607
 40
0.7296900391
 40
0.8713356859
 40
1.0
 40
1.0
 40
1.0
 40
1.0
 10
31.4389221495
 20
45.0438625022
 30
0.0
 10
31.4389315598
 20
45.0296292157
 30
0.0
 10
31.4427631872
 20
45.0004593396
 30
0.0
 10
31.4594511603
 20
44.9583117981
 30
0.0
 10
31.4866316621
 20
44.9183853123
 30
0.0
 10
31.5377317228
 20
44.8670718361
 30
0.0
 10
31.6248451947
 20
44.814070206
 30
0.0
 10
31.7500738219
 20
44.7722277272
 30
0.0
 10
31.8906091738
 20
44.752497835
 30
0.0
 10
32.0350769133
 20
44.756459647
 30
0.0
 10
32.1716502834
 20
44.7838159432
 30
0.0
 10
32.2554649617
 20
44.8183779343
 30
0.0
 10
32.2924690341
 20
44.8397421179
 30
0.0
  0
SPLINE
  5
2DD
100
AcDbEntity
  8
0
100
AcDbSpline
 62
7
  6
BYLAYER
 70
0
 71
3
 72
10
 73
6
 74
0
 42
0.0000001
 43
0.0000001
 44
0.0000000001
 40
0.0
 40
0.0
 40
0.0
 40
0.0
 40
0.2785277226
 40
0.5376696738
 40
1.0
 40
1.0
 40
1.0
 40
1.0
 10
11.5657380666
 20
57.5572714111
 30
0.0
 10
11.5657380666
 20
57.5916863782
 30
0.0
 10
11.5693938081
 20
57.6582633514
 30
0.0
 10
11.5918832074
 20
57.7798360622
 30
0.0
 10
11.627622351
 20
57.8640934127
 30
0.0
 10
11.6604728065
 20
57.9108287294
 30
0.0
  0
SPLINE
  5
2DE
100
AcDbEntity
  8
0
100
AcDbSpline
 62
7
  6
BYLAYER
 70
0
 71
3
 72
10
 73
6
 74
0
 42
0.0000001
 43
0.0000001
 44
0.0000000001
 40
0.0
 40
0.0
 40
0.0
 40
0.0
 40
0.2785277226
 40
0.5376696738
 40
1.0
 40
1.0
 40
1.0
 40
1.0
 10
36.9156217131
 20
42.9218403616
 30
0.0
 10
36.9156217131
 20
42.9562553287
 30
0.0
 10
36.9192774546
 20
43.0228323018
 30
0.0
 10
36.9417668539
 20
43.1444050126
 30
0.0
 10
36.9775059976
 20
43.2286623631
 30
0.0
 10
37.010356453
 20
43.2753976799
 30
0.0
  0
SPLINE
  5
2DF
100
AcDbEntity
  8
0
100
AcDbSpline
 62
7
  6
BYLAYER
 70
0
 71
3
 72
17
 73
13
 74
0
 42
0.0000001
 43
0.0000001
 44
0.0000000001
 40
0.0
 40
0.0
 40
0.0
 40
0.0
 40
0.0428593079
 40
0.0874858238
 40
0.1353222198
 40
0.1872839944
 40
0.3045479545
 40
0.4382102165
 40
0.582556607
 40
0.7296900391
 40
0.8713356859
 40
1.0
 40
1.0
 40
1.0
 40
1.0
 10
16.5189069489
 20
53.6577424225
 30
0.0
 10
16.5189163592
 20
53.6435091361
 30
0.0
 10
16.5227479866
 20
53.61433926
 30
0.0
 10
16.5394359597
 20
53.5721917184
 30
0.0
 10
16.5666164615
 20
53.5322652326
 30
0.0
 10
16.6177165222
 20
53.4809517565
 30
0.0
 10
16.7048299941
 20
53.4279501264
 30
0.0
 10
16.8300586213
 20
53.3861076475
 30
0.0
 10
16.9705939732
 20
53.3663777554
 30
0.0
 10
17.1150617127
 20
53.3703395674
 30
0.0
 10
17.2516350828
 20
53.3976958636
 30
0.0
 10
17.3354497611
 20
53.4322578547
 30
0.0
 10
17.3724538335
 20
53.4536220383
 30
0.0
  0
SPLINE
  5
2E0
100
AcDbEntity
  8
0
100
AcDbSpline
 62
7
  6
BYLAYER
 70
0
 71
3
 72
11
 73
7
 74
0
 42
0.0000001
 43
0.0000001
 44
0.0000000001
 40
0.0
 40
0.0
 40
0.0
 40
0.0
 40
0.2177442246
 40
0.4508817658
 40
0.7104588047
 40
1.0
 40
1.0
 40
1.0
 40
1.0
 10
35.6806604013
 20
44.9469514002
 30
0.0
 10
35.6971504973
 20
44.9374310453
 30
0.0
 10
35.7280347194
 20
44.9115265443
 30
0.0
 10
35.7608879743
 20
44.8577859605
 30
0.0
 10
35.7803645593
 20
44.7915804018
 30
0.0
 10
35.7842305498
 20
44.7434019841
 30
0.0
 10
35.7842305498
 20
44.7180825546
 30
0.0
  0
SPLINE
  5
2E1
100
AcDbEntity
  8
0
100
AcDbSpline
 62
7
  6
BYLAYER
 70
0
 71
3
 72
15
 73
11
 74
0
 42
0.0000001
 43
0.0000001
 44
0.0000000001
 40
0.0
 40
0.0
 40
0.0
 40
0.0
 40
0.1141229605
 40
0.2373462928
 40
0.366971064
 40
0.4999983279
 40
0.633025824
 40
0.762651271
 40
0.8858756957
 40
1.0
 40
1.0
 40
1.0
 40
1.0
 10
6.7220679498
 20
38.7573253183
 30
0.0
 10
6.6736745084
 20
38.7293855186
 30
0.0
 10
6.5780673635
 20
38.6623392216
 30
0.0
 10
6.4464897552
 20
38.5392820272
 30
0.0
 10
6.3252610025
 20
38.3937623876
 30
0.0
 10
6.2188991119
 20
38.2313357943
 30
0.0
 10
6.1314151824
 20
38.058009686
 30
0.0
 10
6.0660062345
 20
37.8802615096
 30
0.0
 10
6.0252244849
 20
37.7047817838
 30
0.0
 10
6.0149641126
 20
37.5884592546
 30
0.0
 10
6.0149641126
 20
37.5325787472
 30
0.0
  0
SPLINE
  5
2E2
100
AcDbEntity
  8
0
100
AcDbSpline
 62
7
  6
BYLAYER
 70
0
 71
3
 72
11
 73
7
 74
0
 42
0.0000001
 43
0.0000001
 44
0.0000000001
 40
0.0
 40
0.0
 40
0.0
 40
0.0
 40
0.2177442246
 40
0.4508817658
 40
0.7104588047
 40
1.0
 40
1.0
 40
1.0
 40
1.0
 10
21.3970439533
 20
53.1934146415
 30
0.0
 10
21.4135340493
 20
53.1838942866
 30
0.0
 10
21.4444182714
 20
53.1579897856
 30
0.0
 10
21.4772715264
 20
53.1042492018
 30
0.0
 10
21.4967481113
 20
53.0380436431
 30
0.0
 10
21.5006141019
 20
52.9898652254
 30
0.0
 10
21.5006141019
 20
52.9645457959
 30
0.0
  0
SPLINE
  5
2E3
100
AcDbEntity
  8
0
100
AcDbSpline
 62
7
  6
BYLAYER
 70
0
 71
3
 72
11
 73
7
 74
0
 42
0.0000001
 43
0.0000001
 44
0.0000000001
 40
0.0
 40
0.0
 40
0.0
 40
0.0
 40
0.2178891108
 40
0.4510006973
 40
0.7106596392
 40
1.0
 40
1.0
 40
1.0
 40
1.0
 10
43.5709996705
 20
33.1498388245
 30
0.0
 10
43.5809070247
 20
33.1555430545
 30
0.0
 10
43.599443626
 20
33.1710942286
 30
0.0
 10
43.6191537983
 20
33.2033520046
 30
0.0
 10
43.6308075666
 20
33.2430756532
 30
0.0
 10
43.6331449662
 20
33.2719732221
 30
0.0
 10
43.6331449662
 20
33.2871542495
 30
0.0
  0
SPLINE
  5
2E4
100
AcDbEntity
  8
0
100
AcDbSpline
 62
7
  6
BYLAYER
 70
0
 71
3
 72
17
 73
13
 74
0
 42
0.0000001
 43
0.0000001
 44
0.0000000001
 40
0.0
 40
0.0
 40
0.0
 40
0.0
 40
0.1327016403
 40
0.2763253948
 40
0.4234947228
 40
0.5665385377
 40
0.698316742
 40
0.8138870025
 40
0.8652528936
 40
0.9127234582
 40
0.9571826158
 40
1.0
 40
1.0
 40
1.0
 40
1.0
 10
37.2105951895
 20
46.672724461
 30
0.0
 10
37.2488186417
 20
46.691317513
 30
0.0
 10
37.3330701267
 20
46.7207002667
 30
0.0
 10
37.4676257194
 20
46.7419764517
 30
0.0
 10
37.6071959892
 20
46.7412022375
 30
0.0
 10
37.741122947
 20
46.7184951509
 30
0.0
 10
37.8593199525
 20
46.6755206553
 30
0.0
 10
37.9408784516
 20
46.6230577838
 30
0.0
 10
37.9884414843
 20
46.5730899566
 30
0.0
 10
38.0137088763
 20
46.5344055878
 30
0.0
 10
38.0292151028
 20
46.4937438068
 30
0.0
 10
38.0327265267
 20
46.4656781645
 30
0.0
 10
38.0327346127
 20
46.4519633209
 30
0.0
  0
SPLINE
  5
2E5
100
AcDbEntity
  8
0
100
AcDbSpline
 62
7
  6
BYLAYER
 70
0
 71
3
 72
10
 73
6
 74
0
 42
0.0000001
 43
0.0000001
 44
0.0000000001
 40
0.0
 40
0.0
 40
0.0
 40
0.0
 40
0.5065352311
 40
0.7561095643
 40
1.0
 40
1.0
 40
1.0
 40
1.0
 10
36.4144779911
 20
45.5024952847
 30
0.0
 10
36.370662214
 20
45.4264197173
 30
0.0
 10
36.3168222168
 20
45.3053141729
 30
0.0
 10
36.2760288851
 20
45.1365278651
 30
0.0
 10
36.2680106758
 20
45.0508970007
 30
0.0
 10
36.2680092219
 20
45.0086265725
 30
0.0
  0
SPLINE
  5
2E6
100
AcDbEntity
  8
0
100
AcDbSpline
 62
7
  6
BYLAYER
 70
0
 71
3
 72
17
 73
13
 74
0
 42
0.0000001
 43
0.0000001
 44
0.0000000001
 40
0.0
 40
0.0
 40
0.0
 40
0.0
 40
0.1286734046
 40
0.270304884
 40
0.4174485017
 40
0.5617958322
 40
0.6954586032
 40
0.8127195466
 40
0.8646883218
 40
0.9125179704
 40
0.9571497869
 40
1.0
 40
1.0
 40
1.0
 40
1.0
 10
23.7341506363
 20
53.7162792745
 30
0.0
 10
23.7711574724
 20
53.7376450538
 30
0.0
 10
23.8549690462
 20
53.7722122353
 30
0.0
 10
23.9915462503
 20
53.7995594472
 30
0.0
 10
24.1360137712
 20
53.8035314917
 30
0.0
 10
24.2765506997
 20
53.7837920622
 30
0.0
 10
24.4017865351
 20
53.7419540939
 30
0.0
 10
24.4888776322
 20
53.6889290191
 30
0.0
 10
24.5400123303
 20
53.6376448105
 30
0.0
 10
24.5671497517
 20
53.5976882395
 30
0.0
 10
24.5838760575
 20
53.5555632011
 30
0.0
 10
24.5877046083
 20
53.5263893105
 30
0.0
 10
24.5877033717
 20
53.5121589838
 30
0.0
  0
SPLINE
  5
2E7
100
AcDbEntity
  8
0
100
AcDbSpline
 62
7
  6
BYLAYER
 70
0
 71
3
 72
9
 73
5
 74
0
 42
0.0000001
 43
0.0000001
 44
0.0000000001
 40
0.0
 40
0.0
 40
0.0
 40
0.0
 40
0.2404251466
 40
1.0
 40
1.0
 40
1.0
 40
1.0
 10
23.673537749
 20
53.6738817378
 30
0.0
 10
23.6780500757
 20
53.6777336093
 30
0.0
 10
23.697229327
 20
53.6932711303
 30
0.0
 10
23.7179183011
 20
53.7069075874
 30
0.0
 10
23.7341506363
 20
53.7162792745
 30
0.0
  0
SPLINE
  5
2E8
100
AcDbEntity
  8
0
100
AcDbSpline
 62
7
  6
BYLAYER
 70
0
 71
3
 72
9
 73
5
 74
0
 42
0.0000001
 43
0.0000001
 44
0.0000000001
 40
0.0
 40
0.0
 40
0.0
 40
0.0
 40
0.5139979692
 40
1.0
 40
1.0
 40
1.0
 40
1.0
 10
22.5688066498
 20
52.2042433712
 30
0.0
 10
22.5265295795
 20
52.1425069721
 30
0.0
 10
22.4581675643
 20
52.0122581555
 30
0.0
 10
22.4280129367
 20
51.8665087525
 30
0.0
 10
22.428012973
 20
51.7957595441
 30
0.0
  0
SPLINE
  5
2E9
100
AcDbEntity
  8
0
100
AcDbSpline
 62
7
  6
BYLAYER
 70
0
 71
3
 72
16
 73
12
 74
0
 42
0.0000001
 43
0.0000001
 44
0.0000000001
 40
0.0
 40
0.0
 40
0.0
 40
0.0
 40
0.0431888122
 40
0.0877390474
 40
0.1841876207
 40
0.2947864251
 40
0.420406969
 40
0.55861996
 40
0.7049520476
 40
0.8541204471
 40
1.0
 40
1.0
 40
1.0
 40
1.0
 10
34.7260874102
 20
45.5797726776
 30
0.0
 10
34.7362273441
 20
45.5739182166
 30
0.0
 10
34.7555912978
 20
45.5597497683
 30
0.0
 10
34.7892741612
 20
45.5224806259
 30
0.0
 10
34.8190934465
 20
45.4595020425
 30
0.0
 10
34.8327328718
 20
45.3694836601
 30
0.0
 10
34.826059014
 20
45.2675553302
 30
0.0
 10
34.799499652
 20
45.1590919653
 30
0.0
 10
34.7547063406
 20
45.0499351262
 30
0.0
 10
34.6941267669
 20
44.9463281961
 30
0.0
 10
34.644361357
 20
44.8832751482
 30
0.0
 10
34.6175092184
 20
44.8542397924
 30
0.0
  0
SPLINE
  5
2EA
100
AcDbEntity
  8
0
100
AcDbSpline
 62
7
  6
BYLAYER
 70
0
 71
3
 72
16
 73
12
 74
0
 42
0.0000001
 43
0.0000001
 44
0.0000000001
 40
0.0
 40
0.0
 40
0.0
 40
0.0
 40
0.0431888122
 40
0.0877390474
 40
0.1841876207
 40
0.2947864251
 40
0.420406969
 40
0.55861996
 40
0.7049520476
 40
0.8541204471
 40
1.0
 40
1.0
 40
1.0
 40
1.0
 10
20.4424709622
 20
53.8262359189
 30
0.0
 10
20.4526108961
 20
53.8203814579
 30
0.0
 10
20.4719748498
 20
53.8062130096
 30
0.0
 10
20.5056577132
 20
53.7689438672
 30
0.0
 10
20.5354769986
 20
53.7059652838
 30
0.0
 10
20.5491164238
 20
53.6159469014
 30
0.0
 10
20.542442566
 20
53.5140185715
 30
0.0
 10
20.515883204
 20
53.4055552066
 30
0.0
 10
20.4710898926
 20
53.2963983675
 30
0.0
 10
20.4105103189
 20
53.1927914374
 30
0.0
 10
20.360744909
 20
53.1297383895
 30
0.0
 10
20.3338927705
 20
53.1007030337
 30
0.0
  0
SPLINE
  5
2EB
100
AcDbEntity
  8
0
100
AcDbSpline
 62
7
  6
BYLAYER
 70
0
 71
3
 72
9
 73
5
 74
0
 42
0.0000001
 43
0.0000001
 44
0.0000000001
 40
0.0
 40
0.0
 40
0.0
 40
0.0
 40
0.4773852748
 40
1.0
 40
1.0
 40
1.0
 40
1.0
 10
43.6331449662
 20
33.2871542495
 30
0.0
 10
43.6331449662
 20
33.3098063973
 30
0.0
 10
43.6275429686
 20
33.3573012281
 30
0.0
 10
43.6136946728
 20
33.4029186795
 30
0.0
 10
43.6047245443
 20
33.4260377791
 30
0.0
  0
SPLINE
  5
2EC
100
AcDbEntity
  8
0
100
AcDbSpline
 62
7
  6
BYLAYER
 70
0
 71
3
 72
11
 73
7
 74
0
 42
0.0000001
 43
0.0000001
 44
0.0000000001
 40
0.0
 40
0.0
 40
0.0
 40
0.0
 40
0.2846955339
 40
0.5428119976
 40
0.7779540123
 40
1.0
 40
1.0
 40
1.0
 40
1.0
 10
31.5589490088
 20
45.2314999604
 30
0.0
 10
31.5407502883
 20
45.2192161981
 30
0.0
 10
31.5078133485
 20
45.1929613569
 30
0.0
 10
31.4688562686
 20
45.1466890622
 30
0.0
 10
31.4445369654
 20
45.0964479074
 30
0.0
 10
31.4389108275
 20
45.0609872288
 30
0.0
 10
31.4389221495
 20
45.0438625022
 30
0.0
  0
SPLINE
  5
2ED
100
AcDbEntity
  8
0
100
AcDbSpline
 62
7
  6
BYLAYER
 70
0
 71
3
 72
9
 73
5
 74
0
 42
0.0000001
 43
0.0000001
 44
0.0000000001
 40
0.0
 40
0.0
 40
0.0
 40
0.0
 40
0.2590033821
 40
1.0
 40
1.0
 40
1.0
 40
1.0
 10
23.287218658
 20
50.1188698511
 30
0.0
 10
23.3978107647
 20
50.1848115548
 30
0.0
 10
23.819885507
 20
50.4474703985
 30
0.0
 10
24.2216975617
 20
50.7434118068
 30
0.0
 10
24.5018732491
 20
50.9825790472
 30
0.0
  0
SPLINE
  5
2EE
100
AcDbEntity
  8
0
100
AcDbSpline
 62
7
  6
BYLAYER
 70
0
 71
3
 72
11
 73
7
 74
0
 42
0.0000001
 43
0.0000001
 44
0.0000000001
 40
0.0
 40
0.0
 40
0.0
 40
0.0
 40
0.2177026661
 40
0.4508732196
 40
0.7105641163
 40
1.0
 40
1.0
 40
1.0
 40
1.0
 10
38.0327346127
 20
46.4519633209
 30
0.0
 10
38.0327458362
 20
46.432926749
 30
0.0
 10
38.0257298155
 20
46.3932331032
 30
0.0
 10
37.9956329655
 20
46.3378971395
 30
0.0
 10
37.948010392
 20
46.2879465829
 30
0.0
 10
37.9082323033
 20
46.2604975903
 30
0.0
 10
37.8863139096
 20
46.2478430753
 30
0.0
  0
SPLINE
  5
2EF
100
AcDbEntity
  8
0
100
AcDbSpline
 62
7
  6
BYLAYER
 70
0
 71
3
 72
19
 73
15
 74
0
 42
0.0000001
 43
0.0000001
 44
0.0000000001
 40
0.0
 40
0.0
 40
0.0
 40
0.0
 40
0.1181731096
 40
0.1748821757
 40
0.2305596681
 40
0.2862007351
 40
0.3429360492
 40
0.4016436173
 40
0.4627050015
 40
0.5260437041
 40
0.591314466
 40
0.725687284
 40
0.8627924293
 40
1.0
 40
1.0
 40
1.0
 40
1.0
 10
22.428012973
 20
51.7957595441
 30
0.0
 10
22.4280129966
 20
51.7494973345
 30
0.0
 10
22.4375899339
 20
51.6799334211
 30
0.0
 10
22.4757427674
 20
51.5974867492
 30
0.0
 10
22.5163837063
 20
51.5449586082
 30
0.0
 10
22.5686341161
 20
51.5038711863
 30
0.0
 10
22.6303904476
 20
51.4763279113
 30
0.0
 10
22.6987454502
 20
51.4630825277
 30
0.0
 10
22.7708265014
 20
51.4636143122
 30
0.0
 10
22.8442262172
 20
51.4766900854
 30
0.0
 10
22.9422158846
 20
51.5091641329
 30
0.0
 10
23.0585808022
 20
51.5736376652
 30
0.0
 10
23.1814428928
 20
51.67731942
 30
0.0
 10
23.2507478576
 20
51.7601689967
 30
0.0
 10
23.2815670327
 20
51.804161604
 30
0.0
  0
SPLINE
  5
2F0
100
AcDbEntity
  8
0
100
AcDbSpline
 62
7
  6
BYLAYER
 70
0
 71
3
 72
17
 73
13
 74
0
 42
0.0000001
 43
0.0000001
 44
0.0000000001
 40
0.0
 40
0.0
 40
0.0
 40
0.0
 40
0.0428607106
 40
0.0874906404
 40
0.1353204731
 40
0.1872841483
 40
0.3045402024
 40
0.4382013151
 40
0.5825447997
 40
0.7296950337
 40
0.8713140048
 40
1.0
 40
1.0
 40
1.0
 40
1.0
 10
22.4280339734
 20
50.3196746063
 30
0.0
 10
22.4280356478
 20
50.3054407053
 30
0.0
 10
22.4318140153
 20
50.2762571995
 30
0.0
 10
22.4485743914
 20
50.2341359989
 30
0.0
 10
22.4757086036
 20
50.194184017
 30
0.0
 10
22.5268423206
 20
50.1429011551
 30
0.0
 10
22.6139268233
 20
50.0898727712
 30
0.0
 10
22.7391620181
 20
50.0480398445
 30
0.0
 10
22.8796993187
 20
50.0282938106
 30
0.0
 10
23.0241641571
 20
50.0322760695
 30
0.0
 10
23.1607460292
 20
50.0596143484
 30
0.0
 10
23.24455683
 20
50.094186176
 30
0.0
 10
23.2815675164
 20
50.1155541782
 30
0.0
  0
SPLINE
  5
2F1
100
AcDbEntity
  8
0
100
AcDbSpline
 62
7
  6
BYLAYER
 70
0
 71
3
 72
9
 73
5
 74
0
 42
0.0000001
 43
0.0000001
 44
0.0000000001
 40
0.0
 40
0.0
 40
0.0
 40
0.0
 40
0.2550589895
 40
1.0
 40
1.0
 40
1.0
 40
1.0
 10
18.1703075093
 20
54.6972708134
 30
0.0
 10
18.0879014008
 20
54.6595426897
 30
0.0
 10
17.7664725663
 20
54.5080440278
 30
0.0
 10
17.4518436512
 20
54.3420044978
 30
0.0
 10
17.2226014423
 20
54.2096522368
 30
0.0
  0
SPLINE
  5
2F2
100
AcDbEntity
  8
0
100
AcDbSpline
 62
7
  6
BYLAYER
 70
0
 71
3
 72
11
 73
7
 74
0
 42
0.0000001
 43
0.0000001
 44
0.0000000001
 40
0.0
 40
0.0
 40
0.0
 40
0.0
 40
0.2895396729
 40
0.5491163863
 40
0.7822545095
 40
1.0
 40
1.0
 40
1.0
 40
1.0
 10
35.4306786312
 20
44.9222116863
 30
0.0
 10
35.4526049488
 20
44.9348707761
 30
0.0
 10
35.4962598526
 20
44.9556109199
 30
0.0
 10
35.5633310567
 20
44.9718458338
 30
0.0
 10
35.6262959988
 20
44.9702646624
 30
0.0
 10
35.6641708629
 20
44.9564714331
 30
0.0
 10
35.6806604013
 20
44.9469514002
 30
0.0
  0
SPLINE
  5
2F3
100
AcDbEntity
  8
0
100
AcDbSpline
 62
7
  6
BYLAYER
 70
0
 71
3
 72
11
 73
7
 74
0
 42
0.0000001
 43
0.0000001
 44
0.0000000001
 40
0.0
 40
0.0
 40
0.0
 40
0.0
 40
0.2846955339
 40
0.5428119976
 40
0.7779540123
 40
1.0
 40
1.0
 40
1.0
 40
1.0
 10
16.6389338081
 20
53.8453798808
 30
0.0
 10
16.6207350877
 20
53.8330961185
 30
0.0
 10
16.5877981479
 20
53.8068412772
 30
0.0
 10
16.548841068
 20
53.7605689826
 30
0.0
 10
16.5245217648
 20
53.7103278278
 30
0.0
 10
16.5188956269
 20
53.6748671492
 30
0.0
 10
16.5189069489
 20
53.6577424225
 30
0.0
  0
SPLINE
  5
2F4
100
AcDbEntity
  8
0
100
AcDbSpline
 62
7
  6
BYLAYER
 70
0
 71
3
 72
9
 73
5
 74
0
 42
0.0000001
 43
0.0000001
 44
0.0000000001
 40
0.0
 40
0.0
 40
0.0
 40
0.0
 40
0.5226147252
 40
1.0
 40
1.0
 40
1.0
 40
1.0
 10
14.9004854936
 20
56.0402488505
 30
0.0
 10
14.9303859221
 20
55.9631851852
 30
0.0
 10
14.976546908
 20
55.8111270138
 30
0.0
 10
14.9952202335
 20
55.6528109113
 30
0.0
 10
14.9952202335
 20
55.5773037517
 30
0.0
  0
SPLINE
  5
2F5
100
AcDbEntity
  8
0
100
AcDbSpline
 62
7
  6
BYLAYER
 70
0
 71
3
 72
9
 73
5
 74
0
 42
0.0000001
 43
0.0000001
 44
0.0000000001
 40
0.0
 40
0.0
 40
0.0
 40
0.0
 40
0.5226147252
 40
1.0
 40
1.0
 40
1.0
 40
1.0
 10
40.8160569203
 20
41.0782251973
 30
0.0
 10
40.8459573487
 20
41.0011615321
 30
0.0
 10
40.8921183346
 20
40.8491033606
 30
0.0
 10
40.9107916602
 20
40.6907872581
 30
0.0
 10
40.9107916602
 20
40.6152800985
 30
0.0
  0
SPLINE
  5
2F6
100
AcDbEntity
  8
0
100
AcDbSpline
 62
7
  6
BYLAYER
 70
0
 71
3
 72
11
 73
7
 74
0
 42
0.0000001
 43
0.0000001
 44
0.0000000001
 40
0.0
 40
0.0
 40
0.0
 40
0.0
 40
0.2895396729
 40
0.5491163863
 40
0.7822545095
 40
1.0
 40
1.0
 40
1.0
 40
1.0
 10
21.1470621833
 20
53.1686749276
 30
0.0
 10
21.1689885009
 20
53.1813340174
 30
0.0
 10
21.2126434047
 20
53.2020741612
 30
0.0
 10
21.2797146087
 20
53.2183090751
 30
0.0
 10
21.3426795508
 20
53.2167279037
 30
0.0
 10
21.3805544149
 20
53.2029346744
 30
0.0
 10
21.3970439533
 20
53.1934146415
 30
0.0
  0
SPLINE
  5
2F7
100
AcDbEntity
  8
0
100
AcDbSpline
 62
7
  6
BYLAYER
 70
0
 71
3
 72
15
 73
11
 74
0
 42
0.0000001
 43
0.0000001
 44
0.0000000001
 40
0.0
 40
0.0
 40
0.0
 40
0.0
 40
0.1141242661
 40
0.2373486253
 40
0.3669740476
 40
0.5000015346
 40
0.6330288076
 40
0.7626536034
 40
0.8858770013
 40
1.0
 40
1.0
 40
1.0
 40
1.0
 10
37.4813468816
 20
19.3658651711
 30
0.0
 10
37.4813468816
 20
19.4217456598
 30
0.0
 10
37.4916072319
 20
19.5380681395
 30
0.0
 10
37.5323889698
 20
19.7135478038
 30
0.0
 10
37.5977978797
 20
19.8912959413
 30
0.0
 10
37.6852817835
 20
20.0646220494
 30
0.0
 10
37.7916436614
 20
20.2270486651
 30
0.0
 10
37.9128724289
 20
20.372568357
 30
0.0
 10
38.0444500846
 20
20.4956255923
 30
0.0
 10
38.1400572613
 20
20.5626719331
 30
0.0
 10
38.1884507188
 20
20.5906117421
 30
0.0
  0
SPLINE
  5
2F8
100
AcDbEntity
  8
0
100
AcDbSpline
 62
7
  6
BYLAYER
 70
0
 71
3
 72
19
 73
15
 74
0
 42
0.0000001
 43
0.0000001
 44
0.0000000001
 40
0.0
 40
0.0
 40
0.0
 40
0.0
 40
0.1258252001
 40
0.1858458359
 40
0.2437192254
 40
0.3000501713
 40
0.3561279318
 40
0.4133719822
 40
0.4726344615
 40
0.5340778621
 40
0.597464645
 40
0.7284532675
 40
0.863266381
 40
1.0
 40
1.0
 40
1.0
 40
1.0
 10
36.2680092219
 20
45.0086265725
 30
0.0
 10
36.2680074872
 20
44.9581926284
 30
0.0
 10
36.276291756
 20
44.8827647725
 30
0.0
 10
36.3119721833
 20
44.7912313133
 30
0.0
 10
36.3512425844
 20
44.7326415235
 30
0.0
 10
36.403471556
 20
44.6872959805
 30
0.0
 10
36.4663450089
 20
44.6589682695
 30
0.0
 10
36.5355495188
 20
44.648808511
 30
0.0
 10
36.6071166102
 20
44.6551651712
 30
0.0
 10
36.6784386079
 20
44.6753952498
 30
0.0
 10
36.7720414092
 20
44.7179724488
 30
0.0
 10
36.8810331751
 20
44.7942566692
 30
0.0
 10
36.99539404
 20
44.9088753889
 30
0.0
 10
37.0605168888
 20
44.9966132683
 30
0.0
 10
37.0901734058
 20
45.0427025654
 30
0.0
  0
SPLINE
  5
2F9
100
AcDbEntity
  8
0
100
AcDbSpline
 62
7
  6
BYLAYER
 70
0
 71
3
 72
16
 73
12
 74
0
 42
0.0000001
 43
0.0000001
 44
0.0000000001
 40
0.0
 40
0.0
 40
0.0
 40
0.0
 40
0.0434522292
 40
0.0880715632
 40
0.1843646798
 40
0.2943822597
 40
0.4191102263
 40
0.5565205168
 40
0.7026121492
 40
0.8522548743
 40
1.0
 40
1.0
 40
1.0
 40
1.0
 10
36.2680339803
 20
42.4465303664
 30
0.0
 10
36.2680406927
 20
42.4351355088
 30
0.0
 10
36.2704438579
 20
42.4119753325
 30
0.0
 10
36.2849766686
 20
42.3655692807
 30
0.0
 10
36.3223537213
 20
42.3097592845
 30
0.0
 10
36.3897547343
 20
42.25376585
 30
0.0
 10
36.47694186
 20
42.2085802014
 30
0.0
 10
36.5794913752
 20
42.1763331621
 30
0.0
 10
36.6920676778
 20
42.1585753853
 30
0.0
 10
36.808669513
 20
42.1561724589
 30
0.0
 10
36.886445834
 20
42.1651187325
 30
0.0
 10
36.9245072833
 20
42.1723618313
 30
0.0
  0
SPLINE
  5
2FA
100
AcDbEntity
  8
0
100
AcDbSpline
 62
7
  6
BYLAYER
 70
0
 71
3
 72
9
 73
5
 74
0
 42
0.0000001
 43
0.0000001
 44
0.0000000001
 40
0.0
 40
0.0
 40
0.0
 40
0.0
 40
0.2366277911
 40
1.0
 40
1.0
 40
1.0
 40
1.0
 10
18.9607363795
 20
54.552372795
 30
0.0
 10
18.9574531738
 20
54.5588252996
 30
0.0
 10
18.9421528051
 20
54.5853671682
 30
0.0
 10
18.9216648201
 20
54.6087262193
 30
0.0
 10
18.9044751478
 20
54.6245379227
 30
0.0
  0
SPLINE
  5
2FB
100
AcDbEntity
  8
0
100
AcDbSpline
 62
7
  6
BYLAYER
 70
0
 71
3
 72
14
 73
10
 74
0
 42
0.0000001
 43
0.0000001
 44
0.0000000001
 40
0.0
 40
0.0
 40
0.0
 40
0.0
 40
0.1040830972
 40
0.2198039583
 40
0.345358832
 40
0.4777715515
 40
0.7476567476
 40
0.8779937527
 40
1.0
 40
1.0
 40
1.0
 40
1.0
 10
18.9044751478
 20
54.6245379227
 30
0.0
 10
18.8847571164
 20
54.6426753055
 30
0.0
 10
18.8383853399
 20
54.6759304616
 30
0.0
 10
18.7576789322
 20
54.7140176698
 30
0.0
 10
18.6652002126
 20
54.7417021356
 30
0.0
 10
18.530783692
 20
54.7631980967
 30
0.0
 10
18.3920548566
 20
54.7602336277
 30
0.0
 10
18.260277759
 20
54.7324023721
 30
0.0
 10
18.1988617408
 20
54.7103438441
 30
0.0
 10
18.1703075093
 20
54.6972708134
 30
0.0
  0
SPLINE
  5
2FC
100
AcDbEntity
  8
0
100
AcDbSpline
 62
7
  6
BYLAYER
 70
0
 71
3
 72
11
 73
7
 74
0
 42
0.0000001
 43
0.0000001
 44
0.0000000001
 40
0.0
 40
0.0
 40
0.0
 40
0.0
 40
0.2893403608
 40
0.5489993027
 40
0.7821108892
 40
1.0
 40
1.0
 40
1.0
 40
1.0
 10
42.7846203616
 20
32.7972612648
 30
0.0
 10
42.7846203616
 20
32.7820802374
 30
0.0
 10
42.782282962
 20
32.7531826686
 30
0.0
 10
42.7706291936
 20
32.7134590199
 30
0.0
 10
42.7509190213
 20
32.681201244
 30
0.0
 10
42.7323824201
 20
32.6656500699
 30
0.0
 10
42.7224750658
 20
32.6599458399
 30
0.0
  0
SPLINE
  5
2FD
100
AcDbEntity
  8
0
100
AcDbSpline
 62
7
  6
BYLAYER
 70
0
 71
3
 72
9
 73
5
 74
0
 42
0.0000001
 43
0.0000001
 44
0.0000000001
 40
0.0
 40
0.0
 40
0.0
 40
0.0
 40
0.5226147252
 40
1.0
 40
1.0
 40
1.0
 40
1.0
 10
42.7561999396
 20
32.9361447944
 30
0.0
 10
42.7651700681
 20
32.9130256948
 30
0.0
 10
42.7790183639
 20
32.8674082434
 30
0.0
 10
42.7846203616
 20
32.8199134127
 30
0.0
 10
42.7846203616
 20
32.7972612648
 30
0.0
  0
SPLINE
  5
2FE
100
AcDbEntity
  8
0
100
AcDbSpline
 62
7
  6
BYLAYER
 70
0
 71
3
 72
9
 73
5
 74
0
 42
0.0000001
 43
0.0000001
 44
0.0000000001
 40
0.0
 40
0.0
 40
0.0
 40
0.0
 40
0.2550182481
 40
1.0
 40
1.0
 40
1.0
 40
1.0
 10
33.0816043371
 20
46.0793952138
 30
0.0
 10
32.9999816159
 20
46.0419483445
 30
0.0
 10
32.6815477969
 20
45.8915902499
 30
0.0
 10
32.3698098628
 20
45.7269416001
 30
0.0
 10
32.1426166429
 20
45.5957723165
 30
0.0
  0
SPLINE
  5
2FF
100
AcDbEntity
  8
0
100
AcDbSpline
 62
7
  6
BYLAYER
 70
0
 71
3
 72
10
 73
6
 74
0
 42
0.0000001
 43
0.0000001
 44
0.0000000001
 40
0.0
 40
0.0
 40
0.0
 40
0.0
 40
0.3393023521
 40
0.6726902796
 40
1.0
 40
1.0
 40
1.0
 40
1.0
 10
18.7916519795
 20
50.1623895953
 30
0.0
 10
18.7966129537
 20
50.1646608863
 30
0.0
 10
18.8063826824
 20
50.1693094052
 30
0.0
 10
18.8206857715
 20
50.1766635953
 30
0.0
 10
18.8299764116
 20
50.1818221247
 30
0.0
 10
18.834534607
 20
50.1844537843
 30
0.0
  0
SPLINE
  5
300
100
AcDbEntity
  8
0
100
AcDbSpline
 62
7
  6
BYLAYER
 70
0
 71
3
 72
16
 73
12
 74
0
 42
0.0000001
 43
0.0000001
 44
0.0000000001
 40
0.0
 40
0.0
 40
0.0
 40
0.0
 40
0.1039841042
 40
0.1899974122
 40
0.270170017
 40
0.3608598914
 40
0.4702883841
 40
0.5970587831
 40
0.7341052024
 40
0.8717225426
 40
1.0
 40
1.0
 40
1.0
 40
1.0
 10
18.834534607
 20
50.1844537843
 30
0.0
 10
18.8707703046
 20
50.2053743492
 30
0.0
 10
18.9330354713
 20
50.2523697082
 30
0.0
 10
18.9878863434
 20
50.3521871265
 30
0.0
 10
18.9757856388
 20
50.4612324428
 30
0.0
 10
18.9032914168
 20
50.5528664008
 30
0.0
 10
18.7896122831
 20
50.6222369641
 30
0.0
 10
18.644862267
 20
50.6668003671
 30
0.0
 10
18.4830813447
 20
50.6824535021
 30
0.0
 10
18.3207336322
 20
50.6675737844
 30
0.0
 10
18.2172391877
 20
50.6362455351
 30
0.0
 10
18.1703075093
 20
50.6147587278
 30
0.0
  0
SPLINE
  5
301
100
AcDbEntity
  8
0
100
AcDbSpline
 62
7
  6
BYLAYER
 70
0
 71
3
 72
10
 73
6
 74
0
 42
0.0000001
 43
0.0000001
 44
0.0000000001
 40
0.0
 40
0.0
 40
0.0
 40
0.0
 40
0.3393023521
 40
0.6726902797
 40
1.0
 40
1.0
 40
1.0
 40
1.0
 10
18.1703075093
 20
50.6147587278
 30
0.0
 10
18.0606699791
 20
50.5645631976
 30
0.0
 10
17.844758976
 20
50.4618309284
 30
0.0
 10
17.5286607055
 20
50.2993033281
 30
0.0
 10
17.3233375594
 20
50.1852998283
 30
0.0
 10
17.2226014423
 20
50.1271401512
 30
0.0
  0
SPLINE
  5
302
100
AcDbEntity
  8
0
100
AcDbSpline
 62
7
  6
BYLAYER
 70
0
 71
3
 72
16
 73
12
 74
0
 42
0.0000001
 43
0.0000001
 44
0.0000000001
 40
0.0
 40
0.0
 40
0.0
 40
0.0
 40
0.0991641024
 40
0.1821182842
 40
0.2635419563
 40
0.3588921686
 40
0.4735459676
 40
0.6039922577
 40
0.7419325686
 40
0.8771490912
 40
1.0
 40
1.0
 40
1.0
 40
1.0
 10
16.6389338081
 20
49.7628677951
 30
0.0
 10
16.6053972063
 20
49.740231278
 30
0.0
 10
16.5482647943
 20
49.6895310511
 30
0.0
 10
16.507944633
 20
49.5833705556
 30
0.0
 10
16.5385549068
 20
49.4753354165
 30
0.0
 10
16.6249526974
 20
49.3889411273
 30
0.0
 10
16.7502108549
 20
49.3254945911
 30
0.0
 10
16.9033917901
 20
49.2889061242
 30
0.0
 10
17.0689811829
 20
49.2826521845
 30
0.0
 10
17.2295888427
 20
49.3074980895
 30
0.0
 10
17.3290433285
 20
49.3460470355
 30
0.0
 10
17.3724538335
 20
49.3711099526
 30
0.0
  0
SPLINE
  5
303
100
AcDbEntity
  8
0
100
AcDbSpline
 62
7
  6
BYLAYER
 70
0
 71
3
 72
10
 73
6
 74
0
 42
0.0000001
 43
0.0000001
 44
0.0000000001
 40
0.0
 40
0.0
 40
0.0
 40
0.0
 40
0.3273097204
 40
0.6606976479
 40
1.0
 40
1.0
 40
1.0
 40
1.0
 10
17.9297111675
 20
49.7188993967
 30
0.0
 10
18.0213308938
 20
49.7717957546
 30
0.0
 10
18.2080727598
 20
49.8754821956
 30
0.0
 10
18.495564852
 20
50.0233014157
 30
0.0
 10
18.6919363977
 20
50.116736647
 30
0.0
 10
18.7916519795
 20
50.1623895953
 30
0.0
  0
SPLINE
  5
304
100
AcDbEntity
  8
0
100
AcDbSpline
 62
7
  6
BYLAYER
 70
0
 71
3
 72
26
 73
22
 74
0
 42
0.0000001
 43
0.0000001
 44
0.0000000001
 40
0.0
 40
0.0
 40
0.0
 40
0.0
 40
0.0816690319
 40
0.1586674246
 40
0.2289357953
 40
0.2904487918
 40
0.3431091215
 40
0.3880387513
 40
0.4266869183
 40
0.4609042237
 40
0.4922328551
 40
0.5224278511
 40
0.5531747172
 40
0.5861940853
 40
0.6232320526
 40
0.6660999785
 40
0.7163945078
 40
0.7754606842
 40
0.8435312102
 40
0.9190062067
 40
1.0
 40
1.0
 40
1.0
 40
1.0
 10
17.5549629331
 20
56.2073948141
 30
0.0
 10
17.5312866292
 20
56.1651973584
 30
0.0
 10
17.489869316
 20
56.0805386384
 30
0.0
 10
17.4443865088
 20
55.9524509648
 30
0.0
 10
17.4169627433
 20
55.8315131232
 30
0.0
 10
17.4064520248
 20
55.7224240299
 30
0.0
 10
17.4104994805
 20
55.6279132002
 30
0.0
 10
17.4264086715
 20
55.5484125381
 30
0.0
 10
17.4519134514
 20
55.483025663
 30
0.0
 10
17.4853989629
 20
55.4306379007
 30
0.0
 10
17.5259310327
 20
55.3902660067
 30
0.0
 10
17.5729702504
 20
55.3614302206
 30
0.0
 10
17.6263971912
 20
55.3441012135
 30
0.0
 10
17.6863515702
 20
55.3388157407
 30
0.0
 10
17.7532064092
 20
55.3467558168
 30
0.0
 10
17.8272190903
 20
55.3698145839
 30
0.0
 10
17.9081541304
 20
55.4104043139
 30
0.0
 10
17.9945780179
 20
55.4708336174
 30
0.0
 10
18.0833055352
 20
55.552166099
 30
0.0
 10
18.1699498579
 20
55.6534995529
 30
0.0
 10
18.2218164457
 20
55.7306258792
 30
0.0
 10
18.2463217409
 20
55.7718827488
 30
0.0
  0
SPLINE
  5
305
100
AcDbEntity
  8
0
100
AcDbSpline
 62
7
  6
BYLAYER
 70
0
 71
3
 72
16
 73
12
 74
0
 42
0.0000001
 43
0.0000001
 44
0.0000000001
 40
0.0
 40
0.0
 40
0.0
 40
0.0
 40
0.1048277404
 40
0.1902077334
 40
0.2703631134
 40
0.3621515736
 40
0.4732623685
 40
0.6014380251
 40
0.7387991124
 40
0.8750273921
 40
1.0
 40
1.0
 40
1.0
 40
1.0
 10
17.5567322619
 20
54.2313543954
 30
0.0
 10
17.5192164067
 20
54.209731095
 30
0.0
 10
17.4550890504
 20
54.1614568418
 30
0.0
 10
17.4000739629
 20
54.0577289164
 30
0.0
 10
17.4166269076
 20
53.94585033
 30
0.0
 10
17.4952300892
 20
53.8538136148
 30
0.0
 10
17.6155026108
 20
53.7853595639
 30
0.0
 10
17.7666941502
 20
53.7434410304
 30
0.0
 10
17.9333349865
 20
53.7321538958
 30
0.0
 10
18.0976407093
 20
53.752750965
 30
0.0
 10
18.2006916528
 20
53.7889603259
 30
0.0
 10
18.2463217409
 20
53.8131013577
 30
0.0
  0
SPLINE
  5
306
100
AcDbEntity
  8
0
100
AcDbSpline
 62
7
  6
BYLAYER
 70
0
 71
3
 72
16
 73
12
 74
0
 42
0.0000001
 43
0.0000001
 44
0.0000000001
 40
0.0
 40
0.0
 40
0.0
 40
0.0
 40
0.1228394961
 40
0.2580461261
 40
0.3959807592
 40
0.5264267277
 40
0.6410847127
 40
0.7364409976
 40
0.8178696437
 40
0.9008280987
 40
1.0
 40
1.0
 40
1.0
 40
1.0
 10
17.3724538335
 20
53.2903215549
 30
0.0
 10
17.3290473728
 20
53.2652609727
 30
0.0
 10
17.2296018409
 20
53.2267139587
 30
0.0
 10
17.0690058552
 20
53.2018657539
 30
0.0
 10
16.9034229196
 20
53.2081139049
 30
0.0
 10
16.7502412791
 20
53.2446954212
 30
0.0
 10
16.6249759511
 20
53.3081363654
 30
0.0
 10
16.5385667139
 20
53.3945272636
 30
0.0
 10
16.5079424664
 20
53.5025655538
 30
0.0
 10
16.5482582992
 20
53.6087367487
 30
0.0
 10
16.6053945776
 20
53.6594411059
 30
0.0
 10
16.6389338081
 20
53.6820793973
 30
0.0
  0
LINE
  5
307
100
AcDbEntity
  8
0
100
AcDbLine
 62
7
  6
BYLAYER
 10
17.5707155554
 20
54.2387540882
 11
17.5549652644
 21
54.2304050468
  0
SPLINE
  5
308
100
AcDbEntity
  8
0
100
AcDbSpline
 62
7
  6
BYLAYER
 70
0
 71
3
 72
16
 73
12
 74
0
 42
0.0000001
 43
0.0000001
 44
0.0000000001
 40
0.0
 40
0.0
 40
0.0
 40
0.0
 40
0.1282659226
 40
0.2658738103
 40
0.4029152559
 40
0.529685893
 40
0.6391186257
 40
0.7298139348
 40
0.8099905618
 40
0.8960078564
 40
1.0
 40
1.0
 40
1.0
 40
1.0
 10
18.1703075093
 20
57.0651278231
 30
0.0
 10
18.2172349562
 20
57.0866126931
 30
0.0
 10
18.320720673
 20
57.1179396073
 30
0.0
 10
18.4830574636
 20
57.1328221169
 30
0.0
 10
18.6448330193
 20
57.1171748398
 30
0.0
 10
18.7895846842
 20
57.0726180659
 30
0.0
 10
18.9032712741
 20
57.0032526458
 30
0.0
 10
18.9757773912
 20
56.9116216185
 30
0.0
 10
18.9878910187
 20
56.8025715585
 30
0.0
 10
18.9330422101
 20
56.7027439848
 30
0.0
 10
18.8707730974
 20
56.6557450569
 30
0.0
 10
18.834534607
 20
56.6348228796
 30
0.0
  0
SPLINE
  5
309
100
AcDbEntity
  8
0
100
AcDbSpline
 62
7
  6
BYLAYER
 70
0
 71
3
 72
10
 73
6
 74
0
 42
0.0000001
 43
0.0000001
 44
0.0000000001
 40
0.0
 40
0.0
 40
0.0
 40
0.0
 40
0.3273101838
 40
0.6606971581
 40
1.0
 40
1.0
 40
1.0
 40
1.0
 10
18.834534607
 20
56.6348228796
 30
0.0
 10
18.8299764051
 20
56.6321912163
 30
0.0
 10
18.820685772
 20
56.6270326903
 30
0.0
 10
18.8063826827
 20
56.6196785002
 30
0.0
 10
18.7966129606
 20
56.6150299847
 30
0.0
 10
18.7916519792
 20
56.6127586905
 30
0.0
  0
SPLINE
  5
30A
100
AcDbEntity
  8
0
100
AcDbSpline
 62
7
  6
BYLAYER
 70
0
 71
3
 72
10
 73
6
 74
0
 42
0.0000001
 43
0.0000001
 44
0.0000000001
 40
0.0
 40
0.0
 40
0.0
 40
0.0
 40
0.3393023521
 40
0.6726902796
 40
1.0
 40
1.0
 40
1.0
 40
1.0
 10
33.7116671801
 20
41.5485096749
 30
0.0
 10
33.7166281543
 20
41.5507809659
 30
0.0
 10
33.726397883
 20
41.5554294848
 30
0.0
 10
33.7407009721
 20
41.5627836749
 30
0.0
 10
33.7499916122
 20
41.5679422043
 30
0.0
 10
33.7545498076
 20
41.5705738639
 30
0.0
  0
SPLINE
  5
30B
100
AcDbEntity
  8
0
100
AcDbSpline
 62
7
  6
BYLAYER
 70
0
 71
3
 72
16
 73
12
 74
0
 42
0.0000001
 43
0.0000001
 44
0.0000000001
 40
0.0
 40
0.0
 40
0.0
 40
0.0
 40
0.1039841042
 40
0.1899974122
 40
0.270170017
 40
0.3608598914
 40
0.4702883841
 40
0.5970587831
 40
0.7341052024
 40
0.8717225426
 40
1.0
 40
1.0
 40
1.0
 40
1.0
 10
33.7545498076
 20
41.5705738639
 30
0.0
 10
33.7907855053
 20
41.5914944288
 30
0.0
 10
33.8530506719
 20
41.6384897878
 30
0.0
 10
33.907901544
 20
41.7383072062
 30
0.0
 10
33.8958008394
 20
41.8473525225
 30
0.0
 10
33.8233066174
 20
41.9389864804
 30
0.0
 10
33.7096274837
 20
42.0083570437
 30
0.0
 10
33.5648774676
 20
42.0529204467
 30
0.0
 10
33.4030965453
 20
42.0685735817
 30
0.0
 10
33.2407488328
 20
42.053693864
 30
0.0
 10
33.1372543883
 20
42.0223656147
 30
0.0
 10
33.0903227099
 20
42.0008788074
 30
0.0
  0
SPLINE
  5
30C
100
AcDbEntity
  8
0
100
AcDbSpline
 62
7
  6
BYLAYER
 70
0
 71
3
 72
10
 73
6
 74
0
 42
0.0000001
 43
0.0000001
 44
0.0000000001
 40
0.0
 40
0.0
 40
0.0
 40
0.0
 40
0.3393023521
 40
0.6726902797
 40
1.0
 40
1.0
 40
1.0
 40
1.0
 10
33.0903227099
 20
42.0008788074
 30
0.0
 10
32.9806851797
 20
41.9506832772
 30
0.0
 10
32.7647741766
 20
41.847951008
 30
0.0
 10
32.4486759061
 20
41.6854234077
 30
0.0
 10
32.24335276
 20
41.5714199079
 30
0.0
 10
32.1426166429
 20
41.5132602308
 30
0.0
  0
SPLINE
  5
30D
100
AcDbEntity
  8
0
100
AcDbSpline
 62
7
  6
BYLAYER
 70
0
 71
3
 72
16
 73
12
 74
0
 42
0.0000001
 43
0.0000001
 44
0.0000000001
 40
0.0
 40
0.0
 40
0.0
 40
0.0
 40
0.0991641024
 40
0.1821182842
 40
0.2635419563
 40
0.3588921686
 40
0.4735459676
 40
0.6039922577
 40
0.7419325686
 40
0.8771490912
 40
1.0
 40
1.0
 40
1.0
 40
1.0
 10
31.5589490087
 20
41.1489878747
 30
0.0
 10
31.5254124069
 20
41.1263513577
 30
0.0
 10
31.4682799949
 20
41.0756511307
 30
0.0
 10
31.4279598336
 20
40.9694906352
 30
0.0
 10
31.4585701074
 20
40.8614554961
 30
0.0
 10
31.544967898
 20
40.7750612069
 30
0.0
 10
31.6702260555
 20
40.7116146707
 30
0.0
 10
31.8234069907
 20
40.6750262038
 30
0.0
 10
31.9889963835
 20
40.6687722642
 30
0.0
 10
32.1496040433
 20
40.6936181692
 30
0.0
 10
32.2490585291
 20
40.7321671152
 30
0.0
 10
32.2924690341
 20
40.7572300323
 30
0.0
  0
SPLINE
  5
30E
100
AcDbEntity
  8
0
100
AcDbSpline
 62
7
  6
BYLAYER
 70
0
 71
3
 72
10
 73
6
 74
0
 42
0.0000001
 43
0.0000001
 44
0.0000000001
 40
0.0
 40
0.0
 40
0.0
 40
0.0
 40
0.3273097204
 40
0.6606976479
 40
1.0
 40
1.0
 40
1.0
 40
1.0
 10
32.8497263681
 20
41.1050194763
 30
0.0
 10
32.9413460944
 20
41.1579158342
 30
0.0
 10
33.1280879604
 20
41.2616022752
 30
0.0
 10
33.4155800526
 20
41.4094214953
 30
0.0
 10
33.6119515983
 20
41.5028567266
 30
0.0
 10
33.7116671801
 20
41.5485096749
 30
0.0
  0
SPLINE
  5
30F
100
AcDbEntity
  8
0
100
AcDbSpline
 62
7
  6
BYLAYER
 70
0
 71
3
 72
26
 73
22
 74
0
 42
0.0000001
 43
0.0000001
 44
0.0000000001
 40
0.0
 40
0.0
 40
0.0
 40
0.0
 40
0.0816690319
 40
0.1586674247
 40
0.2289357953
 40
0.2904487918
 40
0.3431091215
 40
0.3880387514
 40
0.4266869183
 40
0.4609042237
 40
0.4922328551
 40
0.5224278511
 40
0.5531747172
 40
0.5861940854
 40
0.6232320527
 40
0.6660999786
 40
0.7163945078
 40
0.7754606843
 40
0.8435312103
 40
0.9190062067
 40
1.0
 40
1.0
 40
1.0
 40
1.0
 10
32.4749781337
 20
47.5935148938
 30
0.0
 10
32.4513018298
 20
47.551317438
 30
0.0
 10
32.4098845166
 20
47.4666587181
 30
0.0
 10
32.3644017094
 20
47.3385710444
 30
0.0
 10
32.3369779439
 20
47.2176332028
 30
0.0
 10
32.3264672254
 20
47.1085441096
 30
0.0
 10
32.3305146811
 20
47.0140332798
 30
0.0
 10
32.3464238721
 20
46.9345326177
 30
0.0
 10
32.371928652
 20
46.8691457426
 30
0.0
 10
32.4054141635
 20
46.8167579803
 30
0.0
 10
32.4459462333
 20
46.7763860863
 30
0.0
 10
32.492985451
 20
46.7475503003
 30
0.0
 10
32.5464123918
 20
46.7302212931
 30
0.0
 10
32.6063667708
 20
46.7249358203
 30
0.0
 10
32.6732216098
 20
46.7328758965
 30
0.0
 10
32.7472342909
 20
46.7559346636
 30
0.0
 10
32.828169331
 20
46.7965243935
 30
0.0
 10
32.9145932185
 20
46.856953697
 30
0.0
 10
33.0033207358
 20
46.9382861786
 30
0.0
 10
33.0899650585
 20
47.0396196325
 30
0.0
 10
33.1418316463
 20
47.1167459588
 30
0.0
 10
33.1663369414
 20
47.1580028283
 30
0.0
  0
SPLINE
  5
310
100
AcDbEntity
  8
0
100
AcDbSpline
 62
7
  6
BYLAYER
 70
0
 71
3
 72
16
 73
12
 74
0
 42
0.0000001
 43
0.0000001
 44
0.0000000001
 40
0.0
 40
0.0
 40
0.0
 40
0.0
 40
0.1048277404
 40
0.1902077334
 40
0.2703631134
 40
0.3621515736
 40
0.4732623685
 40
0.6014380251
 40
0.7387991125
 40
0.8750273921
 40
1.0
 40
1.0
 40
1.0
 40
1.0
 10
32.4767474625
 20
45.617474475
 30
0.0
 10
32.4392316073
 20
45.5958511746
 30
0.0
 10
32.3751042511
 20
45.5475769214
 30
0.0
 10
32.3200891635
 20
45.443848996
 30
0.0
 10
32.3366421082
 20
45.3319704096
 30
0.0
 10
32.4152452899
 20
45.2399336944
 30
0.0
 10
32.5355178114
 20
45.1714796435
 30
0.0
 10
32.6867093508
 20
45.12956111
 30
0.0
 10
32.8533501871
 20
45.1182739754
 30
0.0
 10
33.0176559099
 20
45.1388710446
 30
0.0
 10
33.1207068534
 20
45.1750804055
 30
0.0
 10
33.1663369415
 20
45.1992214373
 30
0.0
  0
SPLINE
  5
311
100
AcDbEntity
  8
0
100
AcDbSpline
 62
7
  6
BYLAYER
 70
0
 71
3
 72
16
 73
12
 74
0
 42
0.0000001
 43
0.0000001
 44
0.0000000001
 40
0.0
 40
0.0
 40
0.0
 40
0.0
 40
0.1228394961
 40
0.2580461261
 40
0.3959807592
 40
0.5264267277
 40
0.6410847127
 40
0.7364409976
 40
0.8178696437
 40
0.9008280987
 40
1.0
 40
1.0
 40
1.0
 40
1.0
 10
32.2924690341
 20
44.6764416345
 30
0.0
 10
32.2490625734
 20
44.6513810523
 30
0.0
 10
32.1496170415
 20
44.6128340383
 30
0.0
 10
31.9890210558
 20
44.5879858335
 30
0.0
 10
31.8234381202
 20
44.5942339845
 30
0.0
 10
31.6702564797
 20
44.6308155008
 30
0.0
 10
31.5449911517
 20
44.694256445
 30
0.0
 10
31.4585819145
 20
44.7806473432
 30
0.0
 10
31.427957667
 20
44.8886856334
 30
0.0
 10
31.4682734998
 20
44.9948568283
 30
0.0
 10
31.5254097782
 20
45.0455611856
 30
0.0
 10
31.5589490087
 20
45.0681994769
 30
0.0
  0
LINE
  5
312
100
AcDbEntity
  8
0
100
AcDbLine
 62
7
  6
BYLAYER
 10
32.490730756
 20
45.6248741678
 11
32.474980465
 21
45.6165251264
  0
SPLINE
  5
313
100
AcDbEntity
  8
0
100
AcDbSpline
 62
7
  6
BYLAYER
 70
0
 71
3
 72
16
 73
12
 74
0
 42
0.0000001
 43
0.0000001
 44
0.0000000001
 40
0.0
 40
0.0
 40
0.0
 40
0.0
 40
0.1282659226
 40
0.2658738103
 40
0.4029152559
 40
0.529685893
 40
0.6391186257
 40
0.7298139348
 40
0.8099905618
 40
0.8960078564
 40
1.0
 40
1.0
 40
1.0
 40
1.0
 10
33.0903227099
 20
48.4512479027
 30
0.0
 10
33.1372501568
 20
48.4727327727
 30
0.0
 10
33.2407358736
 20
48.5040596869
 30
0.0
 10
33.4030726642
 20
48.5189421965
 30
0.0
 10
33.5648482199
 20
48.5032949195
 30
0.0
 10
33.7095998848
 20
48.4587381455
 30
0.0
 10
33.8232864747
 20
48.3893727255
 30
0.0
 10
33.8957925918
 20
48.2977416981
 30
0.0
 10
33.9079062193
 20
48.1886916381
 30
0.0
 10
33.8530574107
 20
48.0888640645
 30
0.0
 10
33.790788298
 20
48.0418651365
 30
0.0
 10
33.7545498076
 20
48.0209429592
 30
0.0
  0
SPLINE
  5
314
100
AcDbEntity
  8
0
100
AcDbSpline
 62
7
  6
BYLAYER
 70
0
 71
3
 72
10
 73
6
 74
0
 42
0.0000001
 43
0.0000001
 44
0.0000000001
 40
0.0
 40
0.0
 40
0.0
 40
0.0
 40
0.3273101841
 40
0.6606971587
 40
1.0
 40
1.0
 40
1.0
 40
1.0
 10
33.7545498076
 20
48.0209429592
 30
0.0
 10
33.7499916057
 20
48.0183112959
 30
0.0
 10
33.7407009726
 20
48.0131527699
 30
0.0
 10
33.7263978834
 20
48.0057985798
 30
0.0
 10
33.7166281612
 20
48.0011500644
 30
0.0
 10
33.7116671798
 20
47.9988787701
 30
0.0
  0
ELLIPSE
  5
315
100
AcDbEntity
  8
0
100
AcDbEllipse
 62
7
  6
BYLAYER
 10
15.3487659698
 20
56.1430729323
 30
0.0
 11
7.7916303127
 21
9.6746361627
 31
0.0
 40
0.6561152691
 41
-1.452907158
 42
-1.3393048936
  0
ELLIPSE
  5
316
100
AcDbEntity
  8
0
100
AcDbEllipse
 62
7
  6
BYLAYER
 10
15.3487659698
 20
56.1430729323
 30
0.0
 11
8.5669169109
 21
10.6372865271
 31
0.0
 40
0.6561152691
 41
-1.452907158
 42
-1.3511014475
  0
ELLIPSE
  5
317
100
AcDbEntity
  8
0
100
AcDbEllipse
 62
7
  6
BYLAYER
 10
11.9192958731
 20
56.9449085797
 30
0.0
 11
0.707108364
 21
1.2247439575
 31
0.0
 40
0.5773494077
 41
0.0000064018
 42
0.7853958867
  0
ELLIPSE
  5
318
100
AcDbEntity
  8
0
100
AcDbEllipse
 62
7
  6
BYLAYER
 10
13.9345585898
 20
55.7814224293
 30
0.0
 11
0.707108364
 21
1.2247439575
 31
0.0
 40
0.5773494077
 41
-1.0471911494
 42
0.0000064018
  0
ELLIPSE
  5
319
100
AcDbEntity
  8
0
100
AcDbEllipse
 62
7
  6
BYLAYER
 10
37.2691795196
 20
42.3094775301
 30
0.0
 11
0.707108364
 21
1.2247439575
 31
0.0
 40
0.5773494077
 41
0.0000064018
 42
0.7853958867
  0
ELLIPSE
  5
31A
100
AcDbEntity
  8
0
100
AcDbEllipse
 62
7
  6
BYLAYER
 10
39.8501300164
 20
40.8193987761
 30
0.0
 11
0.707108364
 21
1.2247439575
 31
0.0
 40
0.5773494077
 41
-1.0471911494
 42
0.0000064018
  0
ELLIPSE
  5
31B
100
AcDbEntity
  8
0
100
AcDbEllipse
 62
7
  6
BYLAYER
 10
25.0361639052
 20
51.1207261094
 30
0.0
 11
7.0336291642
 21
12.7066185517
 31
0.0
 40
0.5649401509
 41
1.4499352847
 42
1.5169931179
  0
ELLIPSE
  5
31C
100
AcDbEntity
  8
0
100
AcDbEllipse
 62
7
  6
BYLAYER
 10
39.9561791058
 20
42.506846189
 30
0.0
 11
7.0336291642
 21
12.7066185517
 31
0.0
 40
0.5649401509
 41
1.4499352847
 42
1.5169931179
  0
ENDSEC
  0
SECTION
  2
OBJECTS
  0
DICTIONARY
  5
C
100
AcDbDictionary
280
0
281
1
  3
ACAD_GROUP
350
D
  3
ACAD_MLINESTYLE
350
17
  3
ACAD_LAYOUT
350
1A
  3
ACAD_PLOTSETTINGS
350
19
  3
ACAD_PLOTSTYLENAME
350
E
  0
DICTIONARY
  5
D
102
{ACAD_REACTORS
330
C
102
}
100
AcDbDictionary
280
0
281
1
  0
ACDBDICTIONARYWDFLT
  5
E
102
{ACAD_REACTORS
330
C
102
}
100
AcDbDictionary
281
1
  3
Normal
350
F
100
AcDbDictionaryWithDefault
340
F
  0
DICTIONARY
  5
17
102
{ACAD_REACTORS
330
C
102
}
100
AcDbDictionary
280
0
281
1
  3
Standard
350
18
  0
DICTIONARY
  5
19
102
{ACAD_REACTORS
330
C
102
}
100
AcDbDictionary
281
1
  0
DICTIONARY
  5
1A
102
{ACAD_REACTORS
330
C
102
}
100
AcDbDictionary
281
1
  3
Model
350
31D
  3
Layout1
350
31E
  0
ACDBPLACEHOLDER
  5
F
102
{ACAD_REACTORS
330
E
102
}
  0
MLINESTYLE
  5
18
102
{ACAD_REACTORS
330
17
102
}
100
AcDbMlineStyle
  2
STANDARD
 70
0
  3

 62
256
 51
90.0
 52
90.0
 71
2
 49
0.5
 62
256
  6
BYLAYER
 49
-0.5
 62
256
  6
BYLAYER
  0
LAYOUT
  5
31D
102
{ACAD_REACTORS
330
1A
102
}
100
AcDbPlotSettings
  1

  2
none_device
  4

  6

 40
0.0
 41
0.0
 42
0.0
 43
0.0
 44
210.0
 45
297.0
 46
0.0
 47
0.0
 48
0.0
 49
0.0
140
0.0
141
0.0
142
1.0
143
1.0
 70
1024
 72
1
 73
0
 74
0
  7

 75
0
147
1.0
148
0.0
149
0.0
100
AcDbLayout
  1
Model
 70
0
 71
0
 10
0.0
 20
0.0
 11
210.0
 21
297.0
 12
0.0
 22
0.0
 32
0.0
 14
0.0
 24
0.0
 34
0.0
 15
0.0
 25
0.0
 35
0.0
146
0.0
 13
0.0
 23
0.0
 33
0.0
 16
1.0
 26
0.0
 36
0.0
 17
0.0
 27
1.0
 37
0.0
 76
0
330
210
345
0
346
0
  0
LAYOUT
  5
31E
102
{ACAD_REACTORS
330
1A
102
}
100
AcDbPlotSettings
  1

  2
none_device
  4

  6

 40
0.0
 41
0.0
 42
0.0
 43
0.0
 44
210.0
 45
297.0
 46
0.0
 47
0.0
 48
0.0
 49
0.0
140
0.0
141
0.0
142
1.0
143
1.0
 70
0
 72
1
 73
0
 74
0
  7

 75
0
147
1.0
148
0.0
149
0.0
100
AcDbLayout
  1
Layout1
 70
0
 71
1
 10
0.0
 20
0.0
 11
210.0
 21
297.0
 12
0.0
 22
0.0
 32
0.0
 14
0.0
 24
0.0
 34
0.0
 15
0.0
 25
0.0
 35
0.0
146
0.0
 13
0.0
 23
0.0
 33
0.0
 16
1.0
 26
0.0
 36
0.0
 17
0.0
 27
1.0
 37
0.0
 76
0
330
211
345
0
346
0
  0
ENDSEC
  0
EOF
