999
DXF file: C:\Users\sesa63760\Dev\_Creo\CAD\MCADID0003840_3D-CAD\drw0001_2.dxf
999
Pro/ENGINEER 2019471 by Parametric Technology Corporation
  0
SECTION
  2
HEADER
  9
$ACADVER
  1
AC1024
  9
$DWGCODEPAGE
  3
ANSI_1252
  9
$EXTMAX
 10
62.9277524702
 20
88.9978213508
 30
0.0
  9
$EXTMIN
 10
0.0
 20
0.0
 30
0.0
  9
$LIMMIN
 10
0.0
 20
0.0
  9
$LIMMAX
 10
62.9277524702
 20
88.9978213508
  9
$VIEWCTR
 10
31.4638762351
 20
44.4989106754
  9
$VIEWSIZE
 40
88.9978213508
  9
$CLAYER
  8
0
  9
$LTSCALE
 40
5.8013394658
  9
$CELTYPE
  6
BYLAYER
  9
$DIMSCALE
 40
1.0
  9
$DIMASZ
 40
0.7491399104
  9
$DIMEXO
 40
1.0
  9
$DIMDLI
 40
4.0081981764
  9
$DIMEXE
 40
1.0
  9
$DIMCEN
 40
0.9493100944
  9
$DIMLFAC
 40
1.0
  9
$DIMBLK
  1
_FILLED
  9
$DIMALT
 70
0
  9
$DIMALTF
 40
0.0393700787
  9
$DIMTXT
 40
1.0487958745
  9
$DIMTOL
 70
1
  9
$DIMLIM
 70
0
  9
$DIMTFAC
 40
1.0
  9
$DIMTP
 40
0.01
  9
$DIMTM
 40
0.01
  9
$DIMGAP
 40
0.625
  9
$DIMDSEP
 70
46
  9
$AUNITS
 70
0
  9
$PDMODE
 70
3
  9
$PDSIZE
 40
0.3125
  9
$HANDSEED
  5
26E
  9
$TILEMODE
 70
1
  9
$MEASUREMENT
 70
1
  9
$INSUNITS
 70
4
  0
ENDSEC
  0
SECTION
  2
CLASSES
  0
CLASS
  1
ACDBDICTIONARYWDFLT
  2
AcDbDictionaryWithDefault
  3
AutoCAD 2000
 90
0
 91
1
280
0
281
0
  0
CLASS
  1
ACDBPLACEHOLDER
  2
AcDbPlaceHolder
  3
AutoCAD 2000
 90
0
 91
1
280
0
281
0
  0
CLASS
  1
LAYOUT
  2
AcDbLayout
  3
AutoCAD 2000
 90
0
 91
0
280
0
281
0
  0
ENDSEC
  0
SECTION
  2
TABLES
  0
TABLE
  2
VPORT
  5
8
100
AcDbSymbolTable
 70
2
  0
VPORT
  5
1F4
100
AcDbSymbolTableRecord
100
AcDbViewportTableRecord
  2
*ACTIVE
 70
0
 10
0.0
 20
0.0
 11
1.0
 21
1.0
 12
31.4638762351
 22
44.4989106754
 13
0.0
 23
0.0
 14
1.0
 24
1.0
 15
0.0
 25
0.0
 16
0.0
 26
0.0
 36
1.0
 17
0.0
 27
0.0
 37
0.0
 40
88.9978213508
 41
0.7070707071
 42
50.0
 43
0.0
 44
0.0
 50
0.0
 51
0.0
 71
0
 72
100
 73
1
 74
1
 75
0
 76
0
 77
0
 78
0
  0
ENDTAB
  0
TABLE
  2
LTYPE
  5
5
100
AcDbSymbolTable
 70
6
  0
LTYPE
  5
14
100
AcDbSymbolTableRecord
100
AcDbLinetypeTableRecord
  2
BYBLOCK
 70
0
  3

 72
65
 73
0
 40
0.0
  0
LTYPE
  5
15
100
AcDbSymbolTableRecord
100
AcDbLinetypeTableRecord
  2
BYLAYER
 70
0
  3

 72
65
 73
0
 40
0.0
  0
LTYPE
  5
16
100
AcDbSymbolTableRecord
100
AcDbLinetypeTableRecord
  2
CONTINUOUS
 70
64
  3
Solid line
 72
65
 73
0
 40
0.0
  0
LTYPE
  5
1F5
100
AcDbSymbolTableRecord
100
AcDbLinetypeTableRecord
  2
CENTER
 70
64
  3
____ _ ____ _ ____ _ ____ _ ____ _ ____ _ ____
 72
65
 73
4
 40
0.6
 49
0.375
 74
0
 49
-0.075
 74
0
 49
0.075
 74
0
 49
-0.075
 74
0
  0
LTYPE
  5
1F6
100
AcDbSymbolTableRecord
100
AcDbLinetypeTableRecord
  2
HIDDEN
 70
64
  3
- - - - - - - - - - - - - - - - - - - -
 72
65
 73
2
 40
0.2
 49
0.1
 74
0
 49
-0.1
 74
0
  0
LTYPE
  5
1F7
100
AcDbSymbolTableRecord
100
AcDbLinetypeTableRecord
  2
PHANTOM
 70
64
  3
_____ _ _ _____ _ _ _____ _ _ _____
 72
65
 73
6
 40
0.8
 49
0.45
 74
0
 49
-0.05
 74
0
 49
0.1
 74
0
 49
-0.05
 74
0
 49
0.1
 74
0
 49
-0.05
 74
0
  0
LTYPE
  5
1F8
100
AcDbSymbolTableRecord
100
AcDbLinetypeTableRecord
  2
DOT
 70
64
  3
. . . . . . . . . . . . . . . . . . . .
 72
65
 73
2
 40
0.2
 49
0.1
 74
0
 49
-0.1
 74
0
  0
LTYPE
  5
1F9
100
AcDbSymbolTableRecord
100
AcDbLinetypeTableRecord
  2
DASHED
 70
64
  3
- - - - - - - - - - - - - - - - - - - -
 72
65
 73
2
 40
0.2
 49
0.1
 74
0
 49
-0.1
 74
0
  0
ENDTAB
  0
TABLE
  2
LAYER
  5
2
100
AcDbSymbolTable
 70
36
  0
LAYER
  5
10
100
AcDbSymbolTableRecord
100
AcDbLayerTableRecord
  2
0
 70
0
 62
7
  6
CONTINUOUS
370
-3
390
F
  0
LAYER
  5
1FA
100
AcDbSymbolTableRecord
100
AcDbLayerTableRecord
  2
DEFAULT_1
 70
0
 62
7
  6
CENTER
370
-3
390
F
  0
LAYER
  5
1FB
100
AcDbSymbolTableRecord
100
AcDbLayerTableRecord
  2
DEFAULT_2
 70
0
 62
7
  6
HIDDEN
370
-3
390
F
  0
LAYER
  5
1FC
100
AcDbSymbolTableRecord
100
AcDbLayerTableRecord
  2
DEFAULT_3
 70
0
 62
7
  6
PHANTOM
370
-3
390
F
  0
LAYER
  5
1FD
100
AcDbSymbolTableRecord
100
AcDbLayerTableRecord
  2
00_COMPONENTS
 70
0
 62
7
  6
CONTINUOUS
370
-3
390
F
  0
LAYER
  5
1FE
100
AcDbSymbolTableRecord
100
AcDbLayerTableRecord
  2
01_1_DEFAULT_DATUMS
 70
0
 62
7
  6
CONTINUOUS
370
-3
390
F
  0
LAYER
  5
1FF
100
AcDbSymbolTableRecord
100
AcDbLayerTableRecord
  2
01_PLANES
 70
0
 62
7
  6
CONTINUOUS
370
-3
390
F
  0
LAYER
  5
200
100
AcDbSymbolTableRecord
100
AcDbLayerTableRecord
  2
02_COORD_SYS
 70
0
 62
7
  6
CONTINUOUS
370
-3
390
F
  0
LAYER
  5
201
100
AcDbSymbolTableRecord
100
AcDbLayerTableRecord
  2
03_AXES
 70
0
 62
7
  6
CONTINUOUS
370
-3
390
F
  0
LAYER
  5
202
100
AcDbSymbolTableRecord
100
AcDbLayerTableRecord
  2
04_POINTS
 70
0
 62
7
  6
CONTINUOUS
370
-3
390
F
  0
LAYER
  5
203
100
AcDbSymbolTableRecord
100
AcDbLayerTableRecord
  2
05_CURVES
 70
0
 62
7
  6
CONTINUOUS
370
-3
390
F
  0
LAYER
  5
204
100
AcDbSymbolTableRecord
100
AcDbLayerTableRecord
  2
06_SURFS
 70
0
 62
7
  6
CONTINUOUS
370
-3
390
F
  0
LAYER
  5
205
100
AcDbSymbolTableRecord
100
AcDbLayerTableRecord
  2
07_COSMETICS
 70
0
 62
7
  6
CONTINUOUS
370
-3
390
F
  0
LAYER
  5
206
100
AcDbSymbolTableRecord
100
AcDbLayerTableRecord
  2
10_NOTES
 70
0
 62
7
  6
CONTINUOUS
370
-3
390
F
  0
LAYER
  5
207
100
AcDbSymbolTableRecord
100
AcDbLayerTableRecord
  2
11_NOTES_PUB
 70
0
 62
7
  6
CONTINUOUS
370
-3
390
F
  0
LAYER
  5
208
100
AcDbSymbolTableRecord
100
AcDbLayerTableRecord
  2
13_REF_GTOL
 70
0
 62
7
  6
CONTINUOUS
370
-3
390
F
  0
LAYER
  5
209
100
AcDbSymbolTableRecord
100
AcDbLayerTableRecord
  2
16_MISC
 70
0
 62
7
  6
CONTINUOUS
370
-3
390
F
  0
LAYER
  5
20A
100
AcDbSymbolTableRecord
100
AcDbLayerTableRecord
  2
17_NO_PRINT
 70
0
 62
7
  6
CONTINUOUS
370
-3
390
F
  0
LAYER
  5
20B
100
AcDbSymbolTableRecord
100
AcDbLayerTableRecord
  2
18_DATUM_CAMS_JOINTS
 70
0
 62
7
  6
CONTINUOUS
370
-3
390
F
  0
LAYER
  5
20C
100
AcDbSymbolTableRecord
100
AcDbLayerTableRecord
  2
19_DATUM_FUNCTIONAL
 70
0
 62
7
  6
CONTINUOUS
370
-3
390
F
  0
LAYER
  5
20D
100
AcDbSymbolTableRecord
100
AcDbLayerTableRecord
  2
20_DATUM_KINEMATIC_SCHEME
 70
0
 62
7
  6
CONTINUOUS
370
-3
390
F
  0
ENDTAB
  0
TABLE
  2
STYLE
  5
3
100
AcDbSymbolTable
 70
1
  0
STYLE
  5
11
100
AcDbSymbolTableRecord
100
AcDbTextStyleTableRecord
  2
STANDARD
 70
0
 40
0.0
 41
1.0
 50
0.0
 71
0
 42
0.2
  3
ARIAL.TTF
  4

  0
STYLE
  5
20E
100
AcDbSymbolTableRecord
100
AcDbTextStyleTableRecord
  2
TEXTSTYLE_1
 70
0
 40
0.0
 41
0.8
 50
0.0
 71
0
 42
0.2
  3
gdt
  4

  0
ENDTAB
  0
TABLE
  2
VIEW
  5
6
100
AcDbSymbolTable
 70
0
  0
ENDTAB
  0
TABLE
  2
UCS
  5
7
100
AcDbSymbolTable
 70
0
  0
ENDTAB
  0
TABLE
  2
APPID
  5
9
100
AcDbSymbolTable
 70
1
  0
APPID
  5
20F
100
AcDbSymbolTableRecord
100
AcDbRegAppTableRecord
  2
ACAD
 70
0
  0
ENDTAB
  0
TABLE
  2
BLOCK_RECORD
  5
1
100
AcDbSymbolTable
 70
0
  0
BLOCK_RECORD
  5
210
100
AcDbSymbolTableRecord
100
AcDbBlockTableRecord
  2
*Model_Space
  0
BLOCK_RECORD
  5
211
100
AcDbSymbolTableRecord
100
AcDbBlockTableRecord
  2
*Paper_Space
  0
BLOCK_RECORD
  5
212
100
AcDbSymbolTableRecord
100
AcDbBlockTableRecord
  2
_FILLED
  0
ENDTAB
  0
TABLE
  2
DIMSTYLE
  5
A
100
AcDbSymbolTable
 70
1
100
AcDbDimStyleTable
 71
0
  0
DIMSTYLE
105
213
100
AcDbSymbolTableRecord
100
AcDbDimStyleTableRecord
  2
STANDARD
 70
0
  3

  4

 40
1.0
 41
0.7491399104
 42
1.0
 43
0.38
 44
1.0
 45
0.0
 46
0.0
 47
0.01
 48
0.01
140
1.0487958745
141
0.09
142
0.0
143
25.4
144
1.0
145
0.0
146
1.0
147
0.625
 71
1
 72
0
 73
0
 74
0
 75
0
 76
0
 77
1
 78
8
 79
2
170
0
171
1
172
0
173
0
174
0
175
0
176
0
177
0
178
0
270
2
179
2
271
2
272
2
273
2
274
2
275
0
280
0
281
0
282
0
283
1
284
8
285
0
286
0
287
3
288
0
340
11
278
46
341
212
342
212
343
212
344
212
  0
ENDTAB
  0
ENDSEC
  0
SECTION
  2
BLOCKS
  0
BLOCK
  5
20
100
AcDbEntity
  8
0
100
AcDbBlockBegin
  2
*Model_Space
 70
0
 10
0.0
 20
0.0
 30
0.0
  3
*Model_Space
  1

  0
ENDBLK
  5
21
100
AcDbEntity
  8
0
100
AcDbBlockEnd
  0
BLOCK
  5
1C
100
AcDbEntity
  8
0
100
AcDbBlockBegin
  2
*Paper_Space
 70
0
 10
0.0
 20
0.0
 30
0.0
  3
*Paper_Space
  1

  0
ENDBLK
  5
1D
100
AcDbEntity
  8
0
100
AcDbBlockEnd
  0
BLOCK
  5
214
100
AcDbEntity
  8
0
100
AcDbBlockBegin
  2
_FILLED
 70
64
 10
0.0
 20
0.0
  3
_FILLED
  1

  0
SOLID
  5
215
100
AcDbEntity
  8
0
  6
BYBLOCK
 62
0
100
AcDbTrace
 10
0.0
 20
0.0
 11
-1.0
 21
0.25
 12
-1.0
 22
-0.25
 13
-1.0
 23
-0.25
  0
ENDBLK
  5
216
100
AcDbEntity
  8
0
  6
BYBLOCK
 62
0
100
AcDbBlockEnd
  0
ENDSEC
  0
SECTION
  2
ENTITIES
  0
LINE
  5
217
100
AcDbEntity
  8
0
100
AcDbLine
 62
7
  6
BYLAYER
 10
6.8996060826
 20
36.6855119826
 11
6.8996060826
 21
51.9855119826
  0
LINE
  5
218
100
AcDbEntity
  8
0
100
AcDbLine
 62
7
  6
BYLAYER
 10
8.2496060826
 20
35.3355119826
 11
8.2496060826
 21
53.3355119826
  0
LINE
  5
219
100
AcDbEntity
  8
0
100
AcDbLine
 62
7
  6
BYLAYER
 10
8.2496060826
 20
53.3355119826
 11
6.8996060826
 21
51.9855119826
  0
LINE
  5
21A
100
AcDbEntity
  8
0
100
AcDbLine
 62
7
  6
BYLAYER
 10
6.8996060826
 20
36.6855119826
 11
8.2496060826
 21
35.3355119826
  0
LINE
  5
21B
100
AcDbEntity
  8
0
100
AcDbLine
 62
7
  6
BYLAYER
 10
17.6996060826
 20
56.6155119826
 11
18.6060460052
 21
58.1855119826
  0
LINE
  5
21C
100
AcDbEntity
  8
0
100
AcDbLine
 62
7
  6
BYLAYER
 10
18.6060460052
 20
30.4855119826
 11
17.6996060826
 21
32.0555119826
  0
LINE
  5
21D
100
AcDbEntity
  8
0
100
AcDbLine
 62
7
  6
BYLAYER
 10
17.6996060826
 20
32.0555119826
 11
17.6996060826
 21
56.6155119826
  0
LINE
  5
21E
100
AcDbEntity
  8
0
100
AcDbLine
 62
7
  6
BYLAYER
 10
18.6060460052
 20
30.4855119826
 11
18.6060460052
 21
30.4982170967
  0
LINE
  5
21F
100
AcDbEntity
  8
0
100
AcDbLine
 62
7
  6
BYLAYER
 10
18.6060460052
 20
36.9032229515
 11
18.6060460052
 21
37.9305061278
  0
LINE
  5
220
100
AcDbEntity
  8
0
100
AcDbLine
 62
7
  6
BYLAYER
 10
18.6060460052
 20
50.7405178374
 11
18.6060460052
 21
51.7678010136
  0
LINE
  5
221
100
AcDbEntity
  8
0
100
AcDbLine
 62
7
  6
BYLAYER
 10
18.6060460052
 20
58.1728068684
 11
18.6060460052
 21
58.1855119826
  0
LINE
  5
222
100
AcDbEntity
  8
0
100
AcDbLine
 62
7
  6
BYLAYER
 10
23.7996060826
 20
56.6155119826
 11
24.7060460052
 21
58.1855119826
  0
LINE
  5
223
100
AcDbEntity
  8
0
100
AcDbLine
 62
7
  6
BYLAYER
 10
18.6060460052
 20
30.4855119826
 11
19.89316616
 21
30.4855119826
  0
LINE
  5
224
100
AcDbEntity
  8
0
100
AcDbLine
 62
7
  6
BYLAYER
 10
24.7060460052
 20
30.4855119826
 11
25.99316616
 21
30.4855119826
  0
LINE
  5
225
100
AcDbEntity
  8
0
100
AcDbLine
 62
7
  6
BYLAYER
 10
25.99316616
 20
30.4982170967
 11
24.7060460052
 21
30.4982170967
  0
LINE
  5
226
100
AcDbEntity
  8
0
100
AcDbLine
 62
7
  6
BYLAYER
 10
19.89316616
 20
30.4982170967
 11
18.6060460052
 21
30.4982170967
  0
LINE
  5
227
100
AcDbEntity
  8
0
100
AcDbLine
 62
7
  6
BYLAYER
 10
24.7060460052
 20
30.4855119826
 11
23.7996060826
 21
32.0555119826
  0
LINE
  5
228
100
AcDbEntity
  8
0
100
AcDbLine
 62
7
  6
BYLAYER
 10
19.89316616
 20
58.1855119826
 11
19.89316616
 21
58.1728068684
  0
LINE
  5
229
100
AcDbEntity
  8
0
100
AcDbLine
 62
7
  6
BYLAYER
 10
19.89316616
 20
51.7678010136
 11
19.89316616
 21
50.7405178374
  0
LINE
  5
22A
100
AcDbEntity
  8
0
100
AcDbLine
 62
7
  6
BYLAYER
 10
19.89316616
 20
37.9305061278
 11
19.89316616
 21
36.9032229515
  0
LINE
  5
22B
100
AcDbEntity
  8
0
100
AcDbLine
 62
7
  6
BYLAYER
 10
19.89316616
 20
30.4982170967
 11
19.89316616
 21
30.4855119826
  0
LINE
  5
22C
100
AcDbEntity
  8
0
100
AcDbLine
 62
7
  6
BYLAYER
 10
20.7996060826
 20
56.6155119826
 11
20.7996060826
 21
32.0555119826
  0
LINE
  5
22D
100
AcDbEntity
  8
0
100
AcDbLine
 62
7
  6
BYLAYER
 10
23.7996060826
 20
32.0555119826
 11
23.7996060826
 21
56.6155119826
  0
LINE
  5
22E
100
AcDbEntity
  8
0
100
AcDbLine
 62
7
  6
BYLAYER
 10
33.5496060826
 20
35.3355119826
 11
26.8996060826
 21
35.3355119826
  0
LINE
  5
22F
100
AcDbEntity
  8
0
100
AcDbLine
 62
7
  6
BYLAYER
 10
23.7996060826
 20
35.3355119826
 11
20.7996060826
 21
35.3355119826
  0
LINE
  5
230
100
AcDbEntity
  8
0
100
AcDbLine
 62
7
  6
BYLAYER
 10
17.6996060826
 20
35.3355119826
 11
8.2496060826
 21
35.3355119826
  0
LINE
  5
231
100
AcDbEntity
  8
0
100
AcDbLine
 62
7
  6
BYLAYER
 10
56.8996060826
 20
36.8355119826
 11
34.8996060826
 21
36.8355119826
  0
LINE
  5
232
100
AcDbEntity
  8
0
100
AcDbLine
 62
7
  6
BYLAYER
 10
18.6060460052
 20
36.9032229515
 11
19.89316616
 21
36.9032229515
  0
LINE
  5
233
100
AcDbEntity
  8
0
100
AcDbLine
 62
7
  6
BYLAYER
 10
24.7060460052
 20
36.9032229515
 11
25.99316616
 21
36.9032229515
  0
LINE
  5
234
100
AcDbEntity
  8
0
100
AcDbLine
 62
7
  6
BYLAYER
 10
24.7060460052
 20
30.4855119826
 11
24.7060460052
 21
30.4982170967
  0
LINE
  5
235
100
AcDbEntity
  8
0
100
AcDbLine
 62
7
  6
BYLAYER
 10
24.7060460052
 20
36.9032229515
 11
24.7060460052
 21
37.9305061278
  0
LINE
  5
236
100
AcDbEntity
  8
0
100
AcDbLine
 62
7
  6
BYLAYER
 10
24.7060460052
 20
50.7405178374
 11
24.7060460052
 21
51.7678010136
  0
LINE
  5
237
100
AcDbEntity
  8
0
100
AcDbLine
 62
7
  6
BYLAYER
 10
24.7060460052
 20
58.1728068684
 11
24.7060460052
 21
58.1855119826
  0
LINE
  5
238
100
AcDbEntity
  8
0
100
AcDbLine
 62
7
  6
BYLAYER
 10
25.99316616
 20
58.1855119826
 11
25.99316616
 21
58.1728068684
  0
LINE
  5
239
100
AcDbEntity
  8
0
100
AcDbLine
 62
7
  6
BYLAYER
 10
25.99316616
 20
51.7678010136
 11
25.99316616
 21
50.7405178374
  0
LINE
  5
23A
100
AcDbEntity
  8
0
100
AcDbLine
 62
7
  6
BYLAYER
 10
25.99316616
 20
37.9305061278
 11
25.99316616
 21
36.9032229515
  0
LINE
  5
23B
100
AcDbEntity
  8
0
100
AcDbLine
 62
7
  6
BYLAYER
 10
25.99316616
 20
30.4982170967
 11
25.99316616
 21
30.4855119826
  0
LINE
  5
23C
100
AcDbEntity
  8
0
100
AcDbLine
 62
7
  6
BYLAYER
 10
25.99316616
 20
37.9305061278
 11
24.7060460052
 21
37.9305061278
  0
LINE
  5
23D
100
AcDbEntity
  8
0
100
AcDbLine
 62
7
  6
BYLAYER
 10
19.89316616
 20
37.9305061278
 11
18.6060460052
 21
37.9305061278
  0
LINE
  5
23E
100
AcDbEntity
  8
0
100
AcDbLine
 62
7
  6
BYLAYER
 10
26.8996060826
 20
56.6155119826
 11
26.8996060826
 21
32.0555119826
  0
LINE
  5
23F
100
AcDbEntity
  8
0
100
AcDbLine
 62
7
  6
BYLAYER
 10
19.89316616
 20
30.4855119826
 11
20.7996060826
 21
32.0555119826
  0
LINE
  5
240
100
AcDbEntity
  8
0
100
AcDbLine
 62
7
  6
BYLAYER
 10
20.7996060826
 20
56.6155119826
 11
19.89316616
 21
58.1855119826
  0
LINE
  5
241
100
AcDbEntity
  8
0
100
AcDbLine
 62
7
  6
BYLAYER
 10
33.5496060826
 20
53.3355119826
 11
33.5496060826
 21
35.3355119826
  0
LINE
  5
242
100
AcDbEntity
  8
0
100
AcDbLine
 62
7
  6
BYLAYER
 10
25.99316616
 20
30.4855119826
 11
26.8996060826
 21
32.0555119826
  0
LINE
  5
243
100
AcDbEntity
  8
0
100
AcDbLine
 62
7
  6
BYLAYER
 10
26.8996060826
 20
56.6155119826
 11
25.99316616
 21
58.1855119826
  0
LINE
  5
244
100
AcDbEntity
  8
0
100
AcDbLine
 62
7
  6
BYLAYER
 10
34.8996060826
 20
51.9855119826
 11
34.8996060826
 21
36.6855119826
  0
LINE
  5
245
100
AcDbEntity
  8
0
100
AcDbLine
 62
7
  6
BYLAYER
 10
34.8996060826
 20
36.6855119826
 11
33.5496060826
 21
35.3355119826
  0
LINE
  5
246
100
AcDbEntity
  8
0
100
AcDbLine
 62
7
  6
BYLAYER
 10
18.6060460052
 20
50.7405178374
 11
19.89316616
 21
50.7405178374
  0
LINE
  5
247
100
AcDbEntity
  8
0
100
AcDbLine
 62
7
  6
BYLAYER
 10
24.7060460052
 20
50.7405178374
 11
25.99316616
 21
50.7405178374
  0
LINE
  5
248
100
AcDbEntity
  8
0
100
AcDbLine
 62
7
  6
BYLAYER
 10
25.99316616
 20
51.7678010136
 11
24.7060460052
 21
51.7678010136
  0
LINE
  5
249
100
AcDbEntity
  8
0
100
AcDbLine
 62
7
  6
BYLAYER
 10
19.89316616
 20
51.7678010136
 11
18.6060460052
 21
51.7678010136
  0
LINE
  5
24A
100
AcDbEntity
  8
0
100
AcDbLine
 62
7
  6
BYLAYER
 10
34.8996060826
 20
51.8355119826
 11
56.8996060826
 21
51.8355119826
  0
LINE
  5
24B
100
AcDbEntity
  8
0
100
AcDbLine
 62
7
  6
BYLAYER
 10
33.5496060826
 20
53.3355119826
 11
34.8996060826
 21
51.9855119826
  0
LINE
  5
24C
100
AcDbEntity
  8
0
100
AcDbLine
 62
7
  6
BYLAYER
 10
8.2496060826
 20
53.3355119826
 11
17.6996060826
 21
53.3355119826
  0
LINE
  5
24D
100
AcDbEntity
  8
0
100
AcDbLine
 62
7
  6
BYLAYER
 10
20.7996060826
 20
53.3355119826
 11
23.7996060826
 21
53.3355119826
  0
LINE
  5
24E
100
AcDbEntity
  8
0
100
AcDbLine
 62
7
  6
BYLAYER
 10
26.8996060826
 20
53.3355119826
 11
33.5496060826
 21
53.3355119826
  0
LINE
  5
24F
100
AcDbEntity
  8
0
100
AcDbLine
 62
7
  6
BYLAYER
 10
18.6060460052
 20
58.1728068684
 11
19.89316616
 21
58.1728068684
  0
LINE
  5
250
100
AcDbEntity
  8
0
100
AcDbLine
 62
7
  6
BYLAYER
 10
24.7060460052
 20
58.1728068684
 11
25.99316616
 21
58.1728068684
  0
LINE
  5
251
100
AcDbEntity
  8
0
100
AcDbLine
 62
7
  6
BYLAYER
 10
25.99316616
 20
58.1855119826
 11
24.7060460052
 21
58.1855119826
  0
LINE
  5
252
100
AcDbEntity
  8
0
100
AcDbLine
 62
7
  6
BYLAYER
 10
19.89316616
 20
58.1855119826
 11
18.6060460052
 21
58.1855119826
  0
LINE
  5
253
100
AcDbEntity
  8
0
100
AcDbLine
 62
7
  6
BYLAYER
 10
56.8996060826
 20
51.8355119826
 11
56.8996060826
 21
36.8355119826
  0
SPLINE
  5
254
100
AcDbEntity
  8
0
100
AcDbSpline
 62
7
  6
BYLAYER
 70
0
 71
3
 72
13
 73
9
 74
0
 42
0.0000001
 43
0.0000001
 44
0.0000000001
 40
0.0
 40
0.0
 40
0.0
 40
0.0
 40
0.1206742617
 40
0.241870949
 40
0.3640525554
 40
0.4876165123
 40
0.7398671508
 40
1.0
 40
1.0
 40
1.0
 40
1.0
 10
23.7996060826
 20
54.970303941
 30
0.0
 10
23.7996060826
 20
55.1055287235
 30
0.0
 10
23.8099535243
 20
55.3766759012
 30
0.0
 10
23.8562600101
 20
55.7823468508
 30
0.0
 10
23.9325550197
 20
56.1867542657
 30
0.0
 10
24.0732770055
 20
56.7271418027
 30
0.0
 10
24.3177870338
 20
57.3983247901
 30
0.0
 10
24.5687371603
 20
57.9156729383
 30
0.0
 10
24.7060460052
 20
58.1728068684
 30
0.0
  0
SPLINE
  5
255
100
AcDbEntity
  8
0
100
AcDbSpline
 62
7
  6
BYLAYER
 70
0
 71
3
 72
13
 73
9
 74
0
 42
0.0000001
 43
0.0000001
 44
0.0000000001
 40
0.0
 40
0.0
 40
0.0
 40
0.0
 40
0.1206758646
 40
0.2418671738
 40
0.3640468733
 40
0.4876091545
 40
0.7398672821
 40
1.0
 40
1.0
 40
1.0
 40
1.0
 10
26.8996060826
 20
54.970303941
 30
0.0
 10
26.8996060826
 20
55.1055299581
 30
0.0
 10
26.8892304404
 20
55.3766717063
 30
0.0
 10
26.8428826907
 20
55.7823285005
 30
0.0
 10
26.766624692
 20
56.1867289015
 30
0.0
 10
26.6259763049
 20
56.7271408188
 30
0.0
 10
26.381322847
 20
57.3982752533
 30
0.0
 10
26.1304743653
 20
57.915674136
 30
0.0
 10
25.99316616
 20
58.1728068684
 30
0.0
  0
SPLINE
  5
256
100
AcDbEntity
  8
0
100
AcDbSpline
 62
7
  6
BYLAYER
 70
0
 71
3
 72
13
 73
9
 74
0
 42
0.0000001
 43
0.0000001
 44
0.0000000001
 40
0.0
 40
0.0
 40
0.0
 40
0.0
 40
0.1206758646
 40
0.2418671738
 40
0.3640468733
 40
0.4876091545
 40
0.7398672821
 40
1.0
 40
1.0
 40
1.0
 40
1.0
 10
23.7996060826
 20
54.970303941
 30
0.0
 10
23.7996060826
 20
54.835077924
 30
0.0
 10
23.8099817249
 20
54.5639361758
 30
0.0
 10
23.8563294745
 20
54.1582793816
 30
0.0
 10
23.9325874732
 20
53.7538789806
 30
0.0
 10
24.0732358604
 20
53.2134670633
 30
0.0
 10
24.3178893182
 20
52.5423326288
 30
0.0
 10
24.5687377999
 20
52.0249337461
 30
0.0
 10
24.7060460052
 20
51.7678010136
 30
0.0
  0
SPLINE
  5
257
100
AcDbEntity
  8
0
100
AcDbSpline
 62
7
  6
BYLAYER
 70
0
 71
3
 72
11
 73
7
 74
0
 42
0.0000001
 43
0.0000001
 44
0.0000000001
 40
0.0
 40
0.0
 40
0.0
 40
0.0
 40
0.2499938274
 40
0.499989319
 40
0.7499909169
 40
1.0
 40
1.0
 40
1.0
 40
1.0
 10
23.7996060826
 20
44.3355119826
 30
0.0
 10
23.7996060826
 20
44.8760382439
 30
0.0
 10
23.8409804437
 20
45.9575358048
 30
0.0
 10
24.0232026061
 20
47.5701711261
 30
0.0
 10
24.3125452729
 20
49.1668372981
 30
0.0
 10
24.5666021922
 20
50.2182538025
 30
0.0
 10
24.7060460052
 20
50.7405178374
 30
0.0
  0
SPLINE
  5
258
100
AcDbEntity
  8
0
100
AcDbSpline
 62
7
  6
BYLAYER
 70
0
 71
3
 72
13
 73
9
 74
0
 42
0.0000001
 43
0.0000001
 44
0.0000000001
 40
0.0
 40
0.0
 40
0.0
 40
0.0
 40
0.1206742617
 40
0.241870949
 40
0.3640525554
 40
0.4876165123
 40
0.7398671508
 40
1.0
 40
1.0
 40
1.0
 40
1.0
 10
26.8996060826
 20
33.7007200241
 30
0.0
 10
26.8996060826
 20
33.5654952416
 30
0.0
 10
26.889258641
 20
33.2943480639
 30
0.0
 10
26.8429521551
 20
32.8886771144
 30
0.0
 10
26.7666571455
 20
32.4842696994
 30
0.0
 10
26.6259351598
 20
31.9438821625
 30
0.0
 10
26.3814251314
 20
31.272699175
 30
0.0
 10
26.1304750049
 20
30.7553510268
 30
0.0
 10
25.99316616
 20
30.4982170967
 30
0.0
  0
SPLINE
  5
259
100
AcDbEntity
  8
0
100
AcDbSpline
 62
7
  6
BYLAYER
 70
0
 71
3
 72
13
 73
9
 74
0
 42
0.0000001
 43
0.0000001
 44
0.0000000001
 40
0.0
 40
0.0
 40
0.0
 40
0.0
 40
0.1206758646
 40
0.2418671738
 40
0.3640468733
 40
0.4876091545
 40
0.7398672821
 40
1.0
 40
1.0
 40
1.0
 40
1.0
 10
23.7996060826
 20
33.7007200241
 30
0.0
 10
23.7996060826
 20
33.5654940071
 30
0.0
 10
23.8099817249
 20
33.2943522588
 30
0.0
 10
23.8563294745
 20
32.8886954646
 30
0.0
 10
23.9325874732
 20
32.4842950637
 30
0.0
 10
24.0732358604
 20
31.9438831464
 30
0.0
 10
24.3178893182
 20
31.2727487119
 30
0.0
 10
24.5687377999
 20
30.7553498291
 30
0.0
 10
24.7060460052
 20
30.4982170967
 30
0.0
  0
SPLINE
  5
25A
100
AcDbEntity
  8
0
100
AcDbSpline
 62
7
  6
BYLAYER
 70
0
 71
3
 72
13
 73
9
 74
0
 42
0.0000001
 43
0.0000001
 44
0.0000000001
 40
0.0
 40
0.0
 40
0.0
 40
0.0
 40
0.1206758646
 40
0.2418671738
 40
0.3640468733
 40
0.4876091545
 40
0.7398672821
 40
1.0
 40
1.0
 40
1.0
 40
1.0
 10
26.8996060826
 20
33.7007200241
 30
0.0
 10
26.8996060826
 20
33.8359460411
 30
0.0
 10
26.8892304404
 20
34.1070877894
 30
0.0
 10
26.8428826907
 20
34.5127445836
 30
0.0
 10
26.766624692
 20
34.9171449845
 30
0.0
 10
26.6259763049
 20
35.4575569018
 30
0.0
 10
26.381322847
 20
36.1286913363
 30
0.0
 10
26.1304743653
 20
36.6460902191
 30
0.0
 10
25.99316616
 20
36.9032229515
 30
0.0
  0
SPLINE
  5
25B
100
AcDbEntity
  8
0
100
AcDbSpline
 62
7
  6
BYLAYER
 70
0
 71
3
 72
13
 73
9
 74
0
 42
0.0000001
 43
0.0000001
 44
0.0000000001
 40
0.0
 40
0.0
 40
0.0
 40
0.0
 40
0.1206742617
 40
0.241870949
 40
0.3640525554
 40
0.4876165123
 40
0.7398671508
 40
1.0
 40
1.0
 40
1.0
 40
1.0
 10
23.7996060826
 20
33.7007200241
 30
0.0
 10
23.7996060826
 20
33.8359448066
 30
0.0
 10
23.8099535243
 20
34.1070919843
 30
0.0
 10
23.8562600101
 20
34.5127629338
 30
0.0
 10
23.9325550197
 20
34.9171703488
 30
0.0
 10
24.0732770055
 20
35.4575578857
 30
0.0
 10
24.3177870338
 20
36.1287408732
 30
0.0
 10
24.5687371603
 20
36.6460890214
 30
0.0
 10
24.7060460052
 20
36.9032229515
 30
0.0
  0
SPLINE
  5
25C
100
AcDbEntity
  8
0
100
AcDbSpline
 62
7
  6
BYLAYER
 70
0
 71
3
 72
11
 73
7
 74
0
 42
0.0000001
 43
0.0000001
 44
0.0000000001
 40
0.0
 40
0.0
 40
0.0
 40
0.0
 40
0.2499881589
 40
0.4999825657
 40
0.7499864883
 40
1.0
 40
1.0
 40
1.0
 40
1.0
 10
23.7996060826
 20
44.3355119826
 30
0.0
 10
23.7996060826
 20
43.7949985968
 30
0.0
 10
23.8410975345
 20
42.7135245114
 30
0.0
 10
24.0231339369
 20
41.1008793616
 30
0.0
 10
24.3126553505
 20
39.5042333522
 30
0.0
 10
24.5665998819
 20
38.4527788154
 30
0.0
 10
24.7060460052
 20
37.9305061278
 30
0.0
  0
SPLINE
  5
25D
100
AcDbEntity
  8
0
100
AcDbSpline
 62
7
  6
BYLAYER
 70
0
 71
3
 72
11
 73
7
 74
0
 42
0.0000001
 43
0.0000001
 44
0.0000000001
 40
0.0
 40
0.0
 40
0.0
 40
0.0
 40
0.2499881589
 40
0.4999825657
 40
0.7499864883
 40
1.0
 40
1.0
 40
1.0
 40
1.0
 10
26.8996060826
 20
44.3355119826
 30
0.0
 10
26.8996060826
 20
44.8760253684
 30
0.0
 10
26.8581146308
 20
45.9574994537
 30
0.0
 10
26.6760782283
 20
47.5701446035
 30
0.0
 10
26.3865568147
 20
49.166790613
 30
0.0
 10
26.1326122833
 20
50.2182451497
 30
0.0
 10
25.99316616
 20
50.7405178374
 30
0.0
  0
SPLINE
  5
25E
100
AcDbEntity
  8
0
100
AcDbSpline
 62
7
  6
BYLAYER
 70
0
 71
3
 72
13
 73
9
 74
0
 42
0.0000001
 43
0.0000001
 44
0.0000000001
 40
0.0
 40
0.0
 40
0.0
 40
0.0
 40
0.1206742617
 40
0.241870949
 40
0.3640525554
 40
0.4876165123
 40
0.7398671508
 40
1.0
 40
1.0
 40
1.0
 40
1.0
 10
26.8996060826
 20
54.970303941
 30
0.0
 10
26.8996060826
 20
54.8350791586
 30
0.0
 10
26.889258641
 20
54.5639319808
 30
0.0
 10
26.8429521551
 20
54.1582610313
 30
0.0
 10
26.7666571455
 20
53.7538536163
 30
0.0
 10
26.6259351598
 20
53.2134660794
 30
0.0
 10
26.3814251314
 20
52.542283092
 30
0.0
 10
26.1304750049
 20
52.0249349438
 30
0.0
 10
25.99316616
 20
51.7678010136
 30
0.0
  0
SPLINE
  5
25F
100
AcDbEntity
  8
0
100
AcDbSpline
 62
7
  6
BYLAYER
 70
0
 71
3
 72
11
 73
7
 74
0
 42
0.0000001
 43
0.0000001
 44
0.0000000001
 40
0.0
 40
0.0
 40
0.0
 40
0.0
 40
0.2499938274
 40
0.499989319
 40
0.7499909169
 40
1.0
 40
1.0
 40
1.0
 40
1.0
 10
26.8996060826
 20
44.3355119826
 30
0.0
 10
26.8996060826
 20
43.7949857213
 30
0.0
 10
26.8582317215
 20
42.7134881603
 30
0.0
 10
26.6760095591
 20
41.100852839
 30
0.0
 10
26.3866668923
 20
39.5041866671
 30
0.0
 10
26.132609973
 20
38.4527701626
 30
0.0
 10
25.99316616
 20
37.9305061278
 30
0.0
  0
SPLINE
  5
260
100
AcDbEntity
  8
0
100
AcDbSpline
 62
7
  6
BYLAYER
 70
0
 71
3
 72
13
 73
9
 74
0
 42
0.0000001
 43
0.0000001
 44
0.0000000001
 40
0.0
 40
0.0
 40
0.0
 40
0.0
 40
0.1206742617
 40
0.241870949
 40
0.3640525554
 40
0.4876165123
 40
0.7398671508
 40
1.0
 40
1.0
 40
1.0
 40
1.0
 10
17.6996060826
 20
54.970303941
 30
0.0
 10
17.6996060826
 20
55.1055287235
 30
0.0
 10
17.7099535243
 20
55.3766759012
 30
0.0
 10
17.7562600101
 20
55.7823468508
 30
0.0
 10
17.8325550197
 20
56.1867542657
 30
0.0
 10
17.9732770055
 20
56.7271418027
 30
0.0
 10
18.2177870338
 20
57.3983247901
 30
0.0
 10
18.4687371603
 20
57.9156729383
 30
0.0
 10
18.6060460052
 20
58.1728068684
 30
0.0
  0
SPLINE
  5
261
100
AcDbEntity
  8
0
100
AcDbSpline
 62
7
  6
BYLAYER
 70
0
 71
3
 72
13
 73
9
 74
0
 42
0.0000001
 43
0.0000001
 44
0.0000000001
 40
0.0
 40
0.0
 40
0.0
 40
0.0
 40
0.1206758646
 40
0.2418671738
 40
0.3640468733
 40
0.4876091545
 40
0.7398672821
 40
1.0
 40
1.0
 40
1.0
 40
1.0
 10
20.7996060826
 20
54.970303941
 30
0.0
 10
20.7996060826
 20
55.1055299581
 30
0.0
 10
20.7892304404
 20
55.3766717063
 30
0.0
 10
20.7428826907
 20
55.7823285005
 30
0.0
 10
20.666624692
 20
56.1867289015
 30
0.0
 10
20.5259763049
 20
56.7271408188
 30
0.0
 10
20.281322847
 20
57.3982752533
 30
0.0
 10
20.0304743653
 20
57.915674136
 30
0.0
 10
19.89316616
 20
58.1728068684
 30
0.0
  0
SPLINE
  5
262
100
AcDbEntity
  8
0
100
AcDbSpline
 62
7
  6
BYLAYER
 70
0
 71
3
 72
13
 73
9
 74
0
 42
0.0000001
 43
0.0000001
 44
0.0000000001
 40
0.0
 40
0.0
 40
0.0
 40
0.0
 40
0.1206758646
 40
0.2418671738
 40
0.3640468733
 40
0.4876091545
 40
0.7398672821
 40
1.0
 40
1.0
 40
1.0
 40
1.0
 10
17.6996060826
 20
54.970303941
 30
0.0
 10
17.6996060826
 20
54.835077924
 30
0.0
 10
17.7099817249
 20
54.5639361758
 30
0.0
 10
17.7563294745
 20
54.1582793816
 30
0.0
 10
17.8325874732
 20
53.7538789806
 30
0.0
 10
17.9732358604
 20
53.2134670633
 30
0.0
 10
18.2178893182
 20
52.5423326288
 30
0.0
 10
18.4687377999
 20
52.0249337461
 30
0.0
 10
18.6060460052
 20
51.7678010136
 30
0.0
  0
SPLINE
  5
263
100
AcDbEntity
  8
0
100
AcDbSpline
 62
7
  6
BYLAYER
 70
0
 71
3
 72
11
 73
7
 74
0
 42
0.0000001
 43
0.0000001
 44
0.0000000001
 40
0.0
 40
0.0
 40
0.0
 40
0.0
 40
0.2499938274
 40
0.499989319
 40
0.7499909169
 40
1.0
 40
1.0
 40
1.0
 40
1.0
 10
17.6996060826
 20
44.3355119826
 30
0.0
 10
17.6996060826
 20
44.8760382439
 30
0.0
 10
17.7409804437
 20
45.9575358048
 30
0.0
 10
17.9232026061
 20
47.5701711261
 30
0.0
 10
18.2125452729
 20
49.1668372981
 30
0.0
 10
18.4666021922
 20
50.2182538025
 30
0.0
 10
18.6060460052
 20
50.7405178374
 30
0.0
  0
SPLINE
  5
264
100
AcDbEntity
  8
0
100
AcDbSpline
 62
7
  6
BYLAYER
 70
0
 71
3
 72
13
 73
9
 74
0
 42
0.0000001
 43
0.0000001
 44
0.0000000001
 40
0.0
 40
0.0
 40
0.0
 40
0.0
 40
0.1206742617
 40
0.241870949
 40
0.3640525554
 40
0.4876165123
 40
0.7398671508
 40
1.0
 40
1.0
 40
1.0
 40
1.0
 10
20.7996060826
 20
33.7007200241
 30
0.0
 10
20.7996060826
 20
33.5654952416
 30
0.0
 10
20.789258641
 20
33.2943480639
 30
0.0
 10
20.7429521551
 20
32.8886771144
 30
0.0
 10
20.6666571455
 20
32.4842696994
 30
0.0
 10
20.5259351598
 20
31.9438821625
 30
0.0
 10
20.2814251314
 20
31.272699175
 30
0.0
 10
20.0304750049
 20
30.7553510268
 30
0.0
 10
19.89316616
 20
30.4982170967
 30
0.0
  0
SPLINE
  5
265
100
AcDbEntity
  8
0
100
AcDbSpline
 62
7
  6
BYLAYER
 70
0
 71
3
 72
13
 73
9
 74
0
 42
0.0000001
 43
0.0000001
 44
0.0000000001
 40
0.0
 40
0.0
 40
0.0
 40
0.0
 40
0.1206758646
 40
0.2418671738
 40
0.3640468733
 40
0.4876091545
 40
0.7398672821
 40
1.0
 40
1.0
 40
1.0
 40
1.0
 10
17.6996060826
 20
33.7007200241
 30
0.0
 10
17.6996060826
 20
33.5654940071
 30
0.0
 10
17.7099817249
 20
33.2943522588
 30
0.0
 10
17.7563294745
 20
32.8886954646
 30
0.0
 10
17.8325874732
 20
32.4842950637
 30
0.0
 10
17.9732358604
 20
31.9438831464
 30
0.0
 10
18.2178893182
 20
31.2727487119
 30
0.0
 10
18.4687377999
 20
30.7553498291
 30
0.0
 10
18.6060460052
 20
30.4982170967
 30
0.0
  0
SPLINE
  5
266
100
AcDbEntity
  8
0
100
AcDbSpline
 62
7
  6
BYLAYER
 70
0
 71
3
 72
13
 73
9
 74
0
 42
0.0000001
 43
0.0000001
 44
0.0000000001
 40
0.0
 40
0.0
 40
0.0
 40
0.0
 40
0.1206758646
 40
0.2418671738
 40
0.3640468733
 40
0.4876091545
 40
0.7398672821
 40
1.0
 40
1.0
 40
1.0
 40
1.0
 10
20.7996060826
 20
33.7007200241
 30
0.0
 10
20.7996060826
 20
33.8359460411
 30
0.0
 10
20.7892304404
 20
34.1070877894
 30
0.0
 10
20.7428826907
 20
34.5127445836
 30
0.0
 10
20.666624692
 20
34.9171449845
 30
0.0
 10
20.5259763049
 20
35.4575569018
 30
0.0
 10
20.281322847
 20
36.1286913363
 30
0.0
 10
20.0304743653
 20
36.6460902191
 30
0.0
 10
19.89316616
 20
36.9032229515
 30
0.0
  0
SPLINE
  5
267
100
AcDbEntity
  8
0
100
AcDbSpline
 62
7
  6
BYLAYER
 70
0
 71
3
 72
13
 73
9
 74
0
 42
0.0000001
 43
0.0000001
 44
0.0000000001
 40
0.0
 40
0.0
 40
0.0
 40
0.0
 40
0.1206742617
 40
0.241870949
 40
0.3640525554
 40
0.4876165123
 40
0.7398671508
 40
1.0
 40
1.0
 40
1.0
 40
1.0
 10
17.6996060826
 20
33.7007200241
 30
0.0
 10
17.6996060826
 20
33.8359448066
 30
0.0
 10
17.7099535243
 20
34.1070919843
 30
0.0
 10
17.7562600101
 20
34.5127629338
 30
0.0
 10
17.8325550197
 20
34.9171703488
 30
0.0
 10
17.9732770055
 20
35.4575578857
 30
0.0
 10
18.2177870338
 20
36.1287408732
 30
0.0
 10
18.4687371603
 20
36.6460890214
 30
0.0
 10
18.6060460052
 20
36.9032229515
 30
0.0
  0
SPLINE
  5
268
100
AcDbEntity
  8
0
100
AcDbSpline
 62
7
  6
BYLAYER
 70
0
 71
3
 72
11
 73
7
 74
0
 42
0.0000001
 43
0.0000001
 44
0.0000000001
 40
0.0
 40
0.0
 40
0.0
 40
0.0
 40
0.2499881589
 40
0.4999825657
 40
0.7499864883
 40
1.0
 40
1.0
 40
1.0
 40
1.0
 10
17.6996060826
 20
44.3355119826
 30
0.0
 10
17.6996060826
 20
43.7949985968
 30
0.0
 10
17.7410975345
 20
42.7135245114
 30
0.0
 10
17.9231339369
 20
41.1008793616
 30
0.0
 10
18.2126553505
 20
39.5042333522
 30
0.0
 10
18.4665998819
 20
38.4527788154
 30
0.0
 10
18.6060460052
 20
37.9305061278
 30
0.0
  0
SPLINE
  5
269
100
AcDbEntity
  8
0
100
AcDbSpline
 62
7
  6
BYLAYER
 70
0
 71
3
 72
11
 73
7
 74
0
 42
0.0000001
 43
0.0000001
 44
0.0000000001
 40
0.0
 40
0.0
 40
0.0
 40
0.0
 40
0.2499881589
 40
0.4999825657
 40
0.7499864883
 40
1.0
 40
1.0
 40
1.0
 40
1.0
 10
20.7996060826
 20
44.3355119826
 30
0.0
 10
20.7996060826
 20
44.8760253684
 30
0.0
 10
20.7581146308
 20
45.9574994537
 30
0.0
 10
20.5760782283
 20
47.5701446035
 30
0.0
 10
20.2865568147
 20
49.166790613
 30
0.0
 10
20.0326122833
 20
50.2182451497
 30
0.0
 10
19.89316616
 20
50.7405178374
 30
0.0
  0
SPLINE
  5
26A
100
AcDbEntity
  8
0
100
AcDbSpline
 62
7
  6
BYLAYER
 70
0
 71
3
 72
13
 73
9
 74
0
 42
0.0000001
 43
0.0000001
 44
0.0000000001
 40
0.0
 40
0.0
 40
0.0
 40
0.0
 40
0.1206742617
 40
0.241870949
 40
0.3640525554
 40
0.4876165123
 40
0.7398671508
 40
1.0
 40
1.0
 40
1.0
 40
1.0
 10
20.7996060826
 20
54.970303941
 30
0.0
 10
20.7996060826
 20
54.8350791586
 30
0.0
 10
20.789258641
 20
54.5639319808
 30
0.0
 10
20.7429521551
 20
54.1582610313
 30
0.0
 10
20.6666571455
 20
53.7538536163
 30
0.0
 10
20.5259351598
 20
53.2134660794
 30
0.0
 10
20.2814251314
 20
52.542283092
 30
0.0
 10
20.0304750049
 20
52.0249349438
 30
0.0
 10
19.89316616
 20
51.7678010136
 30
0.0
  0
SPLINE
  5
26B
100
AcDbEntity
  8
0
100
AcDbSpline
 62
7
  6
BYLAYER
 70
0
 71
3
 72
11
 73
7
 74
0
 42
0.0000001
 43
0.0000001
 44
0.0000000001
 40
0.0
 40
0.0
 40
0.0
 40
0.0
 40
0.2499938274
 40
0.499989319
 40
0.7499909169
 40
1.0
 40
1.0
 40
1.0
 40
1.0
 10
20.7996060826
 20
44.3355119826
 30
0.0
 10
20.7996060826
 20
43.7949857213
 30
0.0
 10
20.7582317215
 20
42.7134881603
 30
0.0
 10
20.5760095591
 20
41.100852839
 30
0.0
 10
20.2866668923
 20
39.5041866671
 30
0.0
 10
20.032609973
 20
38.4527701626
 30
0.0
 10
19.89316616
 20
37.9305061278
 30
0.0
  0
ENDSEC
  0
SECTION
  2
OBJECTS
  0
DICTIONARY
  5
C
100
AcDbDictionary
280
0
281
1
  3
ACAD_GROUP
350
D
  3
ACAD_MLINESTYLE
350
17
  3
ACAD_LAYOUT
350
1A
  3
ACAD_PLOTSETTINGS
350
19
  3
ACAD_PLOTSTYLENAME
350
E
  0
DICTIONARY
  5
D
102
{ACAD_REACTORS
330
C
102
}
100
AcDbDictionary
280
0
281
1
  0
ACDBDICTIONARYWDFLT
  5
E
102
{ACAD_REACTORS
330
C
102
}
100
AcDbDictionary
281
1
  3
Normal
350
F
100
AcDbDictionaryWithDefault
340
F
  0
DICTIONARY
  5
17
102
{ACAD_REACTORS
330
C
102
}
100
AcDbDictionary
280
0
281
1
  3
Standard
350
18
  0
DICTIONARY
  5
19
102
{ACAD_REACTORS
330
C
102
}
100
AcDbDictionary
281
1
  0
DICTIONARY
  5
1A
102
{ACAD_REACTORS
330
C
102
}
100
AcDbDictionary
281
1
  3
Model
350
26C
  3
Layout1
350
26D
  0
ACDBPLACEHOLDER
  5
F
102
{ACAD_REACTORS
330
E
102
}
  0
MLINESTYLE
  5
18
102
{ACAD_REACTORS
330
17
102
}
100
AcDbMlineStyle
  2
STANDARD
 70
0
  3

 62
256
 51
90.0
 52
90.0
 71
2
 49
0.5
 62
256
  6
BYLAYER
 49
-0.5
 62
256
  6
BYLAYER
  0
LAYOUT
  5
26C
102
{ACAD_REACTORS
330
1A
102
}
100
AcDbPlotSettings
  1

  2
none_device
  4

  6

 40
0.0
 41
0.0
 42
0.0
 43
0.0
 44
210.0
 45
297.0
 46
0.0
 47
0.0
 48
0.0
 49
0.0
140
0.0
141
0.0
142
1.0
143
1.0
 70
1024
 72
1
 73
0
 74
0
  7

 75
0
147
1.0
148
0.0
149
0.0
100
AcDbLayout
  1
Model
 70
0
 71
0
 10
0.0
 20
0.0
 11
210.0
 21
297.0
 12
0.0
 22
0.0
 32
0.0
 14
0.0
 24
0.0
 34
0.0
 15
0.0
 25
0.0
 35
0.0
146
0.0
 13
0.0
 23
0.0
 33
0.0
 16
1.0
 26
0.0
 36
0.0
 17
0.0
 27
1.0
 37
0.0
 76
0
330
210
345
0
346
0
  0
LAYOUT
  5
26D
102
{ACAD_REACTORS
330
1A
102
}
100
AcDbPlotSettings
  1

  2
none_device
  4

  6

 40
0.0
 41
0.0
 42
0.0
 43
0.0
 44
210.0
 45
297.0
 46
0.0
 47
0.0
 48
0.0
 49
0.0
140
0.0
141
0.0
142
1.0
143
1.0
 70
0
 72
1
 73
0
 74
0
  7

 75
0
147
1.0
148
0.0
149
0.0
100
AcDbLayout
  1
Layout1
 70
0
 71
1
 10
0.0
 20
0.0
 11
210.0
 21
297.0
 12
0.0
 22
0.0
 32
0.0
 14
0.0
 24
0.0
 34
0.0
 15
0.0
 25
0.0
 35
0.0
146
0.0
 13
0.0
 23
0.0
 33
0.0
 16
1.0
 26
0.0
 36
0.0
 17
0.0
 27
1.0
 37
0.0
 76
0
330
211
345
0
346
0
  0
ENDSEC
  0
EOF
