999
DXF file: C:\Users\sesa63760\OneDrive - Schneider Electric\Documents\7-Dev\_Creo\CAD\MCADPP0000215_3D-CAD\drw0001_2.dxf
999
Pro/ENGINEER 2019471 by Parametric Technology Corporation
  0
SECTION
  2
HEADER
  9
$ACADVER
  1
AC1024
  9
$DWGCODEPAGE
  3
ANSI_1252
  9
$EXTMAX
 10
48.4543694021
 20
68.5283224401
 30
0.0
  9
$EXTMIN
 10
0.0
 20
0.0
 30
0.0
  9
$LIMMIN
 10
0.0
 20
0.0
  9
$LIMMAX
 10
48.4543694021
 20
68.5283224401
  9
$VIEWCTR
 10
24.227184701
 20
34.26416122
  9
$VIEWSIZE
 40
68.5283224401
  9
$CLAYER
  8
0
  9
$LTSCALE
 40
4.4670313887
  9
$CELTYPE
  6
BYLAYER
  9
$DIMSCALE
 40
1.0
  9
$DIMASZ
 40
0.576837731
  9
$DIMEXO
 40
1.0
  9
$DIMDLI
 40
3.0863125958
  9
$DIMEXE
 40
1.0
  9
$DIMCEN
 40
0.7309687727
  9
$DIMLFAC
 40
1.0
  9
$DIMBLK
  1
_FILLED
  9
$DIMALT
 70
0
  9
$DIMALTF
 40
0.0393700787
  9
$DIMTXT
 40
0.8075728234
  9
$DIMTOL
 70
1
  9
$DIMLIM
 70
0
  9
$DIMTFAC
 40
1.0
  9
$DIMTP
 40
0.01
  9
$DIMTM
 40
0.01
  9
$DIMGAP
 40
0.625
  9
$DIMDSEP
 70
46
  9
$AUNITS
 70
0
  9
$PDMODE
 70
3
  9
$PDSIZE
 40
0.3125
  9
$HANDSEED
  5
401
  9
$TILEMODE
 70
1
  9
$MEASUREMENT
 70
1
  9
$INSUNITS
 70
4
  0
ENDSEC
  0
SECTION
  2
CLASSES
  0
CLASS
  1
ACDBDICTIONARYWDFLT
  2
AcDbDictionaryWithDefault
  3
AutoCAD 2000
 90
0
 91
1
280
0
281
0
  0
CLASS
  1
ACDBPLACEHOLDER
  2
AcDbPlaceHolder
  3
AutoCAD 2000
 90
0
 91
1
280
0
281
0
  0
CLASS
  1
LAYOUT
  2
AcDbLayout
  3
AutoCAD 2000
 90
0
 91
0
280
0
281
0
  0
ENDSEC
  0
SECTION
  2
TABLES
  0
TABLE
  2
VPORT
  5
8
100
AcDbSymbolTable
 70
2
  0
VPORT
  5
1F4
100
AcDbSymbolTableRecord
100
AcDbViewportTableRecord
  2
*ACTIVE
 70
0
 10
0.0
 20
0.0
 11
1.0
 21
1.0
 12
24.227184701
 22
34.26416122
 13
0.0
 23
0.0
 14
1.0
 24
1.0
 15
0.0
 25
0.0
 16
0.0
 26
0.0
 36
1.0
 17
0.0
 27
0.0
 37
0.0
 40
68.5283224401
 41
0.7070707071
 42
50.0
 43
0.0
 44
0.0
 50
0.0
 51
0.0
 71
0
 72
100
 73
1
 74
1
 75
0
 76
0
 77
0
 78
0
  0
ENDTAB
  0
TABLE
  2
LTYPE
  5
5
100
AcDbSymbolTable
 70
6
  0
LTYPE
  5
14
100
AcDbSymbolTableRecord
100
AcDbLinetypeTableRecord
  2
BYBLOCK
 70
0
  3

 72
65
 73
0
 40
0.0
  0
LTYPE
  5
15
100
AcDbSymbolTableRecord
100
AcDbLinetypeTableRecord
  2
BYLAYER
 70
0
  3

 72
65
 73
0
 40
0.0
  0
LTYPE
  5
16
100
AcDbSymbolTableRecord
100
AcDbLinetypeTableRecord
  2
CONTINUOUS
 70
64
  3
Solid line
 72
65
 73
0
 40
0.0
  0
LTYPE
  5
1F5
100
AcDbSymbolTableRecord
100
AcDbLinetypeTableRecord
  2
CENTER
 70
64
  3
____ _ ____ _ ____ _ ____ _ ____ _ ____ _ ____
 72
65
 73
4
 40
0.6
 49
0.375
 74
0
 49
-0.075
 74
0
 49
0.075
 74
0
 49
-0.075
 74
0
  0
LTYPE
  5
1F6
100
AcDbSymbolTableRecord
100
AcDbLinetypeTableRecord
  2
HIDDEN
 70
64
  3
- - - - - - - - - - - - - - - - - - - -
 72
65
 73
2
 40
0.2
 49
0.1
 74
0
 49
-0.1
 74
0
  0
LTYPE
  5
1F7
100
AcDbSymbolTableRecord
100
AcDbLinetypeTableRecord
  2
PHANTOM
 70
64
  3
_____ _ _ _____ _ _ _____ _ _ _____
 72
65
 73
6
 40
0.8
 49
0.45
 74
0
 49
-0.05
 74
0
 49
0.1
 74
0
 49
-0.05
 74
0
 49
0.1
 74
0
 49
-0.05
 74
0
  0
LTYPE
  5
1F8
100
AcDbSymbolTableRecord
100
AcDbLinetypeTableRecord
  2
DOT
 70
64
  3
. . . . . . . . . . . . . . . . . . . .
 72
65
 73
2
 40
0.2
 49
0.1
 74
0
 49
-0.1
 74
0
  0
LTYPE
  5
1F9
100
AcDbSymbolTableRecord
100
AcDbLinetypeTableRecord
  2
DASHED
 70
64
  3
- - - - - - - - - - - - - - - - - - - -
 72
65
 73
2
 40
0.2
 49
0.1
 74
0
 49
-0.1
 74
0
  0
ENDTAB
  0
TABLE
  2
LAYER
  5
2
100
AcDbSymbolTable
 70
36
  0
LAYER
  5
10
100
AcDbSymbolTableRecord
100
AcDbLayerTableRecord
  2
0
 70
0
 62
7
  6
CONTINUOUS
370
-3
390
F
  0
LAYER
  5
1FA
100
AcDbSymbolTableRecord
100
AcDbLayerTableRecord
  2
DEFAULT_1
 70
0
 62
7
  6
CENTER
370
-3
390
F
  0
LAYER
  5
1FB
100
AcDbSymbolTableRecord
100
AcDbLayerTableRecord
  2
DEFAULT_2
 70
0
 62
8
  6
HIDDEN
370
-3
390
F
  0
LAYER
  5
1FC
100
AcDbSymbolTableRecord
100
AcDbLayerTableRecord
  2
DEFAULT_3
 70
0
 62
7
  6
PHANTOM
370
-3
390
F
  0
LAYER
  5
1FD
100
AcDbSymbolTableRecord
100
AcDbLayerTableRecord
  2
00_COMPONENTS
 70
0
 62
7
  6
CONTINUOUS
370
-3
390
F
  0
LAYER
  5
1FE
100
AcDbSymbolTableRecord
100
AcDbLayerTableRecord
  2
01_1_DEFAULT_DATUMS
 70
0
 62
7
  6
CONTINUOUS
370
-3
390
F
  0
LAYER
  5
1FF
100
AcDbSymbolTableRecord
100
AcDbLayerTableRecord
  2
01_PLANES
 70
0
 62
7
  6
CONTINUOUS
370
-3
390
F
  0
LAYER
  5
200
100
AcDbSymbolTableRecord
100
AcDbLayerTableRecord
  2
02_COORD_SYS
 70
0
 62
7
  6
CONTINUOUS
370
-3
390
F
  0
LAYER
  5
201
100
AcDbSymbolTableRecord
100
AcDbLayerTableRecord
  2
03_AXES
 70
0
 62
7
  6
CONTINUOUS
370
-3
390
F
  0
LAYER
  5
202
100
AcDbSymbolTableRecord
100
AcDbLayerTableRecord
  2
04_POINTS
 70
0
 62
7
  6
CONTINUOUS
370
-3
390
F
  0
LAYER
  5
203
100
AcDbSymbolTableRecord
100
AcDbLayerTableRecord
  2
05_CURVES
 70
0
 62
7
  6
CONTINUOUS
370
-3
390
F
  0
LAYER
  5
204
100
AcDbSymbolTableRecord
100
AcDbLayerTableRecord
  2
06_SURFS
 70
0
 62
7
  6
CONTINUOUS
370
-3
390
F
  0
LAYER
  5
205
100
AcDbSymbolTableRecord
100
AcDbLayerTableRecord
  2
07_COSMETICS
 70
0
 62
7
  6
CONTINUOUS
370
-3
390
F
  0
LAYER
  5
206
100
AcDbSymbolTableRecord
100
AcDbLayerTableRecord
  2
10_NOTES
 70
0
 62
7
  6
CONTINUOUS
370
-3
390
F
  0
LAYER
  5
207
100
AcDbSymbolTableRecord
100
AcDbLayerTableRecord
  2
11_NOTES_PUB
 70
0
 62
7
  6
CONTINUOUS
370
-3
390
F
  0
LAYER
  5
208
100
AcDbSymbolTableRecord
100
AcDbLayerTableRecord
  2
13_REF_GTOL
 70
0
 62
7
  6
CONTINUOUS
370
-3
390
F
  0
LAYER
  5
209
100
AcDbSymbolTableRecord
100
AcDbLayerTableRecord
  2
16_MISC
 70
0
 62
7
  6
CONTINUOUS
370
-3
390
F
  0
LAYER
  5
20A
100
AcDbSymbolTableRecord
100
AcDbLayerTableRecord
  2
17_NO_PRINT
 70
0
 62
7
  6
CONTINUOUS
370
-3
390
F
  0
LAYER
  5
20B
100
AcDbSymbolTableRecord
100
AcDbLayerTableRecord
  2
18_DATUM_CAMS_JOINTS
 70
0
 62
7
  6
CONTINUOUS
370
-3
390
F
  0
LAYER
  5
20C
100
AcDbSymbolTableRecord
100
AcDbLayerTableRecord
  2
19_DATUM_FUNCTIONAL
 70
0
 62
7
  6
CONTINUOUS
370
-3
390
F
  0
LAYER
  5
20D
100
AcDbSymbolTableRecord
100
AcDbLayerTableRecord
  2
20_DATUM_KINEMATIC_SCHEME
 70
0
 62
7
  6
CONTINUOUS
370
-3
390
F
  0
ENDTAB
  0
TABLE
  2
STYLE
  5
3
100
AcDbSymbolTable
 70
1
  0
STYLE
  5
11
100
AcDbSymbolTableRecord
100
AcDbTextStyleTableRecord
  2
STANDARD
 70
0
 40
0.0
 41
0.8
 50
0.0
 71
0
 42
0.2
  3
txt
  4

  0
STYLE
  5
20E
100
AcDbSymbolTableRecord
100
AcDbTextStyleTableRecord
  2
TEXTSTYLE_1
 70
0
 40
0.0
 41
0.8
 50
0.0
 71
0
 42
0.2
  3
gdt
  4

  0
ENDTAB
  0
TABLE
  2
VIEW
  5
6
100
AcDbSymbolTable
 70
0
  0
ENDTAB
  0
TABLE
  2
UCS
  5
7
100
AcDbSymbolTable
 70
0
  0
ENDTAB
  0
TABLE
  2
APPID
  5
9
100
AcDbSymbolTable
 70
1
  0
APPID
  5
20F
100
AcDbSymbolTableRecord
100
AcDbRegAppTableRecord
  2
ACAD
 70
0
  0
ENDTAB
  0
TABLE
  2
BLOCK_RECORD
  5
1
100
AcDbSymbolTable
 70
0
  0
BLOCK_RECORD
  5
210
100
AcDbSymbolTableRecord
100
AcDbBlockTableRecord
  2
*Model_Space
  0
BLOCK_RECORD
  5
211
100
AcDbSymbolTableRecord
100
AcDbBlockTableRecord
  2
*Paper_Space
  0
BLOCK_RECORD
  5
212
100
AcDbSymbolTableRecord
100
AcDbBlockTableRecord
  2
_FILLED
  0
ENDTAB
  0
TABLE
  2
DIMSTYLE
  5
A
100
AcDbSymbolTable
 70
1
100
AcDbDimStyleTable
 71
0
  0
DIMSTYLE
105
213
100
AcDbSymbolTableRecord
100
AcDbDimStyleTableRecord
  2
STANDARD
 70
0
  3

  4

 40
1.0
 41
0.576837731
 42
1.0
 43
0.38
 44
1.0
 45
0.0
 46
0.0
 47
0.01
 48
0.01
140
0.8075728234
141
0.09
142
0.0
143
25.4
144
1.0
145
0.0
146
1.0
147
0.625
 71
1
 72
0
 73
0
 74
0
 75
0
 76
0
 77
1
 78
8
 79
2
170
0
171
1
172
0
173
0
174
0
175
0
176
0
177
0
178
0
270
2
179
2
271
2
272
2
273
2
274
2
275
0
280
0
281
0
282
0
283
1
284
8
285
0
286
0
287
3
288
0
340
11
278
46
341
212
342
212
343
212
344
212
  0
ENDTAB
  0
ENDSEC
  0
SECTION
  2
BLOCKS
  0
BLOCK
  5
20
100
AcDbEntity
  8
0
100
AcDbBlockBegin
  2
*Model_Space
 70
0
 10
0.0
 20
0.0
 30
0.0
  3
*Model_Space
  1

  0
ENDBLK
  5
21
100
AcDbEntity
  8
0
100
AcDbBlockEnd
  0
BLOCK
  5
1C
100
AcDbEntity
  8
0
100
AcDbBlockBegin
  2
*Paper_Space
 70
0
 10
0.0
 20
0.0
 30
0.0
  3
*Paper_Space
  1

  0
ENDBLK
  5
1D
100
AcDbEntity
  8
0
100
AcDbBlockEnd
  0
BLOCK
  5
214
100
AcDbEntity
  8
0
100
AcDbBlockBegin
  2
_FILLED
 70
64
 10
0.0
 20
0.0
  3
_FILLED
  1

  0
SOLID
  5
215
100
AcDbEntity
  8
0
  6
BYBLOCK
 62
0
100
AcDbTrace
 10
0.0
 20
0.0
 11
-1.0
 21
0.25
 12
-1.0
 22
-0.25
 13
-1.0
 23
-0.25
  0
ENDBLK
  5
216
100
AcDbEntity
  8
0
  6
BYBLOCK
 62
0
100
AcDbBlockEnd
  0
ENDSEC
  0
SECTION
  2
ENTITIES
  0
LINE
  5
217
100
AcDbEntity
  8
0
100
AcDbLine
 62
7
  6
CONTINUOUS
 10
5.3126966836
 20
32.8873111018
 11
5.3126966836
 21
35.8569161725
  0
LINE
  5
218
100
AcDbEntity
  8
0
100
AcDbLine
 62
7
  6
CONTINUOUS
 10
5.3712753274
 20
33.2168895115
 11
5.3712753274
 21
32.7567020833
  0
LINE
  5
219
100
AcDbEntity
  8
0
100
AcDbLine
 62
7
  6
CONTINUOUS
 10
6.2541180399
 20
31.9413569104
 11
6.2541180398
 21
32.4015443387
  0
LINE
  5
21A
100
AcDbEntity
  8
0
100
AcDbLine
 62
7
  6
CONTINUOUS
 10
6.3955393961
 20
32.3474443119
 11
6.3955393961
 21
31.8872568836
  0
LINE
  5
21B
100
AcDbEntity
  8
0
100
AcDbLine
 62
7
  6
CONTINUOUS
 10
28.7126966836
 20
17.2580709977
 11
22.7126966836
 21
17.2580709977
  0
LINE
  5
21C
100
AcDbEntity
  8
0
100
AcDbLine
 62
7
  6
CONTINUOUS
 10
8.7126966836
 20
32.3474443119
 11
8.7126966836
 21
36.0416252178
  0
LINE
  5
21D
100
AcDbEntity
  8
0
100
AcDbLine
 62
7
  6
CONTINUOUS
 10
9.0326966836
 20
40.1280709977
 11
9.0326966836
 21
36.1280709977
  0
LINE
  5
21E
100
AcDbEntity
  8
0
100
AcDbLine
 62
7
  6
CONTINUOUS
 10
9.2126966836
 20
23.4805709977
 11
9.2126966836
 21
21.6555709977
  0
LINE
  5
21F
100
AcDbEntity
  8
0
100
AcDbLine
 62
7
  6
CONTINUOUS
 10
9.3126966836
 20
39.9037974168
 11
9.3126966836
 21
30.3049438254
  0
LINE
  5
220
100
AcDbEntity
  8
0
100
AcDbLine
 62
7
  6
CONTINUOUS
 10
9.3126966836
 20
21.6555709977
 11
9.3126966836
 21
21.2952634254
  0
LINE
  5
221
100
AcDbEntity
  8
0
100
AcDbLine
 62
7
  6
CONTINUOUS
 10
9.3126966836
 20
21.7150514036
 11
9.3126966836
 21
30.2925245524
  0
LINE
  5
222
100
AcDbEntity
  8
0
100
AcDbLine
 62
7
  6
CONTINUOUS
 10
9.4126966836
 20
21.2950695692
 11
9.4126966836
 21
20.9680709977
  0
LINE
  5
223
100
AcDbEntity
  8
0
100
AcDbLine
 62
7
  6
CONTINUOUS
 10
41.5626966836
 20
17.3180709977
 11
13.8126966836
 21
17.3180709977
  0
LINE
  5
224
100
AcDbEntity
  8
0
100
AcDbLine
 62
7
  6
CONTINUOUS
 10
14.8126966836
 20
17.4180709977
 11
40.5626966836
 21
17.4180709977
  0
LINE
  5
225
100
AcDbEntity
  8
0
100
AcDbLine
 62
7
  6
CONTINUOUS
 10
13.8126966836
 20
17.6559088356
 11
14.8126966836
 21
17.6559088356
  0
LINE
  5
226
100
AcDbEntity
  8
0
100
AcDbLine
 62
7
  6
CONTINUOUS
 10
40.5626966836
 20
17.6559088356
 11
41.5626966836
 21
17.6559088356
  0
LINE
  5
227
100
AcDbEntity
  8
0
100
AcDbLine
 62
7
  6
CONTINUOUS
 10
9.4326966836
 20
42.6011551357
 11
9.4326966836
 21
39.9037974168
  0
LINE
  5
228
100
AcDbEntity
  8
0
100
AcDbLine
 62
7
  6
CONTINUOUS
 10
9.5326966836
 20
39.9037974168
 11
9.5326966836
 21
41.8019520317
  0
LINE
  5
229
100
AcDbEntity
  8
0
100
AcDbLine
 62
7
  6
CONTINUOUS
 10
9.9126966836
 20
40.0537985779
 11
9.9126966836
 21
35.9505336615
  0
LINE
  5
22A
100
AcDbEntity
  8
0
100
AcDbLine
 62
7
  6
CONTINUOUS
 10
10.4126966836
 20
46.1680709977
 11
10.4126966836
 21
50.8680709977
  0
LINE
  5
22B
100
AcDbEntity
  8
0
100
AcDbLine
 62
7
  6
CONTINUOUS
 10
10.5126966836
 20
21.2952628235
 11
10.5126966836
 21
21.6555709977
  0
LINE
  5
22C
100
AcDbEntity
  8
0
100
AcDbLine
 62
7
  6
CONTINUOUS
 10
10.5126966836
 20
21.7150508017
 11
10.5126966836
 21
29.6585371265
  0
LINE
  5
22D
100
AcDbEntity
  8
0
100
AcDbLine
 62
7
  6
CONTINUOUS
 10
10.5126966836
 20
34.7087475186
 11
10.5126966836
 21
40.0537362454
  0
LINE
  5
22E
100
AcDbEntity
  8
0
100
AcDbLine
 62
7
  6
CONTINUOUS
 10
10.5326966836
 20
41.1450982801
 11
10.5326966836
 21
34.7531221798
  0
LINE
  5
22F
100
AcDbEntity
  8
0
100
AcDbLine
 62
7
  6
CONTINUOUS
 10
10.9126966836
 20
20.9680709977
 11
10.9126966836
 21
21.6555709977
  0
LINE
  5
230
100
AcDbEntity
  8
0
100
AcDbLine
 62
7
  6
CONTINUOUS
 10
10.9126966836
 20
26.597260222
 11
10.9126966836
 21
28.0680709977
  0
LINE
  5
231
100
AcDbEntity
  8
0
100
AcDbLine
 62
7
  6
CONTINUOUS
 10
11.0626966836
 20
34.4470622315
 11
11.0626966836
 21
33.9351797436
  0
LINE
  5
232
100
AcDbEntity
  8
0
100
AcDbLine
 62
7
  6
CONTINUOUS
 10
11.1126966836
 20
33.9351797436
 11
11.1126966836
 21
29.5937950454
  0
LINE
  5
233
100
AcDbEntity
  8
0
100
AcDbLine
 62
7
  6
CONTINUOUS
 10
9.3126966836
 20
39.4537985779
 11
9.9126966836
 21
40.0537985779
  0
LINE
  5
234
100
AcDbEntity
  8
0
100
AcDbLine
 62
7
  6
CONTINUOUS
 10
43.3426966836
 20
19.6180709977
 11
41.8126966836
 21
19.6180709977
  0
LINE
  5
235
100
AcDbEntity
  8
0
100
AcDbLine
 62
7
  6
CONTINUOUS
 10
13.6126966836
 20
19.6180709977
 11
12.0826966836
 21
19.6180709977
  0
LINE
  5
236
100
AcDbEntity
  8
0
100
AcDbLine
 62
7
  6
CONTINUOUS
 10
41.5626966836
 20
19.642395322
 11
40.5626966836
 21
19.642395322
  0
LINE
  5
237
100
AcDbEntity
  8
0
100
AcDbLine
 62
7
  6
CONTINUOUS
 10
14.8126966836
 20
19.642395322
 11
13.8126966836
 21
19.642395322
  0
LINE
  5
238
100
AcDbEntity
  8
0
100
AcDbLine
 62
7
  6
CONTINUOUS
 10
43.3626966836
 20
19.7680709977
 11
43.3426966836
 21
19.7680709977
  0
LINE
  5
239
100
AcDbEntity
  8
0
100
AcDbLine
 62
7
  6
CONTINUOUS
 10
41.8126966836
 20
19.7680709977
 11
41.5626966836
 21
19.7680709977
  0
LINE
  5
23A
100
AcDbEntity
  8
0
100
AcDbLine
 62
7
  6
CONTINUOUS
 10
13.8126966836
 20
19.7680709977
 11
13.6126966836
 21
19.7680709977
  0
LINE
  5
23B
100
AcDbEntity
  8
0
100
AcDbLine
 62
7
  6
CONTINUOUS
 10
12.0826966836
 20
19.7680709977
 11
12.0626966836
 21
19.7680709977
  0
LINE
  5
23C
100
AcDbEntity
  8
0
100
AcDbLine
 62
7
  6
CONTINUOUS
 10
12.0626966836
 20
20.0180709977
 11
12.0826966836
 21
20.0180709977
  0
LINE
  5
23D
100
AcDbEntity
  8
0
100
AcDbLine
 62
7
  6
CONTINUOUS
 10
13.6126966836
 20
20.0180709977
 11
13.8126966836
 21
20.0180709977
  0
LINE
  5
23E
100
AcDbEntity
  8
0
100
AcDbLine
 62
7
  6
CONTINUOUS
 10
41.5626966836
 20
20.0180709977
 11
41.8126966836
 21
20.0180709977
  0
LINE
  5
23F
100
AcDbEntity
  8
0
100
AcDbLine
 62
7
  6
CONTINUOUS
 10
43.3426966836
 20
20.0180709977
 11
43.3626966836
 21
20.0180709977
  0
LINE
  5
240
100
AcDbEntity
  8
0
100
AcDbLine
 62
7
  6
CONTINUOUS
 10
12.0826966836
 20
20.1180709977
 11
13.6126966836
 21
20.1180709977
  0
LINE
  5
241
100
AcDbEntity
  8
0
100
AcDbLine
 62
7
  6
CONTINUOUS
 10
41.8126966836
 20
20.1180709977
 11
43.3426966836
 21
20.1180709977
  0
LINE
  5
242
100
AcDbEntity
  8
0
100
AcDbLine
 62
7
  6
CONTINUOUS
 10
43.3426966836
 20
20.2876874583
 11
41.8126966836
 21
20.2876874583
  0
LINE
  5
243
100
AcDbEntity
  8
0
100
AcDbLine
 62
7
  6
CONTINUOUS
 10
13.6126966836
 20
20.2876874583
 11
12.0826966836
 21
20.2876874583
  0
LINE
  5
244
100
AcDbEntity
  8
0
100
AcDbLine
 62
7
  6
CONTINUOUS
 10
13.8126966836
 20
20.3022625527
 11
14.8126966836
 21
20.3022625527
  0
LINE
  5
245
100
AcDbEntity
  8
0
100
AcDbLine
 62
7
  6
CONTINUOUS
 10
40.5626966836
 20
20.3022625527
 11
41.5626966836
 21
20.3022625527
  0
LINE
  5
246
100
AcDbEntity
  8
0
100
AcDbLine
 62
7
  6
CONTINUOUS
 10
12.0826966836
 20
20.4483843607
 11
13.6126966836
 21
20.4483843607
  0
LINE
  5
247
100
AcDbEntity
  8
0
100
AcDbLine
 62
7
  6
CONTINUOUS
 10
41.8126966836
 20
20.4483843607
 11
43.3426966836
 21
20.4483843607
  0
LINE
  5
248
100
AcDbEntity
  8
0
100
AcDbLine
 62
7
  6
CONTINUOUS
 10
43.3626966836
 20
20.6584635618
 11
43.3426966836
 21
20.6584635618
  0
LINE
  5
249
100
AcDbEntity
  8
0
100
AcDbLine
 62
7
  6
CONTINUOUS
 10
41.8126966836
 20
20.6584635618
 11
41.5626966836
 21
20.6584635618
  0
LINE
  5
24A
100
AcDbEntity
  8
0
100
AcDbLine
 62
7
  6
CONTINUOUS
 10
12.0626966836
 20
20.6584635618
 11
12.0826966836
 21
20.6584635618
  0
LINE
  5
24B
100
AcDbEntity
  8
0
100
AcDbLine
 62
7
  6
CONTINUOUS
 10
13.6126966836
 20
20.6584635618
 11
13.8126966836
 21
20.6584635618
  0
LINE
  5
24C
100
AcDbEntity
  8
0
100
AcDbLine
 62
7
  6
CONTINUOUS
 10
12.0626966836
 20
20.662415673
 11
12.0826966836
 21
20.662415673
  0
LINE
  5
24D
100
AcDbEntity
  8
0
100
AcDbLine
 62
7
  6
CONTINUOUS
 10
13.6126966836
 20
20.662415673
 11
13.8126966836
 21
20.662415673
  0
LINE
  5
24E
100
AcDbEntity
  8
0
100
AcDbLine
 62
7
  6
CONTINUOUS
 10
41.5626966836
 20
20.662415673
 11
41.8126966836
 21
20.662415673
  0
LINE
  5
24F
100
AcDbEntity
  8
0
100
AcDbLine
 62
7
  6
CONTINUOUS
 10
43.3426966836
 20
20.662415673
 11
43.3626966836
 21
20.662415673
  0
LINE
  5
250
100
AcDbEntity
  8
0
100
AcDbLine
 62
7
  6
CONTINUOUS
 10
5.3712753274
 20
32.7567020833
 11
6.2541180399
 21
31.9413569104
  0
LINE
  5
251
100
AcDbEntity
  8
0
100
AcDbLine
 62
7
  6
CONTINUOUS
 10
6.2541180399
 20
32.4015443387
 11
5.3712753274
 21
33.2168895115
  0
LINE
  5
252
100
AcDbEntity
  8
0
100
AcDbLine
 62
7
  6
CONTINUOUS
 10
11.4126966836
 20
26.3180709977
 11
11.4126966836
 21
23.4805709977
  0
LINE
  5
253
100
AcDbEntity
  8
0
100
AcDbLine
 62
7
  6
CONTINUOUS
 10
11.5326966836
 20
28.5993721431
 11
11.5326966836
 21
29.3483669572
  0
LINE
  5
254
100
AcDbEntity
  8
0
100
AcDbLine
 62
7
  6
CONTINUOUS
 10
11.5823119259
 20
34.7183987751
 11
11.5823119259
 21
34.2065162872
  0
LINE
  5
255
100
AcDbEntity
  8
0
100
AcDbLine
 62
7
  6
CONTINUOUS
 10
11.6126966836
 20
43.3930709977
 11
11.6126966836
 21
42.601171505
  0
LINE
  5
256
100
AcDbEntity
  8
0
100
AcDbLine
 62
7
  6
CONTINUOUS
 10
11.6126966836
 20
29.3065919635
 11
11.6126966836
 21
26.5430709977
  0
LINE
  5
257
100
AcDbEntity
  8
0
100
AcDbLine
 62
7
  6
CONTINUOUS
 10
11.7326966836
 20
37.4322005049
 11
11.7326966836
 21
42.6011551357
  0
LINE
  5
258
100
AcDbEntity
  8
0
100
AcDbLine
 62
7
  6
CONTINUOUS
 10
11.9326966836
 20
34.7183987751
 11
11.9326966836
 21
38.4597236411
  0
LINE
  5
259
100
AcDbEntity
  8
0
100
AcDbLine
 62
7
  6
CONTINUOUS
 10
12.0626966836
 20
21.6555709977
 11
12.0626966836
 21
19.7680709977
  0
LINE
  5
25A
100
AcDbEntity
  8
0
100
AcDbLine
 62
7
  6
CONTINUOUS
 10
12.0626966836
 20
23.4805709977
 11
12.0626966836
 21
26.5430709977
  0
LINE
  5
25B
100
AcDbEntity
  8
0
100
AcDbLine
 62
7
  6
CONTINUOUS
 10
12.0826966836
 20
19.6180709977
 11
12.0826966836
 21
33.6424543828
  0
LINE
  5
25C
100
AcDbEntity
  8
0
100
AcDbLine
 62
7
  6
CONTINUOUS
 10
12.0826966836
 20
34.7183987751
 11
12.0826966836
 21
49.1680709977
  0
LINE
  5
25D
100
AcDbEntity
  8
0
100
AcDbLine
 62
7
  6
CONTINUOUS
 10
12.1126966836
 20
49.1680709977
 11
12.1126966836
 21
42.1680709977
  0
LINE
  5
25E
100
AcDbEntity
  8
0
100
AcDbLine
 62
7
  6
CONTINUOUS
 10
12.1126966836
 20
39.1580709977
 11
12.1126966836
 21
41.9580709977
  0
LINE
  5
25F
100
AcDbEntity
  8
0
100
AcDbLine
 62
7
  6
CONTINUOUS
 10
12.2626966836
 20
34.9680709977
 11
12.2626966836
 21
39.6580709977
  0
LINE
  5
260
100
AcDbEntity
  8
0
100
AcDbLine
 62
7
  6
CONTINUOUS
 10
12.3126966836
 20
22.2890964015
 11
12.3126966836
 21
21.0105709977
  0
LINE
  5
261
100
AcDbEntity
  8
0
100
AcDbLine
 62
7
  6
CONTINUOUS
 10
12.7020365118
 20
36.3180709977
 11
12.7020365118
 21
34.9680709977
  0
LINE
  5
262
100
AcDbEntity
  8
0
100
AcDbLine
 62
7
  6
CONTINUOUS
 10
41.7126966836
 20
20.7480709977
 11
37.5626966836
 21
20.7480709977
  0
LINE
  5
263
100
AcDbEntity
  8
0
100
AcDbLine
 62
7
  6
CONTINUOUS
 10
36.5626966836
 20
20.7480709977
 11
18.8626966836
 21
20.7480709977
  0
LINE
  5
264
100
AcDbEntity
  8
0
100
AcDbLine
 62
7
  6
CONTINUOUS
 10
17.8626966836
 20
20.7480709977
 11
13.7126966836
 21
20.7480709977
  0
LINE
  5
265
100
AcDbEntity
  8
0
100
AcDbLine
 62
7
  6
CONTINUOUS
 10
43.3626966836
 20
20.7523916861
 11
43.3426966836
 21
20.7523916861
  0
LINE
  5
266
100
AcDbEntity
  8
0
100
AcDbLine
 62
7
  6
CONTINUOUS
 10
41.8126966836
 20
20.7523916861
 11
41.7126966836
 21
20.7523916861
  0
LINE
  5
267
100
AcDbEntity
  8
0
100
AcDbLine
 62
7
  6
CONTINUOUS
 10
13.7126966836
 20
20.7523916861
 11
13.6126966836
 21
20.7523916861
  0
LINE
  5
268
100
AcDbEntity
  8
0
100
AcDbLine
 62
7
  6
CONTINUOUS
 10
12.0826966836
 20
20.7523916861
 11
12.0626966836
 21
20.7523916861
  0
LINE
  5
269
100
AcDbEntity
  8
0
100
AcDbLine
 62
7
  6
CONTINUOUS
 10
37.5626966836
 20
20.8180709977
 11
36.5626966836
 21
20.8180709977
  0
LINE
  5
26A
100
AcDbEntity
  8
0
100
AcDbLine
 62
7
  6
CONTINUOUS
 10
18.8626966836
 20
20.8180709977
 11
17.8626966836
 21
20.8180709977
  0
LINE
  5
26B
100
AcDbEntity
  8
0
100
AcDbLine
 62
7
  6
CONTINUOUS
 10
12.0626966836
 20
20.9680709977
 11
9.4126966836
 21
20.9680709977
  0
LINE
  5
26C
100
AcDbEntity
  8
0
100
AcDbLine
 62
7
  6
CONTINUOUS
 10
17.8626966836
 20
20.9980709977
 11
18.8626966836
 21
20.9980709977
  0
LINE
  5
26D
100
AcDbEntity
  8
0
100
AcDbLine
 62
7
  6
CONTINUOUS
 10
36.5626966836
 20
20.9980709977
 11
37.5626966836
 21
20.9980709977
  0
LINE
  5
26E
100
AcDbEntity
  8
0
100
AcDbLine
 62
7
  6
CONTINUOUS
 10
12.0626966836
 20
20.9984395748
 11
12.0826966836
 21
20.9984395748
  0
LINE
  5
26F
100
AcDbEntity
  8
0
100
AcDbLine
 62
7
  6
CONTINUOUS
 10
13.6126966836
 20
20.9984395748
 11
13.7126966836
 21
20.9984395748
  0
LINE
  5
270
100
AcDbEntity
  8
0
100
AcDbLine
 62
7
  6
CONTINUOUS
 10
41.7126966836
 20
20.9984395748
 11
41.8126966836
 21
20.9984395748
  0
LINE
  5
271
100
AcDbEntity
  8
0
100
AcDbLine
 62
7
  6
CONTINUOUS
 10
43.3426966836
 20
20.9984395748
 11
43.3626966836
 21
20.9984395748
  0
LINE
  5
272
100
AcDbEntity
  8
0
100
AcDbLine
 62
7
  6
CONTINUOUS
 10
43.1126966836
 20
21.0105709977
 11
41.7126966836
 21
21.0105709977
  0
LINE
  5
273
100
AcDbEntity
  8
0
100
AcDbLine
 62
7
  6
CONTINUOUS
 10
13.7126966836
 20
21.0105709977
 11
12.3126966836
 21
21.0105709977
  0
LINE
  5
274
100
AcDbEntity
  8
0
100
AcDbLine
 62
7
  6
CONTINUOUS
 10
43.3426966836
 20
21.2659802905
 11
43.1126966836
 21
21.2659802905
  0
LINE
  5
275
100
AcDbEntity
  8
0
100
AcDbLine
 62
7
  6
CONTINUOUS
 10
12.3126966836
 20
21.2659802905
 11
12.0826966836
 21
21.2659802905
  0
LINE
  5
276
100
AcDbEntity
  8
0
100
AcDbLine
 62
7
  6
CONTINUOUS
 10
9.3126966836
 20
21.2950695692
 11
10.5126966836
 21
21.2950695692
  0
LINE
  5
277
100
AcDbEntity
  8
0
100
AcDbLine
 62
7
  6
CONTINUOUS
 10
9.3126966836
 20
21.29758531
 11
10.5126966836
 21
21.29758531
  0
LINE
  5
278
100
AcDbEntity
  8
0
100
AcDbLine
 62
7
  6
CONTINUOUS
 10
10.5126966836
 20
21.4288316708
 11
9.3126966836
 21
21.4288316708
  0
LINE
  5
279
100
AcDbEntity
  8
0
100
AcDbLine
 62
7
  6
CONTINUOUS
 10
12.0826966836
 20
21.6555709977
 11
9.2126966836
 21
21.6555709977
  0
LINE
  5
27A
100
AcDbEntity
  8
0
100
AcDbLine
 62
7
  6
CONTINUOUS
 10
9.3126966836
 20
21.7148575473
 11
10.5126966836
 21
21.7148575473
  0
LINE
  5
27B
100
AcDbEntity
  8
0
100
AcDbLine
 62
7
  6
CONTINUOUS
 10
9.3126966836
 20
21.7173732882
 11
10.5126966836
 21
21.7173732882
  0
LINE
  5
27C
100
AcDbEntity
  8
0
100
AcDbLine
 62
7
  6
CONTINUOUS
 10
10.5126966836
 20
21.8486196489
 11
9.3126966836
 21
21.8486196489
  0
LINE
  5
27D
100
AcDbEntity
  8
0
100
AcDbLine
 62
7
  6
CONTINUOUS
 10
43.3626966836
 20
22.0680709977
 11
43.3426966836
 21
22.0680709977
  0
LINE
  5
27E
100
AcDbEntity
  8
0
100
AcDbLine
 62
7
  6
CONTINUOUS
 10
43.3426966836
 20
22.2890964015
 11
41.8126966836
 21
22.2890964015
  0
LINE
  5
27F
100
AcDbEntity
  8
0
100
AcDbLine
 62
7
  6
CONTINUOUS
 10
13.6126966836
 20
22.2890964015
 11
12.0826966836
 21
22.2890964015
  0
LINE
  5
280
100
AcDbEntity
  8
0
100
AcDbLine
 62
7
  6
CONTINUOUS
 10
43.3626966836
 20
22.3180709977
 11
43.3426966836
 21
22.3180709977
  0
LINE
  5
281
100
AcDbEntity
  8
0
100
AcDbLine
 62
7
  6
CONTINUOUS
 10
9.3126966836
 20
22.3961979388
 11
10.5126966836
 21
22.3961979388
  0
LINE
  5
282
100
AcDbEntity
  8
0
100
AcDbLine
 62
7
  6
CONTINUOUS
 10
12.0826966836
 20
22.4140964015
 11
13.6126966836
 21
22.4140964015
  0
LINE
  5
283
100
AcDbEntity
  8
0
100
AcDbLine
 62
7
  6
CONTINUOUS
 10
41.8126966836
 20
22.4140964015
 11
43.3426966836
 21
22.4140964015
  0
LINE
  5
284
100
AcDbEntity
  8
0
100
AcDbLine
 62
7
  6
CONTINUOUS
 10
13.6126966836
 20
19.6180709977
 11
13.6126966836
 21
21.0105709977
  0
LINE
  5
285
100
AcDbEntity
  8
0
100
AcDbLine
 62
7
  6
CONTINUOUS
 10
13.6126966836
 20
22.2891451418
 11
13.6126966836
 21
33.6424542972
  0
LINE
  5
286
100
AcDbEntity
  8
0
100
AcDbLine
 62
7
  6
CONTINUOUS
 10
13.6126966836
 20
34.7183987751
 11
13.6126966836
 21
34.9680709977
  0
LINE
  5
287
100
AcDbEntity
  8
0
100
AcDbLine
 62
7
  6
CONTINUOUS
 10
13.6126966836
 20
41.9580709977
 11
13.6126966836
 21
42.1680709977
  0
LINE
  5
288
100
AcDbEntity
  8
0
100
AcDbLine
 62
7
  6
CONTINUOUS
 10
13.7126966836
 20
24.3180709977
 11
13.7126966836
 21
20.7480709977
  0
LINE
  5
289
100
AcDbEntity
  8
0
100
AcDbLine
 62
7
  6
CONTINUOUS
 10
13.7126966836
 20
41.9580709977
 11
13.7126966836
 21
42.1680709977
  0
LINE
  5
28A
100
AcDbEntity
  8
0
100
AcDbLine
 62
7
  6
CONTINUOUS
 10
13.8126966836
 20
20.662415673
 11
13.8126966836
 21
17.3180709977
  0
LINE
  5
28B
100
AcDbEntity
  8
0
100
AcDbLine
 62
7
  6
CONTINUOUS
 10
14.2626966836
 20
39.2653528434
 11
14.2626966836
 21
39.6580709977
  0
LINE
  5
28C
100
AcDbEntity
  8
0
100
AcDbLine
 62
7
  6
CONTINUOUS
 10
14.4626966836
 20
39.6580709977
 11
14.4626966836
 21
39.4743734236
  0
LINE
  5
28D
100
AcDbEntity
  8
0
100
AcDbLine
 62
7
  6
CONTINUOUS
 10
41.8126966836
 20
22.4855709977
 11
41.7126966836
 21
22.4855709977
  0
LINE
  5
28E
100
AcDbEntity
  8
0
100
AcDbLine
 62
7
  6
CONTINUOUS
 10
13.7126966836
 20
22.4855709977
 11
13.6126966836
 21
22.4855709977
  0
LINE
  5
28F
100
AcDbEntity
  8
0
100
AcDbLine
 62
7
  6
CONTINUOUS
 10
17.8626966836
 20
22.4980709977
 11
18.8626966836
 21
22.4980709977
  0
LINE
  5
290
100
AcDbEntity
  8
0
100
AcDbLine
 62
7
  6
CONTINUOUS
 10
36.5626966836
 20
22.4980709977
 11
37.5626966836
 21
22.4980709977
  0
LINE
  5
291
100
AcDbEntity
  8
0
100
AcDbLine
 62
7
  6
CONTINUOUS
 10
41.7126966836
 20
22.7480709977
 11
37.5626966836
 21
22.7480709977
  0
LINE
  5
292
100
AcDbEntity
  8
0
100
AcDbLine
 62
7
  6
CONTINUOUS
 10
36.5626966836
 20
22.7480709977
 11
18.8626966836
 21
22.7480709977
  0
LINE
  5
293
100
AcDbEntity
  8
0
100
AcDbLine
 62
7
  6
CONTINUOUS
 10
17.8626966836
 20
22.7480709977
 11
13.7126966836
 21
22.7480709977
  0
LINE
  5
294
100
AcDbEntity
  8
0
100
AcDbLine
 62
7
  6
CONTINUOUS
 10
43.3626966836
 20
23.0680709977
 11
43.3426966836
 21
23.0680709977
  0
LINE
  5
295
100
AcDbEntity
  8
0
100
AcDbLine
 62
7
  6
CONTINUOUS
 10
43.3426966836
 20
23.1183526599
 11
41.8126966836
 21
23.11835266
  0
LINE
  5
296
100
AcDbEntity
  8
0
100
AcDbLine
 62
7
  6
CONTINUOUS
 10
13.6126966836
 20
23.1183526599
 11
12.0826966836
 21
23.11835266
  0
LINE
  5
297
100
AcDbEntity
  8
0
100
AcDbLine
 62
7
  6
CONTINUOUS
 10
43.3426966836
 20
23.3180709977
 11
43.3626966836
 21
23.3180709977
  0
LINE
  5
298
100
AcDbEntity
  8
0
100
AcDbLine
 62
7
  6
CONTINUOUS
 10
43.3426966836
 20
23.3680709977
 11
43.3626966836
 21
23.3680709977
  0
LINE
  5
299
100
AcDbEntity
  8
0
100
AcDbLine
 62
7
  6
CONTINUOUS
 10
12.0826966836
 20
23.3683526599
 11
13.6126966836
 21
23.3683526599
  0
LINE
  5
29A
100
AcDbEntity
  8
0
100
AcDbLine
 62
7
  6
CONTINUOUS
 10
41.8126966836
 20
23.3683526599
 11
43.3426966836
 21
23.3683526599
  0
LINE
  5
29B
100
AcDbEntity
  8
0
100
AcDbLine
 62
7
  6
CONTINUOUS
 10
41.8126966836
 20
23.4805709977
 11
41.7126966836
 21
23.4805709977
  0
LINE
  5
29C
100
AcDbEntity
  8
0
100
AcDbLine
 62
7
  6
CONTINUOUS
 10
13.7126966836
 20
23.4805709977
 11
13.6126966836
 21
23.4805709977
  0
LINE
  5
29D
100
AcDbEntity
  8
0
100
AcDbLine
 62
7
  6
CONTINUOUS
 10
12.0826966836
 20
23.4805709977
 11
10.5126966836
 21
23.4805709977
  0
LINE
  5
29E
100
AcDbEntity
  8
0
100
AcDbLine
 62
7
  6
CONTINUOUS
 10
9.3126966836
 20
23.4805709977
 11
9.2126966836
 21
23.4805709977
  0
LINE
  5
29F
100
AcDbEntity
  8
0
100
AcDbLine
 62
7
  6
CONTINUOUS
 10
12.0626966836
 20
23.5680709977
 11
12.0826966836
 21
23.5680709977
  0
LINE
  5
2A0
100
AcDbEntity
  8
0
100
AcDbLine
 62
7
  6
CONTINUOUS
 10
40.3126966836
 20
23.8101196446
 11
41.5126966836
 21
23.8101196446
  0
LINE
  5
2A1
100
AcDbEntity
  8
0
100
AcDbLine
 62
7
  6
CONTINUOUS
 10
41.7126966836
 20
23.8180709977
 11
41.5126966836
 21
23.8180709977
  0
LINE
  5
2A2
100
AcDbEntity
  8
0
100
AcDbLine
 62
7
  6
CONTINUOUS
 10
40.3126966836
 20
23.8180709977
 11
40.1626966836
 21
23.8180709977
  0
LINE
  5
2A3
100
AcDbEntity
  8
0
100
AcDbLine
 62
7
  6
CONTINUOUS
 10
21.2126966836
 20
23.8180709977
 11
26.2126966836
 21
23.8180709977
  0
LINE
  5
2A4
100
AcDbEntity
  8
0
100
AcDbLine
 62
7
  6
CONTINUOUS
 10
29.1626966836
 20
23.8180709977
 11
34.1626966836
 21
23.8180709977
  0
LINE
  5
2A5
100
AcDbEntity
  8
0
100
AcDbLine
 62
7
  6
CONTINUOUS
 10
10.5126966836
 20
23.8886507162
 11
9.3126966836
 21
23.8886507162
  0
LINE
  5
2A6
100
AcDbEntity
  8
0
100
AcDbLine
 62
7
  6
CONTINUOUS
 10
11.842119547
 20
29.18679023
 11
11.0626966836
 21
29.5937950454
  0
LINE
  5
2A7
100
AcDbEntity
  8
0
100
AcDbLine
 62
7
  6
CONTINUOUS
 10
14.8126966836
 20
17.4180709977
 11
14.8126966836
 21
20.7480709977
  0
LINE
  5
2A8
100
AcDbEntity
  8
0
100
AcDbLine
 62
7
  6
CONTINUOUS
 10
15.212697506
 20
49.7182267866
 11
15.2126970094
 21
41.9580709977
  0
LINE
  5
2A9
100
AcDbEntity
  8
0
100
AcDbLine
 62
7
  6
CONTINUOUS
 10
15.2126968622
 20
39.6580709977
 11
15.2126966836
 21
36.8680709977
  0
LINE
  5
2AA
100
AcDbEntity
  8
0
100
AcDbLine
 62
7
  6
CONTINUOUS
 10
15.2126966836
 20
49.7187361136
 11
15.2126966836
 21
50.8680709977
  0
LINE
  5
2AB
100
AcDbEntity
  8
0
100
AcDbLine
 62
7
  6
CONTINUOUS
 10
15.3626966836
 20
37.0680709977
 11
15.3626966836
 21
50.8180709977
  0
LINE
  5
2AC
100
AcDbEntity
  8
0
100
AcDbLine
 62
7
  6
CONTINUOUS
 10
15.8233568554
 20
34.9680709977
 11
15.8233568554
 21
36.3180709977
  0
LINE
  5
2AD
100
AcDbEntity
  8
0
100
AcDbLine
 62
7
  6
CONTINUOUS
 10
40.1626966836
 20
24.3180709977
 11
34.1626966836
 21
24.3180709977
  0
LINE
  5
2AE
100
AcDbEntity
  8
0
100
AcDbLine
 62
7
  6
CONTINUOUS
 10
29.1626966836
 20
24.3180709977
 11
26.2126966836
 21
24.3180709977
  0
LINE
  5
2AF
100
AcDbEntity
  8
0
100
AcDbLine
 62
7
  6
CONTINUOUS
 10
21.2126966836
 20
24.3180709977
 11
13.7126966836
 21
24.3180709977
  0
LINE
  5
2B0
100
AcDbEntity
  8
0
100
AcDbLine
 62
7
  6
CONTINUOUS
 10
9.3126966836
 20
24.8349435319
 11
10.5126966836
 21
24.8349435319
  0
LINE
  5
2B1
100
AcDbEntity
  8
0
100
AcDbLine
 62
7
  6
CONTINUOUS
 10
12.0626966836
 20
25.5128323288
 11
11.4126966836
 21
25.5128323288
  0
LINE
  5
2B2
100
AcDbEntity
  8
0
100
AcDbLine
 62
7
  6
CONTINUOUS
 10
10.5126966836
 20
25.8148016727
 11
11.4126966836
 21
25.8148016727
  0
LINE
  5
2B3
100
AcDbEntity
  8
0
100
AcDbLine
 62
7
  6
CONTINUOUS
 10
9.3126966836
 20
35.9015870489
 11
9.8391257129
 21
35.4690482489
  0
LINE
  5
2B4
100
AcDbEntity
  8
0
100
AcDbLine
 62
7
  6
CONTINUOUS
 10
16.4126966836
 20
50.8180709977
 11
16.4126966836
 21
50.8680709977
  0
LINE
  5
2B5
100
AcDbEntity
  8
0
100
AcDbLine
 62
7
  6
CONTINUOUS
 10
16.6474792923
 20
50.8180709977
 11
16.6474792923
 21
50.8680709977
  0
LINE
  5
2B6
100
AcDbEntity
  8
0
100
AcDbLine
 62
7
  6
CONTINUOUS
 10
16.7326966836
 20
34.2065162872
 11
16.7326966836
 21
34.8088442897
  0
LINE
  5
2B7
100
AcDbEntity
  8
0
100
AcDbLine
 62
7
  6
CONTINUOUS
 10
16.8840170272
 20
36.3180709977
 11
16.8840170272
 21
34.9680709977
  0
LINE
  5
2B8
100
AcDbEntity
  8
0
100
AcDbLine
 62
7
  6
CONTINUOUS
 10
17.1626966836
 20
49.6180709977
 11
17.1626966836
 21
42.0680709977
  0
LINE
  5
2B9
100
AcDbEntity
  8
0
100
AcDbLine
 62
7
  6
CONTINUOUS
 10
17.2126966836
 20
50.8680709977
 11
17.2126966836
 21
50.8180709977
  0
LINE
  5
2BA
100
AcDbEntity
  8
0
100
AcDbLine
 62
7
  6
CONTINUOUS
 10
17.3349440518
 20
50.8680709977
 11
17.3349440518
 21
50.8180709977
  0
LINE
  5
2BB
100
AcDbEntity
  8
0
100
AcDbLine
 62
7
  6
CONTINUOUS
 10
17.4626966836
 20
50.8680709977
 11
17.4626966836
 21
51.0180709977
  0
LINE
  5
2BC
100
AcDbEntity
  8
0
100
AcDbLine
 62
7
  6
CONTINUOUS
 10
17.8626966836
 20
20.7480709977
 11
17.8626966836
 21
22.7480709977
  0
LINE
  5
2BD
100
AcDbEntity
  8
0
100
AcDbLine
 62
7
  6
CONTINUOUS
 10
12.0626966836
 20
26.1180709977
 11
12.0826966836
 21
26.1180709977
  0
LINE
  5
2BE
100
AcDbEntity
  8
0
100
AcDbLine
 62
7
  6
CONTINUOUS
 10
11.4126966836
 20
26.3180709977
 11
10.5126966836
 21
26.3180709977
  0
LINE
  5
2BF
100
AcDbEntity
  8
0
100
AcDbLine
 62
7
  6
CONTINUOUS
 10
11.6126966836
 20
26.5430709977
 11
12.0826966836
 21
26.5430709977
  0
LINE
  5
2C0
100
AcDbEntity
  8
0
100
AcDbLine
 62
7
  6
CONTINUOUS
 10
43.3426966836
 20
26.5430709977
 11
43.8126966836
 21
26.5430709977
  0
LINE
  5
2C1
100
AcDbEntity
  8
0
100
AcDbLine
 62
7
  6
CONTINUOUS
 10
11.6126966836
 20
26.597260222
 11
10.9126966836
 21
26.597260222
  0
LINE
  5
2C2
100
AcDbEntity
  8
0
100
AcDbLine
 62
7
  6
CONTINUOUS
 10
10.9126966836
 20
26.6424722109
 11
11.6126966836
 21
26.6424722109
  0
LINE
  5
2C3
100
AcDbEntity
  8
0
100
AcDbLine
 62
7
  6
CONTINUOUS
 10
40.3126966836
 20
27.2544209639
 11
41.5126966836
 21
27.2544209639
  0
LINE
  5
2C4
100
AcDbEntity
  8
0
100
AcDbLine
 62
7
  6
CONTINUOUS
 10
18.2126966836
 20
36.4180709977
 11
18.2126966836
 21
50.8180709977
  0
LINE
  5
2C5
100
AcDbEntity
  8
0
100
AcDbLine
 62
7
  6
CONTINUOUS
 10
18.3126966836
 20
47.0180709977
 11
18.3126966836
 21
51.0180709977
  0
LINE
  5
2C6
100
AcDbEntity
  8
0
100
AcDbLine
 62
7
  6
CONTINUOUS
 10
18.8626966836
 20
22.7480709977
 11
18.8626966836
 21
20.7480709977
  0
LINE
  5
2C7
100
AcDbEntity
  8
0
100
AcDbLine
 62
7
  6
CONTINUOUS
 10
19.3626966836
 20
36.3180709977
 11
19.3626966836
 21
36.4180709977
  0
LINE
  5
2C8
100
AcDbEntity
  8
0
100
AcDbLine
 62
7
  6
CONTINUOUS
 10
19.3626966836
 20
47.0180709977
 11
19.3626966836
 21
47.2180709977
  0
LINE
  5
2C9
100
AcDbEntity
  8
0
100
AcDbLine
 62
7
  6
CONTINUOUS
 10
38.2626966836
 20
49.6180709977
 11
40.0626966836
 21
50.8180709977
  0
LINE
  5
2CA
100
AcDbEntity
  8
0
100
AcDbLine
 62
7
  6
CONTINUOUS
 10
11.5823119259
 20
34.7183987751
 11
11.0626966836
 21
34.4470622315
  0
LINE
  5
2CB
100
AcDbEntity
  8
0
100
AcDbLine
 62
7
  6
CONTINUOUS
 10
11.0626966836
 20
33.9351797436
 11
11.5823119259
 21
34.2065162872
  0
LINE
  5
2CC
100
AcDbEntity
  8
0
100
AcDbLine
 62
7
  6
CONTINUOUS
 10
10.5126966836
 20
28.0680709977
 11
10.9126966836
 21
28.0680709977
  0
LINE
  5
2CD
100
AcDbEntity
  8
0
100
AcDbLine
 62
7
  6
CONTINUOUS
 10
11.5326966836
 20
28.5993118777
 11
10.5126966836
 21
28.5993118777
  0
LINE
  5
2CE
100
AcDbEntity
  8
0
100
AcDbLine
 62
7
  6
CONTINUOUS
 10
10.5126966836
 20
28.6263120137
 11
11.5326966836
 21
28.6263120137
  0
LINE
  5
2CF
100
AcDbEntity
  8
0
100
AcDbLine
 62
7
  6
CONTINUOUS
 10
35.0126966836
 20
28.9154536863
 11
31.0126966836
 21
28.9154536863
  0
LINE
  5
2D0
100
AcDbEntity
  8
0
100
AcDbLine
 62
7
  6
CONTINUOUS
 10
25.0126966836
 20
28.9154536863
 11
20.0126966836
 21
28.9154536863
  0
LINE
  5
2D1
100
AcDbEntity
  8
0
100
AcDbLine
 62
7
  6
CONTINUOUS
 10
38.9528890625
 20
29.18679023
 11
35.0126966836
 21
29.18679023
  0
LINE
  5
2D2
100
AcDbEntity
  8
0
100
AcDbLine
 62
7
  6
CONTINUOUS
 10
31.0126966836
 20
29.18679023
 11
25.0126966836
 21
29.18679023
  0
LINE
  5
2D3
100
AcDbEntity
  8
0
100
AcDbLine
 62
7
  6
CONTINUOUS
 10
20.0126966836
 20
29.18679023
 11
13.6126966836
 21
29.18679023
  0
LINE
  5
2D4
100
AcDbEntity
  8
0
100
AcDbLine
 62
7
  6
CONTINUOUS
 10
12.0826966836
 20
29.18679023
 11
11.842119547
 21
29.18679023
  0
LINE
  5
2D5
100
AcDbEntity
  8
0
100
AcDbLine
 62
7
  6
CONTINUOUS
 10
19.8126966836
 20
47.0180709977
 11
19.8126966836
 21
36.4180709977
  0
LINE
  5
2D6
100
AcDbEntity
  8
0
100
AcDbLine
 62
7
  6
CONTINUOUS
 10
19.8126966836
 20
48.3677984661
 11
19.8126966836
 21
50.8680709977
  0
LINE
  5
2D7
100
AcDbEntity
  8
0
100
AcDbLine
 62
7
  6
CONTINUOUS
 10
19.8626966836
 20
47.2180709977
 11
19.8626966836
 21
47.0180709977
  0
LINE
  5
2D8
100
AcDbEntity
  8
0
100
AcDbLine
 62
7
  6
CONTINUOUS
 10
19.8626966836
 20
36.4180709977
 11
19.8626966836
 21
36.3180709977
  0
LINE
  5
2D9
100
AcDbEntity
  8
0
100
AcDbLine
 62
7
  6
CONTINUOUS
 10
19.9126966836
 20
48.3680709977
 11
19.912696684
 21
47.2180709977
  0
LINE
  5
2DA
100
AcDbEntity
  8
0
100
AcDbLine
 62
7
  6
CONTINUOUS
 10
20.0126966836
 20
28.9154536863
 11
20.0126966836
 21
29.18679023
  0
LINE
  5
2DB
100
AcDbEntity
  8
0
100
AcDbLine
 62
7
  6
CONTINUOUS
 10
20.1126966836
 20
48.3680709977
 11
20.1126966836
 21
50.5680709977
  0
LINE
  5
2DC
100
AcDbEntity
  8
0
100
AcDbLine
 62
7
  6
CONTINUOUS
 10
21.2126966836
 20
22.7480709977
 11
21.2126966836
 21
24.3180709977
  0
LINE
  5
2DD
100
AcDbEntity
  8
0
100
AcDbLine
 62
7
  6
CONTINUOUS
 10
41.5126966836
 20
29.4069190412
 11
40.3126966836
 21
29.4069190412
  0
LINE
  5
2DE
100
AcDbEntity
  8
0
100
AcDbLine
 62
7
  6
CONTINUOUS
 10
10.5126966836
 20
29.4686980939
 11
9.3126966836
 21
29.4686980939
  0
LINE
  5
2DF
100
AcDbEntity
  8
0
100
AcDbLine
 62
7
  6
CONTINUOUS
 10
11.0626966836
 20
29.5937950454
 11
11.1126966836
 21
29.5937950454
  0
LINE
  5
2E0
100
AcDbEntity
  8
0
100
AcDbLine
 62
7
  6
CONTINUOUS
 10
40.9613206702
 20
29.813558892
 11
41.5126966836
 21
29.813558892
  0
LINE
  5
2E1
100
AcDbEntity
  8
0
100
AcDbLine
 62
7
  6
CONTINUOUS
 10
9.3126966836
 20
29.8672611826
 11
9.7895136817
 21
29.8672611826
  0
LINE
  5
2E2
100
AcDbEntity
  8
0
100
AcDbLine
 62
7
  6
CONTINUOUS
 10
41.5126966836
 20
30.1329391076
 11
41.4280707428
 21
30.1329391076
  0
LINE
  5
2E3
100
AcDbEntity
  8
0
100
AcDbLine
 62
7
  6
CONTINUOUS
 10
9.4451216222
 20
30.1329391076
 11
9.3126966836
 21
30.1329391076
  0
LINE
  5
2E4
100
AcDbEntity
  8
0
100
AcDbLine
 62
7
  6
CONTINUOUS
 10
43.8126966836
 20
30.5430709977
 11
43.3426966836
 21
30.5430709977
  0
LINE
  5
2E5
100
AcDbEntity
  8
0
100
AcDbLine
 62
7
  6
CONTINUOUS
 10
43.4426966836
 20
30.8680709977
 11
43.3426966836
 21
30.8680709977
  0
LINE
  5
2E6
100
AcDbEntity
  8
0
100
AcDbLine
 62
7
  6
CONTINUOUS
 10
22.7126966836
 20
17.3180709977
 11
22.7126966836
 21
17.2581101566
  0
LINE
  5
2E7
100
AcDbEntity
  8
0
100
AcDbLine
 62
7
  6
CONTINUOUS
 10
22.7326966836
 20
34.8088442897
 11
22.7326966836
 21
34.2065162872
  0
LINE
  5
2E8
100
AcDbEntity
  8
0
100
AcDbLine
 62
7
  6
CONTINUOUS
 10
8.7126966836
 20
31.8872568836
 11
6.3955393961
 21
31.8872568836
  0
LINE
  5
2E9
100
AcDbEntity
  8
0
100
AcDbLine
 62
7
  6
CONTINUOUS
 10
43.3426966836
 20
32.0637186847
 11
41.8126966836
 21
32.0637186847
  0
LINE
  5
2EA
100
AcDbEntity
  8
0
100
AcDbLine
 62
7
  6
CONTINUOUS
 10
13.6126966836
 20
32.0637186847
 11
12.0826966836
 21
32.0637186847
  0
LINE
  5
2EB
100
AcDbEntity
  8
0
100
AcDbLine
 62
7
  6
CONTINUOUS
 10
8.7126966836
 20
32.3474443119
 11
6.3955393961
 21
32.3474443119
  0
LINE
  5
2EC
100
AcDbEntity
  8
0
100
AcDbLine
 62
7
  6
CONTINUOUS
 10
43.3426966836
 20
32.3680709977
 11
43.4426966836
 21
32.3680709977
  0
LINE
  5
2ED
100
AcDbEntity
  8
0
100
AcDbLine
 62
7
  6
CONTINUOUS
 10
12.0826966836
 20
32.4934405403
 11
13.6126966836
 21
32.4934405403
  0
LINE
  5
2EE
100
AcDbEntity
  8
0
100
AcDbLine
 62
7
  6
CONTINUOUS
 10
41.8126966836
 20
32.4934405403
 11
43.3426966836
 21
32.4934405403
  0
LINE
  5
2EF
100
AcDbEntity
  8
0
100
AcDbLine
 62
7
  6
CONTINUOUS
 10
23.2126966836
 20
50.5680709977
 11
23.2126966836
 21
48.3680709977
  0
LINE
  5
2F0
100
AcDbEntity
  8
0
100
AcDbLine
 62
7
  6
CONTINUOUS
 10
23.7126966836
 20
45.3680709977
 11
23.7126966836
 21
47.0180709977
  0
LINE
  5
2F1
100
AcDbEntity
  8
0
100
AcDbLine
 62
7
  6
CONTINUOUS
 10
24.0626966836
 20
36.4180709977
 11
24.0626966836
 21
34.9180709977
  0
LINE
  5
2F2
100
AcDbEntity
  8
0
100
AcDbLine
 62
7
  6
CONTINUOUS
 10
24.3126966836
 20
50.8680709977
 11
24.3126966836
 21
48.3680709977
  0
LINE
  5
2F3
100
AcDbEntity
  8
0
100
AcDbLine
 62
7
  6
CONTINUOUS
 10
23.8328458433
 20
36.4180709977
 11
23.820191885
 21
34.9680709977
  0
LINE
  5
2F4
100
AcDbEntity
  8
0
100
AcDbLine
 62
7
  6
CONTINUOUS
 10
23.9109513101
 20
45.3680709977
 11
23.9270960155
 21
47.2180709977
  0
LINE
  5
2F5
100
AcDbEntity
  8
0
100
AcDbLine
 62
7
  6
CONTINUOUS
 10
43.3426966836
 20
33.6073761197
 11
41.8126966836
 21
33.6073761197
  0
LINE
  5
2F6
100
AcDbEntity
  8
0
100
AcDbLine
 62
7
  6
CONTINUOUS
 10
13.6126966836
 20
33.6073761197
 11
12.0826966836
 21
33.6073761197
  0
LINE
  5
2F7
100
AcDbEntity
  8
0
100
AcDbLine
 62
7
  6
CONTINUOUS
 10
12.0826966836
 20
33.6425151919
 11
13.6126966836
 21
33.6425151919
  0
LINE
  5
2F8
100
AcDbEntity
  8
0
100
AcDbLine
 62
7
  6
CONTINUOUS
 10
41.8126966836
 20
33.6425151919
 11
43.3426966836
 21
33.6425151919
  0
LINE
  5
2F9
100
AcDbEntity
  8
0
100
AcDbLine
 62
7
  6
CONTINUOUS
 10
11.0626966836
 20
33.9351797436
 11
11.1126966836
 21
33.9351797436
  0
LINE
  5
2FA
100
AcDbEntity
  8
0
100
AcDbLine
 62
7
  6
CONTINUOUS
 10
39.2126966836
 20
34.2065162872
 11
37.3126966836
 21
34.2065162872
  0
LINE
  5
2FB
100
AcDbEntity
  8
0
100
AcDbLine
 62
7
  6
CONTINUOUS
 10
16.7326966836
 20
34.2065162872
 11
11.5823119259
 21
34.2065162872
  0
LINE
  5
2FC
100
AcDbEntity
  8
0
100
AcDbLine
 62
7
  6
CONTINUOUS
 10
16.7326966836
 20
34.2969618018
 11
22.7326966836
 21
34.2969618018
  0
LINE
  5
2FD
100
AcDbEntity
  8
0
100
AcDbLine
 62
7
  6
CONTINUOUS
 10
32.8426966836
 20
34.2969618018
 11
37.3126966836
 21
34.2969618018
  0
LINE
  5
2FE
100
AcDbEntity
  8
0
100
AcDbLine
 62
7
  6
CONTINUOUS
 10
25.0144420572
 20
45.3680709977
 11
25.0126966836
 21
45.5680709977
  0
LINE
  5
2FF
100
AcDbEntity
  8
0
100
AcDbLine
 62
7
  6
CONTINUOUS
 10
25.0126966836
 20
29.18679023
 11
25.0126966836
 21
28.9154536863
  0
LINE
  5
300
100
AcDbEntity
  8
0
100
AcDbLine
 62
7
  6
CONTINUOUS
 10
26.1126966836
 20
45.5680709977
 11
26.1126966836
 21
45.3680709977
  0
LINE
  5
301
100
AcDbEntity
  8
0
100
AcDbLine
 62
7
  6
CONTINUOUS
 10
26.2126966836
 20
24.3180709977
 11
26.2126966836
 21
22.7480709977
  0
LINE
  5
302
100
AcDbEntity
  8
0
100
AcDbLine
 62
7
  6
CONTINUOUS
 10
25.9535334724
 20
46.3180709977
 11
25.945242948
 21
45.3680709977
  0
LINE
  5
303
100
AcDbEntity
  8
0
100
AcDbLine
 62
7
  6
CONTINUOUS
 10
38.5031673248
 20
34.5680709977
 11
41.3538829547
 21
34.5680709977
  0
LINE
  5
304
100
AcDbEntity
  8
0
100
AcDbLine
 62
7
  6
CONTINUOUS
 10
9.313391278
 20
34.6816748019
 11
10.51478257
 21
34.6816770221
  0
LINE
  5
305
100
AcDbEntity
  8
0
100
AcDbLine
 62
7
  6
CONTINUOUS
 10
38.5031673248
 20
34.7183987751
 11
37.3126966836
 21
34.7183987751
  0
LINE
  5
306
100
AcDbEntity
  8
0
100
AcDbLine
 62
7
  6
CONTINUOUS
 10
16.7326966836
 20
34.7183987751
 11
11.5823119259
 21
34.7183987751
  0
LINE
  5
307
100
AcDbEntity
  8
0
100
AcDbLine
 62
7
  6
CONTINUOUS
 10
16.7326966836
 20
34.8088442897
 11
22.7326966836
 21
34.8088442897
  0
LINE
  5
308
100
AcDbEntity
  8
0
100
AcDbLine
 62
7
  6
CONTINUOUS
 10
32.8426966836
 20
34.8088442897
 11
37.3126966836
 21
34.8088442897
  0
LINE
  5
309
100
AcDbEntity
  8
0
100
AcDbLine
 62
7
  6
CONTINUOUS
 10
11.9326966836
 20
34.9043810205
 11
10.5326966836
 21
34.9043810205
  0
LINE
  5
30A
100
AcDbEntity
  8
0
100
AcDbLine
 62
7
  6
CONTINUOUS
 10
31.3626966836
 20
34.9180709977
 11
24.0626966836
 21
34.9180709977
  0
LINE
  5
30B
100
AcDbEntity
  8
0
100
AcDbLine
 62
7
  6
CONTINUOUS
 10
12.2626966836
 20
34.9680709977
 11
24.0626966836
 21
34.9680709977
  0
LINE
  5
30C
100
AcDbEntity
  8
0
100
AcDbLine
 62
7
  6
CONTINUOUS
 10
31.3626966836
 20
34.9680709977
 11
39.1714222179
 21
34.9680709977
  0
LINE
  5
30D
100
AcDbEntity
  8
0
100
AcDbLine
 62
7
  6
CONTINUOUS
 10
41.3538829547
 20
34.9680709977
 11
43.3126966836
 21
34.9680709977
  0
LINE
  5
30E
100
AcDbEntity
  8
0
100
AcDbLine
 62
7
  6
CONTINUOUS
 10
9.3126966836
 20
35.0268954551
 11
10.5126966836
 21
35.0268954551
  0
LINE
  5
30F
100
AcDbEntity
  8
0
100
AcDbLine
 62
7
  6
CONTINUOUS
 10
9.8391257129
 20
35.4690482489
 11
9.3126966836
 21
35.4690482489
  0
LINE
  5
310
100
AcDbEntity
  8
0
100
AcDbLine
 62
7
  6
CONTINUOUS
 10
10.5126966836
 20
35.7380102202
 11
9.8836802335
 21
35.7380102202
  0
LINE
  5
311
100
AcDbEntity
  8
0
100
AcDbLine
 62
7
  6
CONTINUOUS
 10
9.9126966836
 20
35.9505336615
 11
10.5126966836
 21
35.9505336615
  0
LINE
  5
312
100
AcDbEntity
  8
0
100
AcDbLine
 62
7
  6
CONTINUOUS
 10
5.5126966836
 20
36.0416252178
 11
8.7126966836
 21
36.0416252178
  0
LINE
  5
313
100
AcDbEntity
  8
0
100
AcDbLine
 62
7
  6
CONTINUOUS
 10
9.0326966836
 20
36.1280709977
 11
9.1762581062
 21
36.1280709977
  0
LINE
  5
314
100
AcDbEntity
  8
0
100
AcDbLine
 62
7
  6
CONTINUOUS
 10
12.2626966836
 20
36.3180709977
 11
23.8319731565
 21
36.3180709977
  0
LINE
  5
315
100
AcDbEntity
  8
0
100
AcDbLine
 62
7
  6
CONTINUOUS
 10
31.5934202107
 20
36.3180709977
 11
43.3126966836
 21
36.3180709977
  0
LINE
  5
316
100
AcDbEntity
  8
0
100
AcDbLine
 62
7
  6
CONTINUOUS
 10
18.2126966836
 20
36.4180709977
 11
24.0626966836
 21
36.4180709977
  0
LINE
  5
317
100
AcDbEntity
  8
0
100
AcDbLine
 62
7
  6
CONTINUOUS
 10
31.3626966836
 20
36.4180709977
 11
37.2126966836
 21
36.4180709977
  0
LINE
  5
318
100
AcDbEntity
  8
0
100
AcDbLine
 62
7
  6
CONTINUOUS
 10
11.9326966836
 20
36.6230709977
 11
12.0826966836
 21
36.6230709977
  0
LINE
  5
319
100
AcDbEntity
  8
0
100
AcDbLine
 62
7
  6
CONTINUOUS
 10
40.2126966836
 20
36.8680709977
 11
37.2126966836
 21
36.8680709977
  0
LINE
  5
31A
100
AcDbEntity
  8
0
100
AcDbLine
 62
7
  6
CONTINUOUS
 10
18.2126966836
 20
36.8680709977
 11
15.2126966836
 21
36.8680709977
  0
LINE
  5
31B
100
AcDbEntity
  8
0
100
AcDbLine
 62
7
  6
CONTINUOUS
 10
15.3626966836
 20
37.0680709977
 11
18.2126966836
 21
37.0680709977
  0
LINE
  5
31C
100
AcDbEntity
  8
0
100
AcDbLine
 62
7
  6
CONTINUOUS
 10
37.2126966836
 20
37.0680709977
 11
40.0626966836
 21
37.0680709977
  0
LINE
  5
31D
100
AcDbEntity
  8
0
100
AcDbLine
 62
7
  6
CONTINUOUS
 10
11.7326966836
 20
37.4322005049
 11
11.9326966836
 21
37.4322005049
  0
LINE
  5
31E
100
AcDbEntity
  8
0
100
AcDbLine
 62
7
  6
CONTINUOUS
 10
29.4801504192
 20
45.3680709977
 11
29.4718598948
 21
46.3180709977
  0
LINE
  5
31F
100
AcDbEntity
  8
0
100
AcDbLine
 62
7
  6
CONTINUOUS
 10
28.7126966836
 20
17.2581101566
 11
28.7126966836
 21
17.3180709977
  0
LINE
  5
320
100
AcDbEntity
  8
0
100
AcDbLine
 62
7
  6
CONTINUOUS
 10
29.1626966836
 20
22.7480709977
 11
29.1626966836
 21
24.3180709977
  0
LINE
  5
321
100
AcDbEntity
  8
0
100
AcDbLine
 62
7
  6
CONTINUOUS
 10
29.3126966836
 20
45.5680709977
 11
29.3126966836
 21
45.3680709977
  0
LINE
  5
322
100
AcDbEntity
  8
0
100
AcDbLine
 62
7
  6
CONTINUOUS
 10
41.3126966836
 20
39.2682140742
 11
43.3126966836
 21
39.3063638176
  0
LINE
  5
323
100
AcDbEntity
  8
0
100
AcDbLine
 62
7
  6
CONTINUOUS
 10
11.9326966836
 20
38.4597382253
 11
11.7326966836
 21
38.4597382253
  0
LINE
  5
324
100
AcDbEntity
  8
0
100
AcDbLine
 62
7
  6
CONTINUOUS
 10
12.2626966836
 20
39.1580709977
 11
12.1126966836
 21
39.1580709977
  0
LINE
  5
325
100
AcDbEntity
  8
0
100
AcDbLine
 62
7
  6
CONTINUOUS
 10
11.7326966836
 20
39.3930709977
 11
12.0826966836
 21
39.3930709977
  0
LINE
  5
326
100
AcDbEntity
  8
0
100
AcDbLine
 62
7
  6
CONTINUOUS
 10
43.4426966836
 20
39.3930709977
 11
43.8126966836
 21
39.3930709977
  0
LINE
  5
327
100
AcDbEntity
  8
0
100
AcDbLine
 62
7
  6
CONTINUOUS
 10
12.2626966836
 20
39.3035025868
 11
14.2626966836
 21
39.2653528434
  0
LINE
  5
328
100
AcDbEntity
  8
0
100
AcDbLine
 62
7
  6
CONTINUOUS
 10
31.6052014822
 20
34.9680709977
 11
31.5925475239
 21
36.4180709977
  0
LINE
  5
329
100
AcDbEntity
  8
0
100
AcDbLine
 62
7
  6
CONTINUOUS
 10
31.5144420572
 20
45.3680709977
 11
31.4982973518
 21
47.2180709977
  0
LINE
  5
32A
100
AcDbEntity
  8
0
100
AcDbLine
 62
7
  6
CONTINUOUS
 10
31.0126966836
 20
28.9154536863
 11
31.0126966836
 21
29.18679023
  0
LINE
  5
32B
100
AcDbEntity
  8
0
100
AcDbLine
 62
7
  6
CONTINUOUS
 10
31.1126966836
 20
48.3680709977
 11
31.1126966836
 21
50.8680709977
  0
LINE
  5
32C
100
AcDbEntity
  8
0
100
AcDbLine
 62
7
  6
CONTINUOUS
 10
31.3626966836
 20
36.4180709977
 11
31.3626966836
 21
34.9180709977
  0
LINE
  5
32D
100
AcDbEntity
  8
0
100
AcDbLine
 62
7
  6
CONTINUOUS
 10
30.4126966836
 20
45.5680709977
 11
30.4109513101
 21
45.3680709977
  0
LINE
  5
32E
100
AcDbEntity
  8
0
100
AcDbLine
 62
7
  6
CONTINUOUS
 10
12.1126966836
 20
39.6580709977
 11
15.3626966836
 21
39.6580709977
  0
LINE
  5
32F
100
AcDbEntity
  8
0
100
AcDbLine
 62
7
  6
CONTINUOUS
 10
40.0626966836
 20
39.6580709977
 11
43.3126966836
 21
39.6580709977
  0
LINE
  5
330
100
AcDbEntity
  8
0
100
AcDbLine
 62
7
  6
CONTINUOUS
 10
10.5326966836
 20
39.858523599
 11
11.7326966836
 21
39.858523599
  0
LINE
  5
331
100
AcDbEntity
  8
0
100
AcDbLine
 62
7
  6
CONTINUOUS
 10
9.7626955225
 20
39.9037974168
 11
9.3126966836
 21
39.9037974168
  0
LINE
  5
332
100
AcDbEntity
  8
0
100
AcDbLine
 62
7
  6
CONTINUOUS
 10
9.9126966836
 20
40.0537985779
 11
10.5126966836
 21
40.0537985779
  0
LINE
  5
333
100
AcDbEntity
  8
0
100
AcDbLine
 62
7
  6
CONTINUOUS
 10
9.0326966836
 20
40.1280709977
 11
9.4326966836
 21
40.1280709977
  0
LINE
  5
334
100
AcDbEntity
  8
0
100
AcDbLine
 62
7
  6
CONTINUOUS
 10
9.5326966836
 20
40.5630738583
 11
9.4326966836
 21
40.5630738583
  0
LINE
  5
335
100
AcDbEntity
  8
0
100
AcDbLine
 62
7
  6
CONTINUOUS
 10
39.2126966836
 20
34.2065162872
 11
39.7126966836
 21
33.9454225764
  0
LINE
  5
336
100
AcDbEntity
  8
0
100
AcDbLine
 62
7
  6
CONTINUOUS
 10
31.7126966836
 20
45.3680709977
 11
31.7126966836
 21
47.0180709977
  0
LINE
  5
337
100
AcDbEntity
  8
0
100
AcDbLine
 62
7
  6
CONTINUOUS
 10
32.2126966836
 20
48.3680709977
 11
32.2126966836
 21
50.5680709977
  0
LINE
  5
338
100
AcDbEntity
  8
0
100
AcDbLine
 62
7
  6
CONTINUOUS
 10
32.8426966836
 20
34.2065162872
 11
32.8426966836
 21
34.8088442897
  0
LINE
  5
339
100
AcDbEntity
  8
0
100
AcDbLine
 62
7
  6
CONTINUOUS
 10
43.3426966836
 20
41.6180709977
 11
43.3126966836
 21
41.6180709977
  0
LINE
  5
33A
100
AcDbEntity
  8
0
100
AcDbLine
 62
7
  6
CONTINUOUS
 10
12.1126966836
 20
41.6180709977
 11
12.0826966836
 21
41.6180709977
  0
LINE
  5
33B
100
AcDbEntity
  8
0
100
AcDbLine
 62
7
  6
CONTINUOUS
 10
9.4326966836
 20
41.8019520317
 11
9.5326966836
 21
41.8019520317
  0
LINE
  5
33C
100
AcDbEntity
  8
0
100
AcDbLine
 62
7
  6
CONTINUOUS
 10
43.3126966836
 20
41.9580709977
 11
40.0626966836
 21
41.9580709977
  0
LINE
  5
33D
100
AcDbEntity
  8
0
100
AcDbLine
 62
7
  6
CONTINUOUS
 10
15.3626966836
 20
41.9580709977
 11
12.1126966836
 21
41.9580709977
  0
LINE
  5
33E
100
AcDbEntity
  8
0
100
AcDbLine
 62
7
  6
CONTINUOUS
 10
11.7326966836
 20
42.0351523228
 11
9.4326966836
 21
42.0351523228
  0
LINE
  5
33F
100
AcDbEntity
  8
0
100
AcDbLine
 62
7
  6
CONTINUOUS
 10
38.2626966836
 20
42.0680709977
 11
37.2126966836
 21
42.0680709977
  0
LINE
  5
340
100
AcDbEntity
  8
0
100
AcDbLine
 62
7
  6
CONTINUOUS
 10
18.2126966836
 20
42.0680709977
 11
17.1626966836
 21
42.0680709977
  0
LINE
  5
341
100
AcDbEntity
  8
0
100
AcDbLine
 62
7
  6
CONTINUOUS
 10
43.3426966836
 20
42.1180709977
 11
41.8126966836
 21
42.1180709977
  0
LINE
  5
342
100
AcDbEntity
  8
0
100
AcDbLine
 62
7
  6
CONTINUOUS
 10
13.6126966836
 20
42.1180709977
 11
12.0826966836
 21
42.1180709977
  0
LINE
  5
343
100
AcDbEntity
  8
0
100
AcDbLine
 62
7
  6
CONTINUOUS
 10
12.1126966836
 20
42.1680709977
 11
13.7126966836
 21
42.1680709977
  0
LINE
  5
344
100
AcDbEntity
  8
0
100
AcDbLine
 62
7
  6
CONTINUOUS
 10
41.7126966836
 20
42.1680709977
 11
43.3126966836
 21
42.1680709977
  0
LINE
  5
345
100
AcDbEntity
  8
0
100
AcDbLine
 62
7
  6
CONTINUOUS
 10
12.0826966836
 20
42.3680709977
 11
12.1126966836
 21
42.3680709977
  0
LINE
  5
346
100
AcDbEntity
  8
0
100
AcDbLine
 62
7
  6
CONTINUOUS
 10
43.3126966836
 20
42.3680709977
 11
43.3426966836
 21
42.3680709977
  0
LINE
  5
347
100
AcDbEntity
  8
0
100
AcDbLine
 62
7
  6
CONTINUOUS
 10
9.4326966836
 20
42.601171505
 11
11.7326966836
 21
42.601171505
  0
LINE
  5
348
100
AcDbEntity
  8
0
100
AcDbLine
 62
7
  6
CONTINUOUS
 10
39.7126966836
 20
34.4573050643
 11
39.5005775692
 21
34.5680709977
  0
LINE
  5
349
100
AcDbEntity
  8
0
100
AcDbLine
 62
7
  6
CONTINUOUS
 10
34.1626966836
 20
24.3180709977
 11
34.1626966836
 21
22.7480709977
  0
LINE
  5
34A
100
AcDbEntity
  8
0
100
AcDbLine
 62
7
  6
CONTINUOUS
 10
35.0126966836
 20
29.18679023
 11
35.0126966836
 21
28.9154536863
  0
LINE
  5
34B
100
AcDbEntity
  8
0
100
AcDbLine
 62
7
  6
CONTINUOUS
 10
43.4426966836
 20
43.3680709977
 11
43.3426966836
 21
43.3680709977
  0
LINE
  5
34C
100
AcDbEntity
  8
0
100
AcDbLine
 62
7
  6
CONTINUOUS
 10
43.8126966836
 20
43.3930709977
 11
43.4426966836
 21
43.3930709977
  0
LINE
  5
34D
100
AcDbEntity
  8
0
100
AcDbLine
 62
7
  6
CONTINUOUS
 10
12.0826966836
 20
43.3930709977
 11
11.6126966836
 21
43.3930709977
  0
LINE
  5
34E
100
AcDbEntity
  8
0
100
AcDbLine
 62
7
  6
CONTINUOUS
 10
17.1626966836
 20
49.6180709977
 11
15.3626966836
 21
50.8180709977
  0
LINE
  5
34F
100
AcDbEntity
  8
0
100
AcDbLine
 62
7
  6
CONTINUOUS
 10
35.3126966836
 20
48.3680709977
 11
35.3126966836
 21
50.5680709977
  0
LINE
  5
350
100
AcDbEntity
  8
0
100
AcDbLine
 62
7
  6
CONTINUOUS
 10
35.5126966834
 20
47.2180709977
 11
35.5126966836
 21
48.3680709977
  0
LINE
  5
351
100
AcDbEntity
  8
0
100
AcDbLine
 62
7
  6
CONTINUOUS
 10
35.5626966836
 20
36.3180709977
 11
35.5626966836
 21
36.4180709977
  0
LINE
  5
352
100
AcDbEntity
  8
0
100
AcDbLine
 62
7
  6
CONTINUOUS
 10
35.5626966836
 20
47.0180709977
 11
35.5626966836
 21
47.2180709977
  0
LINE
  5
353
100
AcDbEntity
  8
0
100
AcDbLine
 62
7
  6
CONTINUOUS
 10
35.6126966836
 20
50.8680709977
 11
35.6126966836
 21
48.3677984661
  0
LINE
  5
354
100
AcDbEntity
  8
0
100
AcDbLine
 62
7
  6
CONTINUOUS
 10
35.6126966836
 20
36.4180709977
 11
35.6126966836
 21
47.0180709977
  0
LINE
  5
355
100
AcDbEntity
  8
0
100
AcDbLine
 62
7
  6
CONTINUOUS
 10
36.0626966836
 20
47.2180709977
 11
36.0626966836
 21
47.0180709977
  0
LINE
  5
356
100
AcDbEntity
  8
0
100
AcDbLine
 62
7
  6
CONTINUOUS
 10
36.0626966836
 20
36.4180709977
 11
36.0626966836
 21
36.3180709977
  0
LINE
  5
357
100
AcDbEntity
  8
0
100
AcDbLine
 62
7
  6
CONTINUOUS
 10
36.5626966836
 20
20.7480709977
 11
36.5626966836
 21
22.7480709977
  0
LINE
  5
358
100
AcDbEntity
  8
0
100
AcDbLine
 62
7
  6
CONTINUOUS
 10
39.7126966836
 20
29.5835522126
 11
38.9528890625
 21
29.18679023
  0
LINE
  5
359
100
AcDbEntity
  8
0
100
AcDbLine
 62
7
  6
CONTINUOUS
 10
43.3426966836
 20
44.8680709977
 11
43.4426966836
 21
44.8680709977
  0
LINE
  5
35A
100
AcDbEntity
  8
0
100
AcDbLine
 62
7
  6
CONTINUOUS
 10
23.7126966836
 20
45.3680709977
 11
31.7126966836
 21
45.3680709977
  0
LINE
  5
35B
100
AcDbEntity
  8
0
100
AcDbLine
 62
7
  6
CONTINUOUS
 10
23.9126966836
 20
45.5680709977
 11
31.5126966836
 21
45.5680709977
  0
LINE
  5
35C
100
AcDbEntity
  8
0
100
AcDbLine
 62
7
  6
CONTINUOUS
 10
29.4757869853
 20
45.8680709977
 11
25.9496063819
 21
45.8680709977
  0
LINE
  5
35D
100
AcDbEntity
  8
0
100
AcDbLine
 62
7
  6
CONTINUOUS
 10
12.0826966836
 20
46.1680709977
 11
10.4126966836
 21
46.1680709977
  0
LINE
  5
35E
100
AcDbEntity
  8
0
100
AcDbLine
 62
7
  6
CONTINUOUS
 10
37.1126966836
 20
47.0180709977
 11
37.1126966836
 21
51.0180709977
  0
LINE
  5
35F
100
AcDbEntity
  8
0
100
AcDbLine
 62
7
  6
CONTINUOUS
 10
37.2126966836
 20
50.8180709977
 11
37.2126966836
 21
36.4180709977
  0
LINE
  5
360
100
AcDbEntity
  8
0
100
AcDbLine
 62
7
  6
CONTINUOUS
 10
37.263649151
 20
34.9680709977
 11
37.263649151
 21
36.3180709977
  0
LINE
  5
361
100
AcDbEntity
  8
0
100
AcDbLine
 62
7
  6
CONTINUOUS
 10
37.3126966836
 20
34.8088442897
 11
37.3126966836
 21
34.2065162872
  0
LINE
  5
362
100
AcDbEntity
  8
0
100
AcDbLine
 62
7
  6
CONTINUOUS
 10
37.5626966836
 20
22.7480709977
 11
37.5626966836
 21
20.7480709977
  0
LINE
  5
363
100
AcDbEntity
  8
0
100
AcDbLine
 62
7
  6
CONTINUOUS
 10
37.9626966836
 20
51.0180709977
 11
37.9626966836
 21
50.8680709977
  0
LINE
  5
364
100
AcDbEntity
  8
0
100
AcDbLine
 62
7
  6
CONTINUOUS
 10
38.0904493165
 20
50.8180709977
 11
38.0904493163
 21
50.8680709977
  0
LINE
  5
365
100
AcDbEntity
  8
0
100
AcDbLine
 62
7
  6
CONTINUOUS
 10
38.2126966836
 20
50.8180709977
 11
38.2126966836
 21
50.8680709977
  0
LINE
  5
366
100
AcDbEntity
  8
0
100
AcDbLine
 62
7
  6
CONTINUOUS
 10
38.2626966836
 20
49.6180709977
 11
38.2626966836
 21
42.0680709977
  0
LINE
  5
367
100
AcDbEntity
  8
0
100
AcDbLine
 62
7
  6
CONTINUOUS
 10
29.4718598948
 20
46.3180709977
 11
25.9535334724
 21
46.3180709977
  0
LINE
  5
368
100
AcDbEntity
  8
0
100
AcDbLine
 62
7
  6
CONTINUOUS
 10
10.4126966836
 20
46.6680709977
 11
12.0826966836
 21
46.6680709977
  0
LINE
  5
369
100
AcDbEntity
  8
0
100
AcDbLine
 62
7
  6
CONTINUOUS
 10
23.7126966836
 20
47.0180709977
 11
18.2126966836
 21
47.0180709977
  0
LINE
  5
36A
100
AcDbEntity
  8
0
100
AcDbLine
 62
7
  6
CONTINUOUS
 10
31.7126966836
 20
47.0180709977
 11
37.2126966836
 21
47.0180709977
  0
LINE
  5
36B
100
AcDbEntity
  8
0
100
AcDbLine
 62
7
  6
CONTINUOUS
 10
18.3126966836
 20
47.2180709977
 11
23.9270960155
 21
47.2180709977
  0
LINE
  5
36C
100
AcDbEntity
  8
0
100
AcDbLine
 62
7
  6
CONTINUOUS
 10
31.4982973518
 20
47.2180709977
 11
37.1126966836
 21
47.2180709977
  0
LINE
  5
36D
100
AcDbEntity
  8
0
100
AcDbLine
 62
7
  6
CONTINUOUS
 10
12.0826966836
 20
47.7840964015
 11
10.4126966836
 21
47.7840964015
  0
LINE
  5
36E
100
AcDbEntity
  8
0
100
AcDbLine
 62
7
  6
CONTINUOUS
 10
37.1126966836
 20
47.8680709977
 11
18.3126966836
 21
47.8680709977
  0
LINE
  5
36F
100
AcDbEntity
  8
0
100
AcDbLine
 62
7
  6
CONTINUOUS
 10
39.7192350977
 20
34.4470774288
 11
39.7323119259
 21
33.9352253354
  0
LINE
  5
370
100
AcDbEntity
  8
0
100
AcDbLine
 62
7
  6
CONTINUOUS
 10
38.5031673248
 20
34.9680709977
 11
38.5031673248
 21
34.5680709977
  0
LINE
  5
371
100
AcDbEntity
  8
0
100
AcDbLine
 62
7
  6
CONTINUOUS
 10
38.7633770174
 20
36.3180709977
 11
38.7633770174
 21
34.9680709977
  0
LINE
  5
372
100
AcDbEntity
  8
0
100
AcDbLine
 62
7
  6
CONTINUOUS
 10
38.7779140749
 20
50.8180709977
 11
38.7779140749
 21
50.8680709977
  0
LINE
  5
373
100
AcDbEntity
  8
0
100
AcDbLine
 62
7
  6
CONTINUOUS
 10
39.0126966836
 20
50.8180709977
 11
39.0126966836
 21
50.8680709977
  0
LINE
  5
374
100
AcDbEntity
  8
0
100
AcDbLine
 62
7
  6
CONTINUOUS
 10
39.1714222179
 20
34.5680709977
 11
39.1714222179
 21
34.9680709977
  0
LINE
  5
375
100
AcDbEntity
  8
0
100
AcDbLine
 62
7
  6
CONTINUOUS
 10
39.2126966836
 20
34.5680709977
 11
39.2126966836
 21
34.2065162872
  0
LINE
  5
376
100
AcDbEntity
  8
0
100
AcDbLine
 62
7
  6
CONTINUOUS
 10
39.7126966836
 20
29.5835522126
 11
39.7126966836
 21
34.4573050643
  0
LINE
  5
377
100
AcDbEntity
  8
0
100
AcDbLine
 62
7
  6
CONTINUOUS
 10
40.0626966836
 20
37.0680709977
 11
40.0626966836
 21
50.8180709977
  0
LINE
  5
378
100
AcDbEntity
  8
0
100
AcDbLine
 62
7
  6
CONTINUOUS
 10
10.4126966836
 20
48.0340964015
 11
12.0826966836
 21
48.0340964015
  0
LINE
  5
379
100
AcDbEntity
  8
0
100
AcDbLine
 62
7
  6
CONTINUOUS
 10
18.8126966857
 20
48.3680709977
 11
36.6126966815
 21
48.3680709977
  0
LINE
  5
37A
100
AcDbEntity
  8
0
100
AcDbLine
 62
7
  6
CONTINUOUS
 10
43.3426966836
 20
48.9180709977
 11
43.3126966836
 21
48.9180709977
  0
LINE
  5
37B
100
AcDbEntity
  8
0
100
AcDbLine
 62
7
  6
CONTINUOUS
 10
12.1126966836
 20
48.9180709977
 11
10.4126966836
 21
48.9180709977
  0
LINE
  5
37C
100
AcDbEntity
  8
0
100
AcDbLine
 62
7
  6
CONTINUOUS
 10
10.4126966836
 20
49.1680709977
 11
12.1126966836
 21
49.1680709977
  0
LINE
  5
37D
100
AcDbEntity
  8
0
100
AcDbLine
 62
7
  6
CONTINUOUS
 10
23.9773451989
 20
49.1680709977
 11
31.4480391613
 21
49.1680709977
  0
LINE
  5
37E
100
AcDbEntity
  8
0
100
AcDbLine
 62
7
  6
CONTINUOUS
 10
43.3126966836
 20
49.1680709977
 11
43.3426966836
 21
49.1680709977
  0
LINE
  5
37F
100
AcDbEntity
  8
0
100
AcDbLine
 62
7
  6
CONTINUOUS
 10
37.1126966836
 20
49.3680709976
 11
35.3126966836
 21
49.3680709977
  0
LINE
  5
380
100
AcDbEntity
  8
0
100
AcDbLine
 62
7
  6
CONTINUOUS
 10
20.1126966836
 20
49.3680709977
 11
18.3126966836
 21
49.3680709976
  0
LINE
  5
381
100
AcDbEntity
  8
0
100
AcDbLine
 62
7
  6
CONTINUOUS
 10
18.2126966836
 20
49.6180709977
 11
17.1626966836
 21
49.6180709977
  0
LINE
  5
382
100
AcDbEntity
  8
0
100
AcDbLine
 62
7
  6
CONTINUOUS
 10
37.2126966836
 20
49.6180709977
 11
38.2626966836
 21
49.6180709977
  0
LINE
  5
383
100
AcDbEntity
  8
0
100
AcDbLine
 62
7
  6
CONTINUOUS
 10
43.3126958612
 20
49.7182267866
 11
40.2126959274
 21
49.7182267343
  0
LINE
  5
384
100
AcDbEntity
  8
0
100
AcDbLine
 62
7
  6
CONTINUOUS
 10
15.212697506
 20
49.7182267866
 11
10.4126974398
 21
49.7182267342
  0
LINE
  5
385
100
AcDbEntity
  8
0
100
AcDbLine
 62
7
  6
CONTINUOUS
 10
40.1626966836
 20
22.7480709977
 11
40.1626966836
 21
24.3180709977
  0
LINE
  5
386
100
AcDbEntity
  8
0
100
AcDbLine
 62
7
  6
CONTINUOUS
 10
40.2126966836
 20
49.7187360113
 11
40.2126966836
 21
50.8680709977
  0
LINE
  5
387
100
AcDbEntity
  8
0
100
AcDbLine
 62
7
  6
CONTINUOUS
 10
40.2126966836
 20
36.8680709977
 11
40.2126965194
 21
39.6580709977
  0
LINE
  5
388
100
AcDbEntity
  8
0
100
AcDbLine
 62
7
  6
CONTINUOUS
 10
40.2126963841
 20
41.9580709977
 11
40.2126959274
 21
49.7182267343
  0
LINE
  5
389
100
AcDbEntity
  8
0
100
AcDbLine
 62
7
  6
CONTINUOUS
 10
40.3126966836
 20
29.6525656484
 11
40.3126966836
 21
23.8101196446
  0
LINE
  5
38A
100
AcDbEntity
  8
0
100
AcDbLine
 62
7
  6
CONTINUOUS
 10
40.5626966836
 20
20.7480709977
 11
40.5626966836
 21
17.4180709977
  0
LINE
  5
38B
100
AcDbEntity
  8
0
100
AcDbLine
 62
7
  6
CONTINUOUS
 10
41.1126966836
 20
39.6580709977
 11
41.1126966836
 21
39.4772346543
  0
LINE
  5
38C
100
AcDbEntity
  8
0
100
AcDbLine
 62
7
  6
CONTINUOUS
 10
41.3126966836
 20
39.6580709977
 11
41.3126966836
 21
39.2682140742
  0
LINE
  5
38D
100
AcDbEntity
  8
0
100
AcDbLine
 62
7
  6
CONTINUOUS
 10
41.3538829547
 20
34.9680709977
 11
41.3538829547
 21
34.5680709977
  0
LINE
  5
38E
100
AcDbEntity
  8
0
100
AcDbLine
 62
7
  6
CONTINUOUS
 10
41.5126966836
 20
34.9680709977
 11
41.5126966836
 21
30.3049373124
  0
LINE
  5
38F
100
AcDbEntity
  8
0
100
AcDbLine
 62
7
  6
CONTINUOUS
 10
41.5126966836
 20
23.8101196446
 11
41.5126966836
 21
30.2925245524
  0
LINE
  5
390
100
AcDbEntity
  8
0
100
AcDbLine
 62
7
  6
CONTINUOUS
 10
41.5626966836
 20
17.3180709977
 11
41.5626966836
 21
20.662415673
  0
LINE
  5
391
100
AcDbEntity
  8
0
100
AcDbLine
 62
7
  6
CONTINUOUS
 10
41.7126966836
 20
20.7480709977
 11
41.7126966836
 21
23.8180709977
  0
LINE
  5
392
100
AcDbEntity
  8
0
100
AcDbLine
 62
7
  6
CONTINUOUS
 10
41.7126966836
 20
41.9580709977
 11
41.7126966836
 21
42.1680709977
  0
LINE
  5
393
100
AcDbEntity
  8
0
100
AcDbLine
 62
7
  6
CONTINUOUS
 10
41.8126966836
 20
42.1680709977
 11
41.8126966836
 21
41.9580709977
  0
LINE
  5
394
100
AcDbEntity
  8
0
100
AcDbLine
 62
7
  6
CONTINUOUS
 10
41.8126966836
 20
21.0105709977
 11
41.8126966836
 21
19.6180709977
  0
LINE
  5
395
100
AcDbEntity
  8
0
100
AcDbLine
 62
7
  6
CONTINUOUS
 10
41.8126966836
 20
22.2891451418
 11
41.8126966836
 21
34.9680709977
  0
LINE
  5
396
100
AcDbEntity
  8
0
100
AcDbLine
 62
7
  6
CONTINUOUS
 10
35.3126966836
 20
50.5680709977
 11
23.2126966836
 21
50.5680709977
  0
LINE
  5
397
100
AcDbEntity
  8
0
100
AcDbLine
 62
7
  6
CONTINUOUS
 10
23.2085993105
 20
50.5680709977
 11
20.1126966836
 21
50.5680709977
  0
LINE
  5
398
100
AcDbEntity
  8
0
100
AcDbLine
 62
7
  6
CONTINUOUS
 10
43.3126966499
 20
50.7180709977
 11
40.0626966836
 21
50.7180709977
  0
LINE
  5
399
100
AcDbEntity
  8
0
100
AcDbLine
 62
7
  6
CONTINUOUS
 10
15.3626966836
 20
50.7180709977
 11
10.4126966837
 21
50.7180709977
  0
LINE
  5
39A
100
AcDbEntity
  8
0
100
AcDbLine
 62
7
  6
CONTINUOUS
 10
40.0626966836
 20
50.8180709977
 11
37.2126966836
 21
50.8180709977
  0
LINE
  5
39B
100
AcDbEntity
  8
0
100
AcDbLine
 62
7
  6
CONTINUOUS
 10
18.2126966836
 20
50.8180709977
 11
15.3626966836
 21
50.8180709977
  0
LINE
  5
39C
100
AcDbEntity
  8
0
100
AcDbLine
 62
7
  6
CONTINUOUS
 10
43.3126966836
 20
50.8680709977
 11
40.2126966836
 21
50.8680709977
  0
LINE
  5
39D
100
AcDbEntity
  8
0
100
AcDbLine
 62
7
  6
CONTINUOUS
 10
15.2126966836
 20
50.8680709977
 11
10.4126966836
 21
50.8680709977
  0
LINE
  5
39E
100
AcDbEntity
  8
0
100
AcDbLine
 62
7
  6
CONTINUOUS
 10
16.4127035469
 20
50.8680709977
 11
23.5078062705
 21
50.8680709977
  0
LINE
  5
39F
100
AcDbEntity
  8
0
100
AcDbLine
 62
7
  6
CONTINUOUS
 10
23.5126966836
 20
50.8680709977
 11
35.6078062705
 21
50.8680709977
  0
LINE
  5
3A0
100
AcDbEntity
  8
0
100
AcDbLine
 62
7
  6
CONTINUOUS
 10
35.6126966836
 20
50.8680709977
 11
39.0126898203
 21
50.8680709977
  0
LINE
  5
3A1
100
AcDbEntity
  8
0
100
AcDbLine
 62
7
  6
CONTINUOUS
 10
37.9626966836
 20
51.0180709977
 11
17.4626966836
 21
51.0180709977
  0
LINE
  5
3A2
100
AcDbEntity
  8
0
100
AcDbLine
 62
7
  6
CONTINUOUS
 10
42.5126966836
 20
36.3180709977
 11
42.5126966836
 21
34.9680709977
  0
LINE
  5
3A3
100
AcDbEntity
  8
0
100
AcDbLine
 62
7
  6
CONTINUOUS
 10
43.0126966836
 20
34.9680709977
 11
43.0126966836
 21
36.3180709977
  0
LINE
  5
3A4
100
AcDbEntity
  8
0
100
AcDbLine
 62
7
  6
CONTINUOUS
 10
43.1126966836
 20
21.0105709977
 11
43.1126966836
 21
22.2890964015
  0
LINE
  5
3A5
100
AcDbEntity
  8
0
100
AcDbLine
 62
7
  6
CONTINUOUS
 10
43.3126966836
 20
34.9680709977
 11
43.3126966836
 21
41.9580709977
  0
LINE
  5
3A6
100
AcDbEntity
  8
0
100
AcDbLine
 62
7
  6
CONTINUOUS
 10
43.3126966836
 20
42.1680709977
 11
43.3126966836
 21
50.8680709977
  0
LINE
  5
3A7
100
AcDbEntity
  8
0
100
AcDbLine
 62
7
  6
CONTINUOUS
 10
43.3426966836
 20
19.6180709977
 11
43.3426966836
 21
49.1680709977
  0
LINE
  5
3A8
100
AcDbEntity
  8
0
100
AcDbLine
 62
7
  6
CONTINUOUS
 10
43.3626966836
 20
19.7680709977
 11
43.3626966836
 21
26.5430709977
  0
LINE
  5
3A9
100
AcDbEntity
  8
0
100
AcDbLine
 62
7
  6
CONTINUOUS
 10
43.3626966836
 20
30.5430709977
 11
43.3626966836
 21
30.8680709977
  0
LINE
  5
3AA
100
AcDbEntity
  8
0
100
AcDbLine
 62
7
  6
CONTINUOUS
 10
43.4426966836
 20
30.8680709977
 11
43.4426966836
 21
44.8680709977
  0
LINE
  5
3AB
100
AcDbEntity
  8
0
100
AcDbLine
 62
7
  6
CONTINUOUS
 10
43.8126966836
 20
26.5430709977
 11
43.8126966836
 21
30.5430709977
  0
LINE
  5
3AC
100
AcDbEntity
  8
0
100
AcDbLine
 62
7
  6
CONTINUOUS
 10
43.8126966836
 20
39.3930709977
 11
43.8126966836
 21
43.3930709977
  0
ARC
  5
3AD
100
AcDbEntity
  8
0
100
AcDbCircle
 62
7
  6
CONTINUOUS
 10
42.5091731368
 20
39.3007135291
 40
6.0414751296
100
AcDbArc
 50
242.4269112818
 51
242.6365731593
  0
ARC
  5
3AE
100
AcDbEntity
  8
0
100
AcDbCircle
 62
7
  6
CONTINUOUS
 10
11.1126959098
 20
33.8130496812
 40
4.2192546358
100
AcDbArc
 50
269.5851599805
 51
270.0000105076
  0
ARC
  5
3AF
100
AcDbEntity
  8
0
100
AcDbCircle
 62
7
  6
CONTINUOUS
 10
11.1126929415
 20
38.1536022988
 40
4.2184225552
100
AcDbArc
 50
269.3208985024
 51
270.0000508257
  0
ARC
  5
3B0
100
AcDbEntity
  8
0
100
AcDbCircle
 62
7
  6
CONTINUOUS
 10
11.1126798942
 20
33.8108437517
 40
4.2170486481
100
AcDbArc
 50
269.3208545243
 51
269.5851605738
  0
ARC
  5
3B1
100
AcDbEntity
  8
0
100
AcDbCircle
 62
7
  6
CONTINUOUS
 10
11.1126528425
 20
38.1499045912
 40
4.2147246321
100
AcDbArc
 50
269.170100685
 51
269.3208477962
  0
ARC
  5
3B2
100
AcDbEntity
  8
0
100
AcDbCircle
 62
7
  6
CONTINUOUS
 10
11.1126074915
 20
33.805299034
 40
4.2115034618
100
AcDbArc
 50
268.7547626443
 51
269.320945347
  0
ARC
  5
3B3
100
AcDbEntity
  8
0
100
AcDbCircle
 62
7
  6
CONTINUOUS
 10
11.1125848891
 20
38.1454945674
 40
4.2103140866
100
AcDbArc
 50
268.754718476
 51
269.1701560927
  0
ARC
  5
3B4
100
AcDbEntity
  8
0
100
AcDbCircle
 62
7
  6
CONTINUOUS
 10
32.842698526
 20
37.5727854307
 40
2.8543866555
100
AcDbArc
 50
269.6550566034
 51
269.9999630179
  0
ARC
  5
3B5
100
AcDbEntity
  8
0
100
AcDbCircle
 62
7
  6
CONTINUOUS
 10
22.7326947877
 20
37.5723813481
 40
2.853982573
100
AcDbArc
 50
270.0000380623
 51
270.3482459025
  0
ARC
  5
3B6
100
AcDbEntity
  8
0
100
AcDbCircle
 62
7
  6
CONTINUOUS
 10
22.7712178351
 20
37.4522915144
 40
2.7280401316
100
AcDbArc
 50
292.708377048
 51
293.019581476
  0
ARC
  5
3B7
100
AcDbEntity
  8
0
100
AcDbCircle
 62
7
  6
CONTINUOUS
 10
22.7726731739
 20
37.4488825334
 40
2.7243334994
100
AcDbArc
 50
293.0194471993
 51
293.907683657
  0
ARC
  5
3B8
100
AcDbEntity
  8
0
100
AcDbCircle
 62
7
  6
CONTINUOUS
 10
16.2459908249
 20
47.7229751644
 40
2.6132927249
100
AcDbArc
 50
246.7091196487
 51
250.1988322629
  0
ARC
  5
3B9
100
AcDbEntity
  8
0
100
AcDbCircle
 62
7
  6
CONTINUOUS
 10
39.1796715735
 20
47.7227951921
 40
2.6130210498
100
AcDbArc
 50
289.7969162808
 51
293.2870223629
  0
ARC
  5
3BA
100
AcDbEntity
  8
0
100
AcDbCircle
 62
7
  6
CONTINUOUS
 10
39.2126966836
 20
49.4680709977
 40
1.0
100
AcDbArc
 50
328.7054414945
 51
359.9968942593
  0
ARC
  5
3BB
100
AcDbEntity
  8
0
100
AcDbCircle
 62
7
  6
CONTINUOUS
 10
16.2126966836
 20
49.4680709977
 40
1.0
100
AcDbArc
 50
180.0
 51
211.0725133813
  0
CIRCLE
  5
3BC
100
AcDbEntity
  8
0
100
AcDbCircle
 62
7
  6
CONTINUOUS
 10
27.7126966836
 20
36.9630709977
 40
1.0
  0
ARC
  5
3BD
100
AcDbEntity
  8
0
100
AcDbCircle
 62
7
  6
CONTINUOUS
 10
9.7281034703
 20
39.6804390044
 40
0.8078328219
100
AcDbArc
 50
24.891625017
 51
28.2570749009
  0
CIRCLE
  5
3BE
100
AcDbEntity
  8
0
100
AcDbCircle
 62
7
  6
CONTINUOUS
 10
27.7126966836
 20
36.9630709977
 40
0.8
  0
ARC
  5
3BF
100
AcDbEntity
  8
0
100
AcDbCircle
 62
7
  6
CONTINUOUS
 10
9.7807836184
 20
37.8867443136
 40
0.7519131711
100
AcDbArc
 50
0.0304052809
 51
9.9614499472
  0
ARC
  5
3C0
100
AcDbEntity
  8
0
100
AcDbCircle
 62
7
  6
CONTINUOUS
 10
9.7823916855
 20
39.69871488
 40
0.7503050239
100
AcDbArc
 50
0.0150099123
 51
11.8606685679
  0
ARC
  5
3C1
100
AcDbEntity
  8
0
100
AcDbCircle
 62
7
  6
CONTINUOUS
 10
18.8126966857
 20
47.8680709977
 40
0.5
100
AcDbArc
 50
90.0
 51
180.0000010031
  0
ARC
  5
3C2
100
AcDbEntity
  8
0
100
AcDbCircle
 62
7
  6
CONTINUOUS
 10
36.6126966815
 20
47.8680709977
 40
0.5
100
AcDbArc
 50
359.9999970614
 51
90.0
  0
ARC
  5
3C3
100
AcDbEntity
  8
0
100
AcDbCircle
 62
7
  6
CONTINUOUS
 10
23.5126966836
 20
50.5680709977
 40
0.3
100
AcDbArc
 50
90.0
 51
180.0
  0
ARC
  5
3C4
100
AcDbEntity
  8
0
100
AcDbCircle
 62
7
  6
CONTINUOUS
 10
19.8126966836
 20
50.5680709977
 40
0.3
100
AcDbArc
 50
0.0
 51
90.0
  0
ARC
  5
3C5
100
AcDbEntity
  8
0
100
AcDbCircle
 62
7
  6
CONTINUOUS
 10
35.6126966836
 20
50.5680709977
 40
0.3
100
AcDbArc
 50
90.0
 51
180.0
  0
ARC
  5
3C6
100
AcDbEntity
  8
0
100
AcDbCircle
 62
7
  6
CONTINUOUS
 10
31.9126966836
 20
50.5680709977
 40
0.3
100
AcDbArc
 50
0.0
 51
90.0
  0
ARC
  5
3C7
100
AcDbEntity
  8
0
100
AcDbCircle
 62
7
  6
CONTINUOUS
 10
41.8126966836
 20
30.7430709977
 40
0.2
100
AcDbArc
 50
90.0
 51
270.0
  0
ARC
  5
3C8
100
AcDbEntity
  8
0
100
AcDbCircle
 62
7
  6
CONTINUOUS
 10
41.8126966836
 20
26.3430709977
 40
0.2
100
AcDbArc
 50
90.0
 51
270.0
  0
ARC
  5
3C9
100
AcDbEntity
  8
0
100
AcDbCircle
 62
7
  6
CONTINUOUS
 10
13.6126966836
 20
26.3430709977
 40
0.2
100
AcDbArc
 50
270.0
 51
90.0
  0
SPLINE
  5
3CA
100
AcDbEntity
  8
0
100
AcDbSpline
 62
7
  6
CONTINUOUS
 70
0
 71
3
 72
11
 73
7
 74
0
 42
0.0000001
 43
0.0000001
 44
0.0000000001
 40
0.0
 40
0.0
 40
0.0
 40
0.0
 40
0.4227158329
 40
0.7279546781
 40
0.9170778328
 40
1.0
 40
1.0
 40
1.0
 40
1.0
 10
10.5168272425
 20
34.7493664179
 30
0.0
 10
10.5191419885
 20
34.7496386492
 30
0.0
 10
10.5230726648
 20
34.750131301
 30
0.0
 10
10.5282102817
 20
34.7510857662
 30
0.0
 10
10.5310055897
 20
34.7517863064
 30
0.0
 10
10.5326968932
 20
34.7526669684
 30
0.0
 10
10.5326966836
 20
34.7531241706
 30
0.0
  0
SPLINE
  5
3CB
100
AcDbEntity
  8
0
100
AcDbSpline
 62
7
  6
CONTINUOUS
 70
0
 71
3
 72
19
 73
15
 74
0
 42
0.0000001
 43
0.0000001
 44
0.0000000001
 40
0.0
 40
0.0
 40
0.0
 40
0.0
 40
0.0406696255
 40
0.0829820723
 40
0.1281462949
 40
0.1769075026
 40
0.2295934476
 40
0.2862360513
 40
0.3466675013
 40
0.4105880292
 40
0.5473568599
 40
0.6933253394
 40
0.8452258661
 40
1.0
 40
1.0
 40
1.0
 40
1.0
 10
10.5326966836
 20
41.1450983365
 30
0.0
 10
10.5326966836
 20
41.1620557356
 30
0.0
 10
10.5285476355
 20
41.1967656138
 30
0.0
 10
10.5107728502
 20
41.2475144813
 30
0.0
 10
10.4823643378
 20
41.2970130312
 30
0.0
 10
10.4442477826
 20
41.3450351539
 30
0.0
 10
10.3972817677
 20
41.3914659636
 30
0.0
 10
10.3423258984
 20
41.4362126549
 30
0.0
 10
10.2802415343
 20
41.4792238377
 30
0.0
 10
10.1869714808
 20
41.5354982357
 30
0.0
 10
10.0576429172
 20
41.6004789258
 30
0.0
 10
9.8906862488
 20
41.6711234132
 30
0.0
 10
9.7140296627
 20
41.7376295155
 30
0.0
 10
9.5935170187
 20
41.780376531
 30
0.0
 10
9.5326966836
 20
41.8019520317
 30
0.0
  0
SPLINE
  5
3CC
100
AcDbEntity
  8
0
100
AcDbSpline
 62
7
  6
CONTINUOUS
 70
0
 71
3
 72
14
 73
10
 74
0
 42
0.0000001
 43
0.0000001
 44
0.0000000001
 40
0.0
 40
0.0
 40
0.0
 40
0.0
 40
0.0165105461
 40
0.0638043745
 40
0.1422375726
 40
0.2517958958
 40
0.3924222421
 40
0.5640477562
 40
1.0
 40
1.0
 40
1.0
 40
1.0
 10
10.5326966836
 20
35.2835141878
 30
0.0
 10
10.5326969143
 20
35.2834258754
 30
0.0
 10
10.5321770581
 20
35.2834473802
 30
0.0
 10
10.5315917553
 20
35.2832999674
 30
0.0
 10
10.530238177
 20
35.2832655595
 30
0.0
 10
10.5285251212
 20
35.2831667025
 30
0.0
 10
10.5262537413
 20
35.2830931645
 30
0.0
 10
10.5222614754
 20
35.2829715762
 30
0.0
 10
10.519008749
 20
35.2829000899
 30
0.0
 10
10.51667739
 20
35.2828522341
 30
0.0
  0
SPLINE
  5
3CD
100
AcDbEntity
  8
0
100
AcDbSpline
 62
7
  6
CONTINUOUS
 70
0
 71
3
 72
13
 73
9
 74
0
 42
0.0000001
 43
0.0000001
 44
0.0000000001
 40
0.0
 40
0.0
 40
0.0
 40
0.0
 40
0.1174578722
 40
0.2372844482
 40
0.3596194681
 40
0.4844125696
 40
0.7396654622
 40
1.0
 40
1.0
 40
1.0
 40
1.0
 10
10.4396687013
 20
40.062890034
 30
0.0
 10
10.4195662637
 20
40.1002949073
 30
0.0
 10
10.3729530038
 20
40.172780376
 30
0.0
 10
10.2868773572
 20
40.2707996994
 30
0.0
 10
10.1856532149
 20
40.3572553597
 30
0.0
 10
10.0322826995
 20
40.4554470986
 30
0.0
 10
9.8139881333
 20
40.5402778115
 30
0.0
 10
9.6268152988
 20
40.5630738583
 30
0.0
 10
9.5326966836
 20
40.5630738583
 30
0.0
  0
SPLINE
  5
3CE
100
AcDbEntity
  8
0
100
AcDbSpline
 62
7
  6
CONTINUOUS
 70
0
 71
3
 72
11
 73
7
 74
0
 42
0.0000001
 43
0.0000001
 44
0.0000000001
 40
0.0
 40
0.0
 40
0.0
 40
0.0
 40
0.2533739133
 40
0.505530876
 40
0.7552894031
 40
1.0
 40
1.0
 40
1.0
 40
1.0
 10
40.2127036665
 20
48.7817225326
 30
0.0
 10
40.2126856687
 20
48.6728518194
 30
0.0
 10
40.2075738357
 20
48.4555867638
 30
0.0
 10
40.1824853349
 20
48.1318528529
 30
0.0
 10
40.1386468553
 20
47.8138361375
 30
0.0
 10
40.0924649641
 20
47.6060284017
 30
0.0
 10
40.0638162179
 20
47.5048582537
 30
0.0
  0
SPLINE
  5
3CF
100
AcDbEntity
  8
0
100
AcDbSpline
 62
7
  6
CONTINUOUS
 70
0
 71
3
 72
11
 73
7
 74
0
 42
0.0000001
 43
0.0000001
 44
0.0000000001
 40
0.0
 40
0.0
 40
0.0
 40
0.0
 40
0.2476314379
 40
0.4955819552
 40
0.745875751
 40
1.0
 40
1.0
 40
1.0
 40
1.0
 10
40.2126965792
 20
49.4680206388
 30
0.0
 10
40.2125962209
 20
49.4018422914
 30
0.0
 10
40.2080318871
 20
49.2693496135
 30
0.0
 10
40.1863069457
 20
49.0710167611
 30
0.0
 10
40.1485116043
 20
48.8732822506
 30
0.0
 10
40.109343152
 20
48.7439001699
 30
0.0
 10
40.0855507819
 20
48.680290579
 30
0.0
  0
SPLINE
  5
3D0
100
AcDbEntity
  8
0
100
AcDbSpline
 62
7
  6
CONTINUOUS
 70
0
 71
3
 72
18
 73
14
 74
0
 42
0.0000001
 43
0.0000001
 44
0.0000000001
 40
0.0
 40
0.0
 40
0.0
 40
0.0
 40
0.0254988991
 40
0.0538706931
 40
0.086846974
 40
0.1258644827
 40
0.1719309394
 40
0.2251648622
 40
0.3519183942
 40
0.5021138481
 40
0.6667337043
 40
0.8356110872
 40
1.0
 40
1.0
 40
1.0
 40
1.0
 10
31.6918710438
 20
48.3680710325
 30
0.0
 10
31.6844038745
 20
48.3680783456
 30
0.0
 10
31.6685554396
 20
48.370611408
 30
0.0
 10
31.6453339172
 20
48.3816247203
 30
0.0
 10
31.6222151863
 20
48.4001093651
 30
0.0
 10
31.5994714024
 20
48.426340248
 30
0.0
 10
31.5774224467
 20
48.4604351042
 30
0.0
 10
31.5473493202
 20
48.5195032331
 30
0.0
 10
31.5145591579
 20
48.6108464256
 30
0.0
 10
31.4847449764
 20
48.7368315251
 30
0.0
 10
31.4630773992
 20
48.8769446604
 30
0.0
 10
31.4507516554
 20
49.0223170869
 30
0.0
 10
31.448049215
 20
49.1199308633
 30
0.0
 10
31.4480492158
 20
49.1680709977
 30
0.0
  0
SPLINE
  5
3D1
100
AcDbEntity
  8
0
100
AcDbSpline
 62
7
  6
CONTINUOUS
 70
0
 71
3
 72
15
 73
11
 74
0
 42
0.0000001
 43
0.0000001
 44
0.0000000001
 40
0.0
 40
0.0
 40
0.0
 40
0.0
 40
0.1437739365
 40
0.2829781741
 40
0.4158122135
 40
0.5410526888
 40
0.6591204519
 40
0.772602374
 40
0.8851611532
 40
1.0
 40
1.0
 40
1.0
 40
1.0
 10
32.1292593107
 20
48.3703789507
 30
0.0
 10
32.1189936721
 20
48.4245417709
 30
0.0
 10
32.0957561096
 20
48.5306182296
 30
0.0
 10
32.0492920288
 20
48.6833788352
 30
0.0
 10
31.9887945889
 20
48.8236172178
 30
0.0
 10
31.9122206389
 20
48.9467328898
 30
0.0
 10
31.8170488591
 20
49.0465662904
 30
0.0
 10
31.7050053082
 20
49.1188582637
 30
0.0
 10
31.5795909113
 20
49.1599741866
 30
0.0
 10
31.4920716884
 20
49.168068761
 30
0.0
 10
31.4480391613
 20
49.1680689567
 30
0.0
  0
SPLINE
  5
3D2
100
AcDbEntity
  8
0
100
AcDbSpline
 62
7
  6
CONTINUOUS
 70
0
 71
3
 72
10
 73
6
 74
0
 42
0.0000001
 43
0.0000001
 44
0.0000000001
 40
0.0
 40
0.0
 40
0.0
 40
0.0
 40
0.2543934375
 40
0.5047994343
 40
1.0
 40
1.0
 40
1.0
 40
1.0
 10
15.3442195609
 20
48.6686360833
 30
0.0
 10
15.3195981603
 20
48.7331098043
 30
0.0
 10
15.2789931008
 20
48.8643262907
 30
0.0
 10
15.2269629437
 20
49.1308717128
 30
0.0
 10
15.2128903766
 20
49.333666358
 30
0.0
 10
15.2126967966
 20
49.4680104106
 30
0.0
  0
SPLINE
  5
3D3
100
AcDbEntity
  8
0
100
AcDbSpline
 62
7
  6
CONTINUOUS
 70
0
 71
3
 72
18
 73
14
 74
0
 42
0.0000001
 43
0.0000001
 44
0.0000000001
 40
0.0
 40
0.0
 40
0.0
 40
0.0
 40
0.1674076865
 40
0.3384424566
 40
0.5039441822
 40
0.6537723842
 40
0.7791444712
 40
0.8315077697
 40
0.8767028397
 40
0.9149207334
 40
0.9472059849
 40
0.9750016707
 40
1.0
 40
1.0
 40
1.0
 40
1.0
 10
23.9773460296
 20
49.1680709977
 30
0.0
 10
23.9773459626
 20
49.119042394
 30
0.0
 10
23.9745428179
 20
49.0199031209
 30
0.0
 10
23.9618615825
 20
48.8727629833
 30
0.0
 10
23.9397058555
 20
48.7319158618
 30
0.0
 10
23.9094909558
 20
48.6062720124
 30
0.0
 10
23.8764906566
 20
48.5158032222
 30
0.0
 10
23.8464122341
 20
48.4577579193
 30
0.0
 10
23.8244884077
 20
48.4244662524
 30
0.0
 10
23.801965295
 20
48.398959574
 30
0.0
 10
23.7791493992
 20
48.3810698075
 30
0.0
 10
23.7563090929
 20
48.3704799935
 30
0.0
 10
23.7407747998
 20
48.3680709962
 30
0.0
 10
23.7334535519
 20
48.3680709978
 30
0.0
  0
SPLINE
  5
3D4
100
AcDbEntity
  8
0
100
AcDbSpline
 62
7
  6
CONTINUOUS
 70
0
 71
3
 72
15
 73
11
 74
0
 42
0.0000001
 43
0.0000001
 44
0.0000000001
 40
0.0
 40
0.0
 40
0.0
 40
0.0
 40
0.1291414381
 40
0.2559423364
 40
0.3801332425
 40
0.5017922853
 40
0.6218238705
 40
0.742604606
 40
0.8677819593
 40
1.0
 40
1.0
 40
1.0
 40
1.0
 10
23.2961243634
 20
48.3702591462
 30
0.0
 10
23.3053294175
 20
48.4189125347
 30
0.0
 10
23.3260797753
 20
48.5148975629
 30
0.0
 10
23.3667624697
 20
48.655018038
 30
0.0
 10
23.4195558861
 20
48.788103403
 30
0.0
 10
23.488124313
 20
48.9111127716
 30
0.0
 10
23.5770596012
 20
49.0192063098
 30
0.0
 10
23.6904717599
 20
49.1045683427
 30
0.0
 10
23.8273772839
 20
49.1576005439
 30
0.0
 10
23.9266490268
 20
49.1680712923
 30
0.0
 10
23.9773451989
 20
49.1680709977
 30
0.0
  0
SPLINE
  5
3D5
100
AcDbEntity
  8
0
100
AcDbSpline
 62
7
  6
CONTINUOUS
 70
0
 71
3
 72
11
 73
7
 74
0
 42
0.0000001
 43
0.0000001
 44
0.0000000001
 40
0.0
 40
0.0
 40
0.0
 40
0.0
 40
0.2452267124
 40
0.4950104517
 40
0.7469523576
 40
1.0
 40
1.0
 40
1.0
 40
1.0
 10
15.3502375466
 20
47.5461500625
 30
0.0
 10
15.3239790345
 20
47.6445824966
 30
0.0
 10
15.2815250143
 20
47.8461459931
 30
0.0
 10
15.2408004115
 20
48.1539525184
 30
0.0
 10
15.2174484275
 20
48.4667893139
 30
0.0
 10
15.2126968657
 20
48.6766198065
 30
0.0
 10
15.2126965269
 20
48.781743556
 30
0.0
  0
SPLINE
  5
3D6
100
AcDbEntity
  8
0
100
AcDbSpline
 62
7
  6
CONTINUOUS
 70
0
 71
3
 72
11
 73
7
 74
0
 42
0.0000001
 43
0.0000001
 44
0.0000000001
 40
0.0
 40
0.0
 40
0.0
 40
0.0
 40
0.0932411431
 40
0.2856316521
 40
0.5873804494
 40
1.0
 40
1.0
 40
1.0
 40
1.0
 10
41.5112544589
 20
30.3049659224
 30
0.0
 10
41.5109315909
 20
30.3049660339
 30
0.0
 10
41.5101892556
 20
30.3040573216
 30
0.0
 10
41.5093578675
 20
30.3023336958
 30
0.0
 10
41.5081946586
 20
30.2993455106
 30
0.0
 10
41.5074316372
 20
30.2970133834
 30
0.0
 10
41.5070000494
 20
30.2956513403
 30
0.0
  0
SPLINE
  5
3D7
100
AcDbEntity
  8
0
100
AcDbSpline
 62
7
  6
CONTINUOUS
 70
0
 71
3
 72
9
 73
5
 74
0
 42
0.0000001
 43
0.0000001
 44
0.0000000001
 40
0.0
 40
0.0
 40
0.0
 40
0.0
 40
0.2018316314
 40
1.0
 40
1.0
 40
1.0
 40
1.0
 10
41.5070000494
 20
30.2956513403
 30
0.0
 10
41.5065915685
 20
30.2943622202
 30
0.0
 10
41.5046460196
 20
30.2879503524
 30
0.0
 10
41.5029069225
 20
30.2814780935
 30
0.0
 10
41.5015510656
 20
30.2763050293
 30
0.0
  0
SPLINE
  5
3D8
100
AcDbEntity
  8
0
100
AcDbSpline
 62
7
  6
CONTINUOUS
 70
0
 71
3
 72
12
 73
8
 74
0
 42
0.0000001
 43
0.0000001
 44
0.0000000001
 40
0.0
 40
0.0
 40
0.0
 40
0.0
 40
0.2837966476
 40
0.5530669627
 40
0.7947404209
 40
0.9023584567
 40
1.0
 40
1.0
 40
1.0
 40
1.0
 10
39.7192350977
 20
34.4470774288
 30
0.0
 10
39.7684182744
 20
34.4473060689
 30
0.0
 10
39.8643351453
 20
34.4527448186
 30
0.0
 10
40.0004394711
 20
34.475514646
 30
0.0
 10
40.1035076869
 20
34.5066090931
 30
0.0
 10
40.1742187748
 20
34.5384500659
 30
0.0
 10
40.2050840005
 20
34.5563241094
 30
0.0
 10
40.2191327945
 20
34.5657571074
 30
0.0
  0
LINE
  5
3D9
100
AcDbEntity
  8
0
100
AcDbLine
 62
7
  6
CONTINUOUS
 10
39.7192350977
 20
34.4470774288
 11
39.7126966836
 21
34.4573050643
  0
SPLINE
  5
3DA
100
AcDbEntity
  8
0
100
AcDbSpline
 62
7
  6
CONTINUOUS
 70
0
 71
3
 72
18
 73
14
 74
0
 42
0.0000001
 43
0.0000001
 44
0.0000000001
 40
0.0
 40
0.0
 40
0.0
 40
0.0
 40
0.1626817244
 40
0.3208038194
 40
0.4702130735
 40
0.607356308
 40
0.729402276
 40
0.7842511455
 40
0.8348566632
 40
0.8813295652
 40
0.9239701371
 40
0.9632828399
 40
1.0
 40
1.0
 40
1.0
 40
1.0
 10
39.7323119259
 20
29.5938406372
 30
0.0
 10
39.8403408144
 20
29.5943428363
 30
0.0
 10
40.053429741
 20
29.6034758025
 30
0.0
 10
40.3637013001
 20
29.6413436063
 30
0.0
 10
40.6531073178
 20
29.702099887
 30
0.0
 10
40.9123667807
 20
29.7836963192
 30
0.0
 10
41.103130019
 20
29.8698051456
 30
0.0
 10
41.2324533716
 20
29.9482324596
 30
0.0
 10
41.3136625975
 20
30.0083808507
 30
0.0
 10
41.3819391571
 20
30.0715188367
 30
0.0
 10
41.4367217648
 20
30.137259205
 30
0.0
 10
41.4774339249
 20
30.205129042
 30
0.0
 10
41.4953692822
 20
30.2527193815
 30
0.0
 10
41.5015510656
 20
30.2763050293
 30
0.0
  0
SPLINE
  5
3DB
100
AcDbEntity
  8
0
100
AcDbSpline
 62
7
  6
CONTINUOUS
 70
0
 71
3
 72
23
 73
19
 74
0
 42
0.0000001
 43
0.0000001
 44
0.0000000001
 40
0.0
 40
0.0
 40
0.0
 40
0.0
 40
0.0594262418
 40
0.1193885009
 40
0.1802082717
 40
0.2421909974
 40
0.2736791281
 40
0.3054651441
 40
0.3697748553
 40
0.4999923759
 40
0.6302097611
 40
0.6945204693
 40
0.7263079466
 40
0.7577977375
 40
0.8197842973
 40
0.8806076649
 40
0.9405731165
 40
1.0
 40
1.0
 40
1.0
 40
1.0
 10
19.2126966836
 20
31.6288191227
 30
0.0
 10
19.2126966836
 20
31.6820507803
 30
0.0
 10
19.2009489333
 20
31.7893439035
 30
0.0
 10
19.1490665244
 20
31.9434483428
 30
0.0
 10
19.0649024578
 20
32.0852305362
 30
0.0
 10
18.9711714307
 20
32.1881348115
 30
0.0
 10
18.8842389897
 20
32.2592930488
 30
0.0
 10
18.7891684678
 20
32.3230207351
 30
0.0
 10
18.6055757495
 20
32.4115084259
 30
0.0
 10
18.312718453
 20
32.4637822753
 30
0.0
 10
18.0198566823
 20
32.411521808
 30
0.0
 10
17.8362604244
 20
32.323037469
 30
0.0
 10
17.7411824317
 20
32.2593142373
 30
0.0
 10
17.6542437289
 20
32.188153733
 30
0.0
 10
17.5605022295
 20
32.0852479162
 30
0.0
 10
17.4763315989
 20
31.9434581092
 30
0.0
 10
17.424445246
 20
31.7893479544
 30
0.0
 10
17.4126966836
 20
31.6820513551
 30
0.0
 10
17.4126966836
 20
31.6288191227
 30
0.0
  0
SPLINE
  5
3DC
100
AcDbEntity
  8
0
100
AcDbSpline
 62
7
  6
CONTINUOUS
 70
0
 71
3
 72
23
 73
19
 74
0
 42
0.0000001
 43
0.0000001
 44
0.0000000001
 40
0.0
 40
0.0
 40
0.0
 40
0.0
 40
0.0594262418
 40
0.1193885009
 40
0.1802082717
 40
0.2421909974
 40
0.2736791281
 40
0.3054651441
 40
0.3697748553
 40
0.4999923759
 40
0.6302097611
 40
0.6945204693
 40
0.7263079466
 40
0.7577977375
 40
0.8197842973
 40
0.8806076649
 40
0.9405731165
 40
1.0
 40
1.0
 40
1.0
 40
1.0
 10
37.9126966836
 20
31.6288191227
 30
0.0
 10
37.9126966836
 20
31.6820507803
 30
0.0
 10
37.9009489333
 20
31.7893439035
 30
0.0
 10
37.8490665244
 20
31.9434483428
 30
0.0
 10
37.7649024578
 20
32.0852305362
 30
0.0
 10
37.6711714307
 20
32.1881348115
 30
0.0
 10
37.5842389897
 20
32.2592930488
 30
0.0
 10
37.4891684678
 20
32.3230207351
 30
0.0
 10
37.3055757495
 20
32.4115084259
 30
0.0
 10
37.012718453
 20
32.4637822753
 30
0.0
 10
36.7198566823
 20
32.411521808
 30
0.0
 10
36.5362604244
 20
32.323037469
 30
0.0
 10
36.4411824317
 20
32.2593142373
 30
0.0
 10
36.3542437289
 20
32.188153733
 30
0.0
 10
36.2605022295
 20
32.0852479162
 30
0.0
 10
36.1763315989
 20
31.9434581092
 30
0.0
 10
36.124445246
 20
31.7893479544
 30
0.0
 10
36.1126966836
 20
31.6820513551
 30
0.0
 10
36.1126966836
 20
31.6288191227
 30
0.0
  0
SPLINE
  5
3DD
100
AcDbEntity
  8
0
100
AcDbSpline
 62
7
  6
CONTINUOUS
 70
0
 71
3
 72
9
 73
5
 74
0
 42
0.0000001
 43
0.0000001
 44
0.0000000001
 40
0.0
 40
0.0
 40
0.0
 40
0.0
 40
0.5023082059
 40
1.0
 40
1.0
 40
1.0
 40
1.0
 10
32.8255140861
 20
34.7184505039
 30
0.0
 10
32.6320705533
 20
34.7196150028
 30
0.0
 10
32.2461929776
 20
34.7608887116
 30
0.0
 10
31.8765727346
 20
34.8796452724
 30
0.0
 10
31.7012674111
 20
34.9571379765
 30
0.0
  0
SPLINE
  5
3DE
100
AcDbEntity
  8
0
100
AcDbSpline
 62
7
  6
CONTINUOUS
 70
0
 71
3
 72
9
 73
5
 74
0
 42
0.0000001
 43
0.0000001
 44
0.0000000001
 40
0.0
 40
0.0
 40
0.0
 40
0.0
 40
0.4979070053
 40
1.0
 40
1.0
 40
1.0
 40
1.0
 10
23.8243529567
 20
34.9357245324
 30
0.0
 10
23.6557433797
 20
34.8651645928
 30
0.0
 10
23.3020904258
 20
34.75717391
 30
0.0
 10
22.9343528047
 20
34.7195716379
 30
0.0
 10
22.7500412943
 20
34.7184514916
 30
0.0
  0
SPLINE
  5
3DF
100
AcDbEntity
  8
0
100
AcDbSpline
 62
7
  6
CONTINUOUS
 70
0
 71
3
 72
21
 73
17
 74
0
 42
0.0000001
 43
0.0000001
 44
0.0000000001
 40
0.0
 40
0.0
 40
0.0
 40
0.0
 40
0.0596410273
 40
0.1200937908
 40
0.1814817308
 40
0.2438206142
 40
0.3070464059
 40
0.3710194815
 40
0.4999888048
 40
0.6289583936
 40
0.6929325954
 40
0.7561610428
 40
0.8185041724
 40
0.8798970929
 40
0.9403543212
 40
1.0
 40
1.0
 40
1.0
 40
1.0
 10
37.8639017242
 20
31.8763084155
 30
0.0
 10
37.8487284051
 20
31.8363544458
 30
0.0
 10
37.8113281588
 20
31.7583283879
 30
0.0
 10
37.736407484
 20
31.6513769503
 30
0.0
 10
37.6442273549
 20
31.5561600981
 30
0.0
 10
37.5369546455
 20
31.4750637291
 30
0.0
 10
37.4172026358
 20
31.4099108625
 30
0.0
 10
37.244453114
 20
31.3462460647
 30
0.0
 10
37.0128027774
 20
31.3136446039
 30
0.0
 10
36.7811465158
 20
31.3462003409
 30
0.0
 10
36.6083784194
 20
31.4098237438
 30
0.0
 10
36.4886090642
 20
31.4749568409
 30
0.0
 10
36.3813101138
 20
31.556032417
 30
0.0
 10
36.2891028189
 20
31.6512368537
 30
0.0
 10
36.2141521514
 20
31.7581795968
 30
0.0
 10
36.1767324549
 20
31.8362036774
 30
0.0
 10
36.1615493008
 20
31.8761574765
 30
0.0
  0
SPLINE
  5
3E0
100
AcDbEntity
  8
0
100
AcDbSpline
 62
7
  6
CONTINUOUS
 70
0
 71
3
 72
21
 73
17
 74
0
 42
0.0000001
 43
0.0000001
 44
0.0000000001
 40
0.0
 40
0.0
 40
0.0
 40
0.0
 40
0.0596410273
 40
0.1200937908
 40
0.1814817308
 40
0.2438206142
 40
0.3070464059
 40
0.3710194815
 40
0.4999888048
 40
0.6289583936
 40
0.6929325954
 40
0.7561610428
 40
0.8185041724
 40
0.8798970929
 40
0.9403543212
 40
1.0
 40
1.0
 40
1.0
 40
1.0
 10
19.1639017242
 20
31.8763084155
 30
0.0
 10
19.1487284051
 20
31.8363544458
 30
0.0
 10
19.1113281588
 20
31.7583283879
 30
0.0
 10
19.036407484
 20
31.6513769503
 30
0.0
 10
18.9442273549
 20
31.5561600981
 30
0.0
 10
18.8369546455
 20
31.4750637291
 30
0.0
 10
18.7172026358
 20
31.4099108625
 30
0.0
 10
18.544453114
 20
31.3462460647
 30
0.0
 10
18.3128027774
 20
31.3136446039
 30
0.0
 10
18.0811465158
 20
31.3462003409
 30
0.0
 10
17.9083784194
 20
31.4098237438
 30
0.0
 10
17.7886090642
 20
31.4749568409
 30
0.0
 10
17.6813101138
 20
31.556032417
 30
0.0
 10
17.5891028189
 20
31.6512368537
 30
0.0
 10
17.5141521514
 20
31.7581795968
 30
0.0
 10
17.4767324549
 20
31.8362036774
 30
0.0
 10
17.4615493008
 20
31.8761574765
 30
0.0
  0
SPLINE
  5
3E1
100
AcDbEntity
  8
0
100
AcDbSpline
 62
7
  6
CONTINUOUS
 70
0
 71
3
 72
9
 73
5
 74
0
 42
0.0000001
 43
0.0000001
 44
0.0000000001
 40
0.0
 40
0.0
 40
0.0
 40
0.0
 40
0.2137877788
 40
1.0
 40
1.0
 40
1.0
 40
1.0
 10
10.5147831554
 20
34.6816775434
 30
0.0
 10
10.5144106612
 20
34.6835779101
 30
0.0
 10
10.5130140817
 20
34.6925348365
 30
0.0
 10
10.5126966836
 20
34.7016252349
 30
0.0
 10
10.5126966836
 20
34.7087468906
 30
0.0
  0
SPLINE
  5
3E2
100
AcDbEntity
  8
0
100
AcDbSpline
 62
7
  6
CONTINUOUS
 70
0
 71
3
 72
15
 73
11
 74
0
 42
0.0000001
 43
0.0000001
 44
0.0000000001
 40
0.0
 40
0.0
 40
0.0
 40
0.0
 40
0.0759575608
 40
0.1641140235
 40
0.2681453893
 40
0.3889421424
 40
0.5253056918
 40
0.6748290419
 40
0.8344215772
 40
1.0
 40
1.0
 40
1.0
 40
1.0
 10
10.51478257
 20
34.6816770221
 30
0.0
 10
10.5178387007
 20
34.6660857935
 30
0.0
 10
10.531792642
 20
34.6337313501
 30
0.0
 10
10.5694205922
 20
34.591337094
 30
0.0
 10
10.6229215975
 20
34.5529315947
 30
0.0
 10
10.6908067944
 20
34.5192333246
 30
0.0
 10
10.7712258509
 20
34.4909822245
 30
0.0
 10
10.8619295919
 20
34.4690628591
 30
0.0
 10
10.9601995231
 20
34.4541407569
 30
0.0
 10
11.0281120716
 20
34.4491918819
 30
0.0
 10
11.0627237021
 20
34.4479530426
 30
0.0
  0
SPLINE
  5
3E3
100
AcDbEntity
  8
0
100
AcDbSpline
 62
7
  6
CONTINUOUS
 70
0
 71
3
 72
9
 73
5
 74
0
 42
0.0000001
 43
0.0000001
 44
0.0000000001
 40
0.0
 40
0.0
 40
0.0
 40
0.0
 40
0.5878758194
 40
1.0
 40
1.0
 40
1.0
 40
1.0
 10
9.3238423016
 20
30.2763050293
 30
0.0
 10
9.3226647537
 20
30.280797783
 30
0.0
 10
9.3206042028
 20
30.2884238601
 30
0.0
 10
9.3183370524
 20
30.2959976647
 30
0.0
 10
9.317258812
 20
30.2990699322
 30
0.0
  0
SPLINE
  5
3E4
100
AcDbEntity
  8
0
100
AcDbSpline
 62
7
  6
CONTINUOUS
 70
0
 71
3
 72
10
 73
6
 74
0
 42
0.0000001
 43
0.0000001
 44
0.0000000001
 40
0.0
 40
0.0
 40
0.0
 40
0.0
 40
0.702297341
 40
0.8965015111
 40
1.0
 40
1.0
 40
1.0
 40
1.0
 10
9.317258812
 20
30.2990699322
 30
0.0
 10
9.3167319606
 20
30.3005711081
 30
0.0
 10
9.316005866
 20
30.3025246621
 30
0.0
 10
9.3149396681
 20
30.3044424859
 30
0.0
 10
9.3143733385
 20
30.3049668273
 30
0.0
 10
9.3141388791
 20
30.3049666895
 30
0.0
  0
SPLINE
  5
3E5
100
AcDbEntity
  8
0
100
AcDbSpline
 62
7
  6
CONTINUOUS
 70
0
 71
3
 72
17
 73
13
 74
0
 42
0.0000001
 43
0.0000001
 44
0.0000000001
 40
0.0
 40
0.0
 40
0.0
 40
0.0
 40
0.0370040875
 40
0.0765443385
 40
0.1193226663
 40
0.1658291567
 40
0.2709264351
 40
0.3924883332
 40
0.529111526
 40
0.6781853548
 40
0.8364910555
 40
1.0
 40
1.0
 40
1.0
 40
1.0
 10
9.3238423016
 20
30.2763050293
 30
0.0
 10
9.3298467072
 20
30.2533961396
 30
0.0
 10
9.3471132702
 20
30.2071873704
 30
0.0
 10
9.3860828046
 20
30.1411476824
 30
0.0
 10
9.4383648957
 20
30.0770400418
 30
0.0
 10
9.5289290284
 20
29.99134722
 30
0.0
 10
9.6749797955
 20
29.8932012672
 30
0.0
 10
9.8860932155
 20
29.7943622996
 30
0.0
 10
10.1341167865
 20
29.7125513556
 30
0.0
 10
10.4117362716
 20
29.6501640045
 30
0.0
 10
10.710626493
 20
29.6092038741
 30
0.0
 10
10.9164626586
 20
29.5970645149
 30
0.0
 10
11.0210840209
 20
29.5947901737
 30
0.0
  0
SPLINE
  5
3E6
100
AcDbEntity
  8
0
100
AcDbSpline
 62
7
  6
CONTINUOUS
 70
0
 71
3
 72
17
 73
13
 74
0
 42
0.0000001
 43
0.0000001
 44
0.0000000001
 40
0.0
 40
0.0
 40
0.0
 40
0.0
 40
0.03316425
 40
0.0681867186
 40
0.1064572001
 40
0.1489799117
 40
0.2487097964
 40
0.3691068645
 40
0.508386814
 40
0.663123476
 40
0.8289309313
 40
1.0
 40
1.0
 40
1.0
 40
1.0
 10
9.3126966836
 20
36.2717189319
 30
0.0
 10
9.3126966836
 20
36.2641555918
 30
0.0
 10
9.3106147885
 20
36.2485431125
 30
0.0
 10
9.3015810584
 20
36.2257955113
 30
0.0
 10
9.2868725599
 20
36.2036619509
 30
0.0
 10
9.2584041553
 20
36.1737019343
 30
0.0
 10
9.2084679849
 20
36.1395830996
 30
0.0
 10
9.1335627538
 20
36.1057436362
 30
0.0
 10
9.0430263624
 20
36.0779029127
 30
0.0
 10
8.9400764165
 20
36.0572178938
 30
0.0
 10
8.82856844
 20
36.0445030833
 30
0.0
 10
8.7517101858
 20
36.0416252178
 30
0.0
 10
8.7126966836
 20
36.0416252178
 30
0.0
  0
SPLINE
  5
3E7
100
AcDbEntity
  8
0
100
AcDbSpline
 62
7
  6
CONTINUOUS
 70
0
 71
3
 72
9
 73
5
 74
0
 42
0.0000001
 43
0.0000001
 44
0.0000000001
 40
0.0
 40
0.0
 40
0.0
 40
0.0
 40
0.4943359245
 40
1.0
 40
1.0
 40
1.0
 40
1.0
 10
5.3126966836
 20
32.8873111018
 30
0.0
 10
5.3126966836
 20
32.863209032
 30
0.0
 10
5.323365916
 20
32.8139142182
 30
0.0
 10
5.3531634244
 20
32.7734292448
 30
0.0
 10
5.3712753274
 20
32.7567020833
 30
0.0
  0
SPLINE
  5
3E8
100
AcDbEntity
  8
0
100
AcDbSpline
 62
7
  6
CONTINUOUS
 70
0
 71
3
 72
9
 73
5
 74
0
 42
0.0000001
 43
0.0000001
 44
0.0000000001
 40
0.0
 40
0.0
 40
0.0
 40
0.0
 40
0.4948944479
 40
1.0
 40
1.0
 40
1.0
 40
1.0
 10
6.2541180399
 20
31.9413569104
 30
0.0
 10
6.2727886162
 20
31.9241137887
 30
0.0
 10
6.3177980908
 20
31.8965688501
 30
0.0
 10
6.3696001429
 20
31.8872568836
 30
0.0
 10
6.3955393961
 20
31.8872568836
 30
0.0
  0
SPLINE
  5
3E9
100
AcDbEntity
  8
0
100
AcDbSpline
 62
7
  6
CONTINUOUS
 70
0
 71
3
 72
11
 73
7
 74
0
 42
0.0000001
 43
0.0000001
 44
0.0000000001
 40
0.0
 40
0.0
 40
0.0
 40
0.0
 40
0.2407771769
 40
0.4870263669
 40
0.7408707268
 40
1.0
 40
1.0
 40
1.0
 40
1.0
 10
5.3126966836
 20
35.8569161725
 30
0.0
 10
5.3126966836
 20
35.8810201125
 30
0.0
 10
5.3234225123
 20
35.9303617883
 30
0.0
 10
5.3685195825
 20
35.9917199697
 30
0.0
 10
5.4349025306
 20
36.0322537282
 30
0.0
 10
5.4867555353
 20
36.0416252178
 30
0.0
 10
5.5126966836
 20
36.0416252178
 30
0.0
  0
SPLINE
  5
3EA
100
AcDbEntity
  8
0
100
AcDbSpline
 62
7
  6
CONTINUOUS
 70
0
 71
3
 72
9
 73
5
 74
0
 42
0.0000001
 43
0.0000001
 44
0.0000000001
 40
0.0
 40
0.0
 40
0.0
 40
0.0
 40
0.493665728
 40
1.0
 40
1.0
 40
1.0
 40
1.0
 10
9.3248467169
 20
31.9284019391
 30
0.0
 10
9.2247856543
 20
31.9145244341
 30
0.0
 10
9.0209931756
 20
31.8940079578
 30
0.0
 10
8.8163078648
 20
31.8872568836
 30
0.0
 10
8.7126966836
 20
31.8872568836
 30
0.0
  0
SPLINE
  5
3EB
100
AcDbEntity
  8
0
100
AcDbSpline
 62
7
  6
CONTINUOUS
 70
0
 71
3
 72
11
 73
7
 74
0
 42
0.0000001
 43
0.0000001
 44
0.0000000001
 40
0.0
 40
0.0
 40
0.0
 40
0.0
 40
0.0809830731
 40
0.2688149328
 40
0.5750730974
 40
1.0
 40
1.0
 40
1.0
 40
1.0
 10
9.3141388791
 20
30.3049666895
 30
0.0
 10
9.3137950135
 20
30.3049664874
 30
0.0
 10
9.313177497
 20
30.3036130873
 30
0.0
 10
9.3129810844
 20
30.3014185256
 30
0.0
 10
9.312698912
 20
30.2973925966
 30
0.0
 10
9.3126966836
 20
30.2943288523
 30
0.0
 10
9.3126966836
 20
30.2925245524
 30
0.0
  0
SPLINE
  5
3EC
100
AcDbEntity
  8
0
100
AcDbSpline
 62
7
  6
CONTINUOUS
 70
0
 71
3
 72
19
 73
15
 74
0
 42
0.0000001
 43
0.0000001
 44
0.0000000001
 40
0.0
 40
0.0
 40
0.0
 40
0.0
 40
0.167436626
 40
0.3288934374
 40
0.4799311995
 40
0.6168720448
 40
0.6791910807
 40
0.7370773362
 40
0.7904545245
 40
0.8393830655
 40
0.8841393238
 40
0.9252527188
 40
0.9635209529
 40
1.0
 40
1.0
 40
1.0
 40
1.0
 10
11.0210840209
 20
33.9361748719
 30
0.0
 10
10.910320681
 20
33.9385827322
 30
0.0
 10
10.6928303848
 20
33.9518649464
 30
0.0
 10
10.3781371996
 20
33.9972323263
 30
0.0
 10
10.0884459518
 20
34.0663277709
 30
0.0
 10
9.869358256
 20
34.1439223414
 30
0.0
 10
9.7155977944
 20
34.2171085139
 30
0.0
 10
9.6159567569
 20
34.2745105219
 30
0.0
 10
9.5291488356
 20
34.3356308547
 30
0.0
 10
9.4559071723
 20
34.400037699
 30
0.0
 10
9.3968629515
 20
34.4672784061
 30
0.0
 10
9.3525968734
 20
34.536938533
 30
0.0
 10
9.323739586
 20
34.608458164
 30
0.0
 10
9.3149604385
 20
34.6575883959
 30
0.0
 10
9.313391278
 20
34.6816748019
 30
0.0
  0
SPLINE
  5
3ED
100
AcDbEntity
  8
0
100
AcDbSpline
 62
7
  6
CONTINUOUS
 70
0
 71
3
 72
9
 73
5
 74
0
 42
0.0000001
 43
0.0000001
 44
0.0000000001
 40
0.0
 40
0.0
 40
0.0
 40
0.0
 40
0.2866501536
 40
1.0
 40
1.0
 40
1.0
 40
1.0
 10
9.3126966836
 20
34.7087476884
 30
0.0
 10
9.3126966836
 20
34.7061597411
 30
0.0
 10
9.312744457
 20
34.6971322785
 30
0.0
 10
9.3129726534
 20
34.688100765
 30
0.0
 10
9.3133913237
 20
34.6816740918
 30
0.0
  0
SPLINE
  5
3EE
100
AcDbEntity
  8
0
100
AcDbSpline
 62
7
  6
CONTINUOUS
 70
0
 71
3
 72
19
 73
15
 74
0
 42
0.0000001
 43
0.0000001
 44
0.0000000001
 40
0.0
 40
0.0
 40
0.0
 40
0.0
 40
0.0361701042
 40
0.07387572
 40
0.1143353196
 40
0.1584814496
 40
0.2069336493
 40
0.2600167709
 40
0.3178060321
 40
0.3802195087
 40
0.5178100574
 40
0.6698379775
 40
0.8322063919
 40
1.0
 40
1.0
 40
1.0
 40
1.0
 10
41.5126966836
 20
34.7030034754
 30
0.0
 10
41.5126966836
 20
34.677946938
 30
0.0
 10
41.5066652079
 20
34.6266002621
 30
0.0
 10
41.4801961623
 20
34.5513635338
 30
0.0
 10
41.4367381254
 20
34.478076073
 30
0.0
 10
41.3770374031
 20
34.4073945637
 30
0.0
 10
41.3017655296
 20
34.3397782606
 30
0.0
 10
41.2116368831
 20
34.2757312614
 30
0.0
 10
41.1074814198
 20
34.215737685
 30
0.0
 10
40.9458297622
 20
34.1394606637
 30
0.0
 10
40.7147056564
 20
34.0594464003
 30
0.0
 10
40.4089525222
 20
33.9897685856
 30
0.0
 10
40.0773356119
 20
33.9462279825
 30
0.0
 10
39.8485482897
 20
33.935765689
 30
0.0
 10
39.7323119259
 20
33.9352253354
 30
0.0
  0
SPLINE
  5
3EF
100
AcDbEntity
  8
0
100
AcDbSpline
 62
7
  6
CONTINUOUS
 70
0
 71
3
 72
23
 73
19
 74
0
 42
0.0000001
 43
0.0000001
 44
0.0000000001
 40
0.0
 40
0.0
 40
0.0
 40
0.0
 40
0.0594262418
 40
0.1193885009
 40
0.1802082717
 40
0.2421909974
 40
0.2736791281
 40
0.3054651441
 40
0.3697748553
 40
0.4999923759
 40
0.6302097611
 40
0.6945204693
 40
0.7263079466
 40
0.7577977375
 40
0.8197842973
 40
0.8806076649
 40
0.9405731165
 40
1.0
 40
1.0
 40
1.0
 40
1.0
 10
17.4126966836
 20
31.6288191227
 30
0.0
 10
17.4126966836
 20
31.5755874651
 30
0.0
 10
17.4244444339
 20
31.4682943419
 30
0.0
 10
17.4763268428
 20
31.3141899026
 30
0.0
 10
17.5604909095
 20
31.1724077092
 30
0.0
 10
17.6542219365
 20
31.0695034339
 30
0.0
 10
17.7411543775
 20
30.9983451966
 30
0.0
 10
17.8362248994
 20
30.9346175103
 30
0.0
 10
18.0198176178
 20
30.8461298195
 30
0.0
 10
18.3126749142
 20
30.7938559701
 30
0.0
 10
18.6055366849
 20
30.8461164374
 30
0.0
 10
18.7891329429
 20
30.9346007764
 30
0.0
 10
18.8842109355
 20
30.9983240081
 30
0.0
 10
18.9711496384
 20
31.0694845124
 30
0.0
 10
19.0648911378
 20
31.1723903292
 30
0.0
 10
19.1490617683
 20
31.3141801362
 30
0.0
 10
19.2009481212
 20
31.468290291
 30
0.0
 10
19.2126966836
 20
31.5755868903
 30
0.0
 10
19.2126966836
 20
31.6288191227
 30
0.0
  0
SPLINE
  5
3F0
100
AcDbEntity
  8
0
100
AcDbSpline
 62
7
  6
CONTINUOUS
 70
0
 71
3
 72
23
 73
19
 74
0
 42
0.0000001
 43
0.0000001
 44
0.0000000001
 40
0.0
 40
0.0
 40
0.0
 40
0.0
 40
0.0594262418
 40
0.1193885009
 40
0.1802082717
 40
0.2421909974
 40
0.2736791281
 40
0.3054651441
 40
0.3697748553
 40
0.4999923759
 40
0.6302097611
 40
0.6945204693
 40
0.7263079466
 40
0.7577977375
 40
0.8197842973
 40
0.8806076649
 40
0.9405731165
 40
1.0
 40
1.0
 40
1.0
 40
1.0
 10
36.1126966836
 20
31.6288191227
 30
0.0
 10
36.1126966836
 20
31.5755874651
 30
0.0
 10
36.1244444339
 20
31.4682943419
 30
0.0
 10
36.1763268428
 20
31.3141899026
 30
0.0
 10
36.2604909095
 20
31.1724077092
 30
0.0
 10
36.3542219365
 20
31.0695034339
 30
0.0
 10
36.4411543775
 20
30.9983451966
 30
0.0
 10
36.5362248994
 20
30.9346175103
 30
0.0
 10
36.7198176178
 20
30.8461298195
 30
0.0
 10
37.0126749142
 20
30.7938559701
 30
0.0
 10
37.3055366849
 20
30.8461164374
 30
0.0
 10
37.4891329429
 20
30.9346007764
 30
0.0
 10
37.5842109355
 20
30.9983240081
 30
0.0
 10
37.6711496384
 20
31.0694845124
 30
0.0
 10
37.7648911378
 20
31.1723903292
 30
0.0
 10
37.8490617683
 20
31.3141801362
 30
0.0
 10
37.9009481212
 20
31.468290291
 30
0.0
 10
37.9126966836
 20
31.5755868903
 30
0.0
 10
37.9126966836
 20
31.6288191227
 30
0.0
  0
SPLINE
  5
3F1
100
AcDbEntity
  8
0
100
AcDbSpline
 62
7
  6
CONTINUOUS
 70
0
 71
3
 72
11
 73
7
 74
0
 42
0.0000001
 43
0.0000001
 44
0.0000000001
 40
0.0
 40
0.0
 40
0.0
 40
0.0
 40
0.3806157949
 40
0.6739464048
 40
0.8797281551
 40
1.0
 40
1.0
 40
1.0
 40
1.0
 10
41.5126966836
 20
30.2925245524
 30
0.0
 10
41.5126966836
 20
30.2940744749
 30
0.0
 10
41.5126716264
 20
30.2968154013
 30
0.0
 10
41.5125322539
 20
30.3004080272
 30
0.0
 10
41.5122578443
 20
30.3028933386
 30
0.0
 10
41.5119699669
 20
30.3042317518
 30
0.0
 10
41.5117079981
 20
30.3046455651
 30
0.0
  0
LINE
  5
3F2
100
AcDbEntity
  8
0
100
AcDbLine
 62
7
  6
CONTINUOUS
 10
41.5117079981
 20
30.3046455651
 11
41.5112544589
 21
30.3049659224
  0
SPLINE
  5
3F3
100
AcDbEntity
  8
0
100
AcDbSpline
 62
7
  6
CONTINUOUS
 70
0
 71
3
 72
9
 73
5
 74
0
 42
0.0000001
 43
0.0000001
 44
0.0000000001
 40
0.0
 40
0.0
 40
0.0
 40
0.0
 40
0.4626886955
 40
1.0
 40
1.0
 40
1.0
 40
1.0
 10
9.8836802335
 20
35.7380102202
 30
0.0
 10
9.8940326577
 20
35.7695360097
 30
0.0
 10
9.9087928916
 20
35.8401903595
 30
0.0
 10
9.9126966836
 20
35.912000004
 30
0.0
 10
9.9126966836
 20
35.9505336615
 30
0.0
  0
SPLINE
  5
3F4
100
AcDbEntity
  8
0
100
AcDbSpline
 62
7
  6
CONTINUOUS
 70
0
 71
3
 72
9
 73
5
 74
0
 42
0.0000001
 43
0.0000001
 44
0.0000000001
 40
0.0
 40
0.0
 40
0.0
 40
0.0
 40
0.5044165797
 40
1.0
 40
1.0
 40
1.0
 40
1.0
 10
9.8836802335
 20
35.7380102202
 30
0.0
 10
9.8693331366
 20
35.694319627
 30
0.0
 10
9.8469122723
 20
35.6055513133
 30
0.0
 10
9.8391257129
 20
35.5142289047
 30
0.0
 10
9.8391257129
 20
35.4690482489
 30
0.0
  0
SPLINE
  5
3F5
100
AcDbEntity
  8
0
100
AcDbSpline
 62
7
  6
CONTINUOUS
 70
0
 71
3
 72
11
 73
7
 74
0
 42
0.0000001
 43
0.0000001
 44
0.0000000001
 40
0.0
 40
0.0
 40
0.0
 40
0.0
 40
0.2539724019
 40
0.5062507771
 40
0.75525811
 40
1.0
 40
1.0
 40
1.0
 40
1.0
 10
22.7326966836
 20
34.2065162872
 30
0.0
 10
22.9023166084
 20
34.2065162872
 30
0.0
 10
23.2411904532
 20
34.2365544613
 30
0.0
 10
23.7303085539
 20
34.3702055134
 30
0.0
 10
24.181739543
 20
34.5874144304
 30
0.0
 10
24.4488619809
 20
34.7848144031
 30
0.0
 10
24.5701534667
 20
34.8943861448
 30
0.0
  0
SPLINE
  5
3F6
100
AcDbEntity
  8
0
100
AcDbSpline
 62
7
  6
CONTINUOUS
 70
0
 71
3
 72
9
 73
5
 74
0
 42
0.0000001
 43
0.0000001
 44
0.0000000001
 40
0.0
 40
0.0
 40
0.0
 40
0.0
 40
0.5051055521
 40
1.0
 40
1.0
 40
1.0
 40
1.0
 10
6.3955393961
 20
32.3474443119
 30
0.0
 10
6.3696001428
 20
32.3474443119
 30
0.0
 10
6.3177980907
 20
32.3567562783
 30
0.0
 10
6.2727886162
 20
32.384301217
 30
0.0
 10
6.2541180399
 20
32.4015443387
 30
0.0
  0
SPLINE
  5
3F7
100
AcDbEntity
  8
0
100
AcDbSpline
 62
7
  6
CONTINUOUS
 70
0
 71
3
 72
9
 73
5
 74
0
 42
0.0000001
 43
0.0000001
 44
0.0000000001
 40
0.0
 40
0.0
 40
0.0
 40
0.0
 40
0.5056640755
 40
1.0
 40
1.0
 40
1.0
 40
1.0
 10
5.3712753274
 20
33.2168895115
 30
0.0
 10
5.3531634244
 20
33.2336166731
 30
0.0
 10
5.323365916
 20
33.2741016465
 30
0.0
 10
5.3126966836
 20
33.3233964602
 30
0.0
 10
5.3126966836
 20
33.34749853
 30
0.0
  0
SPLINE
  5
3F8
100
AcDbEntity
  8
0
100
AcDbSpline
 62
7
  6
CONTINUOUS
 70
0
 71
3
 72
17
 73
13
 74
0
 42
0.0000001
 43
0.0000001
 44
0.0000000001
 40
0.0
 40
0.0
 40
0.0
 40
0.0
 40
0.1710691656
 40
0.3368768316
 40
0.4916135506
 40
0.630893454
 40
0.7512904737
 40
0.8510202502
 40
0.8935429068
 40
0.9318133341
 40
0.9668357627
 40
1.0
 40
1.0
 40
1.0
 40
1.0
 10
8.7126966836
 20
32.3474443119
 30
0.0
 10
8.7517102084
 20
32.3474443119
 30
0.0
 10
8.8285685328
 20
32.3503221994
 30
0.0
 10
8.9400765948
 20
32.3630370078
 30
0.0
 10
9.0430265874
 20
32.3837220644
 30
0.0
 10
9.133562963
 20
32.4115628102
 30
0.0
 10
9.2084681469
 20
32.4454022756
 30
0.0
 10
9.258404248
 20
32.4795211226
 30
0.0
 10
9.2868726216
 20
32.5094810991
 30
0.0
 10
9.3015811007
 20
32.5316146332
 30
0.0
 10
9.3106148013
 20
32.5543622211
 30
0.0
 10
9.3126966836
 20
32.5699746887
 30
0.0
 10
9.3126966836
 20
32.577538026
 30
0.0
  0
SPLINE
  5
3F9
100
AcDbEntity
  8
0
100
AcDbSpline
 62
7
  6
CONTINUOUS
 70
0
 71
3
 72
11
 73
7
 74
0
 42
0.0000001
 43
0.0000001
 44
0.0000000001
 40
0.0
 40
0.0
 40
0.0
 40
0.0
 40
0.2447237898
 40
0.4937288699
 40
0.7460110956
 40
1.0
 40
1.0
 40
1.0
 40
1.0
 10
31.0023781962
 20
34.8969726975
 30
0.0
 10
31.1237248768
 20
34.7870129644
 30
0.0
 10
31.3910926161
 20
34.5888793029
 30
0.0
 10
31.843194544
 20
34.3708482152
 30
0.0
 10
32.3331998913
 20
34.2366708491
 30
0.0
 10
32.6727405481
 20
34.2065162872
 30
0.0
 10
32.8426966836
 20
34.2065162872
 30
0.0
  0
ELLIPSE
  5
3FA
100
AcDbEntity
  8
0
100
AcDbEllipse
 62
7
  6
CONTINUOUS
 10
57.0519470401
 20
22.5680709977
 30
0.0
 11
269.044027297
 21
-0.0
 31
0.0
 40
0.0524077793
 41
1.6218854705
 42
1.6446031114
  0
ELLIPSE
  5
3FB
100
AcDbEntity
  8
0
100
AcDbEllipse
 62
7
  6
CONTINUOUS
 10
41.3126966836
 20
39.4810496287
 30
0.0
 11
0.0297041348
 21
0.2110416624
 31
0.0
 40
0.9371697434
 41
-4.5633167931
 42
-2.9925204665
  0
ELLIPSE
  5
3FC
100
AcDbEntity
  8
0
100
AcDbEllipse
 62
7
  6
CONTINUOUS
 10
-1.6265536729
 20
22.5680709977
 30
0.0
 11
269.044027297
 21
0.0
 31
0.0
 40
0.0524077793
 41
1.4969895423
 42
1.5191489171
  0
ELLIPSE
  5
3FD
100
AcDbEntity
  8
0
100
AcDbEllipse
 62
7
  6
CONTINUOUS
 10
14.2626966836
 20
39.4781883979
 30
0.0
 11
-0.0297041348
 21
0.2110416624
 31
0.0
 40
0.9371697434
 41
-3.2906648411
 42
-1.7198685141
  0
ELLIPSE
  5
3FE
100
AcDbEntity
  8
0
100
AcDbEllipse
 62
7
  6
CONTINUOUS
 10
39.7126966836
 20
30.3513759445
 30
0.0
 11
1.7662745489
 21
1.070262838
 31
0.0
 40
0.3240379116
 41
-1.7646785815
 42
-1.753781009
  0
ENDSEC
  0
SECTION
  2
OBJECTS
  0
DICTIONARY
  5
C
100
AcDbDictionary
280
0
281
1
  3
ACAD_GROUP
350
D
  3
ACAD_MLINESTYLE
350
17
  3
ACAD_LAYOUT
350
1A
  3
ACAD_PLOTSETTINGS
350
19
  3
ACAD_PLOTSTYLENAME
350
E
  0
DICTIONARY
  5
D
102
{ACAD_REACTORS
330
C
102
}
100
AcDbDictionary
280
0
281
1
  0
ACDBDICTIONARYWDFLT
  5
E
102
{ACAD_REACTORS
330
C
102
}
100
AcDbDictionary
281
1
  3
Normal
350
F
100
AcDbDictionaryWithDefault
340
F
  0
DICTIONARY
  5
17
102
{ACAD_REACTORS
330
C
102
}
100
AcDbDictionary
280
0
281
1
  3
Standard
350
18
  0
DICTIONARY
  5
19
102
{ACAD_REACTORS
330
C
102
}
100
AcDbDictionary
281
1
  0
DICTIONARY
  5
1A
102
{ACAD_REACTORS
330
C
102
}
100
AcDbDictionary
281
1
  3
Model
350
3FF
  3
Layout1
350
400
  0
ACDBPLACEHOLDER
  5
F
102
{ACAD_REACTORS
330
E
102
}
  0
MLINESTYLE
  5
18
102
{ACAD_REACTORS
330
17
102
}
100
AcDbMlineStyle
  2
STANDARD
 70
0
  3

 62
256
 51
90.0
 52
90.0
 71
2
 49
0.5
 62
256
  6
BYLAYER
 49
-0.5
 62
256
  6
BYLAYER
  0
LAYOUT
  5
3FF
102
{ACAD_REACTORS
330
1A
102
}
100
AcDbPlotSettings
  1

  2
none_device
  4

  6

 40
0.0
 41
0.0
 42
0.0
 43
0.0
 44
210.0
 45
297.0
 46
0.0
 47
0.0
 48
0.0
 49
0.0
140
0.0
141
0.0
142
1.0
143
1.0
 70
1024
 72
1
 73
0
 74
0
  7

 75
0
147
1.0
148
0.0
149
0.0
100
AcDbLayout
  1
Model
 70
0
 71
0
 10
0.0
 20
0.0
 11
210.0
 21
297.0
 12
0.0
 22
0.0
 32
0.0
 14
0.0
 24
0.0
 34
0.0
 15
0.0
 25
0.0
 35
0.0
146
0.0
 13
0.0
 23
0.0
 33
0.0
 16
1.0
 26
0.0
 36
0.0
 17
0.0
 27
1.0
 37
0.0
 76
0
330
210
345
0
346
0
  0
LAYOUT
  5
400
102
{ACAD_REACTORS
330
1A
102
}
100
AcDbPlotSettings
  1

  2
none_device
  4

  6

 40
0.0
 41
0.0
 42
0.0
 43
0.0
 44
210.0
 45
297.0
 46
0.0
 47
0.0
 48
0.0
 49
0.0
140
0.0
141
0.0
142
1.0
143
1.0
 70
0
 72
1
 73
0
 74
0
  7

 75
0
147
1.0
148
0.0
149
0.0
100
AcDbLayout
  1
Layout1
 70
0
 71
1
 10
0.0
 20
0.0
 11
210.0
 21
297.0
 12
0.0
 22
0.0
 32
0.0
 14
0.0
 24
0.0
 34
0.0
 15
0.0
 25
0.0
 35
0.0
146
0.0
 13
0.0
 23
0.0
 33
0.0
 16
1.0
 26
0.0
 36
0.0
 17
0.0
 27
1.0
 37
0.0
 76
0
330
211
345
0
346
0
  0
ENDSEC
  0
EOF
