999
DXF file: C:\Users\sesa63760\Dev\_Creo\CAD\MCADPD0004146_3D-CAD\drw0001_1.dxf
999
Pro/ENGINEER 2019471 by Parametric Technology Corporation
  0
SECTION
  2
HEADER
  9
$ACADVER
  1
AC1024
  9
$DWGCODEPAGE
  3
ANSI_1252
  9
$EXTMAX
 10
167.0314745787
 20
236.2302283327
 30
0.0
  9
$EXTMIN
 10
0.0
 20
0.0
 30
0.0
  9
$LIMMIN
 10
0.0
 20
0.0
  9
$LIMMAX
 10
167.0314745787
 20
236.2302283327
  9
$VIEWCTR
 10
83.5157372894
 20
118.1151141664
  9
$VIEWSIZE
 40
236.2302283327
  9
$CLAYER
  8
0
  9
$LTSCALE
 40
15.3987111802
  9
$CELTYPE
  6
BYLAYER
  9
$DIMSCALE
 40
1.0
  9
$DIMASZ
 40
1.9884699355
  9
$DIMEXO
 40
1.0
  9
$DIMDLI
 40
10.6391095427
  9
$DIMEXE
 40
1.0
  9
$DIMCEN
 40
2.5197891022
  9
$DIMLFAC
 40
1.0
  9
$DIMBLK
  1
_FILLED
  9
$DIMALT
 70
0
  9
$DIMALTF
 40
0.0393700787
  9
$DIMTXT
 40
2.7838579096
  9
$DIMTOL
 70
1
  9
$DIMLIM
 70
0
  9
$DIMTFAC
 40
1.0
  9
$DIMTP
 40
0.01
  9
$DIMTM
 40
0.01
  9
$DIMGAP
 40
0.625
  9
$DIMDSEP
 70
46
  9
$AUNITS
 70
0
  9
$PDMODE
 70
3
  9
$PDSIZE
 40
0.3125
  9
$HANDSEED
  5
38A
  9
$TILEMODE
 70
1
  9
$MEASUREMENT
 70
1
  9
$INSUNITS
 70
4
  0
ENDSEC
  0
SECTION
  2
CLASSES
  0
CLASS
  1
ACDBDICTIONARYWDFLT
  2
AcDbDictionaryWithDefault
  3
AutoCAD 2000
 90
0
 91
1
280
0
281
0
  0
CLASS
  1
ACDBPLACEHOLDER
  2
AcDbPlaceHolder
  3
AutoCAD 2000
 90
0
 91
1
280
0
281
0
  0
CLASS
  1
LAYOUT
  2
AcDbLayout
  3
AutoCAD 2000
 90
0
 91
0
280
0
281
0
  0
ENDSEC
  0
SECTION
  2
TABLES
  0
TABLE
  2
VPORT
  5
8
100
AcDbSymbolTable
 70
2
  0
VPORT
  5
1F4
100
AcDbSymbolTableRecord
100
AcDbViewportTableRecord
  2
*ACTIVE
 70
0
 10
0.0
 20
0.0
 11
1.0
 21
1.0
 12
83.5157372894
 22
118.1151141664
 13
0.0
 23
0.0
 14
1.0
 24
1.0
 15
0.0
 25
0.0
 16
0.0
 26
0.0
 36
1.0
 17
0.0
 27
0.0
 37
0.0
 40
236.2302283327
 41
0.7070707071
 42
50.0
 43
0.0
 44
0.0
 50
0.0
 51
0.0
 71
0
 72
100
 73
1
 74
1
 75
0
 76
0
 77
0
 78
0
  0
ENDTAB
  0
TABLE
  2
LTYPE
  5
5
100
AcDbSymbolTable
 70
6
  0
LTYPE
  5
14
100
AcDbSymbolTableRecord
100
AcDbLinetypeTableRecord
  2
BYBLOCK
 70
0
  3

 72
65
 73
0
 40
0.0
  0
LTYPE
  5
15
100
AcDbSymbolTableRecord
100
AcDbLinetypeTableRecord
  2
BYLAYER
 70
0
  3

 72
65
 73
0
 40
0.0
  0
LTYPE
  5
16
100
AcDbSymbolTableRecord
100
AcDbLinetypeTableRecord
  2
CONTINUOUS
 70
64
  3
Solid line
 72
65
 73
0
 40
0.0
  0
LTYPE
  5
1F5
100
AcDbSymbolTableRecord
100
AcDbLinetypeTableRecord
  2
CENTER
 70
64
  3
____ _ ____ _ ____ _ ____ _ ____ _ ____ _ ____
 72
65
 73
4
 40
0.6
 49
0.375
 74
0
 49
-0.075
 74
0
 49
0.075
 74
0
 49
-0.075
 74
0
  0
LTYPE
  5
1F6
100
AcDbSymbolTableRecord
100
AcDbLinetypeTableRecord
  2
HIDDEN
 70
64
  3
- - - - - - - - - - - - - - - - - - - -
 72
65
 73
2
 40
0.2
 49
0.1
 74
0
 49
-0.1
 74
0
  0
LTYPE
  5
1F7
100
AcDbSymbolTableRecord
100
AcDbLinetypeTableRecord
  2
PHANTOM
 70
64
  3
_____ _ _ _____ _ _ _____ _ _ _____
 72
65
 73
6
 40
0.8
 49
0.45
 74
0
 49
-0.05
 74
0
 49
0.1
 74
0
 49
-0.05
 74
0
 49
0.1
 74
0
 49
-0.05
 74
0
  0
LTYPE
  5
1F8
100
AcDbSymbolTableRecord
100
AcDbLinetypeTableRecord
  2
DOT
 70
64
  3
. . . . . . . . . . . . . . . . . . . .
 72
65
 73
2
 40
0.2
 49
0.1
 74
0
 49
-0.1
 74
0
  0
LTYPE
  5
1F9
100
AcDbSymbolTableRecord
100
AcDbLinetypeTableRecord
  2
DASHED
 70
64
  3
- - - - - - - - - - - - - - - - - - - -
 72
65
 73
2
 40
0.2
 49
0.1
 74
0
 49
-0.1
 74
0
  0
ENDTAB
  0
TABLE
  2
LAYER
  5
2
100
AcDbSymbolTable
 70
36
  0
LAYER
  5
10
100
AcDbSymbolTableRecord
100
AcDbLayerTableRecord
  2
0
 70
0
 62
7
  6
CONTINUOUS
370
-3
390
F
  0
LAYER
  5
1FA
100
AcDbSymbolTableRecord
100
AcDbLayerTableRecord
  2
DEFAULT_1
 70
0
 62
7
  6
CENTER
370
-3
390
F
  0
LAYER
  5
1FB
100
AcDbSymbolTableRecord
100
AcDbLayerTableRecord
  2
DEFAULT_2
 70
0
 62
7
  6
HIDDEN
370
-3
390
F
  0
LAYER
  5
1FC
100
AcDbSymbolTableRecord
100
AcDbLayerTableRecord
  2
DEFAULT_3
 70
0
 62
7
  6
PHANTOM
370
-3
390
F
  0
LAYER
  5
1FD
100
AcDbSymbolTableRecord
100
AcDbLayerTableRecord
  2
00_COMPONENTS
 70
0
 62
7
  6
CONTINUOUS
370
-3
390
F
  0
LAYER
  5
1FE
100
AcDbSymbolTableRecord
100
AcDbLayerTableRecord
  2
01_1_DEFAULT_DATUMS
 70
0
 62
7
  6
CONTINUOUS
370
-3
390
F
  0
LAYER
  5
1FF
100
AcDbSymbolTableRecord
100
AcDbLayerTableRecord
  2
01_PLANES
 70
0
 62
7
  6
CONTINUOUS
370
-3
390
F
  0
LAYER
  5
200
100
AcDbSymbolTableRecord
100
AcDbLayerTableRecord
  2
02_COORD_SYS
 70
0
 62
7
  6
CONTINUOUS
370
-3
390
F
  0
LAYER
  5
201
100
AcDbSymbolTableRecord
100
AcDbLayerTableRecord
  2
03_AXES
 70
0
 62
7
  6
CONTINUOUS
370
-3
390
F
  0
LAYER
  5
202
100
AcDbSymbolTableRecord
100
AcDbLayerTableRecord
  2
04_POINTS
 70
0
 62
7
  6
CONTINUOUS
370
-3
390
F
  0
LAYER
  5
203
100
AcDbSymbolTableRecord
100
AcDbLayerTableRecord
  2
05_CURVES
 70
0
 62
7
  6
CONTINUOUS
370
-3
390
F
  0
LAYER
  5
204
100
AcDbSymbolTableRecord
100
AcDbLayerTableRecord
  2
06_SURFS
 70
0
 62
7
  6
CONTINUOUS
370
-3
390
F
  0
LAYER
  5
205
100
AcDbSymbolTableRecord
100
AcDbLayerTableRecord
  2
07_COSMETICS
 70
0
 62
7
  6
CONTINUOUS
370
-3
390
F
  0
LAYER
  5
206
100
AcDbSymbolTableRecord
100
AcDbLayerTableRecord
  2
10_NOTES
 70
0
 62
7
  6
CONTINUOUS
370
-3
390
F
  0
LAYER
  5
207
100
AcDbSymbolTableRecord
100
AcDbLayerTableRecord
  2
11_NOTES_PUB
 70
0
 62
7
  6
CONTINUOUS
370
-3
390
F
  0
LAYER
  5
208
100
AcDbSymbolTableRecord
100
AcDbLayerTableRecord
  2
13_REF_GTOL
 70
0
 62
7
  6
CONTINUOUS
370
-3
390
F
  0
LAYER
  5
209
100
AcDbSymbolTableRecord
100
AcDbLayerTableRecord
  2
16_MISC
 70
0
 62
7
  6
CONTINUOUS
370
-3
390
F
  0
LAYER
  5
20A
100
AcDbSymbolTableRecord
100
AcDbLayerTableRecord
  2
17_NO_PRINT
 70
0
 62
7
  6
CONTINUOUS
370
-3
390
F
  0
LAYER
  5
20B
100
AcDbSymbolTableRecord
100
AcDbLayerTableRecord
  2
18_DATUM_CAMS_JOINTS
 70
0
 62
7
  6
CONTINUOUS
370
-3
390
F
  0
LAYER
  5
20C
100
AcDbSymbolTableRecord
100
AcDbLayerTableRecord
  2
19_DATUM_FUNCTIONAL
 70
0
 62
7
  6
CONTINUOUS
370
-3
390
F
  0
LAYER
  5
20D
100
AcDbSymbolTableRecord
100
AcDbLayerTableRecord
  2
20_DATUM_KINEMATIC_SCHEME
 70
0
 62
7
  6
CONTINUOUS
370
-3
390
F
  0
ENDTAB
  0
TABLE
  2
STYLE
  5
3
100
AcDbSymbolTable
 70
1
  0
STYLE
  5
11
100
AcDbSymbolTableRecord
100
AcDbTextStyleTableRecord
  2
STANDARD
 70
0
 40
0.0
 41
1.0
 50
0.0
 71
0
 42
0.2
  3
ARIAL.TTF
  4

  0
STYLE
  5
20E
100
AcDbSymbolTableRecord
100
AcDbTextStyleTableRecord
  2
TEXTSTYLE_1
 70
0
 40
0.0
 41
0.8
 50
0.0
 71
0
 42
0.2
  3
gdt
  4

  0
ENDTAB
  0
TABLE
  2
VIEW
  5
6
100
AcDbSymbolTable
 70
0
  0
ENDTAB
  0
TABLE
  2
UCS
  5
7
100
AcDbSymbolTable
 70
0
  0
ENDTAB
  0
TABLE
  2
APPID
  5
9
100
AcDbSymbolTable
 70
1
  0
APPID
  5
20F
100
AcDbSymbolTableRecord
100
AcDbRegAppTableRecord
  2
ACAD
 70
0
  0
ENDTAB
  0
TABLE
  2
BLOCK_RECORD
  5
1
100
AcDbSymbolTable
 70
0
  0
BLOCK_RECORD
  5
210
100
AcDbSymbolTableRecord
100
AcDbBlockTableRecord
  2
*Model_Space
  0
BLOCK_RECORD
  5
211
100
AcDbSymbolTableRecord
100
AcDbBlockTableRecord
  2
*Paper_Space
  0
BLOCK_RECORD
  5
212
100
AcDbSymbolTableRecord
100
AcDbBlockTableRecord
  2
_FILLED
  0
ENDTAB
  0
TABLE
  2
DIMSTYLE
  5
A
100
AcDbSymbolTable
 70
1
100
AcDbDimStyleTable
 71
0
  0
DIMSTYLE
105
213
100
AcDbSymbolTableRecord
100
AcDbDimStyleTableRecord
  2
STANDARD
 70
0
  3

  4

 40
1.0
 41
1.9884699355
 42
1.0
 43
0.38
 44
1.0
 45
0.0
 46
0.0
 47
0.01
 48
0.01
140
2.7838579096
141
0.09
142
0.0
143
25.4
144
1.0
145
0.0
146
1.0
147
0.625
 71
1
 72
0
 73
0
 74
0
 75
0
 76
0
 77
1
 78
8
 79
2
170
0
171
1
172
0
173
0
174
0
175
0
176
0
177
0
178
0
270
2
179
2
271
2
272
2
273
2
274
2
275
0
280
0
281
0
282
0
283
1
284
8
285
0
286
0
287
3
288
0
340
11
278
46
341
212
342
212
343
212
344
212
  0
ENDTAB
  0
ENDSEC
  0
SECTION
  2
BLOCKS
  0
BLOCK
  5
20
100
AcDbEntity
  8
0
100
AcDbBlockBegin
  2
*Model_Space
 70
0
 10
0.0
 20
0.0
 30
0.0
  3
*Model_Space
  1

  0
ENDBLK
  5
21
100
AcDbEntity
  8
0
100
AcDbBlockEnd
  0
BLOCK
  5
1C
100
AcDbEntity
  8
0
100
AcDbBlockBegin
  2
*Paper_Space
 70
0
 10
0.0
 20
0.0
 30
0.0
  3
*Paper_Space
  1

  0
ENDBLK
  5
1D
100
AcDbEntity
  8
0
100
AcDbBlockEnd
  0
BLOCK
  5
214
100
AcDbEntity
  8
0
100
AcDbBlockBegin
  2
_FILLED
 70
64
 10
0.0
 20
0.0
  3
_FILLED
  1

  0
SOLID
  5
215
100
AcDbEntity
  8
0
  6
BYBLOCK
 62
0
100
AcDbTrace
 10
0.0
 20
0.0
 11
-1.0
 21
0.25
 12
-1.0
 22
-0.25
 13
-1.0
 23
-0.25
  0
ENDBLK
  5
216
100
AcDbEntity
  8
0
  6
BYBLOCK
 62
0
100
AcDbBlockEnd
  0
ENDSEC
  0
SECTION
  2
ENTITIES
  0
LINE
  5
217
100
AcDbEntity
  8
0
100
AcDbLine
 62
7
  6
BYLAYER
 10
19.3756951963
 20
122.4063385993
 11
19.3756951963
 21
132.3603240858
  0
LINE
  5
218
100
AcDbEntity
  8
0
100
AcDbLine
 62
7
  6
BYLAYER
 10
21.0675463264
 20
146.1502299985
 11
21.0675463264
 21
134.660292658
  0
LINE
  5
219
100
AcDbEntity
  8
0
100
AcDbLine
 62
7
  6
BYLAYER
 10
21.0675463264
 20
119.6719401306
 11
21.0675463264
 21
93.8765037712
  0
LINE
  5
21A
100
AcDbEntity
  8
0
100
AcDbLine
 62
7
  6
BYLAYER
 10
21.9462171509
 20
147.9119875852
 11
21.9462171509
 21
157.5636609452
  0
LINE
  5
21B
100
AcDbEntity
  8
0
100
AcDbLine
 62
7
  6
BYLAYER
 10
22.3046568242
 20
127.6593689107
 11
22.3046568242
 21
119.0860935309
  0
LWPOLYLINE
  5
21C
100
AcDbEntity
  8
0
100
AcDbPolyline
 62
7
  6
BYLAYER
 90
4
 70
0
 10
21.8471424191
 20
148.0028437201
 10
21.7115708558
 20
147.8550087249
 10
21.2395681671
 20
147.0428205942
 10
21.0675322912
 20
146.148516841
  0
LINE
  5
21D
100
AcDbEntity
  8
0
100
AcDbLine
 62
7
  6
BYLAYER
 10
34.249629779
 20
168.0029943532
 11
54.048537221
 21
179.4338306616
  0
LINE
  5
21E
100
AcDbEntity
  8
0
100
AcDbLine
 62
7
  6
BYLAYER
 10
54.5485349826
 20
179.3843063825
 11
34.7496275406
 21
167.9534700741
  0
LINE
  5
21F
100
AcDbEntity
  8
0
100
AcDbLine
 62
7
  6
BYLAYER
 10
68.5088254119
 20
185.7412113372
 11
56.3163051321
 21
178.7018984906
  0
LINE
  5
220
100
AcDbEntity
  8
0
100
AcDbLine
 62
7
  6
BYLAYER
 10
35.5174104937
 20
166.6937227515
 11
23.3248902139
 21
159.6544099049
  0
LINE
  5
221
100
AcDbEntity
  8
0
100
AcDbLine
 62
7
  6
BYLAYER
 10
69.0088231734
 20
185.6916870582
 11
56.3163092954
 21
178.3637044962
  0
LINE
  5
222
100
AcDbEntity
  8
0
100
AcDbLine
 62
7
  6
BYLAYER
 10
36.5174018535
 20
166.9328681878
 11
23.8248879755
 21
159.6048856258
  0
LINE
  5
223
100
AcDbEntity
  8
0
100
AcDbLine
 62
7
  6
BYLAYER
 10
23.1178018056
 20
155.9306843276
 11
23.1178018021
 21
146.7641863563
  0
LINE
  5
224
100
AcDbEntity
  8
0
100
AcDbLine
 62
7
  6
BYLAYER
 10
23.1178195811
 20
143.9273197251
 11
23.1178194659
 21
132.4739817206
  0
LINE
  5
225
100
AcDbEntity
  8
0
100
AcDbLine
 62
7
  6
BYLAYER
 10
23.1178194659
 20
118.0962826719
 11
23.1178194659
 21
91.0187946941
  0
LINE
  5
226
100
AcDbEntity
  8
0
100
AcDbLine
 62
7
  6
BYLAYER
 10
20.0011149181
 20
134.2070047251
 11
21.0675463264
 21
135.6090423313
  0
LINE
  5
227
100
AcDbEntity
  8
0
100
AcDbLine
 62
7
  6
BYLAYER
 10
21.6220596105
 20
128.1786703409
 11
24.4903726836
 21
131.9496421668
  0
LINE
  5
228
100
AcDbEntity
  8
0
100
AcDbLine
 62
7
  6
BYLAYER
 10
47.7734904053
 20
162.7424379
 11
46.2312956824
 21
161.51055525
  0
LINE
  5
229
100
AcDbEntity
  8
0
100
AcDbLine
 62
7
  6
BYLAYER
 10
46.5268318383
 20
160.623338845
 11
47.6904867701
 21
161.5528494314
  0
LINE
  5
22A
100
AcDbEntity
  8
0
100
AcDbLine
 62
7
  6
BYLAYER
 10
61.3304639956
 20
170.5825493092
 11
47.8976088646
 21
162.827133077
  0
LINE
  5
22B
100
AcDbEntity
  8
0
100
AcDbLine
 62
7
  6
BYLAYER
 10
48.3008744834
 20
162.8257797436
 11
60.8440370522
 21
170.0675348017
  0
LINE
  5
22C
100
AcDbEntity
  8
0
100
AcDbLine
 62
7
  6
BYLAYER
 10
67.3029451314
 20
173.7965648606
 11
67.6048092393
 21
173.9708451442
  0
LINE
  5
22D
100
AcDbEntity
  8
0
100
AcDbLine
 62
7
  6
BYLAYER
 10
33.7496275406
 20
167.136967657
 11
33.7496275406
 21
165.6730988799
  0
LINE
  5
22E
100
AcDbEntity
  8
0
100
AcDbLine
 62
7
  6
BYLAYER
 10
34.0425237034
 20
166.7287235031
 11
34.0425237034
 21
165.8422015489
  0
LINE
  5
22F
100
AcDbEntity
  8
0
100
AcDbLine
 62
7
  6
BYLAYER
 10
91.4246189151
 20
51.5827378074
 11
23.1178194659
 21
91.0187946941
  0
LINE
  5
230
100
AcDbEntity
  8
0
100
AcDbLine
 62
7
  6
BYLAYER
 10
21.374439685
 20
145.1866284646
 11
21.0675471788
 21
146.1485665297
  0
LINE
  5
231
100
AcDbEntity
  8
0
100
AcDbLine
 62
7
  6
BYLAYER
 10
22.0395831641
 20
147.5669792222
 11
21.9462171612
 21
147.9108764334
  0
LINE
  5
232
100
AcDbEntity
  8
0
100
AcDbLine
 62
7
  6
BYLAYER
 10
68.0191792635
 20
166.0148851294
 11
61.0792868802
 21
154.9562027699
  0
LINE
  5
233
100
AcDbEntity
  8
0
100
AcDbLine
 62
7
  6
BYLAYER
 10
66.1757568576
 20
150.2536350297
 11
69.7457587036
 21
152.3147642532
  0
LINE
  5
234
100
AcDbEntity
  8
0
100
AcDbLine
 62
7
  6
BYLAYER
 10
97.6880832061
 20
168.447176529
 11
101.2580850521
 21
170.5083057526
  0
LINE
  5
235
100
AcDbEntity
  8
0
100
AcDbLine
 62
7
  6
BYLAYER
 10
23.1178194658
 20
118.0962826719
 11
22.8481634772
 21
118.2970831951
  0
LINE
  5
236
100
AcDbEntity
  8
0
100
AcDbLine
 62
7
  6
BYLAYER
 10
20.6114136928
 20
120.0241310117
 11
22.8476746887
 21
118.297460582
  0
LINE
  5
237
100
AcDbEntity
  8
0
100
AcDbLine
 62
7
  6
BYLAYER
 10
23.8224739975
 20
117.6382014211
 11
21.1112766657
 21
119.7315815188
  0
LINE
  5
238
100
AcDbEntity
  8
0
100
AcDbLine
 62
7
  6
BYLAYER
 10
65.4633671761
 20
152.4251100918
 11
72.4032595594
 21
163.4837924513
  0
LINE
  5
239
100
AcDbEntity
  8
0
100
AcDbLine
 62
7
  6
BYLAYER
 10
77.8258813214
 20
150.6110785216
 11
91.9141424647
 21
158.7448913328
  0
LINE
  5
23A
100
AcDbEntity
  8
0
100
AcDbLine
 62
7
  6
BYLAYER
 10
107.6453883278
 20
67.4713048986
 11
106.2311688775
 21
68.2877864077
  0
LINE
  5
23B
100
AcDbEntity
  8
0
100
AcDbLine
 62
7
  6
BYLAYER
 10
90.7199643834
 20
79.0157910944
 11
23.8224739975
 21
117.6382014211
  0
LINE
  5
23C
100
AcDbEntity
  8
0
100
AcDbLine
 62
7
  6
BYLAYER
 10
88.9851039055
 20
80.5889903796
 11
22.3046568242
 21
119.0860935309
  0
LINE
  5
23D
100
AcDbEntity
  8
0
100
AcDbLine
 62
7
  6
BYLAYER
 10
20.4966989311
 20
120.1127050142
 11
21.1112766657
 21
119.7315815188
  0
LINE
  5
23E
100
AcDbEntity
  8
0
100
AcDbLine
 62
7
  6
BYLAYER
 10
56.3162964942
 20
178.6928526772
 11
56.3161194739
 21
178.7017912932
  0
LINE
  5
23F
100
AcDbEntity
  8
0
100
AcDbLine
 62
7
  6
BYLAYER
 10
55.3324396493
 20
155.539533816
 11
55.3324396493
 21
158.1830823064
  0
LINE
  5
240
100
AcDbEntity
  8
0
100
AcDbLine
 62
7
  6
BYLAYER
 10
55.5248808069
 20
157.6008972917
 11
55.5248808069
 21
160.830014313
  0
LINE
  5
241
100
AcDbEntity
  8
0
100
AcDbLine
 62
7
  6
BYLAYER
 10
55.5854836994
 20
147.5581754148
 11
55.5854836994
 21
153.8452440267
  0
LINE
  5
242
100
AcDbEntity
  8
0
100
AcDbLine
 62
7
  6
BYLAYER
 10
56.3163092954
 20
178.3637044962
 11
56.3162947267
 21
178.7019313796
  0
LINE
  5
243
100
AcDbEntity
  8
0
100
AcDbLine
 62
7
  6
BYLAYER
 10
98.0218568502
 20
160.3115813155
 11
99.7484295771
 21
161.3084127704
  0
LINE
  5
244
100
AcDbEntity
  8
0
100
AcDbLine
 62
7
  6
BYLAYER
 10
94.087109356
 20
156.4068362284
 11
96.9718648259
 21
158.0723406337
  0
LINE
  5
245
100
AcDbEntity
  8
0
100
AcDbLine
 62
7
  6
BYLAYER
 10
61.0792868802
 20
151.5569293714
 11
61.0792868802
 21
154.9562027699
  0
LINE
  5
246
100
AcDbEntity
  8
0
100
AcDbLine
 62
7
  6
BYLAYER
 10
65.4633671761
 20
152.4251100918
 11
65.4633671761
 21
149.0258366933
  0
LINE
  5
247
100
AcDbEntity
  8
0
100
AcDbLine
 62
7
  6
BYLAYER
 10
22.3046568242
 20
127.6593689107
 11
88.9851039055
 21
89.1622657595
  0
LINE
  5
248
100
AcDbEntity
  8
0
100
AcDbLine
 62
7
  6
BYLAYER
 10
24.4903726836
 20
131.9496421668
 11
90.0520656973
 21
94.0984373654
  0
LINE
  5
249
100
AcDbEntity
  8
0
100
AcDbLine
 62
7
  6
BYLAYER
 10
116.1452441081
 20
82.1938200273
 11
114.7310246578
 21
83.0103015364
  0
LINE
  5
24A
100
AcDbEntity
  8
0
100
AcDbLine
 62
7
  6
BYLAYER
 10
34.0425237034
 20
166.7287235031
 11
33.7496275406
 21
167.136967657
  0
LINE
  5
24B
100
AcDbEntity
  8
0
100
AcDbLine
 62
7
  6
BYLAYER
 10
79.0283748291
 20
139.9280127416
 11
79.0283748291
 21
133.6409441297
  0
LWPOLYLINE
  5
24C
100
AcDbEntity
  8
0
100
AcDbPolyline
 62
7
  6
BYLAYER
 90
3
 70
0
 10
104.6592444607
 20
142.8493888362
 10
99.4538218446
 20
139.4319889184
 10
93.1835425795
 20
137.2704299112
  0
LINE
  5
24D
100
AcDbEntity
  8
0
100
AcDbLine
 62
7
  6
BYLAYER
 10
114.8651632269
 20
88.7839706209
 11
120.9816623494
 21
85.2526880943
  0
LINE
  5
24E
100
AcDbEntity
  8
0
100
AcDbLine
 62
7
  6
BYLAYER
 10
131.6869187931
 20
81.3516061303
 11
130.2726993428
 21
82.1680876393
  0
LINE
  5
24F
100
AcDbEntity
  8
0
100
AcDbLine
 62
7
  6
BYLAYER
 10
129.4249110295
 20
84.2185284163
 11
128.0264732346
 21
85.0258985885
  0
LINE
  5
250
100
AcDbEntity
  8
0
100
AcDbLine
 62
7
  6
BYLAYER
 10
90.4259902856
 20
79.7136182788
 11
90.7199643834
 21
79.0157910944
  0
LINE
  5
251
100
AcDbEntity
  8
0
100
AcDbLine
 62
7
  6
BYLAYER
 10
84.7401405289
 20
143.0878395318
 11
84.7401405334
 21
137.7711864446
  0
LINE
  5
252
100
AcDbEntity
  8
0
100
AcDbLine
 62
7
  6
BYLAYER
 10
104.6593273774
 20
142.849464092
 11
104.6592445721
 21
142.8493889373
  0
LINE
  5
253
100
AcDbEntity
  8
0
100
AcDbLine
 62
7
  6
BYLAYER
 10
129.4249110295
 20
84.2185284163
 11
128.5268231991
 21
84.8601173681
  0
LINE
  5
254
100
AcDbEntity
  8
0
100
AcDbLine
 62
7
  6
BYLAYER
 10
87.7764258022
 20
134.0119601666
 11
87.7764258022
 21
140.2990287785
  0
LINE
  5
255
100
AcDbEntity
  8
0
100
AcDbLine
 62
7
  6
BYLAYER
 10
88.9851039055
 20
80.5889903796
 11
88.9851039055
 21
89.1622657595
  0
LINE
  5
256
100
AcDbEntity
  8
0
100
AcDbLine
 62
7
  6
BYLAYER
 10
91.4246189151
 20
93.0379248339
 11
91.4246188065
 21
104.4912629622
  0
LINE
  5
257
100
AcDbEntity
  8
0
100
AcDbLine
 62
7
  6
BYLAYER
 10
91.4246189151
 20
51.5827378074
 11
91.4246189151
 21
78.6602257853
  0
LINE
  5
258
100
AcDbEntity
  8
0
100
AcDbLine
 62
7
  6
BYLAYER
 10
90.0520656973
 20
94.0984373654
 11
89.7410555994
 21
88.8510393797
  0
LINE
  5
259
100
AcDbEntity
  8
0
100
AcDbLine
 62
7
  6
BYLAYER
 10
95.6672595986
 20
114.0451829179
 11
23.1178018056
 21
155.9306843276
  0
LINE
  5
25A
100
AcDbEntity
  8
0
100
AcDbLine
 62
7
  6
BYLAYER
 10
23.8249056393
 20
157.1554309007
 11
96.3743634394
 21
115.2699294869
  0
LINE
  5
25B
100
AcDbEntity
  8
0
100
AcDbLine
 62
7
  6
BYLAYER
 10
102.4389045754
 20
79.2526124924
 11
102.1356636682
 21
79.9724369603
  0
LINE
  5
25C
100
AcDbEntity
  8
0
100
AcDbLine
 62
7
  6
BYLAYER
 10
92.5681383626
 20
136.7246713818
 11
92.568138784
 21
134.0419792368
  0
LINE
  5
25D
100
AcDbEntity
  8
0
100
AcDbLine
 62
7
  6
BYLAYER
 10
94.5248808069
 20
153.3292447752
 11
94.5248808069
 21
154.4612954594
  0
LINE
  5
25E
100
AcDbEntity
  8
0
100
AcDbLine
 62
7
  6
BYLAYER
 10
95.6672596021
 20
104.8786849426
 11
95.6672595986
 21
114.0451829179
  0
LINE
  5
25F
100
AcDbEntity
  8
0
100
AcDbLine
 62
7
  6
BYLAYER
 10
96.9718648259
 20
158.0723406337
 11
96.9718648259
 21
167.2171677056
  0
LINE
  5
260
100
AcDbEntity
  8
0
100
AcDbLine
 62
7
  6
BYLAYER
 10
98.0218568502
 20
160.3115813155
 11
98.0218568655
 21
157.1272224171
  0
LWPOLYLINE
  5
261
100
AcDbEntity
  8
0
100
AcDbPolyline
 62
7
  6
BYLAYER
 90
3
 70
0
 10
106.4410870302
 20
145.1301324171
 10
107.4120391146
 20
147.1855947181
 10
107.5243266187
 20
148.5824780802
  0
LINE
  5
262
100
AcDbEntity
  8
0
100
AcDbLine
 62
7
  6
BYLAYER
 10
100.6170041264
 20
115.2699396849
 11
112.8499005102
 21
122.3325635469
  0
LINE
  5
263
100
AcDbEntity
  8
0
100
AcDbLine
 62
7
  6
BYLAYER
 10
133.5680429406
 20
134.2941172554
 11
145.8009393244
 21
141.3567411173
  0
LINE
  5
264
100
AcDbEntity
  8
0
100
AcDbLine
 62
7
  6
BYLAYER
 10
113.5570102354
 20
121.9243227924
 11
114.2641140726
 21
122.3325669463
  0
LINE
  5
265
100
AcDbEntity
  8
0
100
AcDbLine
 62
7
  6
BYLAYER
 10
133.5680488285
 20
133.477632347
 11
134.2751526657
 21
133.8858765008
  0
LINE
  5
266
100
AcDbEntity
  8
0
100
AcDbLine
 62
7
  6
BYLAYER
 10
146.5080490447
 20
140.1319979429
 11
134.6702809894
 21
133.297500166
  0
LINE
  5
267
100
AcDbEntity
  8
0
100
AcDbLine
 62
7
  6
BYLAYER
 10
113.5570102354
 20
121.1078203753
 11
101.3241138564
 21
114.0451965161
  0
LINE
  5
268
100
AcDbEntity
  8
0
100
AcDbLine
 62
7
  6
BYLAYER
 10
84.7401405334
 20
137.7711864446
 11
87.7764258022
 21
134.0119601666
  0
LINE
  5
269
100
AcDbEntity
  8
0
100
AcDbLine
 62
7
  6
BYLAYER
 10
87.7764258022
 20
140.2990287785
 11
87.1994288686
 21
141.938157807
  0
LINE
  5
26A
100
AcDbEntity
  8
0
100
AcDbLine
 62
7
  6
BYLAYER
 10
101.3241138516
 20
78.7311399931
 11
101.3241138516
 21
51.5827616029
  0
LINE
  5
26B
100
AcDbEntity
  8
0
100
AcDbLine
 62
7
  6
BYLAYER
 10
101.3241138564
 20
114.0451965161
 11
101.3241138516
 21
92.922346662
  0
LINE
  5
26C
100
AcDbEntity
  8
0
100
AcDbLine
 62
7
  6
BYLAYER
 10
101.9704747336
 20
170.3504144545
 11
101.9704747336
 21
173.4334804145
  0
LINE
  5
26D
100
AcDbEntity
  8
0
100
AcDbLine
 62
7
  6
BYLAYER
 10
103.1272395292
 20
89.162299753
 11
103.1272395292
 21
80.5890243731
  0
LINE
  5
26E
100
AcDbEntity
  8
0
100
AcDbLine
 62
7
  6
BYLAYER
 10
102.627141378
 20
88.9391757135
 11
102.9413010092
 21
94.2397129857
  0
LWPOLYLINE
  5
26F
100
AcDbEntity
  8
0
100
AcDbPolyline
 62
7
  6
BYLAYER
 90
3
 70
0
 10
109.0241658077
 20
151.5883927672
 10
107.8439285972
 20
146.9257821963
 10
104.6593273774
 20
142.849464092
  0
LINE
  5
270
100
AcDbEntity
  8
0
100
AcDbLine
 62
7
  6
BYLAYER
 10
145.8009216606
 20
143.8061958425
 11
146.3009131771
 21
143.8557237271
  0
LINE
  5
271
100
AcDbEntity
  8
0
100
AcDbLine
 62
7
  6
BYLAYER
 10
34.8102852125
 20
166.285466217
 11
34.0425237034
 21
166.7287235031
  0
LINE
  5
272
100
AcDbEntity
  8
0
100
AcDbLine
 62
7
  6
BYLAYER
 10
109.835768504
 20
124.0727341042
 11
92.568138784
 21
134.0419792368
  0
LINE
  5
273
100
AcDbEntity
  8
0
100
AcDbLine
 62
7
  6
BYLAYER
 10
55.3324396493
 20
155.539533816
 11
46.5268318383
 21
160.623338845
  0
LINE
  5
274
100
AcDbEntity
  8
0
100
AcDbLine
 62
7
  6
BYLAYER
 10
112.8499005102
 20
122.3325635469
 11
113.5570102354
 21
121.9243227924
  0
LINE
  5
275
100
AcDbEntity
  8
0
100
AcDbLine
 62
7
  6
BYLAYER
 10
34.7496275406
 20
167.9534700741
 11
36.5174018535
 21
166.9328681878
  0
LINE
  5
276
100
AcDbEntity
  8
0
100
AcDbLine
 62
7
  6
BYLAYER
 10
85.6235133835
 20
142.9645504388
 11
87.7764258022
 21
140.2990287785
  0
LINE
  5
277
100
AcDbEntity
  8
0
100
AcDbLine
 62
7
  6
BYLAYER
 10
107.5248808069
 20
148.5824780561
 11
107.5248808069
 21
160.830014313
  0
LINE
  5
278
100
AcDbEntity
  8
0
100
AcDbLine
 62
7
  6
BYLAYER
 10
141.5042902755
 20
127.3288280191
 11
121.5135538991
 21
115.7872398848
  0
LINE
  5
279
100
AcDbEntity
  8
0
100
AcDbLine
 62
7
  6
BYLAYER
 10
141.6998106677
 20
126.0263609127
 11
122.3958759118
 21
114.881295512
  0
LINE
  5
27A
100
AcDbEntity
  8
0
100
AcDbLine
 62
7
  6
BYLAYER
 10
114.8651632269
 20
95.9391527072
 11
113.5570102354
 21
100.3686589802
  0
LINE
  5
27B
100
AcDbEntity
  8
0
100
AcDbLine
 62
7
  6
BYLAYER
 10
113.5570102354
 20
121.9243227924
 11
113.5570102354
 21
121.5077109015
  0
LINE
  5
27C
100
AcDbEntity
  8
0
100
AcDbLine
 62
7
  6
BYLAYER
 10
113.5570102354
 20
100.3686589802
 11
113.5570102354
 21
121.1078203753
  0
LINE
  5
27D
100
AcDbEntity
  8
0
100
AcDbLine
 62
7
  6
BYLAYER
 10
114.8651632269
 20
88.7839706209
 11
114.8651632269
 21
95.9391527072
  0
LINE
  5
27E
100
AcDbEntity
  8
0
100
AcDbLine
 62
7
  6
BYLAYER
 10
102.9413010092
 20
94.2397129857
 11
113.5570102354
 21
100.3686589802
  0
LINE
  5
27F
100
AcDbEntity
  8
0
100
AcDbLine
 62
7
  6
BYLAYER
 10
141.9927009426
 20
116.7859146668
 11
144.8908618919
 21
118.4591586831
  0
LINE
  5
280
100
AcDbEntity
  8
0
100
AcDbLine
 62
7
  6
BYLAYER
 10
120.9816623576
 20
115.3015846653
 11
120.9816623494
 21
85.2526880943
  0
LINE
  5
281
100
AcDbEntity
  8
0
100
AcDbLine
 62
7
  6
BYLAYER
 10
122.3958759118
 20
114.881295512
 11
122.3958759118
 21
85.1137785161
  0
LINE
  5
282
100
AcDbEntity
  8
0
100
AcDbLine
 62
7
  6
BYLAYER
 10
103.1272395292
 20
89.162299753
 11
114.8651632269
 21
95.9391527072
  0
LINE
  5
283
100
AcDbEntity
  8
0
100
AcDbLine
 62
7
  6
BYLAYER
 10
141.9927009426
 20
111.6011504203
 11
147.321229355
 21
114.6775593699
  0
LINE
  5
284
100
AcDbEntity
  8
0
100
AcDbLine
 62
7
  6
BYLAYER
 10
23.3248902139
 20
159.6544099049
 11
23.8248879755
 21
159.6048856258
  0
LINE
  5
285
100
AcDbEntity
  8
0
100
AcDbLine
 62
7
  6
BYLAYER
 10
72.4032595594
 20
163.4837924513
 11
68.0191792635
 21
166.0148851294
  0
LINE
  5
286
100
AcDbEntity
  8
0
100
AcDbLine
 62
7
  6
BYLAYER
 10
56.3163092954
 20
178.3637044962
 11
54.5485349826
 21
179.3843063825
  0
LINE
  5
287
100
AcDbEntity
  8
0
100
AcDbLine
 62
7
  6
BYLAYER
 10
55.0485264991
 20
179.4338342671
 11
56.3163051321
 21
178.7018984906
  0
LINE
  5
288
100
AcDbEntity
  8
0
100
AcDbLine
 62
7
  6
BYLAYER
 10
133.5680429406
 20
134.2941172554
 11
134.2751526657
 21
133.8858765008
  0
LINE
  5
289
100
AcDbEntity
  8
0
100
AcDbLine
 62
7
  6
BYLAYER
 10
148.1899194764
 20
106.5617152319
 11
149.2726034622
 21
107.2587911574
  0
LINE
  5
28A
100
AcDbEntity
  8
0
100
AcDbLine
 62
7
  6
BYLAYER
 10
147.321229355
 20
106.1042839901
 11
141.9927009426
 21
103.0278750404
  0
LINE
  5
28B
100
AcDbEntity
  8
0
100
AcDbLine
 62
7
  6
BYLAYER
 10
107.6812643894
 20
83.2182761576
 11
103.1272395292
 21
80.5890243731
  0
LINE
  5
28C
100
AcDbEntity
  8
0
100
AcDbLine
 62
7
  6
BYLAYER
 10
145.3932583258
 20
104.0521721597
 11
143.3391803513
 21
102.8662567671
  0
LINE
  5
28D
100
AcDbEntity
  8
0
100
AcDbLine
 62
7
  6
BYLAYER
 10
103.4517147149
 20
79.8373552087
 11
102.4389045754
 21
79.2526124924
  0
LINE
  5
28E
100
AcDbEntity
  8
0
100
AcDbLine
 62
7
  6
BYLAYER
 10
64.304316031
 20
160.0952699209
 11
62.8016105194
 21
159.8628000191
  0
LINE
  5
28F
100
AcDbEntity
  8
0
100
AcDbLine
 62
7
  6
BYLAYER
 10
34.249629779
 20
168.0029943532
 11
34.7496275406
 21
167.9534700741
  0
LINE
  5
290
100
AcDbEntity
  8
0
100
AcDbLine
 62
7
  6
BYLAYER
 10
67.7678632983
 20
173.9026284554
 11
67.6048092393
 21
173.9708451442
  0
LINE
  5
291
100
AcDbEntity
  8
0
100
AcDbLine
 62
7
  6
BYLAYER
 10
67.7680709236
 20
173.9007617203
 11
67.6048092393
 21
173.9708451442
  0
LINE
  5
292
100
AcDbEntity
  8
0
100
AcDbLine
 62
7
  6
BYLAYER
 10
134.3499838575
 20
133.5612830059
 11
134.1912471183
 21
133.6902809787
  0
LINE
  5
293
100
AcDbEntity
  8
0
100
AcDbLine
 62
7
  6
BYLAYER
 10
134.237585458
 20
133.4248622088
 11
133.9216007471
 21
133.6817544239
  0
LINE
  5
294
100
AcDbEntity
  8
0
100
AcDbLine
 62
7
  6
BYLAYER
 10
134.237215739
 20
133.4229924913
 11
133.9216007471
 21
133.6817544239
  0
LINE
  5
295
100
AcDbEntity
  8
0
100
AcDbLine
 62
7
  6
BYLAYER
 10
134.3497864413
 20
133.560287657
 11
134.1912471183
 21
133.6902809788
  0
LINE
  5
296
100
AcDbEntity
  8
0
100
AcDbLine
 62
7
  6
BYLAYER
 10
141.6721080056
 20
127.4382456716
 11
141.6721677423
 21
127.4381943719
  0
LINE
  5
297
100
AcDbEntity
  8
0
100
AcDbLine
 62
7
  6
BYLAYER
 10
134.2751526657
 20
133.8858765008
 11
134.2751526657
 21
133.6214831523
  0
LINE
  5
298
100
AcDbEntity
  8
0
100
AcDbLine
 62
7
  6
BYLAYER
 10
148.1899194764
 20
106.5617152319
 11
145.3932583258
 21
104.0521721597
  0
LINE
  5
299
100
AcDbEntity
  8
0
100
AcDbLine
 62
7
  6
BYLAYER
 10
147.1394072924
 20
105.3445987042
 11
146.5080490496
 21
104.8179414255
  0
LINE
  5
29A
100
AcDbEntity
  8
0
100
AcDbLine
 62
7
  6
BYLAYER
 10
141.8196892909
 20
127.281530352
 11
141.6721684317
 21
127.4381957591
  0
LINE
  5
29B
100
AcDbEntity
  8
0
100
AcDbLine
 62
7
  6
BYLAYER
 10
144.8908618919
 20
118.4591586831
 11
147.7882217631
 21
115.0127819923
  0
LINE
  5
29C
100
AcDbEntity
  8
0
100
AcDbLine
 62
7
  6
BYLAYER
 10
141.8196874081
 20
127.2815328189
 11
141.8198972551
 21
127.2812535848
  0
LINE
  5
29D
100
AcDbEntity
  8
0
100
AcDbLine
 62
7
  6
BYLAYER
 10
141.6998106677
 20
95.424956851
 11
141.6998106677
 21
126.0263609127
  0
LINE
  5
29E
100
AcDbEntity
  8
0
100
AcDbLine
 62
7
  6
BYLAYER
 10
141.9927009426
 20
126.7232813498
 11
141.9927009426
 21
95.9432993331
  0
LINE
  5
29F
100
AcDbEntity
  8
0
100
AcDbLine
 62
7
  6
BYLAYER
 10
149.2727042318
 20
107.2588815814
 11
147.1393476466
 21
105.3445451815
  0
LINE
  5
2A0
100
AcDbEntity
  8
0
100
AcDbLine
 62
7
  6
BYLAYER
 10
129.4249110295
 20
84.2185284163
 11
135.5939756708
 21
87.7802182871
  0
LWPOLYLINE
  5
2A1
100
AcDbEntity
  8
0
100
AcDbPolyline
 62
7
  6
BYLAYER
 90
4
 70
0
 10
83.6067530312
 20
172.9456749551
 10
79.7627711321
 20
173.1484392905
 10
72.8817606119
 20
172.0594353876
 10
67.091726231
 20
169.6398174344
  0
LWPOLYLINE
  5
2A2
100
AcDbEntity
  8
0
100
AcDbPolyline
 62
7
  6
BYLAYER
 90
3
 70
0
 10
91.9991728346
 20
174.7580147553
 10
89.519131849
 20
175.5240567938
 10
80.7557615538
 20
176.2568869236
  0
LINE
  5
2A3
100
AcDbEntity
  8
0
100
AcDbLine
 62
7
  6
BYLAYER
 10
145.8009216606
 20
143.8061958425
 11
104.477621465
 21
167.6636746059
  0
LINE
  5
2A4
100
AcDbEntity
  8
0
100
AcDbLine
 62
7
  6
BYLAYER
 10
92.1377513932
 20
174.7879407412
 11
73.2514638605
 21
185.6916972563
  0
LINE
  5
2A5
100
AcDbEntity
  8
0
100
AcDbLine
 62
7
  6
BYLAYER
 10
146.3009131771
 20
143.8557237271
 11
103.7934320429
 21
168.3968742075
  0
LINE
  5
2A6
100
AcDbEntity
  8
0
100
AcDbLine
 62
7
  6
BYLAYER
 10
92.5640683093
 20
174.8800037139
 11
73.751455377
 21
185.7412251408
  0
LINE
  5
2A7
100
AcDbEntity
  8
0
100
AcDbLine
 62
7
  6
BYLAYER
 10
149.5199103584
 20
121.3847761077
 11
148.5582809735
 21
122.5286233495
  0
LWPOLYLINE
  5
2A8
100
AcDbEntity
  8
0
100
AcDbPolyline
 62
7
  6
BYLAYER
 90
3
 70
0
 10
141.9927010993
 20
126.7231394066
 10
141.9825779745
 20
126.8733474181
 10
141.8198972551
 20
127.2812535848
  0
LINE
  5
2A9
100
AcDbEntity
  8
0
100
AcDbLine
 62
7
  6
BYLAYER
 10
146.5080490495
 20
77.6695630353
 11
146.5080490495
 21
104.8179414255
  0
LINE
  5
2AA
100
AcDbEntity
  8
0
100
AcDbLine
 62
7
  6
BYLAYER
 10
146.5080490495
 20
119.0091480944
 11
146.5080490447
 21
140.1319979429
  0
LINE
  5
2AB
100
AcDbEntity
  8
0
100
AcDbLine
 62
7
  6
BYLAYER
 10
147.321229355
 20
106.1042839901
 11
147.321229355
 21
114.6775593699
  0
LINE
  5
2AC
100
AcDbEntity
  8
0
100
AcDbLine
 62
7
  6
BYLAYER
 10
147.679610149
 20
132.1132877539
 11
147.679610149
 21
141.7649609638
  0
LINE
  5
2AD
100
AcDbEntity
  8
0
100
AcDbLine
 62
7
  6
BYLAYER
 10
148.5582809735
 20
132.8010127268
 11
148.5582809735
 21
121.3110372037
  0
LINE
  5
2AE
100
AcDbEntity
  8
0
100
AcDbLine
 62
7
  6
BYLAYER
 10
148.5582809735
 20
106.6178042961
 11
148.5582809735
 21
80.5272483169
  0
LINE
  5
2AF
100
AcDbEntity
  8
0
100
AcDbLine
 62
7
  6
BYLAYER
 10
78.0642368919
 20
175.9354795598
 11
78.122784832
 21
175.9457856151
  0
LWPOLYLINE
  5
2B0
100
AcDbEntity
  8
0
100
AcDbPolyline
 62
7
  6
BYLAYER
 90
6
 70
0
 10
80.7557615538
 20
176.2568869236
 10
72.0832885727
 20
175.2212669578
 10
68.0889824317
 20
174.0652318342
 10
61.3650250427
 20
170.619141527
 10
57.0055856922
 20
166.0034956613
 10
55.5248808069
 20
160.830014313
  0
LINE
  5
2B1
100
AcDbEntity
  8
0
100
AcDbLine
 62
7
  6
BYLAYER
 10
55.0485264991
 20
179.4338342671
 11
54.5485349826
 21
179.3843063825
  0
LINE
  5
2B2
100
AcDbEntity
  8
0
100
AcDbLine
 62
7
  6
BYLAYER
 10
78.0629013362
 20
175.9409940534
 11
78.1606639305
 21
175.9487724308
  0
LINE
  5
2B3
100
AcDbEntity
  8
0
100
AcDbLine
 62
7
  6
BYLAYER
 10
78.122784832
 20
175.9457856151
 11
78.1610707237
 21
175.9470429339
  0
LINE
  5
2B4
100
AcDbEntity
  8
0
100
AcDbLine
 62
7
  6
BYLAYER
 10
54.5485349826
 20
179.3843063825
 11
54.048537221
 21
179.4338306616
  0
LWPOLYLINE
  5
2B5
100
AcDbEntity
  8
0
100
AcDbPolyline
 62
7
  6
BYLAYER
 90
3
 70
0
 10
148.2150564626
 20
134.4276888665
 10
147.8377023649
 20
135.1396195035
 10
147.679610149
 20
135.3393178094
  0
LINE
  5
2B6
100
AcDbEntity
  8
0
100
AcDbLine
 62
7
  6
BYLAYER
 10
150.2501321035
 20
109.424495065
 11
150.2501321035
 21
119.3784805515
  0
LINE
  5
2B7
100
AcDbEntity
  8
0
100
AcDbLine
 62
7
  6
BYLAYER
 10
146.5080490495
 20
77.6695630353
 11
101.3241138516
 21
51.5827616029
  0
LINE
  5
2B8
100
AcDbEntity
  8
0
100
AcDbLine
 62
7
  6
BYLAYER
 10
73.7514617788
 20
185.7412214447
 11
73.2514638605
 21
185.6916972563
  0
LINE
  5
2B9
100
AcDbEntity
  8
0
100
AcDbLine
 62
7
  6
BYLAYER
 10
69.0088231734
 20
185.6916870582
 11
68.5088254119
 21
185.7412113372
  0
LINE
  5
2BA
100
AcDbEntity
  8
0
100
AcDbLine
 62
7
  6
BYLAYER
 10
148.2150564626
 20
134.4276888665
 11
148.2149868532
 21
134.4278520204
  0
LWPOLYLINE
  5
2BB
100
AcDbEntity
  8
0
100
AcDbPolyline
 62
7
  6
BYLAYER
 90
3
 70
0
 10
148.5582959036
 20
132.8015376232
 10
148.4440797551
 20
133.7410116276
 10
148.2149897625
 20
134.4278452059
  0
ARC
  5
2BC
100
AcDbEntity
  8
0
100
AcDbCircle
 62
7
  6
BYLAYER
 10
-87.5602486543
 20
-138.9830181943
 40
351.2838347015
100
AcDbArc
 50
49.3174633714
 51
50.847096847
  0
ARC
  5
2BD
100
AcDbEntity
  8
0
100
AcDbCircle
 62
7
  6
BYLAYER
 10
-87.1588942668
 20
-138.7656639056
 40
351.0386718041
100
AcDbArc
 50
49.3173705877
 51
50.8753293145
  0
ARC
  5
2BE
100
AcDbEntity
  8
0
100
AcDbCircle
 62
7
  6
BYLAYER
 10
-105.7581661742
 20
-148.3701991896
 40
348.4592754442
100
AcDbArc
 50
49.3113692107
 51
50.9203597899
  0
ARC
  5
2BF
100
AcDbEntity
  8
0
100
AcDbCircle
 62
7
  6
BYLAYER
 10
-105.8473629142
 20
-148.5193256054
 40
347.926543112
100
AcDbArc
 50
49.3115804694
 51
50.9051945637
  0
ARC
  5
2C0
100
AcDbEntity
  8
0
100
AcDbCircle
 62
7
  6
BYLAYER
 10
-81.3864602092
 20
-131.2432017772
 40
341.0022888121
100
AcDbArc
 50
50.9232460334
 51
51.1294254258
  0
ARC
  5
2C1
100
AcDbEntity
  8
0
100
AcDbCircle
 62
7
  6
BYLAYER
 10
-34.95673608
 20
-36.3619560231
 40
215.8878963643
100
AcDbArc
 50
65.2214143878
 51
67.3157734937
  0
ARC
  5
2C2
100
AcDbEntity
  8
0
100
AcDbCircle
 62
7
  6
BYLAYER
 10
-35.3752382887
 20
-37.1735666937
 40
215.388261392
100
AcDbArc
 50
65.0936926743
 51
67.3155429145
  0
ARC
  5
2C3
100
AcDbEntity
  8
0
100
AcDbCircle
 62
7
  6
BYLAYER
 10
81.4718061815
 20
133.7135722065
 40
42.3647942055
100
AcDbArc
 50
94.6153238578
 51
94.834776796
  0
ARC
  5
2C4
100
AcDbEntity
  8
0
100
AcDbCircle
 62
7
  6
BYLAYER
 10
81.5239962362
 20
170.3438436966
 40
32.7310492437
100
AcDbArc
 50
265.6175548445
 51
275.6389672
  0
ARC
  5
2C5
100
AcDbEntity
  8
0
100
AcDbCircle
 62
7
  6
BYLAYER
 10
81.5240582197
 20
173.4410874543
 40
32.7256041776
100
AcDbArc
 50
266.1826490926
 51
275.6397994362
  0
ARC
  5
2C6
100
AcDbEntity
  8
0
100
AcDbCircle
 62
7
  6
BYLAYER
 10
87.5551828816
 20
171.615198798
 40
24.7097376119
100
AcDbArc
 50
299.4712509828
 51
299.9991484977
  0
ARC
  5
2C7
100
AcDbEntity
  8
0
100
AcDbCircle
 62
7
  6
BYLAYER
 10
78.8952724862
 20
174.0636333103
 40
23.5950610874
100
AcDbArc
 50
247.1840367162
 51
248.1656003807
  0
ARC
  5
2C8
100
AcDbEntity
  8
0
100
AcDbCircle
 62
7
  6
BYLAYER
 10
88.0597184706
 20
170.7605186798
 40
22.3032442475
100
AcDbArc
 50
299.4120196945
 51
303.5802374095
  0
ARC
  5
2C9
100
AcDbEntity
  8
0
100
AcDbCircle
 62
7
  6
BYLAYER
 10
89.9082076867
 20
154.400533699
 40
20.0431802787
100
AcDbArc
 50
52.2866155703
 51
53.6258032132
  0
ARC
  5
2CA
100
AcDbEntity
  8
0
100
AcDbCircle
 62
7
  6
BYLAYER
 10
89.9442704323
 20
155.263866809
 40
18.9840806982
100
AcDbArc
 50
52.2891865159
 51
53.4186687813
  0
ARC
  5
2CB
100
AcDbEntity
  8
0
100
AcDbCircle
 62
7
  6
BYLAYER
 10
92.9081141828
 20
156.6255651279
 40
18.5756497845
100
AcDbArc
 50
310.4340970081
 51
312.2707451055
  0
ARC
  5
2CC
100
AcDbEntity
  8
0
100
AcDbCircle
 62
7
  6
BYLAYER
 10
90.3059416458
 20
155.7318750737
 40
18.3926098369
100
AcDbArc
 50
50.8274045131
 51
52.2887237214
  0
ARC
  5
2CD
100
AcDbEntity
  8
0
100
AcDbCircle
 62
7
  6
BYLAYER
 10
76.906221345
 20
153.3143224974
 40
17.6343831408
100
AcDbArc
 50
119.9971252608
 51
121.0396517471
  0
ARC
  5
2CE
100
AcDbEntity
  8
0
100
AcDbCircle
 62
7
  6
BYLAYER
 10
90.2226716448
 20
149.4029116891
 40
10.9768969355
100
AcDbArc
 50
40.0588999602
 51
44.7236473555
  0
ARC
  5
2CF
100
AcDbEntity
  8
0
100
AcDbCircle
 62
7
  6
BYLAYER
 10
86.9000329527
 20
153.7232537394
 40
7.096346829
100
AcDbArc
 50
41.9944417448
 51
45.0429790833
  0
ARC
  5
2D0
100
AcDbEntity
  8
0
100
AcDbCircle
 62
7
  6
BYLAYER
 10
48.3976066261
 20
161.9611063808
 40
1.0
100
AcDbArc
 50
119.9998519061
 51
128.6173497767
  0
ARC
  5
2D1
100
AcDbEntity
  8
0
100
AcDbCircle
 62
7
  6
BYLAYER
 10
67.7015413821
 20
173.1061717815
 40
1.0
100
AcDbArc
 50
70.8106575719
 51
119.9998519061
  0
ARC
  5
2D2
100
AcDbEntity
  8
0
100
AcDbCircle
 62
7
  6
BYLAYER
 10
54.5485349826
 20
178.5678039654
 40
1.0
100
AcDbArc
 50
60.0005612632
 51
119.9998519061
  0
ARC
  5
2D3
100
AcDbEntity
  8
0
100
AcDbCircle
 62
7
  6
BYLAYER
 10
34.7496275406
 20
167.136967657
 40
1.0
100
AcDbArc
 50
119.9998519061
 51
180.0
  0
ARC
  5
2D4
100
AcDbEntity
  8
0
100
AcDbCircle
 62
7
  6
BYLAYER
 10
93.3848818127
 20
136.7255388755
 40
0.8167439108
100
AcDbArc
 50
175.1430659698
 51
180.0608559643
  0
ARC
  5
2D5
100
AcDbEntity
  8
0
100
AcDbCircle
 62
7
  6
BYLAYER
 10
109.6521549806
 20
151.581095839
 40
0.6280313569
100
AcDbArc
 50
176.3073765951
 51
179.33429188
  0
ARC
  5
2D6
100
AcDbEntity
  8
0
100
AcDbCircle
 62
7
  6
BYLAYER
 10
134.0836021276
 20
133.5577854396
 40
0.1706334228
100
AcDbArc
 50
50.9055692937
 51
59.9848250447
  0
SPLINE
  5
2D7
100
AcDbEntity
  8
0
100
AcDbSpline
 62
7
  6
BYLAYER
 70
0
 71
3
 72
15
 73
11
 74
0
 42
0.0000001
 43
0.0000001
 44
0.0000000001
 40
0.0
 40
0.0
 40
0.0
 40
0.0
 40
0.1141469224
 40
0.2373360366
 40
0.366976904
 40
0.5000005214
 40
0.6330240662
 40
0.7626647219
 40
0.8858535023
 40
1.0
 40
1.0
 40
1.0
 40
1.0
 10
91.4246189151
 20
51.5827378074
 30
0.0
 10
91.7634459111
 20
51.3871203755
 30
0.0
 10
92.5044482662
 20
51.0421183024
 30
0.0
 10
93.7110338377
 20
50.6753181135
 30
0.0
 10
95.0174140043
 20
50.449677188
 30
0.0
 10
96.3743747307
 20
50.3734576995
 30
0.0
 10
97.7313343724
 20
50.4496836284
 30
0.0
 10
99.0377113342
 20
50.6753307567
 30
0.0
 10
100.2442917111
 20
51.0421366813
 30
0.0
 10
100.9852895268
 20
51.3871424554
 30
0.0
 10
101.3241138516
 20
51.5827616029
 30
0.0
  0
SPLINE
  5
2D8
100
AcDbEntity
  8
0
100
AcDbSpline
 62
7
  6
BYLAYER
 70
0
 71
3
 72
11
 73
7
 74
0
 42
0.0000001
 43
0.0000001
 44
0.0000000001
 40
0.0
 40
0.0
 40
0.0
 40
0.0
 40
0.2897776971
 40
0.5490719787
 40
0.7822272299
 40
1.0
 40
1.0
 40
1.0
 40
1.0
 10
146.5080490495
 20
77.6695630353
 30
0.0
 10
146.815278813
 20
77.8469411631
 30
0.0
 10
147.3725977752
 20
78.2306449313
 30
0.0
 10
148.038450754
 20
78.9307134258
 30
0.0
 10
148.4597705052
 20
79.7048853801
 30
0.0
 10
148.5582295214
 20
80.2606418833
 30
0.0
 10
148.558229518
 20
80.5272483169
 30
0.0
  0
SPLINE
  5
2D9
100
AcDbEntity
  8
0
100
AcDbSpline
 62
7
  6
BYLAYER
 70
0
 71
3
 72
13
 73
9
 74
0
 42
0.0000001
 43
0.0000001
 44
0.0000000001
 40
0.0
 40
0.0
 40
0.0
 40
0.0
 40
0.0814060937
 40
0.1704979626
 40
0.270573018
 40
0.3840596466
 40
0.6579315703
 40
1.0
 40
1.0
 40
1.0
 40
1.0
 10
63.9497194554
 20
161.7387139078
 30
0.0
 10
63.8876916095
 20
161.7290893816
 30
0.0
 10
63.7604141571
 20
161.6888684209
 30
0.0
 10
63.5825854385
 20
161.5765035721
 30
0.0
 10
63.4140898352
 20
161.4130832812
 30
0.0
 10
63.1908396301
 20
161.1090087878
 30
0.0
 10
62.9575758005
 20
160.5914486533
 30
0.0
 10
62.8378156089
 20
160.1305525514
 30
0.0
 10
62.7847712306
 20
159.8721814709
 30
0.0
  0
SPLINE
  5
2DA
100
AcDbEntity
  8
0
100
AcDbSpline
 62
7
  6
BYLAYER
 70
0
 71
3
 72
9
 73
5
 74
0
 42
0.0000001
 43
0.0000001
 44
0.0000000001
 40
0.0
 40
0.0
 40
0.0
 40
0.0
 40
0.4888335513
 40
1.0
 40
1.0
 40
1.0
 40
1.0
 10
62.5248808069
 20
160.830014313
 30
0.0
 10
62.5248808069
 20
160.4169922221
 30
0.0
 10
62.6189691338
 20
159.5697307578
 30
0.0
 10
62.8901320704
 20
158.7626239875
 30
0.0
 10
63.0654391492
 20
158.3679118644
 30
0.0
  0
SPLINE
  5
2DB
100
AcDbEntity
  8
0
100
AcDbSpline
 62
7
  6
BYLAYER
 70
0
 71
3
 72
19
 73
15
 74
0
 42
0.0000001
 43
0.0000001
 44
0.0000000001
 40
0.0
 40
0.0
 40
0.0
 40
0.0
 40
0.114828755
 40
0.2401406854
 40
0.3064966342
 40
0.3743124176
 40
0.5110626901
 40
0.6446256775
 40
0.7088558773
 40
0.770869304
 40
0.830525359
 40
0.8880916189
 40
0.9442782226
 40
1.0
 40
1.0
 40
1.0
 40
1.0
 10
87.1993566523
 20
141.9381128102
 30
0.0
 10
86.9551215573
 20
142.2400208379
 30
0.0
 10
86.3032296614
 20
142.7620185162
 30
0.0
 10
85.3123892452
 20
143.1117640915
 30
0.0
 10
84.4435951297
 20
143.2449612482
 30
0.0
 10
83.5261779025
 20
143.2807537145
 30
0.0
 10
82.3834225454
 20
143.13686414
 30
0.0
 10
81.301441164
 20
142.7744990444
 30
0.0
 10
80.5313394732
 20
142.3468194993
 30
0.0
 10
80.0262108697
 20
141.9688397178
 30
0.0
 10
79.6019980709
 20
141.5316454737
 30
0.0
 10
79.2787534396
 20
141.037283359
 30
0.0
 10
79.0750605304
 20
140.4964427886
 30
0.0
 10
79.0283748323
 20
140.1164530816
 30
0.0
 10
79.0283748291
 20
139.9280127416
 30
0.0
  0
SPLINE
  5
2DC
100
AcDbEntity
  8
0
100
AcDbSpline
 62
7
  6
BYLAYER
 70
0
 71
3
 72
11
 73
7
 74
0
 42
0.0000001
 43
0.0000001
 44
0.0000000001
 40
0.0
 40
0.0
 40
0.0
 40
0.0
 40
0.2391903076
 40
0.4825444357
 40
0.7349923429
 40
1.0
 40
1.0
 40
1.0
 40
1.0
 10
94.5248808069
 20
154.4612954594
 30
0.0
 10
94.5248808069
 20
154.8492427236
 30
0.0
 10
94.4323577937
 20
155.6347879742
 30
0.0
 10
94.026352697
 20
156.7651633074
 30
0.0
 10
93.3774252964
 20
157.8235752944
 30
0.0
 10
92.8144050507
 20
158.4520342871
 30
0.0
 10
92.5045074255
 20
158.7498756478
 30
0.0
  0
SPLINE
  5
2DD
100
AcDbEntity
  8
0
100
AcDbSpline
 62
7
  6
BYLAYER
 70
0
 71
3
 72
19
 73
15
 74
0
 42
0.0000001
 43
0.0000001
 44
0.0000000001
 40
0.0
 40
0.0
 40
0.0
 40
0.0
 40
0.1378643903
 40
0.2854988791
 40
0.4353857877
 40
0.5797185044
 40
0.6475989384
 40
0.7115428257
 40
0.7709532891
 40
0.8254506054
 40
0.8749526935
 40
0.9197851811
 40
0.9609833037
 40
1.0
 40
1.0
 40
1.0
 40
1.0
 10
70.2162562988
 20
152.3854066294
 30
0.0
 10
71.7092547598
 20
151.7642884106
 30
0.0
 10
74.9410908343
 20
150.8040948469
 30
0.0
 10
80.0296588647
 20
150.1810161968
 30
0.0
 10
85.2296997535
 20
150.3516330867
 30
0.0
 10
89.4219347239
 20
151.16056133
 30
0.0
 10
92.4926181707
 20
152.2051400319
 30
0.0
 10
94.5372404236
 20
153.1378455644
 30
0.0
 10
96.3300848975
 20
154.2141067171
 30
0.0
 10
97.8366053084
 20
155.4092359359
 30
0.0
 10
99.0288473758
 20
156.6951010668
 30
0.0
 10
99.8900022045
 20
158.043453647
 30
0.0
 10
100.4081247795
 20
159.4280397435
 30
0.0
 10
100.5248808069
 20
160.3723781826
 30
0.0
 10
100.5248808069
 20
160.830014313
 30
0.0
  0
SPLINE
  5
2DE
100
AcDbEntity
  8
0
100
AcDbSpline
 62
7
  6
BYLAYER
 70
0
 71
3
 72
12
 73
8
 74
0
 42
0.0000001
 43
0.0000001
 44
0.0000000001
 40
0.0
 40
0.0
 40
0.0
 40
0.0
 40
0.1151812916
 40
0.2313295975
 40
0.4704412472
 40
0.7250022397
 40
1.0
 40
1.0
 40
1.0
 40
1.0
 10
107.5248808069
 20
160.830014313
 30
0.0
 10
107.5248808069
 20
161.260644004
 30
0.0
 10
107.4644638747
 20
162.1267488733
 30
0.0
 10
107.1032915176
 20
163.8527467611
 30
0.0
 10
106.1891923154
 20
165.9705617134
 30
0.0
 10
104.4589974715
 20
168.2905233948
 30
0.0
 10
102.9821560256
 20
169.6273273407
 30
0.0
 10
102.1688586789
 20
170.2563059266
 30
0.0
  0
SPLINE
  5
2DF
100
AcDbEntity
  8
0
100
AcDbSpline
 62
7
  6
BYLAYER
 70
0
 71
3
 72
11
 73
7
 74
0
 42
0.0000001
 43
0.0000001
 44
0.0000000001
 40
0.0
 40
0.0
 40
0.0
 40
0.0
 40
0.2251421836
 40
0.4646852494
 40
0.7228965718
 40
1.0
 40
1.0
 40
1.0
 40
1.0
 10
124.1587559956
 20
124.9136325361
 30
0.0
 10
124.1587781434
 20
124.7248469045
 30
0.0
 10
124.215925352
 20
124.3337265302
 30
0.0
 10
124.4532900794
 20
123.7703185146
 30
0.0
 10
124.8298271211
 20
123.2357052043
 30
0.0
 10
125.1522943955
 20
122.9198889921
 30
0.0
 10
125.3303244526
 20
122.7705751356
 30
0.0
  0
SPLINE
  5
2E0
100
AcDbEntity
  8
0
100
AcDbSpline
 62
7
  6
BYLAYER
 70
0
 71
3
 72
12
 73
8
 74
0
 42
0.0000001
 43
0.0000001
 44
0.0000000001
 40
0.0
 40
0.0
 40
0.0
 40
0.0
 40
0.108159617
 40
0.2183670919
 40
0.4513490616
 40
0.7104485717
 40
1.0
 40
1.0
 40
1.0
 40
1.0
 10
116.1452127257
 20
82.193765654
 30
0.0
 10
116.2845728135
 20
82.1133122224
 30
0.0
 10
116.5525734677
 20
81.9263720875
 30
0.0
 10
117.0330886176
 20
81.4534807254
 30
0.0
 10
117.5092818399
 20
80.6774942587
 30
0.0
 10
117.8403473291
 20
79.5525856222
 30
0.0
 10
117.9056988342
 20
78.7334222504
 30
0.0
 10
117.9056988342
 20
78.3026377709
 30
0.0
  0
SPLINE
  5
2E1
100
AcDbEntity
  8
0
100
AcDbSpline
 62
7
  6
BYLAYER
 70
0
 71
3
 72
18
 73
14
 74
0
 42
0.0000001
 43
0.0000001
 44
0.0000000001
 40
0.0
 40
0.0
 40
0.0
 40
0.0
 40
0.0428477087
 40
0.0874649025
 40
0.1352864637
 40
0.1872381644
 40
0.2437293034
 40
0.3047349332
 40
0.4383694921
 40
0.5826766316
 40
0.7297916124
 40
0.871342871
 40
1.0
 40
1.0
 40
1.0
 40
1.0
 10
116.8952144161
 20
83.4928361036
 30
0.0
 10
116.6486960651
 20
83.635193515
 30
0.0
 10
116.1052102963
 20
83.8609670493
 30
0.0
 10
115.2081589714
 20
83.9925289382
 30
0.0
 10
114.2448116263
 20
83.9215992061
 30
0.0
 10
113.2366613825
 20
83.6536682181
 30
0.0
 10
112.203344478
 20
83.1970697316
 30
0.0
 10
110.7769181786
 20
82.3240108254
 30
0.0
 10
109.0777152731
 20
80.8189950973
 30
0.0
 10
107.3314588129
 20
78.5833122103
 30
0.0
 10
105.9557989133
 20
76.0409423249
 30
0.0
 10
105.0634408942
 20
73.402148201
 30
0.0
 10
104.8242778458
 20
71.604887916
 30
0.0
 10
104.8242778458
 20
70.7501209243
 30
0.0
  0
SPLINE
  5
2E2
100
AcDbEntity
  8
0
100
AcDbSpline
 62
7
  6
BYLAYER
 70
0
 71
3
 72
17
 73
13
 74
0
 42
0.0000001
 43
0.0000001
 44
0.0000000001
 40
0.0
 40
0.0
 40
0.0
 40
0.0
 40
0.1336979544
 40
0.2745998139
 40
0.4169888501
 40
0.5545889796
 40
0.6819672458
 40
0.796373816
 40
0.8493446275
 40
0.9002491747
 40
0.9500880351
 40
1.0
 40
1.0
 40
1.0
 40
1.0
 10
125.3303244526
 20
122.7705751356
 30
0.0
 10
125.6144298811
 20
122.5322958368
 30
0.0
 10
126.2592126913
 20
122.1134137693
 30
0.0
 10
127.3428877304
 20
121.690151581
 30
0.0
 10
128.4993988323
 20
121.4821379392
 30
0.0
 10
129.6378346369
 20
121.5136276415
 30
0.0
 10
130.6647773281
 20
121.7894149773
 30
0.0
 10
131.3739128325
 20
122.2291459949
 30
0.0
 10
131.7811936364
 20
122.6818863309
 30
0.0
 10
131.9987416654
 20
123.0521887705
 30
0.0
 10
132.1301479916
 20
123.4520799418
 30
0.0
 10
132.1587398979
 20
123.7296882381
 30
0.0
 10
132.158723543
 20
123.8681150023
 30
0.0
  0
SPLINE
  5
2E3
100
AcDbEntity
  8
0
100
AcDbSpline
 62
7
  6
BYLAYER
 70
0
 71
3
 72
10
 73
6
 74
0
 42
0.0000001
 43
0.0000001
 44
0.0000000001
 40
0.0
 40
0.0
 40
0.0
 40
0.0
 40
0.225455036
 40
0.5932073769
 40
1.0
 40
1.0
 40
1.0
 40
1.0
 10
141.2717205257
 20
94.9895412333
 30
0.0
 10
141.3855211736
 20
94.8020857729
 30
0.0
 10
141.6404636703
 20
94.2810826601
 30
0.0
 10
141.891884275
 20
93.3339659265
 30
0.0
 10
141.9472292995
 20
92.5786163028
 30
0.0
 10
141.9472292995
 20
92.1829390025
 30
0.0
  0
SPLINE
  5
2E4
100
AcDbEntity
  8
0
100
AcDbSpline
 62
7
  6
BYLAYER
 70
0
 71
3
 72
12
 73
8
 74
0
 42
0.0000001
 43
0.0000001
 44
0.0000000001
 40
0.0
 40
0.0
 40
0.0
 40
0.0
 40
0.2889035481
 40
0.5477043708
 40
0.7809844073
 40
0.891485588
 40
1.0
 40
1.0
 40
1.0
 40
1.0
 10
128.8663389744
 20
84.531026245
 30
0.0
 10
128.8716509099
 20
84.034914481
 30
0.0
 10
128.9566714653
 20
83.0918452065
 30
0.0
 10
129.3509917488
 20
81.7983427694
 30
0.0
 10
129.9070746792
 20
80.9064089261
 30
0.0
 10
130.4651113461
 20
80.3618086725
 30
0.0
 10
130.7755695933
 20
80.1457818232
 30
0.0
 10
130.936948485
 20
80.052590054
 30
0.0
  0
SPLINE
  5
2E5
100
AcDbEntity
  8
0
100
AcDbSpline
 62
7
  6
BYLAYER
 70
0
 71
3
 72
12
 73
8
 74
0
 42
0.0000001
 43
0.0000001
 44
0.0000000001
 40
0.0
 40
0.0
 40
0.0
 40
0.0
 40
0.2895723672
 40
0.5486435579
 40
0.7816386318
 40
0.8918404118
 40
1.0
 40
1.0
 40
1.0
 40
1.0
 10
104.8242778458
 20
70.7501209243
 30
0.0
 10
104.8242778458
 20
70.2432768526
 30
0.0
 10
104.9011049125
 20
69.2795446557
 30
0.0
 10
105.2907155485
 20
67.9561730749
 30
0.0
 10
105.8507672321
 20
67.0431471433
 30
0.0
 10
106.41623871
 20
66.4869436347
 30
0.0
 10
106.7314760896
 20
66.2669606741
 30
0.0
 10
106.8954180197
 20
66.1722888224
 30
0.0
  0
SPLINE
  5
2E6
100
AcDbEntity
  8
0
100
AcDbSpline
 62
7
  6
BYLAYER
 70
0
 71
3
 72
11
 73
7
 74
0
 42
0.0000001
 43
0.0000001
 44
0.0000000001
 40
0.0
 40
0.0
 40
0.0
 40
0.0
 40
0.2597677689
 40
0.5099425159
 40
0.7555676197
 40
1.0
 40
1.0
 40
1.0
 40
1.0
 10
23.3248902139
 20
159.6544099049
 30
0.0
 10
23.1285634634
 20
159.5410612792
 30
0.0
 10
22.7614891688
 20
159.2835469448
 30
0.0
 10
22.3133636333
 20
158.7910986723
 30
0.0
 10
22.0165505115
 20
158.207555689
 30
0.0
 10
21.9462171509
 20
157.7769760806
 30
0.0
 10
21.9462171509
 20
157.5636609452
 30
0.0
  0
SPLINE
  5
2E7
100
AcDbEntity
  8
0
100
AcDbSpline
 62
7
  6
BYLAYER
 70
0
 71
3
 72
9
 73
5
 74
0
 42
0.0000001
 43
0.0000001
 44
0.0000000001
 40
0.0
 40
0.0
 40
0.0
 40
0.0
 40
0.4999098803
 40
1.0
 40
1.0
 40
1.0
 40
1.0
 10
19.3758178637
 20
132.3604068764
 30
0.0
 10
19.3758700813
 20
132.6897844951
 30
0.0
 10
19.4789110614
 20
133.3546701231
 30
0.0
 10
19.8015796116
 20
133.9446566143
 30
0.0
 10
20.0010907343
 20
134.2068839489
 30
0.0
  0
SPLINE
  5
2E8
100
AcDbEntity
  8
0
100
AcDbSpline
 62
7
  6
BYLAYER
 70
0
 71
3
 72
11
 73
7
 74
0
 42
0.0000001
 43
0.0000001
 44
0.0000000001
 40
0.0
 40
0.0
 40
0.0
 40
0.0
 40
0.256249457
 40
0.5022818881
 40
0.747251815
 40
1.0
 40
1.0
 40
1.0
 40
1.0
 10
19.3758444005
 20
122.4062267824
 30
0.0
 10
19.3758363449
 20
122.180395767
 30
0.0
 10
19.4203558185
 20
121.7357702821
 30
0.0
 10
19.6381065049
 20
121.1076552873
 30
0.0
 10
19.9994138774
 20
120.5533257898
 30
0.0
 10
20.3207972402
 20
120.2486732225
 30
0.0
 10
20.4971140817
 20
120.1125561045
 30
0.0
  0
SPLINE
  5
2E9
100
AcDbEntity
  8
0
100
AcDbSpline
 62
7
  6
BYLAYER
 70
0
 71
3
 72
11
 73
7
 74
0
 42
0.0000001
 43
0.0000001
 44
0.0000000001
 40
0.0
 40
0.0
 40
0.0
 40
0.0
 40
0.2290089103
 40
0.4673178698
 40
0.72271151
 40
1.0
 40
1.0
 40
1.0
 40
1.0
 10
128.5268911861
 20
84.8602351208
 30
0.0
 10
128.1091517643
 20
85.1014542089
 30
0.0
 10
127.1888379383
 20
85.4844645672
 30
0.0
 10
125.6697307941
 20
85.7089557368
 30
0.0
 10
124.0390436027
 20
85.5918619497
 30
0.0
 10
122.9479758809
 20
85.3043906293
 30
0.0
 10
122.3958759118
 20
85.1137785161
 30
0.0
  0
SPLINE
  5
2EA
100
AcDbEntity
  8
0
100
AcDbSpline
 62
7
  6
BYLAYER
 70
0
 71
3
 72
9
 73
5
 74
0
 42
0.0000001
 43
0.0000001
 44
0.0000000001
 40
0.0
 40
0.0
 40
0.0
 40
0.0
 40
0.4590061313
 40
1.0
 40
1.0
 40
1.0
 40
1.0
 10
141.9926521529
 20
95.9432895054
 30
0.0
 10
141.9926520863
 20
95.8499974697
 30
0.0
 10
141.9265190551
 20
95.6464975868
 30
0.0
 10
141.7846445467
 20
95.4949104552
 30
0.0
 10
141.6998106677
 20
95.424956851
 30
0.0
  0
SPLINE
  5
2EB
100
AcDbEntity
  8
0
100
AcDbSpline
 62
7
  6
BYLAYER
 70
0
 71
3
 72
11
 73
7
 74
0
 42
0.0000001
 43
0.0000001
 44
0.0000000001
 40
0.0
 40
0.0
 40
0.0
 40
0.0
 40
0.2419335371
 40
0.5000070873
 40
0.7580777439
 40
1.0
 40
1.0
 40
1.0
 40
1.0
 10
68.5088254119
 20
185.7412113372
 30
0.0
 10
68.8888751453
 20
185.9606318434
 30
0.0
 10
69.7526738705
 20
186.2818425424
 30
0.0
 10
71.1301723083
 20
186.43443858
 30
0.0
 10
72.5076486612
 20
186.2818331133
 30
0.0
 10
73.3714217825
 20
185.9606326753
 30
0.0
 10
73.751455377
 20
185.7412251408
 30
0.0
  0
SPLINE
  5
2EC
100
AcDbEntity
  8
0
100
AcDbSpline
 62
7
  6
BYLAYER
 70
0
 71
3
 72
11
 73
7
 74
0
 42
0.0000001
 43
0.0000001
 44
0.0000000001
 40
0.0
 40
0.0
 40
0.0
 40
0.0
 40
0.2177723091
 40
0.4509273687
 40
0.7102218233
 40
1.0
 40
1.0
 40
1.0
 40
1.0
 10
21.0675977819
 20
93.8765037712
 30
0.0
 10
21.0675977853
 20
93.6098944675
 30
0.0
 10
21.1660590499
 20
93.0541315519
 30
0.0
 10
21.5873879157
 20
92.2799521018
 30
0.0
 10
22.2532544179
 20
91.579878418
 30
0.0
 10
22.810583957
 20
91.196173185
 30
0.0
 10
23.1178194659
 20
91.0187946941
 30
0.0
  0
SPLINE
  5
2ED
100
AcDbEntity
  8
0
100
AcDbSpline
 62
7
  6
BYLAYER
 70
0
 71
3
 72
11
 73
7
 74
0
 42
0.0000001
 43
0.0000001
 44
0.0000000001
 40
0.0
 40
0.0
 40
0.0
 40
0.0
 40
0.2545074409
 40
0.5001193655
 40
0.7455704772
 40
1.0
 40
1.0
 40
1.0
 40
1.0
 10
149.2725645182
 20
107.2587616326
 30
0.0
 10
149.4270995349
 20
107.3973892071
 30
0.0
 10
149.7071405981
 20
107.698276513
 30
0.0
 10
150.0217486784
 20
108.22435066
 30
0.0
 10
150.2107726067
 20
108.8075462133
 30
0.0
 10
150.2499753793
 20
109.2168437699
 30
0.0
 10
150.2499828994
 20
109.4243824175
 30
0.0
  0
SPLINE
  5
2EE
100
AcDbEntity
  8
0
100
AcDbSpline
 62
7
  6
BYLAYER
 70
0
 71
3
 72
14
 73
10
 74
0
 42
0.0000001
 43
0.0000001
 44
0.0000000001
 40
0.0
 40
0.0
 40
0.0
 40
0.0
 40
0.2377386735
 40
0.3434097127
 40
0.4416498042
 40
0.5385254987
 40
0.6489603591
 40
0.796277777
 40
1.0
 40
1.0
 40
1.0
 40
1.0
 10
109.3181398078
 20
151.7513012056
 30
0.0
 10
109.2896463017
 20
151.7701615336
 30
0.0
 10
109.246119332
 20
151.7947620709
 30
0.0
 10
109.1847246655
 20
151.8121728439
 30
0.0
 10
109.1409462479
 20
151.8140747741
 30
0.0
 10
109.097927618
 20
151.8002198187
 30
0.0
 10
109.0602197354
 20
151.7634512891
 30
0.0
 10
109.0341776643
 20
151.7011338651
 30
0.0
 10
109.0273251052
 20
151.6507627865
 30
0.0
 10
109.0254274682
 20
151.6215434639
 30
0.0
  0
SPLINE
  5
2EF
100
AcDbEntity
  8
0
100
AcDbSpline
 62
7
  6
BYLAYER
 70
0
 71
3
 72
9
 73
5
 74
0
 42
0.0000001
 43
0.0000001
 44
0.0000000001
 40
0.0
 40
0.0
 40
0.0
 40
0.0
 40
0.2547829927
 40
1.0
 40
1.0
 40
1.0
 40
1.0
 10
132.8382022335
 20
134.5205884831
 30
0.0
 10
130.9083879518
 20
136.0729110484
 30
0.0
 10
123.2676863595
 20
142.0824286528
 30
0.0
 10
115.3585900273
 20
147.7526798641
 30
0.0
 10
109.318140231
 20
151.7512973977
 30
0.0
  0
SPLINE
  5
2F0
100
AcDbEntity
  8
0
100
AcDbSpline
 62
7
  6
BYLAYER
 70
0
 71
3
 72
11
 73
7
 74
0
 42
0.0000001
 43
0.0000001
 44
0.0000000001
 40
0.0
 40
0.0
 40
0.0
 40
0.0
 40
0.2712280541
 40
0.5296470287
 40
0.7711657853
 40
1.0
 40
1.0
 40
1.0
 40
1.0
 10
93.1835421565
 20
137.2704307679
 30
0.0
 10
93.1111469525
 20
137.2534581034
 30
0.0
 10
92.9713892726
 20
137.2119966287
 30
0.0
 10
92.7806250005
 20
137.1179596791
 30
0.0
 10
92.6271857221
 20
136.9837411259
 30
0.0
 10
92.5764516806
 20
136.8571954919
 30
0.0
 10
92.5710706514
 20
136.7946909515
 30
0.0
  0
SPLINE
  5
2F1
100
AcDbEntity
  8
0
100
AcDbSpline
 62
7
  6
BYLAYER
 70
0
 71
3
 72
11
 73
7
 74
0
 42
0.0000001
 43
0.0000001
 44
0.0000000001
 40
0.0
 40
0.0
 40
0.0
 40
0.0
 40
0.2254479083
 40
0.4879050143
 40
0.7567166031
 40
1.0
 40
1.0
 40
1.0
 40
1.0
 10
122.3958759118
 20
85.1137785161
 30
0.0
 10
122.292597899
 20
85.0781218572
 30
0.0
 10
122.0573936182
 20
85.0354744081
 30
0.0
 10
121.6891510237
 20
85.0369800758
 30
0.0
 10
121.3177747398
 20
85.1026786499
 30
0.0
 10
121.0837705216
 20
85.1937372473
 30
0.0
 10
120.9816623494
 20
85.2526880943
 30
0.0
  0
SPLINE
  5
2F2
100
AcDbEntity
  8
0
100
AcDbSpline
 62
7
  6
BYLAYER
 70
0
 71
3
 72
10
 73
6
 74
0
 42
0.0000001
 43
0.0000001
 44
0.0000000001
 40
0.0
 40
0.0
 40
0.0
 40
0.0
 40
0.2380379016
 40
0.486754411
 40
1.0
 40
1.0
 40
1.0
 40
1.0
 10
141.6998106677
 20
95.424956851
 30
0.0
 10
141.0976845668
 20
94.9284465959
 30
0.0
 10
139.9247736212
 20
93.8404624173
 30
0.0
 10
137.7586987917
 20
91.3747498463
 30
0.0
 10
136.3832492264
 20
89.2663688643
 30
0.0
 10
135.5939756708
 20
87.7802182871
 30
0.0
  0
SPLINE
  5
2F3
100
AcDbEntity
  8
0
100
AcDbSpline
 62
7
  6
BYLAYER
 70
0
 71
3
 72
11
 73
7
 74
0
 42
0.0000001
 43
0.0000001
 44
0.0000000001
 40
0.0
 40
0.0
 40
0.0
 40
0.0
 40
0.244423266
 40
0.4900545708
 40
0.7402342466
 40
1.0
 40
1.0
 40
1.0
 40
1.0
 10
147.679610149
 20
141.7649609638
 30
0.0
 10
147.679610149
 20
141.9782703255
 30
0.0
 10
147.6092705035
 20
142.4088493513
 30
0.0
 10
147.3124677703
 20
142.9924076878
 30
0.0
 10
146.8643207994
 20
143.4848584584
 30
0.0
 10
146.4972412284
 20
143.7423762381
 30
0.0
 10
146.3009131771
 20
143.8557237271
 30
0.0
  0
SPLINE
  5
2F4
100
AcDbEntity
  8
0
100
AcDbSpline
 62
7
  6
BYLAYER
 70
0
 71
3
 72
9
 73
5
 74
0
 42
0.0000001
 43
0.0000001
 44
0.0000000001
 40
0.0
 40
0.0
 40
0.0
 40
0.0
 40
0.4993253669
 40
1.0
 40
1.0
 40
1.0
 40
1.0
 10
149.5198486015
 20
121.3848097252
 30
0.0
 10
149.7522128469
 20
121.1084275263
 30
0.0
 10
150.1301503129
 20
120.4714642714
 30
0.0
 10
150.2500657781
 20
119.7406203648
 30
0.0
 10
150.2500094362
 20
119.3785625893
 30
0.0
  0
SPLINE
  5
2F5
100
AcDbEntity
  8
0
100
AcDbSpline
 62
7
  6
BYLAYER
 70
0
 71
3
 72
11
 73
7
 74
0
 42
0.0000001
 43
0.0000001
 44
0.0000000001
 40
0.0
 40
0.0
 40
0.0
 40
0.0
 40
0.2257461076
 40
0.4692349087
 40
0.728354786
 40
1.0
 40
1.0
 40
1.0
 40
1.0
 10
114.8651632269
 20
88.7839706209
 30
0.0
 10
114.2285343107
 20
88.5190200999
 30
0.0
 10
112.9482028097
 20
87.8619194587
 30
0.0
 10
111.113338135
 20
86.5948960365
 30
0.0
 10
109.3281442353
 20
85.0368336452
 30
0.0
 10
108.2191680058
 20
83.8500742088
 30
0.0
 10
107.6812643894
 20
83.2182761576
 30
0.0
  0
SPLINE
  5
2F6
100
AcDbEntity
  8
0
100
AcDbSpline
 62
7
  6
BYLAYER
 70
0
 71
3
 72
18
 73
14
 74
0
 42
0.0000001
 43
0.0000001
 44
0.0000000001
 40
0.0
 40
0.0
 40
0.0
 40
0.0
 40
0.1286567823
 40
0.2702038947
 40
0.4173190723
 40
0.5616273857
 40
0.6952633069
 40
0.7562701408
 40
0.8127628395
 40
0.8647124815
 40
0.9125341601
 40
0.9571523644
 40
1.0
 40
1.0
 40
1.0
 40
1.0
 10
141.9472292995
 20
92.1829390025
 30
0.0
 10
141.9472292995
 20
91.4563897645
 30
0.0
 10
141.7439638139
 20
89.9287400899
 30
0.0
 10
140.9854115476
 20
87.6858115371
 30
0.0
 10
139.8161874306
 20
85.5247767934
 30
0.0
 10
138.33185954
 20
83.6244240992
 30
0.0
 10
136.8874768944
 20
82.3452061597
 30
0.0
 10
135.6750308917
 20
81.6030493672
 30
0.0
 10
134.7967283797
 20
81.2148769392
 30
0.0
 10
133.9397699816
 20
80.9872543544
 30
0.0
 10
133.120951243
 20
80.9269220932
 30
0.0
 10
132.3584158823
 20
81.0386487171
 30
0.0
 10
131.8965052405
 20
81.2306830819
 30
0.0
 10
131.6869501754
 20
81.3516605036
 30
0.0
  0
SPLINE
  5
2F7
100
AcDbEntity
  8
0
100
AcDbSpline
 62
7
  6
BYLAYER
 70
0
 71
3
 72
18
 73
14
 74
0
 42
0.0000001
 43
0.0000001
 44
0.0000000001
 40
0.0
 40
0.0
 40
0.0
 40
0.0
 40
0.1286567823
 40
0.2702038947
 40
0.4173190723
 40
0.5616273857
 40
0.6952633069
 40
0.7562701408
 40
0.8127628395
 40
0.8647124815
 40
0.9125341601
 40
0.9571523644
 40
1.0
 40
1.0
 40
1.0
 40
1.0
 10
117.9056988342
 20
78.3026377709
 30
0.0
 10
117.9056988342
 20
77.5760885329
 30
0.0
 10
117.7024333487
 20
76.0484388583
 30
0.0
 10
116.9438810824
 20
73.8055103055
 30
0.0
 10
115.7746569654
 20
71.6444755618
 30
0.0
 10
114.2903290747
 20
69.7441228676
 30
0.0
 10
112.8459464291
 20
68.4649049281
 30
0.0
 10
111.6335004264
 20
67.7227481356
 30
0.0
 10
110.7551979144
 20
67.3345757076
 30
0.0
 10
109.8982395163
 20
67.1069531228
 30
0.0
 10
109.0794207777
 20
67.0466208616
 30
0.0
 10
108.3168854171
 20
67.1583474855
 30
0.0
 10
107.8549747752
 20
67.3503818503
 30
0.0
 10
107.6454197101
 20
67.4713592719
 30
0.0
  0
SPLINE
  5
2F8
100
AcDbEntity
  8
0
100
AcDbSpline
 62
7
  6
BYLAYER
 70
0
 71
3
 72
9
 73
5
 74
0
 42
0.0000001
 43
0.0000001
 44
0.0000000001
 40
0.0
 40
0.0
 40
0.0
 40
0.0
 40
0.4840743353
 40
1.0
 40
1.0
 40
1.0
 40
1.0
 10
55.5854836994
 20
153.8452440267
 30
0.0
 10
55.5854836994
 20
154.4513279885
 30
0.0
 10
55.5578847049
 20
155.7031739793
 30
0.0
 10
55.5249086059
 20
156.9549328956
 30
0.0
 10
55.5248941979
 20
157.6008962278
 30
0.0
  0
SPLINE
  5
2F9
100
AcDbEntity
  8
0
100
AcDbSpline
 62
7
  6
BYLAYER
 70
0
 71
3
 72
10
 73
6
 74
0
 42
0.0000001
 43
0.0000001
 44
0.0000000001
 40
0.0
 40
0.0
 40
0.0
 40
0.0
 40
0.4719632366
 40
0.7289374977
 40
1.0
 40
1.0
 40
1.0
 40
1.0
 10
97.5863944377
 20
175.9645730925
 30
0.0
 10
92.6668939649
 20
175.5328534631
 30
0.0
 10
85.1419281643
 20
173.8061077769
 30
0.0
 10
75.415741794
 20
169.93352433
 30
0.0
 10
70.4879908477
 20
167.4111012257
 30
0.0
 10
68.0191792635
 20
166.0148851294
 30
0.0
  0
SPLINE
  5
2FA
100
AcDbEntity
  8
0
100
AcDbSpline
 62
7
  6
BYLAYER
 70
0
 71
3
 72
9
 73
5
 74
0
 42
0.0000001
 43
0.0000001
 44
0.0000000001
 40
0.0
 40
0.0
 40
0.0
 40
0.0
 40
0.5212962321
 40
1.0
 40
1.0
 40
1.0
 40
1.0
 10
97.5863944377
 20
175.9645730925
 30
0.0
 10
98.371621344
 20
175.5672236794
 30
0.0
 10
99.8594757958
 20
174.7677629003
 30
0.0
 10
101.2985124482
 20
173.8824224906
 30
0.0
 10
101.9704747336
 20
173.4334804145
 30
0.0
  0
SPLINE
  5
2FB
100
AcDbEntity
  8
0
100
AcDbSpline
 62
7
  6
BYLAYER
 70
0
 71
3
 72
9
 73
5
 74
0
 42
0.0000001
 43
0.0000001
 44
0.0000000001
 40
0.0
 40
0.0
 40
0.0
 40
0.0
 40
0.2612831793
 40
1.0
 40
1.0
 40
1.0
 40
1.0
 10
100.2117723173
 20
159.9047806511
 30
0.0
 10
100.1978664136
 20
159.9717544498
 30
0.0
 10
100.1417868918
 20
160.2274607381
 30
0.0
 10
100.073693821
 20
160.4806737102
 30
0.0
 10
100.0143901322
 20
160.6647477018
 30
0.0
  0
SPLINE
  5
2FC
100
AcDbEntity
  8
0
100
AcDbSpline
 62
7
  6
BYLAYER
 70
0
 71
3
 72
14
 73
10
 74
0
 42
0.0000001
 43
0.0000001
 44
0.0000000001
 40
0.0
 40
0.0
 40
0.0
 40
0.0
 40
0.3431439324
 40
0.4891392569
 40
0.617039294
 40
0.7275033664
 40
0.8234245014
 40
0.911092493
 40
1.0
 40
1.0
 40
1.0
 40
1.0
 10
100.0143901322
 20
160.6647477018
 30
0.0
 10
99.9368300827
 20
160.9054880029
 30
0.0
 10
99.804788462
 20
161.2438771684
 30
0.0
 10
99.569659796
 20
161.6344342751
 30
0.0
 10
99.3893852987
 20
161.8546690528
 30
0.0
 10
99.1980113112
 20
162.0130777568
 30
0.0
 10
98.997096444
 20
162.1036171568
 30
0.0
 10
98.7915330224
 20
162.1161724532
 30
0.0
 10
98.6656781734
 20
162.0699526751
 30
0.0
 10
98.6089252902
 20
162.03718701
 30
0.0
  0
SPLINE
  5
2FD
100
AcDbEntity
  8
0
100
AcDbSpline
 62
7
  6
BYLAYER
 70
0
 71
3
 72
10
 73
6
 74
0
 42
0.0000001
 43
0.0000001
 44
0.0000000001
 40
0.0
 40
0.0
 40
0.0
 40
0.0
 40
0.2358756134
 40
0.4780304359
 40
1.0
 40
1.0
 40
1.0
 40
1.0
 10
114.7309953431
 20
83.01025076
 30
0.0
 10
114.5646738445
 20
83.1062726341
 30
0.0
 10
114.2065093775
 20
83.2667178481
 30
0.0
 10
113.4082507513
 20
83.4467337997
 30
0.0
 10
112.7719997105
 20
83.407919498
 30
0.0
 10
112.3551348472
 20
83.3252302342
 30
0.0
  0
SPLINE
  5
2FE
100
AcDbEntity
  8
0
100
AcDbSpline
 62
7
  6
BYLAYER
 70
0
 71
3
 72
11
 73
7
 74
0
 42
0.0000001
 43
0.0000001
 44
0.0000000001
 40
0.0
 40
0.0
 40
0.0
 40
0.0
 40
0.23721727
 40
0.499998382
 40
0.7627803746
 40
1.0
 40
1.0
 40
1.0
 40
1.0
 10
34.7496275406
 20
167.9534700741
 30
0.0
 10
34.6492477459
 20
167.8955161186
 30
0.0
 10
34.4592713991
 20
167.7356335559
 30
0.0
 10
34.2375386273
 20
167.4326300423
 30
0.0
 10
34.0859976005
 20
167.0891002226
 30
0.0
 10
34.0425237034
 20
166.8446330841
 30
0.0
 10
34.0425237034
 20
166.7287235031
 30
0.0
  0
SPLINE
  5
2FF
100
AcDbEntity
  8
0
100
AcDbSpline
 62
7
  6
BYLAYER
 70
0
 71
3
 72
9
 73
5
 74
0
 42
0.0000001
 43
0.0000001
 44
0.0000000001
 40
0.0
 40
0.0
 40
0.0
 40
0.0
 40
0.2391826464
 40
1.0
 40
1.0
 40
1.0
 40
1.0
 10
55.3324396493
 20
155.539533816
 30
0.0
 10
55.3471261606
 20
155.5310547466
 30
0.0
 10
55.4095068681
 20
155.4973064143
 30
0.0
 10
55.4752809203
 20
155.4699978414
 30
0.0
 10
55.5262629976
 20
155.452371407
 30
0.0
  0
SPLINE
  5
300
100
AcDbEntity
  8
0
100
AcDbSpline
 62
7
  6
BYLAYER
 70
0
 71
3
 72
9
 73
5
 74
0
 42
0.0000001
 43
0.0000001
 44
0.0000000001
 40
0.0
 40
0.0
 40
0.0
 40
0.0
 40
0.4775708485
 40
1.0
 40
1.0
 40
1.0
 40
1.0
 10
141.992692016
 20
126.7231313692
 30
0.0
 10
141.9926706428
 20
126.6009476057
 30
0.0
 10
141.9299927702
 20
126.3445094543
 30
0.0
 10
141.7871625709
 20
126.1275279808
 30
0.0
 10
141.6998106677
 20
126.0263609127
 30
0.0
  0
SPLINE
  5
301
100
AcDbEntity
  8
0
100
AcDbSpline
 62
7
  6
BYLAYER
 70
0
 71
3
 72
9
 73
5
 74
0
 42
0.0000001
 43
0.0000001
 44
0.0000000001
 40
0.0
 40
0.0
 40
0.0
 40
0.0
 40
0.2464513252
 40
1.0
 40
1.0
 40
1.0
 40
1.0
 10
92.5710706514
 20
136.7946909515
 30
0.0
 10
94.0248818994
 20
135.7992223426
 30
0.0
 10
99.887922023
 20
131.7076998405
 30
0.0
 10
105.607709269
 20
127.4115054277
 30
0.0
 10
109.835768504
 20
124.0727341042
 30
0.0
  0
SPLINE
  5
302
100
AcDbEntity
  8
0
100
AcDbSpline
 62
7
  6
BYLAYER
 70
0
 71
3
 72
10
 73
6
 74
0
 42
0.0000001
 43
0.0000001
 44
0.0000000001
 40
0.0
 40
0.0
 40
0.0
 40
0.0
 40
0.4644265681
 40
0.7248945228
 40
1.0
 40
1.0
 40
1.0
 40
1.0
 10
148.2150001195
 20
134.4278576835
 30
0.0
 10
148.176710122
 20
134.517539373
 30
0.0
 10
148.0666081306
 20
134.6385749609
 30
0.0
 10
147.8754405678
 20
134.7274437087
 30
0.0
 10
147.7650267943
 20
134.7534189764
 30
0.0
 10
147.707816014
 20
134.7613853999
 30
0.0
  0
SPLINE
  5
303
100
AcDbEntity
  8
0
100
AcDbSpline
 62
7
  6
BYLAYER
 70
0
 71
3
 72
9
 73
5
 74
0
 42
0.0000001
 43
0.0000001
 44
0.0000000001
 40
0.0
 40
0.0
 40
0.0
 40
0.0
 40
0.2459804035
 40
1.0
 40
1.0
 40
1.0
 40
1.0
 10
94.3513686092
 20
137.2850864214
 30
0.0
 10
96.0315742059
 20
136.1245040036
 30
0.0
 10
102.8140697261
 20
131.3368524233
 30
0.0
 10
109.4047014665
 20
126.2784183976
 30
0.0
 10
114.2641140726
 20
122.3325669463
 30
0.0
  0
SPLINE
  5
304
100
AcDbEntity
  8
0
100
AcDbSpline
 62
7
  6
BYLAYER
 70
0
 71
3
 72
9
 73
5
 74
0
 42
0.0000001
 43
0.0000001
 44
0.0000000001
 40
0.0
 40
0.0
 40
0.0
 40
0.0
 40
0.4737979989
 40
1.0
 40
1.0
 40
1.0
 40
1.0
 10
104.9557787481
 20
142.4866633517
 30
0.0
 10
103.5272151972
 20
141.2689802495
 30
0.0
 10
100.1297673656
 20
139.1382818974
 30
0.0
 10
96.3690983583
 20
137.8093519742
 30
0.0
 10
94.3513686092
 20
137.2850864214
 30
0.0
  0
SPLINE
  5
305
100
AcDbEntity
  8
0
100
AcDbSpline
 62
7
  6
BYLAYER
 70
0
 71
3
 72
11
 73
7
 74
0
 42
0.0000001
 43
0.0000001
 44
0.0000000001
 40
0.0
 40
0.0
 40
0.0
 40
0.0
 40
0.2329102317
 40
0.4714125434
 40
0.7251006482
 40
1.0
 40
1.0
 40
1.0
 40
1.0
 10
148.5583040944
 20
132.8009989089
 30
0.0
 10
148.5582997494
 20
132.4967023507
 30
0.0
 10
148.4667559934
 20
131.8767654221
 30
0.0
 10
148.0531596294
 20
131.010431551
 30
0.0
 10
147.386885448
 20
130.2476190768
 30
0.0
 10
146.8190697657
 20
129.8437935008
 30
0.0
 10
146.5080441464
 20
129.6641952278
 30
0.0
  0
SPLINE
  5
306
100
AcDbEntity
  8
0
100
AcDbSpline
 62
7
  6
BYLAYER
 70
0
 71
3
 72
9
 73
5
 74
0
 42
0.0000001
 43
0.0000001
 44
0.0000000001
 40
0.0
 40
0.0
 40
0.0
 40
0.0
 40
0.5089507042
 40
1.0
 40
1.0
 40
1.0
 40
1.0
 10
94.3514605468
 20
137.2850229165
 30
0.0
 10
94.1549237725
 20
137.3162976195
 30
0.0
 10
93.7638957486
 20
137.3486482916
 30
0.0
 10
93.3704831165
 20
137.3142580661
 30
0.0
 10
93.1835421565
 20
137.2704307679
 30
0.0
  0
SPLINE
  5
307
100
AcDbEntity
  8
0
100
AcDbSpline
 62
7
  6
BYLAYER
 70
0
 71
3
 72
12
 73
8
 74
0
 42
0.0000001
 43
0.0000001
 44
0.0000000001
 40
0.0
 40
0.0
 40
0.0
 40
0.0
 40
0.108159617
 40
0.2183670919
 40
0.4513490616
 40
0.7104485717
 40
1.0
 40
1.0
 40
1.0
 40
1.0
 10
107.6454197101
 20
67.4713592719
 30
0.0
 10
107.5060596224
 20
67.5518127036
 30
0.0
 10
107.2380589681
 20
67.7387528385
 30
0.0
 10
106.7575438183
 20
68.2116442006
 30
0.0
 10
106.281350596
 20
68.9876306673
 30
0.0
 10
105.9502851067
 20
70.1125393038
 30
0.0
 10
105.8849336016
 20
70.9317026756
 30
0.0
 10
105.8849336016
 20
71.3624871551
 30
0.0
  0
SPLINE
  5
308
100
AcDbEntity
  8
0
100
AcDbSpline
 62
7
  6
BYLAYER
 70
0
 71
3
 72
18
 73
14
 74
0
 42
0.0000001
 43
0.0000001
 44
0.0000000001
 40
0.0
 40
0.0
 40
0.0
 40
0.0
 40
0.0428477087
 40
0.0874649025
 40
0.1352864637
 40
0.1872381644
 40
0.2437293034
 40
0.3047349332
 40
0.4383694921
 40
0.5826766316
 40
0.7297916124
 40
0.871342871
 40
1.0
 40
1.0
 40
1.0
 40
1.0
 10
106.8954180197
 20
66.1722888224
 30
0.0
 10
107.1419363708
 20
66.029931411
 30
0.0
 10
107.6854221396
 20
65.8041578767
 30
0.0
 10
108.5824734645
 20
65.6725959877
 30
0.0
 10
109.5458208096
 20
65.7435257198
 30
0.0
 10
110.5539710534
 20
66.0114567079
 30
0.0
 10
111.5872879579
 20
66.4680551944
 30
0.0
 10
113.0137142573
 20
67.3411141005
 30
0.0
 10
114.7129171628
 20
68.8461298286
 30
0.0
 10
116.459173623
 20
71.0818127156
 30
0.0
 10
117.8348335225
 20
73.624182601
 30
0.0
 10
118.7271915416
 20
76.262976725
 30
0.0
 10
118.9663545901
 20
78.0602370099
 30
0.0
 10
118.9663545901
 20
78.9150040017
 30
0.0
  0
SPLINE
  5
309
100
AcDbEntity
  8
0
100
AcDbSpline
 62
7
  6
BYLAYER
 70
0
 71
3
 72
11
 73
7
 74
0
 42
0.0000001
 43
0.0000001
 44
0.0000000001
 40
0.0
 40
0.0
 40
0.0
 40
0.0
 40
0.2241683446
 40
0.4640761301
 40
0.7224288819
 40
1.0
 40
1.0
 40
1.0
 40
1.0
 10
116.5253009922
 20
83.3760475714
 30
0.0
 10
116.6865326426
 20
83.1624546345
 30
0.0
 10
116.9753731579
 20
82.6850970251
 30
0.0
 10
117.2863053322
 20
81.8767718674
 30
0.0
 10
117.4847127196
 20
80.9689671212
 30
0.0
 10
117.5386094152
 20
80.3296129619
 30
0.0
 10
117.5482720636
 20
79.9983864314
 30
0.0
  0
SPLINE
  5
30A
100
AcDbEntity
  8
0
100
AcDbSpline
 62
7
  6
BYLAYER
 70
0
 71
3
 72
11
 73
7
 74
0
 42
0.0000001
 43
0.0000001
 44
0.0000000001
 40
0.0
 40
0.0
 40
0.0
 40
0.0
 40
0.234426439
 40
0.4768640423
 40
0.7311087556
 40
1.0
 40
1.0
 40
1.0
 40
1.0
 10
109.970056523
 20
150.9352495093
 30
0.0
 10
109.8678996765
 20
150.2048144671
 30
0.0
 10
109.5101977222
 20
148.736234211
 30
0.0
 10
108.5477564956
 20
146.6335487669
 30
0.0
 10
107.1722995951
 20
144.6428513326
 30
0.0
 10
106.0287018621
 20
143.4491336996
 30
0.0
 10
105.4027421855
 20
142.8800554614
 30
0.0
  0
SPLINE
  5
30B
100
AcDbEntity
  8
0
100
AcDbSpline
 62
7
  6
BYLAYER
 70
0
 71
3
 72
11
 73
7
 74
0
 42
0.0000001
 43
0.0000001
 44
0.0000000001
 40
0.0
 40
0.0
 40
0.0
 40
0.0
 40
0.265090898
 40
0.5249177895
 40
0.7702816147
 40
1.0
 40
1.0
 40
1.0
 40
1.0
 10
105.4027205552
 20
142.880092305
 30
0.0
 10
105.3400185242
 20
142.9098891241
 30
0.0
 10
105.210203628
 20
142.9581628642
 30
0.0
 10
105.0081622619
 20
142.9849622319
 30
0.0
 10
104.814588174
 20
142.9548036956
 30
0.0
 10
104.7040373273
 20
142.8897152141
 30
0.0
 10
104.6595718404
 20
142.8491952308
 30
0.0
  0
SPLINE
  5
30C
100
AcDbEntity
  8
0
100
AcDbSpline
 62
7
  6
BYLAYER
 70
0
 71
3
 72
9
 73
5
 74
0
 42
0.0000001
 43
0.0000001
 44
0.0000000001
 40
0.0
 40
0.0
 40
0.0
 40
0.0
 40
0.2546136633
 40
1.0
 40
1.0
 40
1.0
 40
1.0
 10
132.6140587647
 20
134.2494324972
 30
0.0
 10
130.7550998759
 20
135.7478424491
 30
0.0
 10
123.392332037
 20
141.5557386711
 30
0.0
 10
115.7802933188
 20
147.0493165198
 30
0.0
 10
109.970056523
 20
150.9352495093
 30
0.0
  0
SPLINE
  5
30D
100
AcDbEntity
  8
0
100
AcDbSpline
 62
7
  6
BYLAYER
 70
0
 71
3
 72
10
 73
6
 74
0
 42
0.0000001
 43
0.0000001
 44
0.0000000001
 40
0.0
 40
0.0
 40
0.0
 40
0.0
 40
0.553970378
 40
0.7933074161
 40
1.0
 40
1.0
 40
1.0
 40
1.0
 10
109.970056523
 20
150.9352495093
 30
0.0
 10
109.8740167535
 20
151.1039143624
 30
0.0
 10
109.7233935929
 20
151.3393702706
 30
0.0
 10
109.4956685837
 20
151.6058378952
 30
0.0
 10
109.3785270224
 20
151.7113298988
 30
0.0
 10
109.3181398078
 20
151.7513012056
 30
0.0
  0
SPLINE
  5
30E
100
AcDbEntity
  8
0
100
AcDbSpline
 62
7
  6
BYLAYER
 70
0
 71
3
 72
9
 73
5
 74
0
 42
0.0000001
 43
0.0000001
 44
0.0000000001
 40
0.0
 40
0.0
 40
0.0
 40
0.0
 40
0.5072576995
 40
1.0
 40
1.0
 40
1.0
 40
1.0
 10
36.5174018535
 20
166.9328681878
 30
0.0
 10
36.3421490202
 20
166.9328677666
 30
0.0
 10
35.9959948629
 20
166.896534894
 30
0.0
 10
35.664841842
 20
166.7788218498
 30
0.0
 10
35.5173910339
 20
166.6937383561
 30
0.0
  0
SPLINE
  5
30F
100
AcDbEntity
  8
0
100
AcDbSpline
 62
7
  6
BYLAYER
 70
0
 71
3
 72
9
 73
5
 74
0
 42
0.0000001
 43
0.0000001
 44
0.0000000001
 40
0.0
 40
0.0
 40
0.0
 40
0.0
 40
0.4493167752
 40
1.0
 40
1.0
 40
1.0
 40
1.0
 10
134.1689579741
 20
133.7055357169
 30
0.0
 10
134.1355713938
 20
133.7247950748
 30
0.0
 10
134.0444519237
 20
133.7392981873
 30
0.0
 10
133.9625107473
 20
133.7053736825
 30
0.0
 10
133.9216007471
 20
133.6817544239
 30
0.0
  0
SPLINE
  5
310
100
AcDbEntity
  8
0
100
AcDbSpline
 62
7
  6
BYLAYER
 70
0
 71
3
 72
18
 73
14
 74
0
 42
0.0000001
 43
0.0000001
 44
0.0000000001
 40
0.0
 40
0.0
 40
0.0
 40
0.0
 40
0.136112503
 40
0.2702634295
 40
0.4020131039
 40
0.5307023024
 40
0.6552708847
 40
0.7155122691
 40
0.7739666811
 40
0.8302311712
 40
0.8840643202
 40
0.9370905236
 40
1.0
 40
1.0
 40
1.0
 40
1.0
 10
132.8382026525
 20
134.5205895297
 30
0.0
 10
132.8872389439
 20
134.481145938
 30
0.0
 10
132.9837602271
 20
134.4017663546
 30
0.0
 10
133.1241467363
 20
134.279912277
 30
0.0
 10
133.2578613039
 20
134.155726317
 30
0.0
 10
133.3827493367
 20
134.0287945894
 30
0.0
 10
133.4777251363
 20
133.9190387827
 30
0.0
 10
133.5442609873
 20
133.8282663044
 30
0.0
 10
133.5871403003
 20
133.7595618285
 30
0.0
 10
133.6208973421
 20
133.6890135317
 30
0.0
 10
133.6411536078
 20
133.615894879
 30
0.0
 10
133.6347093128
 20
133.5339056429
 30
0.0
 10
133.5932381447
 20
133.4921753186
 30
0.0
 10
133.5680488285
 20
133.477632347
 30
0.0
  0
SPLINE
  5
311
100
AcDbEntity
  8
0
100
AcDbSpline
 62
7
  6
BYLAYER
 70
0
 71
3
 72
9
 73
5
 74
0
 42
0.0000001
 43
0.0000001
 44
0.0000000001
 40
0.0
 40
0.0
 40
0.0
 40
0.0
 40
0.498277585
 40
1.0
 40
1.0
 40
1.0
 40
1.0
 10
97.6357675849
 20
103.9222274368
 30
0.0
 10
97.1490893043
 20
103.9131113024
 30
0.0
 10
96.1695525735
 20
103.9813505491
 30
0.0
 10
95.2131779951
 20
104.2016273365
 30
0.0
 10
94.7461061244
 20
104.3501877183
 30
0.0
  0
SPLINE
  5
312
100
AcDbEntity
  8
0
100
AcDbSpline
 62
7
  6
BYLAYER
 70
0
 71
3
 72
9
 73
5
 74
0
 42
0.0000001
 43
0.0000001
 44
0.0000000001
 40
0.0
 40
0.0
 40
0.0
 40
0.0
 40
0.5139830907
 40
1.0
 40
1.0
 40
1.0
 40
1.0
 10
94.7461033508
 20
104.3501821464
 30
0.0
 10
94.2866275407
 20
104.4963793324
 30
0.0
 10
93.4140785174
 20
104.8531685968
 30
0.0
 10
92.6129588282
 20
105.353130752
 30
0.0
 10
92.2534476565
 20
105.6335439915
 30
0.0
  0
SPLINE
  5
313
100
AcDbEntity
  8
0
100
AcDbSpline
 62
7
  6
BYLAYER
 70
0
 71
3
 72
9
 73
5
 74
0
 42
0.0000001
 43
0.0000001
 44
0.0000000001
 40
0.0
 40
0.0
 40
0.0
 40
0.0
 40
0.5505625351
 40
1.0
 40
1.0
 40
1.0
 40
1.0
 10
23.7024630115
 20
145.2104589797
 30
0.0
 10
23.3870689964
 20
145.3287143784
 30
0.0
 10
22.8306851806
 20
145.5935725742
 30
0.0
 10
22.3598399608
 20
146.00825936
 30
0.0
 10
22.2014400193
 20
146.2330169799
 30
0.0
  0
SPLINE
  5
314
100
AcDbEntity
  8
0
100
AcDbSpline
 62
7
  6
BYLAYER
 70
0
 71
3
 72
11
 73
7
 74
0
 42
0.0000001
 43
0.0000001
 44
0.0000000001
 40
0.0
 40
0.0
 40
0.0
 40
0.0
 40
0.2552662032
 40
0.4986538751
 40
0.7426585692
 40
1.0
 40
1.0
 40
1.0
 40
1.0
 10
22.2014068764
 20
146.233008388
 30
0.0
 10
22.1328046161
 20
146.3304046666
 30
0.0
 10
22.0184258223
 20
146.5359900599
 30
0.0
 10
21.9300925834
 20
146.8751473468
 30
0.0
 10
21.9340585721
 20
147.2265941543
 30
0.0
 10
21.9960984528
 20
147.4548763482
 30
0.0
 10
22.0397077825
 20
147.5667791041
 30
0.0
  0
SPLINE
  5
315
100
AcDbEntity
  8
0
100
AcDbSpline
 62
7
  6
BYLAYER
 70
0
 71
3
 72
10
 73
6
 74
0
 42
0.0000001
 43
0.0000001
 44
0.0000000001
 40
0.0
 40
0.0
 40
0.0
 40
0.0
 40
0.4398803348
 40
0.7039324717
 40
1.0
 40
1.0
 40
1.0
 40
1.0
 10
22.0397117565
 20
147.5667790867
 30
0.0
 10
22.1293850792
 20
147.3870734234
 30
0.0
 10
22.3641463054
 20
147.1458186521
 30
0.0
 10
22.7548440836
 20
146.9107009715
 30
0.0
 10
22.9913104992
 20
146.8100699451
 30
0.0
 10
23.1183845112
 20
146.7639749849
 30
0.0
  0
SPLINE
  5
316
100
AcDbEntity
  8
0
100
AcDbSpline
 62
7
  6
BYLAYER
 70
0
 71
3
 72
9
 73
5
 74
0
 42
0.0000001
 43
0.0000001
 44
0.0000000001
 40
0.0
 40
0.0
 40
0.0
 40
0.0
 40
0.2384256958
 40
1.0
 40
1.0
 40
1.0
 40
1.0
 10
95.6674017231
 20
104.8785723917
 30
0.0
 10
95.8042928602
 20
104.7701631251
 30
0.0
 10
96.4056226723
 20
104.3502125785
 30
0.0
 10
97.0964302461
 20
104.0644339501
 30
0.0
 10
97.6357644943
 20
103.9222398654
 30
0.0
  0
SPLINE
  5
317
100
AcDbEntity
  8
0
100
AcDbSpline
 62
7
  6
BYLAYER
 70
0
 71
3
 72
11
 73
7
 74
0
 42
0.0000001
 43
0.0000001
 44
0.0000000001
 40
0.0
 40
0.0
 40
0.0
 40
0.0
 40
0.2274132366
 40
0.4755943238
 40
0.736553155
 40
1.0
 40
1.0
 40
1.0
 40
1.0
 10
101.3241138516
 20
103.577393162
 30
0.0
 10
100.8521559219
 20
103.3049518645
 30
0.0
 10
99.7812966864
 20
102.8760828941
 30
0.0
 10
98.0285044611
 20
102.5909099946
 30
0.0
 10
96.168055288
 20
102.6390019946
 30
0.0
 10
94.9291634305
 20
102.8902870868
 30
0.0
 10
94.3239881429
 20
103.0699993763
 30
0.0
  0
SPLINE
  5
318
100
AcDbEntity
  8
0
100
AcDbSpline
 62
7
  6
BYLAYER
 70
0
 71
3
 72
11
 73
7
 74
0
 42
0.0000001
 43
0.0000001
 44
0.0000000001
 40
0.0
 40
0.0
 40
0.0
 40
0.0
 40
0.2341216181
 40
0.5152977774
 40
0.7879646013
 40
1.0
 40
1.0
 40
1.0
 40
1.0
 10
94.3239867619
 20
103.070014162
 30
0.0
 10
94.3445567393
 20
103.173399548
 30
0.0
 10
94.3993450424
 20
103.3990454889
 30
0.0
 10
94.5014872489
 20
103.7389605857
 30
0.0
 10
94.6179172311
 20
104.0636774034
 30
0.0
 10
94.7037362237
 20
104.2646359353
 30
0.0
 10
94.7460680737
 20
104.3502051602
 30
0.0
  0
SPLINE
  5
319
100
AcDbEntity
  8
0
100
AcDbSpline
 62
7
  6
BYLAYER
 70
0
 71
3
 72
11
 73
7
 74
0
 42
0.0000001
 43
0.0000001
 44
0.0000000001
 40
0.0
 40
0.0
 40
0.0
 40
0.0
 40
0.2102727158
 40
0.4533980009
 40
0.7207992143
 40
1.0
 40
1.0
 40
1.0
 40
1.0
 10
101.3241138516
 20
103.577393162
 30
0.0
 10
101.0676112165
 20
103.5263608466
 30
0.0
 10
100.5024118739
 20
103.4774072696
 30
0.0
 10
99.6054636829
 20
103.5234615239
 30
0.0
 10
98.6334966376
 20
103.6752165543
 30
0.0
 10
97.9718747201
 20
103.8336613046
 30
0.0
 10
97.6360886504
 20
103.9221904374
 30
0.0
  0
SPLINE
  5
31A
100
AcDbEntity
  8
0
100
AcDbSpline
 62
7
  6
BYLAYER
 70
0
 71
3
 72
11
 73
7
 74
0
 42
0.0000001
 43
0.0000001
 44
0.0000000001
 40
0.0
 40
0.0
 40
0.0
 40
0.0
 40
0.266813838
 40
0.5228141539
 40
0.7673284542
 40
1.0
 40
1.0
 40
1.0
 40
1.0
 10
95.6672596021
 20
104.8786849426
 30
0.0
 10
89.803133875
 20
109.5227077916
 30
0.0
 10
78.00746324
 20
118.2467788758
 30
0.0
 10
59.8111715033
 20
129.7601132435
 30
0.0
 10
41.6055203989
 20
139.3512609798
 30
0.0
 10
29.2499299691
 20
144.5398117548
 30
0.0
 10
23.1178018021
 20
146.7641863563
 30
0.0
  0
SPLINE
  5
31B
100
AcDbEntity
  8
0
100
AcDbSpline
 62
7
  6
BYLAYER
 70
0
 71
3
 72
11
 73
7
 74
0
 42
0.0000001
 43
0.0000001
 44
0.0000000001
 40
0.0
 40
0.0
 40
0.0
 40
0.0
 40
0.237217774
 40
0.4999989081
 40
0.7627806366
 40
1.0
 40
1.0
 40
1.0
 40
1.0
 10
100.6170041264
 20
115.2699396849
 30
0.0
 10
100.7173846094
 20
115.2119862971
 30
0.0
 10
100.9073624436
 20
115.0521048445
 30
0.0
 10
101.1290972046
 20
114.7491022983
 30
0.0
 10
101.2806395967
 20
114.4055730612
 30
0.0
 10
101.3241138516
 20
114.1611060321
 30
0.0
 10
101.3241138516
 20
114.0451965133
 30
0.0
  0
SPLINE
  5
31C
100
AcDbEntity
  8
0
100
AcDbSpline
 62
7
  6
BYLAYER
 70
0
 71
3
 72
11
 73
7
 74
0
 42
0.0000001
 43
0.0000001
 44
0.0000000001
 40
0.0
 40
0.0
 40
0.0
 40
0.0
 40
0.2372367819
 40
0.4999994739
 40
0.7627624522
 40
1.0
 40
1.0
 40
1.0
 40
1.0
 10
101.3241138516
 20
114.0451965133
 30
0.0
 10
100.9225622268
 20
113.8133619585
 30
0.0
 10
99.9887513976
 20
113.4750472033
 30
0.0
 10
98.4956911727
 20
113.312953144
 30
0.0
 10
97.0026286949
 20
113.4750403902
 30
0.0
 10
96.0688141933
 20
113.8133505092
 30
0.0
 10
95.6672596004
 20
114.0451829169
 30
0.0
  0
SPLINE
  5
31D
100
AcDbEntity
  8
0
100
AcDbSpline
 62
7
  6
BYLAYER
 70
0
 71
3
 72
11
 73
7
 74
0
 42
0.0000001
 43
0.0000001
 44
0.0000000001
 40
0.0
 40
0.0
 40
0.0
 40
0.0
 40
0.2372196254
 40
0.500001618
 40
0.76278273
 40
1.0
 40
1.0
 40
1.0
 40
1.0
 10
95.6672596021
 20
114.0451829159
 30
0.0
 10
95.6672596021
 20
114.1610924968
 30
0.0
 10
95.7107334993
 20
114.4055596354
 30
0.0
 10
95.862274526
 20
114.7490894551
 30
0.0
 10
96.0840072978
 20
115.0520929687
 30
0.0
 10
96.2739836446
 20
115.2119755313
 30
0.0
 10
96.3743634394
 20
115.2699294869
 30
0.0
  0
SPLINE
  5
31E
100
AcDbEntity
  8
0
100
AcDbSpline
 62
7
  6
BYLAYER
 70
0
 71
3
 72
11
 73
7
 74
0
 42
0.0000001
 43
0.0000001
 44
0.0000000001
 40
0.0
 40
0.0
 40
0.0
 40
0.0
 40
0.2372444228
 40
0.5000010918
 40
0.7627571666
 40
1.0
 40
1.0
 40
1.0
 40
1.0
 10
113.5570102354
 20
121.1078203753
 30
0.0
 10
113.5570102354
 20
121.2237415328
 30
0.0
 10
113.5135193744
 20
121.4682055571
 30
0.0
 10
113.3619804692
 20
121.8117185858
 30
0.0
 10
113.1402580017
 20
122.1147100081
 30
0.0
 10
112.9502910726
 20
122.2746043399
 30
0.0
 10
112.8499005102
 20
122.3325635469
 30
0.0
  0
SPLINE
  5
31F
100
AcDbEntity
  8
0
100
AcDbSpline
 62
7
  6
BYLAYER
 70
0
 71
3
 72
11
 73
7
 74
0
 42
0.0000001
 43
0.0000001
 44
0.0000000001
 40
0.0
 40
0.0
 40
0.0
 40
0.0
 40
0.2377113327
 40
0.5009465074
 40
0.7632761217
 40
1.0
 40
1.0
 40
1.0
 40
1.0
 10
113.910562154
 20
122.1284448693
 30
0.0
 10
113.8597526888
 20
122.099110186
 30
0.0
 10
113.7639534178
 20
122.0176216517
 30
0.0
 10
113.6533188244
 20
121.863432391
 30
0.0
 10
113.5782159203
 20
121.689419027
 30
0.0
 10
113.5570102354
 20
121.5661368167
 30
0.0
 10
113.5570102354
 20
121.5077109014
 30
0.0
  0
SPLINE
  5
320
100
AcDbEntity
  8
0
100
AcDbSpline
 62
7
  6
BYLAYER
 70
0
 71
3
 72
11
 73
7
 74
0
 42
0.0000001
 43
0.0000001
 44
0.0000000001
 40
0.0
 40
0.0
 40
0.0
 40
0.0
 40
0.2210951066
 40
0.4967685815
 40
0.7745693942
 40
1.0
 40
1.0
 40
1.0
 40
1.0
 10
121.5135383962
 20
115.7872498382
 30
0.0
 10
121.4776259893
 20
115.7510068249
 30
0.0
 10
121.404500484
 20
115.6621424056
 30
0.0
 10
121.3069196544
 20
115.5120306032
 30
0.0
 10
121.2249300071
 20
115.3517434281
 30
0.0
 10
121.1838353506
 20
115.2426306345
 30
0.0
 10
121.1701424342
 20
115.1924424125
 30
0.0
  0
SPLINE
  5
321
100
AcDbEntity
  8
0
100
AcDbSpline
 62
7
  6
BYLAYER
 70
0
 71
3
 72
9
 73
5
 74
0
 42
0.0000001
 43
0.0000001
 44
0.0000000001
 40
0.0
 40
0.0
 40
0.0
 40
0.0
 40
0.256958715
 40
1.0
 40
1.0
 40
1.0
 40
1.0
 10
121.1701254762
 20
115.1924502357
 30
0.0
 10
121.1531337628
 20
115.200263288
 30
0.0
 10
121.0877240119
 20
115.2321947919
 30
0.0
 10
121.0253785575
 20
115.2704712707
 30
0.0
 10
120.9816623494
 20
115.3023072566
 30
0.0
  0
SPLINE
  5
322
100
AcDbEntity
  8
0
100
AcDbSpline
 62
7
  6
BYLAYER
 70
0
 71
3
 72
11
 73
7
 74
0
 42
0.0000001
 43
0.0000001
 44
0.0000000001
 40
0.0
 40
0.0
 40
0.0
 40
0.0
 40
0.212816785
 40
0.4847512776
 40
0.7654768382
 40
1.0
 40
1.0
 40
1.0
 40
1.0
 10
120.9816614427
 20
115.3015809305
 30
0.0
 10
120.9936117088
 20
115.3511548736
 30
0.0
 10
121.0392502287
 20
115.4594423268
 30
0.0
 10
121.1415933977
 20
115.6125727597
 30
0.0
 10
121.2712302937
 20
115.7507113053
 30
0.0
 10
121.370479551
 20
115.8257285437
 30
0.0
 10
121.4191460682
 20
115.8538259187
 30
0.0
  0
SPLINE
  5
323
100
AcDbEntity
  8
0
100
AcDbSpline
 62
7
  6
BYLAYER
 70
0
 71
3
 72
11
 73
7
 74
0
 42
0.0000001
 43
0.0000001
 44
0.0000000001
 40
0.0
 40
0.0
 40
0.0
 40
0.0
 40
0.2739478427
 40
0.5485079735
 40
0.7966231194
 40
1.0
 40
1.0
 40
1.0
 40
1.0
 10
121.5135265113
 20
115.7872568283
 30
0.0
 10
121.6085191659
 20
115.7203994118
 30
0.0
 10
121.7911367266
 20
115.5756384434
 30
0.0
 10
122.0367629518
 20
115.343162145
 30
0.0
 10
122.2411624372
 20
115.1124661229
 30
0.0
 10
122.3525163232
 20
114.955839844
 30
0.0
 10
122.3958759118
 20
114.881295512
 30
0.0
  0
SPLINE
  5
324
100
AcDbEntity
  8
0
100
AcDbSpline
 62
7
  6
BYLAYER
 70
0
 71
3
 72
9
 73
5
 74
0
 42
0.0000001
 43
0.0000001
 44
0.0000000001
 40
0.0
 40
0.0
 40
0.0
 40
0.0
 40
0.2462871451
 40
1.0
 40
1.0
 40
1.0
 40
1.0
 10
141.5042805168
 20
127.3288538767
 30
0.0
 10
141.513518715
 20
127.3190559127
 30
0.0
 10
141.5499574615
 20
127.2782685771
 30
0.0
 10
141.582158214
 20
127.2337607755
 30
0.0
 10
141.604089839
 20
127.1988698794
 30
0.0
  0
SPLINE
  5
325
100
AcDbEntity
  8
0
100
AcDbSpline
 62
7
  6
BYLAYER
 70
0
 71
3
 72
9
 73
5
 74
0
 42
0.0000001
 43
0.0000001
 44
0.0000000001
 40
0.0
 40
0.0
 40
0.0
 40
0.0
 40
0.4969294064
 40
1.0
 40
1.0
 40
1.0
 40
1.0
 10
141.604089839
 20
127.1988698794
 30
0.0
 10
141.7102538477
 20
127.0299741678
 30
0.0
 10
141.8225820281
 20
126.6251753546
 30
0.0
 10
141.7658612137
 20
126.2172114573
 30
0.0
 10
141.6998132088
 20
126.0263609128
 30
0.0
  0
SPLINE
  5
326
100
AcDbEntity
  8
0
100
AcDbSpline
 62
7
  6
BYLAYER
 70
0
 71
3
 72
9
 73
5
 74
0
 42
0.0000001
 43
0.0000001
 44
0.0000000001
 40
0.0
 40
0.0
 40
0.0
 40
0.0
 40
0.2770619976
 40
1.0
 40
1.0
 40
1.0
 40
1.0
 10
141.5044243137
 20
127.3286831576
 30
0.0
 10
141.52837698
 20
127.3360390286
 30
0.0
 10
141.6152197811
 20
127.3574103983
 30
0.0
 10
141.7157165487
 20
127.3556908573
 30
0.0
 10
141.7723183032
 20
127.3229669883
 30
0.0
  0
SPLINE
  5
327
100
AcDbEntity
  8
0
100
AcDbSpline
 62
7
  6
BYLAYER
 70
0
 71
3
 72
8
 73
4
 74
0
 42
0.0000001
 43
0.0000001
 44
0.0000000001
 40
0.0
 40
0.0
 40
0.0
 40
0.0
 40
1.0
 40
1.0
 40
1.0
 40
1.0
 10
141.7723183032
 20
127.3229669883
 30
0.0
 10
141.7904720504
 20
127.3124715391
 30
0.0
 10
141.8069526938
 20
127.2981927711
 30
0.0
 10
141.8195871553
 20
127.2814570795
 30
0.0
  0
SPLINE
  5
328
100
AcDbEntity
  8
0
100
AcDbSpline
 62
7
  6
BYLAYER
 70
0
 71
3
 72
9
 73
5
 74
0
 42
0.0000001
 43
0.0000001
 44
0.0000000001
 40
0.0
 40
0.0
 40
0.0
 40
0.0
 40
0.2574838457
 40
1.0
 40
1.0
 40
1.0
 40
1.0
 10
141.4301959855
 20
127.4071257992
 30
0.0
 10
141.4372197008
 20
127.4010882985
 30
0.0
 10
141.4639098235
 20
127.376971877
 30
0.0
 10
141.4882047389
 20
127.3501485633
 30
0.0
 10
141.5042937014
 20
127.3288290741
 30
0.0
  0
SPLINE
  5
329
100
AcDbEntity
  8
0
100
AcDbSpline
 62
7
  6
BYLAYER
 70
0
 71
3
 72
9
 73
5
 74
0
 42
0.0000001
 43
0.0000001
 44
0.0000000001
 40
0.0
 40
0.0
 40
0.0
 40
0.0
 40
0.3122549311
 40
1.0
 40
1.0
 40
1.0
 40
1.0
 10
141.4301844034
 20
127.4071356959
 30
0.0
 10
141.4527023572
 20
127.420136487
 30
0.0
 10
141.5235237756
 20
127.4568924781
 30
0.0
 10
141.6287875745
 20
127.4757027638
 30
0.0
 10
141.6720664184
 20
127.4381975857
 30
0.0
  0
SPLINE
  5
32A
100
AcDbEntity
  8
0
100
AcDbSpline
 62
7
  6
BYLAYER
 70
0
 71
3
 72
9
 73
5
 74
0
 42
0.0000001
 43
0.0000001
 44
0.0000000001
 40
0.0
 40
0.0
 40
0.0
 40
0.0
 40
0.2553067218
 40
1.0
 40
1.0
 40
1.0
 40
1.0
 10
121.5135544126
 20
115.7872404026
 30
0.0
 10
121.5050344683
 20
115.7921624523
 30
0.0
 10
121.4720948767
 20
115.8121737575
 30
0.0
 10
121.4409110436
 20
115.8351184928
 30
0.0
 10
121.4191456539
 20
115.8538263526
 30
0.0
  0
SPLINE
  5
32B
100
AcDbEntity
  8
0
100
AcDbSpline
 62
7
  6
BYLAYER
 70
0
 71
3
 72
17
 73
13
 74
0
 42
0.0000001
 43
0.0000001
 44
0.0000000001
 40
0.0
 40
0.0
 40
0.0
 40
0.0
 40
0.1338269125
 40
0.2748606866
 40
0.4176042866
 40
0.5557617081
 40
0.6836830854
 40
0.7982423306
 40
0.8510075219
 40
0.9014985487
 40
0.9507546264
 40
1.0
 40
1.0
 40
1.0
 40
1.0
 10
130.9871551503
 20
126.0365283666
 30
0.0
 10
130.7037440927
 20
126.2742252963
 30
0.0
 10
130.0589040321
 20
126.6903291178
 30
0.0
 10
128.9730303708
 20
127.1027177488
 30
0.0
 10
127.8148302116
 20
127.2953973526
 30
0.0
 10
126.6769095902
 20
127.2494090858
 30
0.0
 10
125.6529067087
 20
126.9659728658
 30
0.0
 10
124.9450340824
 20
126.5285008572
 30
0.0
 10
124.5371391451
 20
126.0809656886
 30
0.0
 10
124.3192909678
 20
125.7164219581
 30
0.0
 10
124.1874544792
 20
125.3229775432
 30
0.0
 10
124.1587400273
 20
125.0497454713
 30
0.0
 10
124.1587559956
 20
124.9136325361
 30
0.0
  0
SPLINE
  5
32C
100
AcDbEntity
  8
0
100
AcDbSpline
 62
7
  6
BYLAYER
 70
0
 71
3
 72
11
 73
7
 74
0
 42
0.0000001
 43
0.0000001
 44
0.0000000001
 40
0.0
 40
0.0
 40
0.0
 40
0.0
 40
0.2769017511
 40
0.5530083166
 40
0.7988859785
 40
1.0
 40
1.0
 40
1.0
 40
1.0
 10
121.1701259078
 20
115.1924535494
 30
0.0
 10
121.2766410071
 20
115.1430544366
 30
0.0
 10
121.495361517
 20
115.0572469081
 30
0.0
 10
121.820349989
 20
114.9603078771
 30
0.0
 10
122.1211613768
 20
114.8991712519
 30
0.0
 10
122.3106002564
 20
114.8813201366
 30
0.0
 10
122.3958772059
 20
114.8812992492
 30
0.0
  0
SPLINE
  5
32D
100
AcDbEntity
  8
0
100
AcDbSpline
 62
7
  6
BYLAYER
 70
0
 71
3
 72
11
 73
7
 74
0
 42
0.0000001
 43
0.0000001
 44
0.0000000001
 40
0.0
 40
0.0
 40
0.0
 40
0.0
 40
0.2238125988
 40
0.4596488196
 40
0.716629765
 40
1.0
 40
1.0
 40
1.0
 40
1.0
 10
131.6869501754
 20
81.3516605036
 30
0.0
 10
131.4456647162
 20
81.490956076
 30
0.0
 10
130.9909382147
 20
81.8538619134
 30
0.0
 10
130.470960479
 20
82.5907437263
 30
0.0
 10
130.115028669
 20
83.4971556367
 30
0.0
 10
129.996512677
 20
84.1634726393
 30
0.0
 10
129.9616213844
 20
84.5144886426
 30
0.0
  0
SPLINE
  5
32E
100
AcDbEntity
  8
0
100
AcDbSpline
 62
7
  6
BYLAYER
 70
0
 71
3
 72
11
 73
7
 74
0
 42
0.0000001
 43
0.0000001
 44
0.0000000001
 40
0.0
 40
0.0
 40
0.0
 40
0.0
 40
0.2661139822
 40
0.5160274273
 40
0.7568308117
 40
1.0
 40
1.0
 40
1.0
 40
1.0
 10
146.5080490495
 20
119.0091480944
 30
0.0
 10
146.8029079438
 20
119.050027768
 30
0.0
 10
147.3671465483
 20
119.228906498
 30
0.0
 10
148.0438955141
 20
119.7678786985
 30
0.0
 10
148.4684750987
 20
120.4917898222
 30
0.0
 10
148.5582157902
 20
121.0389626566
 30
0.0
 10
148.5582417771
 20
121.3109754695
 30
0.0
  0
SPLINE
  5
32F
100
AcDbEntity
  8
0
100
AcDbSpline
 62
7
  6
BYLAYER
 70
0
 71
3
 72
18
 73
14
 74
0
 42
0.0000001
 43
0.0000001
 44
0.0000000001
 40
0.0
 40
0.0
 40
0.0
 40
0.0
 40
0.0428477087
 40
0.0874649025
 40
0.1352864637
 40
0.1872381644
 40
0.2437293034
 40
0.3047349332
 40
0.4383694921
 40
0.5826766316
 40
0.7297916124
 40
0.871342871
 40
1.0
 40
1.0
 40
1.0
 40
1.0
 10
130.936948485
 20
80.052590054
 30
0.0
 10
131.1834668361
 20
79.9102326426
 30
0.0
 10
131.7269526049
 20
79.6844591083
 30
0.0
 10
132.6240039298
 20
79.5528972194
 30
0.0
 10
133.5873512749
 20
79.6238269515
 30
0.0
 10
134.5955015187
 20
79.8917579395
 30
0.0
 10
135.6288184232
 20
80.348356426
 30
0.0
 10
137.0552447225
 20
81.2214153322
 30
0.0
 10
138.754447628
 20
82.7264310603
 30
0.0
 10
140.5007040882
 20
84.9621139472
 30
0.0
 10
141.8763639878
 20
87.5044838326
 30
0.0
 10
142.7687220069
 20
90.1432779566
 30
0.0
 10
143.0078850553
 20
91.9405382416
 30
0.0
 10
143.0078850553
 20
92.7953052333
 30
0.0
  0
SPLINE
  5
330
100
AcDbEntity
  8
0
100
AcDbSpline
 62
7
  6
BYLAYER
 70
0
 71
3
 72
11
 73
7
 74
0
 42
0.0000001
 43
0.0000001
 44
0.0000000001
 40
0.0
 40
0.0
 40
0.0
 40
0.0
 40
0.217784692
 40
0.4509137851
 40
0.7102981701
 40
1.0
 40
1.0
 40
1.0
 40
1.0
 10
147.679610149
 20
141.7649609638
 30
0.0
 10
147.6796101417
 20
141.6126063085
 30
0.0
 10
147.6233050079
 20
141.2950511085
 30
0.0
 10
147.3825609188
 20
140.8526026471
 30
0.0
 10
147.0019918702
 20
140.4526480555
 30
0.0
 10
146.6835626992
 20
140.2333301937
 30
0.0
 10
146.5080490495
 20
140.1319979457
 30
0.0
  0
SPLINE
  5
331
100
AcDbEntity
  8
0
100
AcDbSpline
 62
7
  6
BYLAYER
 70
0
 71
3
 72
9
 73
5
 74
0
 42
0.0000001
 43
0.0000001
 44
0.0000000001
 40
0.0
 40
0.0
 40
0.0
 40
0.0
 40
0.4740129076
 40
1.0
 40
1.0
 40
1.0
 40
1.0
 10
147.6795673657
 20
132.1133191985
 30
0.0
 10
147.6797262649
 20
131.6757088493
 30
0.0
 10
147.4328528884
 20
130.7488736746
 30
0.0
 10
146.8590840547
 20
129.9997201047
 30
0.0
 10
146.5080490495
 20
129.6641979582
 30
0.0
  0
SPLINE
  5
332
100
AcDbEntity
  8
0
100
AcDbSpline
 62
7
  6
BYLAYER
 70
0
 71
3
 72
9
 73
5
 74
0
 42
0.0000001
 43
0.0000001
 44
0.0000000001
 40
0.0
 40
0.0
 40
0.0
 40
0.0
 40
0.2415034954
 40
1.0
 40
1.0
 40
1.0
 40
1.0
 10
141.4497873167
 20
95.1674014978
 30
0.0
 10
141.4700210665
 20
95.0649585619
 30
0.0
 10
141.5439812253
 20
94.6388521961
 30
0.0
 10
141.5802392102
 20
94.2065092615
 30
0.0
 10
141.5898025289
 20
93.878687663
 30
0.0
  0
SPLINE
  5
333
100
AcDbEntity
  8
0
100
AcDbSpline
 62
7
  6
BYLAYER
 70
0
 71
3
 72
12
 73
8
 74
0
 42
0.0000001
 43
0.0000001
 44
0.0000000001
 40
0.0
 40
0.0
 40
0.0
 40
0.0
 40
0.1039996964
 40
0.2130350298
 40
0.5762917571
 40
0.7812109931
 40
1.0
 40
1.0
 40
1.0
 40
1.0
 10
150.2500094362
 20
119.3785625893
 30
0.0
 10
150.2499816572
 20
119.2000524662
 30
0.0
 10
150.221040029
 20
118.8338956825
 30
0.0
 10
150.0033261331
 20
117.8663183734
 30
0.0
 10
149.4479947483
 20
116.8154045061
 30
0.0
 10
148.5960248283
 20
115.7665746427
 30
0.0
 10
148.0716840629
 20
115.2591140181
 30
0.0
 10
147.7882217631
 20
115.0127819924
 30
0.0
  0
SPLINE
  5
334
100
AcDbEntity
  8
0
100
AcDbSpline
 62
7
  6
BYLAYER
 70
0
 71
3
 72
11
 73
7
 74
0
 42
0.0000001
 43
0.0000001
 44
0.0000000001
 40
0.0
 40
0.0
 40
0.0
 40
0.0
 40
0.1744991647
 40
0.3965511074
 40
0.6725062053
 40
1.0
 40
1.0
 40
1.0
 40
1.0
 10
98.6089252902
 20
162.03718701
 30
0.0
 10
98.5138278753
 20
161.9822835432
 30
0.0
 10
98.3338820988
 20
161.7965547391
 30
0.0
 10
98.1553039808
 20
161.4084996576
 30
0.0
 10
98.0432975821
 20
160.8981623777
 30
0.0
 10
98.0218568669
 20
160.5176659761
 30
0.0
 10
98.0218568669
 20
160.3115812887
 30
0.0
  0
SPLINE
  5
335
100
AcDbEntity
  8
0
100
AcDbSpline
 62
7
  6
BYLAYER
 70
0
 71
3
 72
12
 73
8
 74
0
 42
0.0000001
 43
0.0000001
 44
0.0000000001
 40
0.0
 40
0.0
 40
0.0
 40
0.0
 40
0.1098710655
 40
0.2335474026
 40
0.5000254552
 40
0.765461473
 40
1.0
 40
1.0
 40
1.0
 40
1.0
 10
101.3241138516
 20
78.7311399931
 30
0.0
 10
100.9754154826
 20
78.602666874
 30
0.0
 10
100.2296962015
 20
78.340846773
 30
0.0
 10
98.5977659579
 20
77.8919729283
 30
0.0
 10
96.3822331035
 20
77.6046047529
 30
0.0
 10
93.7785187786
 20
77.8313073469
 30
0.0
 10
92.1520273645
 20
78.3437532712
 30
0.0
 10
91.424618915
 20
78.6602257853
 30
0.0
  0
SPLINE
  5
336
100
AcDbEntity
  8
0
100
AcDbSpline
 62
7
  6
BYLAYER
 70
0
 71
3
 72
11
 73
7
 74
0
 42
0.0000001
 43
0.0000001
 44
0.0000000001
 40
0.0
 40
0.0
 40
0.0
 40
0.0
 40
0.2474488243
 40
0.5016501073
 40
0.7552612394
 40
1.0
 40
1.0
 40
1.0
 40
1.0
 10
90.4259902856
 20
79.7136182788
 30
0.0
 10
91.2847633853
 20
79.1697137668
 30
0.0
 10
93.2123163253
 20
78.340215858
 30
0.0
 10
96.337203069
 20
77.992603279
 30
0.0
 10
99.4224255781
 20
78.5229664179
 30
0.0
 10
101.2971087986
 20
79.4177847455
 30
0.0
 10
102.1356636682
 20
79.9724369603
 30
0.0
  0
SPLINE
  5
337
100
AcDbEntity
  8
0
100
AcDbSpline
 62
7
  6
BYLAYER
 70
0
 71
3
 72
11
 73
7
 74
0
 42
0.0000001
 43
0.0000001
 44
0.0000000001
 40
0.0
 40
0.0
 40
0.0
 40
0.0
 40
0.291233325
 40
0.5544612356
 40
0.789260086
 40
1.0
 40
1.0
 40
1.0
 40
1.0
 10
21.6220596105
 20
128.1786703409
 30
0.0
 10
21.2825839326
 20
128.5066603336
 30
0.0
 10
20.6706336637
 20
129.1688862745
 30
0.0
 10
19.948146631
 20
130.2318410059
 30
0.0
 10
19.4907082244
 20
131.2946922539
 30
0.0
 10
19.3757637127
 20
132.0188335486
 30
0.0
 10
19.3758178637
 20
132.3604068764
 30
0.0
  0
SPLINE
  5
338
100
AcDbEntity
  8
0
100
AcDbSpline
 62
7
  6
BYLAYER
 70
0
 71
3
 72
10
 73
6
 74
0
 42
0.0000001
 43
0.0000001
 44
0.0000000001
 40
0.0
 40
0.0
 40
0.0
 40
0.0
 40
0.2867841256
 40
0.5485707874
 40
1.0
 40
1.0
 40
1.0
 40
1.0
 10
23.1178194659
 20
143.9273475219
 30
0.0
 10
22.9249606404
 20
144.0052263942
 30
0.0
 10
22.5624167605
 20
144.1722324865
 30
0.0
 10
21.9441048924
 20
144.550947476
 30
0.0
 10
21.5566565418
 20
144.9146239229
 30
0.0
 10
21.374439685
 20
145.1866284646
 30
0.0
  0
SPLINE
  5
339
100
AcDbEntity
  8
0
100
AcDbSpline
 62
7
  6
BYLAYER
 70
0
 71
3
 72
12
 73
8
 74
0
 42
0.0000001
 43
0.0000001
 44
0.0000000001
 40
0.0
 40
0.0
 40
0.0
 40
0.0
 40
0.2314301021
 40
0.3592672112
 40
0.4917129609
 40
0.7564338933
 40
1.0
 40
1.0
 40
1.0
 40
1.0
 10
21.3743895079
 20
145.1866919411
 30
0.0
 10
21.3685393476
 20
145.2971113094
 30
0.0
 10
21.394204388
 20
145.4720376973
 30
0.0
 10
21.489258013
 20
145.6877648325
 30
0.0
 10
21.6287903301
 20
145.8976760548
 30
0.0
 10
21.8621658548
 20
146.1049608192
 30
0.0
 10
22.0886611225
 20
146.2039630834
 30
0.0
 10
22.2013312173
 20
146.2330842935
 30
0.0
  0
SPLINE
  5
33A
100
AcDbEntity
  8
0
100
AcDbSpline
 62
7
  6
BYLAYER
 70
0
 71
3
 72
11
 73
7
 74
0
 42
0.0000001
 43
0.0000001
 44
0.0000000001
 40
0.0
 40
0.0
 40
0.0
 40
0.0
 40
0.2427856198
 40
0.5111128598
 40
0.7734838338
 40
1.0
 40
1.0
 40
1.0
 40
1.0
 10
92.2537687383
 20
105.6332939345
 30
0.0
 10
92.1526775894
 20
105.574422167
 30
0.0
 10
91.9574828168
 20
105.4202481655
 30
0.0
 10
91.7110209545
 20
105.1383043907
 30
0.0
 10
91.5225460229
 20
104.8239552116
 30
0.0
 10
91.4428852916
 20
104.5988683549
 30
0.0
 10
91.4246190228
 20
104.4912628024
 30
0.0
  0
SPLINE
  5
33B
100
AcDbEntity
  8
0
100
AcDbSpline
 62
7
  6
BYLAYER
 70
0
 71
3
 72
11
 73
7
 74
0
 42
0.0000001
 43
0.0000001
 44
0.0000000001
 40
0.0
 40
0.0
 40
0.0
 40
0.0
 40
0.2474359484
 40
0.5105377856
 40
0.7678336376
 40
1.0
 40
1.0
 40
1.0
 40
1.0
 10
23.1178193512
 20
143.927319816
 30
0.0
 10
23.1006997596
 20
144.0481353733
 30
0.0
 10
23.1089284914
 20
144.3042855844
 30
0.0
 10
23.2220907147
 20
144.6696928064
 30
0.0
 10
23.4188236073
 20
144.989022944
 30
0.0
 10
23.6032589903
 20
145.1532507748
 30
0.0
 10
23.7024478138
 20
145.210435236
 30
0.0
  0
SPLINE
  5
33C
100
AcDbEntity
  8
0
100
AcDbSpline
 62
7
  6
BYLAYER
 70
0
 71
3
 72
11
 73
7
 74
0
 42
0.0000001
 43
0.0000001
 44
0.0000000001
 40
0.0
 40
0.0
 40
0.0
 40
0.0
 40
0.2336340985
 40
0.4784405641
 40
0.7340928504
 40
1.0
 40
1.0
 40
1.0
 40
1.0
 10
23.7024306077
 20
145.2104416872
 30
0.0
 10
29.4950535813
 20
143.0385740554
 30
0.0
 10
41.1562729562
 20
138.0400508993
 30
0.0
 10
58.3512565198
 20
128.9353299302
 30
0.0
 10
75.538851895
 20
118.1154006072
 30
0.0
 10
86.7009230598
 20
109.9630362438
 30
0.0
 10
92.2534473925
 20
105.6335444987
 30
0.0
  0
SPLINE
  5
33D
100
AcDbEntity
  8
0
100
AcDbSpline
 62
7
  6
BYLAYER
 70
0
 71
3
 72
9
 73
5
 74
0
 42
0.0000001
 43
0.0000001
 44
0.0000000001
 40
0.0
 40
0.0
 40
0.0
 40
0.0
 40
0.515335554
 40
1.0
 40
1.0
 40
1.0
 40
1.0
 10
94.3239881429
 20
103.0699993763
 30
0.0
 10
93.7902145478
 20
103.2285346073
 30
0.0
 10
92.7766793513
 20
103.6179746939
 30
0.0
 10
91.8433848975
 20
104.1768172412
 30
0.0
 10
91.4246188608
 20
104.4912609875
 30
0.0
  0
SPLINE
  5
33E
100
AcDbEntity
  8
0
100
AcDbSpline
 62
7
  6
BYLAYER
 70
0
 71
3
 72
11
 73
7
 74
0
 42
0.0000001
 43
0.0000001
 44
0.0000000001
 40
0.0
 40
0.0
 40
0.0
 40
0.0
 40
0.2336341574
 40
0.4784406551
 40
0.734092911
 40
1.0
 40
1.0
 40
1.0
 40
1.0
 10
23.1178195811
 20
143.9273197251
 30
0.0
 10
28.8898082633
 20
141.7631745221
 30
0.0
 10
40.5094855513
 20
136.782426324
 30
0.0
 10
57.6432103384
 20
127.7100985482
 30
0.0
 10
74.7695750181
 20
116.9286845109
 30
0.0
 10
85.8918749104
 20
108.8053378516
 30
0.0
 10
91.4246188065
 20
104.4912629622
 30
0.0
  0
SPLINE
  5
33F
100
AcDbEntity
  8
0
100
AcDbSpline
 62
7
  6
BYLAYER
 70
0
 71
3
 72
15
 73
11
 74
0
 42
0.0000001
 43
0.0000001
 44
0.0000000001
 40
0.0
 40
0.0
 40
0.0
 40
0.0
 40
0.1206718437
 40
0.2444497844
 40
0.3714693906
 40
0.5003658897
 40
0.6289544933
 40
0.7552610697
 40
0.8785336738
 40
1.0
 40
1.0
 40
1.0
 40
1.0
 10
91.4246189151
 20
93.0379248339
 30
0.0
 10
91.7390259005
 20
92.7392142886
 30
0.0
 10
92.4492775264
 20
92.2077973002
 30
0.0
 10
93.6664279608
 20
91.6411737912
 30
0.0
 10
94.9914048291
 20
91.2894944198
 30
0.0
 10
96.3713074535
 20
91.1472110227
 30
0.0
 10
97.754561356
 20
91.2178597171
 30
0.0
 10
99.0884992136
 20
91.5152633065
 30
0.0
 10
100.3157486628
 20
92.0629264201
 30
0.0
 10
101.0179026556
 20
92.6112210169
 30
0.0
 10
101.3241138516
 20
92.922346662
 30
0.0
  0
SPLINE
  5
340
100
AcDbEntity
  8
0
100
AcDbSpline
 62
7
  6
BYLAYER
 70
0
 71
3
 72
14
 73
10
 74
0
 42
0.0000001
 43
0.0000001
 44
0.0000000001
 40
0.0
 40
0.0
 40
0.0
 40
0.0
 40
0.1114868533
 40
0.2335732123
 40
0.363441385
 40
0.4976949301
 40
0.7634919896
 40
0.8872491521
 40
1.0
 40
1.0
 40
1.0
 40
1.0
 10
102.6271413779
 20
88.9391757135
 30
0.0
 10
102.16659398
 20
88.7903721909
 30
0.0
 10
101.1823481389
 20
88.5379034151
 30
0.0
 10
99.6246487634
 20
88.2785636592
 30
0.0
 10
97.9537415899
 20
88.1241863312
 30
0.0
 10
95.6533524826
 20
88.0552947331
 30
0.0
 10
93.3765367853
 20
88.185727881
 30
0.0
 10
91.2189289909
 20
88.5085540268
 30
0.0
 10
90.2147080636
 20
88.7275831647
 30
0.0
 10
89.7410555994
 20
88.8510393797
 30
0.0
  0
SPLINE
  5
341
100
AcDbEntity
  8
0
100
AcDbSpline
 62
7
  6
BYLAYER
 70
0
 71
3
 72
11
 73
7
 74
0
 42
0.0000001
 43
0.0000001
 44
0.0000000001
 40
0.0
 40
0.0
 40
0.0
 40
0.0
 40
0.23721727
 40
0.499998382
 40
0.7627803746
 40
1.0
 40
1.0
 40
1.0
 40
1.0
 10
23.8249056393
 20
157.1554309007
 30
0.0
 10
23.7245258445
 20
157.0974769451
 30
0.0
 10
23.5345494977
 20
156.9375943825
 30
0.0
 10
23.312816726
 20
156.6345908689
 30
0.0
 10
23.1612756992
 20
156.2910610491
 30
0.0
 10
23.1178018021
 20
156.0465939106
 30
0.0
 10
23.1178018021
 20
155.9306843297
 30
0.0
  0
SPLINE
  5
342
100
AcDbEntity
  8
0
100
AcDbSpline
 62
7
  6
BYLAYER
 70
0
 71
3
 72
11
 73
7
 74
0
 42
0.0000001
 43
0.0000001
 44
0.0000000001
 40
0.0
 40
0.0
 40
0.0
 40
0.0
 40
0.2897023113
 40
0.5490868679
 40
0.7822157677
 40
1.0
 40
1.0
 40
1.0
 40
1.0
 10
23.1178018038
 20
155.9306843287
 30
0.0
 10
22.9422848708
 20
156.0320167847
 30
0.0
 10
22.6238496559
 20
156.2513354832
 30
0.0
 10
22.243272875
 20
156.651293039
 30
0.0
 10
22.0025236002
 20
157.0937457872
 30
0.0
 10
21.9462171436
 20
157.4113046488
 30
0.0
 10
21.9462171509
 20
157.5636609452
 30
0.0
  0
SPLINE
  5
343
100
AcDbEntity
  8
0
100
AcDbSpline
 62
7
  6
BYLAYER
 70
0
 71
3
 72
9
 73
5
 74
0
 42
0.0000001
 43
0.0000001
 44
0.0000000001
 40
0.0
 40
0.0
 40
0.0
 40
0.0
 40
0.2482189265
 40
1.0
 40
1.0
 40
1.0
 40
1.0
 10
94.5248640516
 20
154.4612954587
 30
0.0
 10
94.5248767785
 20
154.3578356119
 30
0.0
 10
94.510042377
 20
153.9411128047
 30
0.0
 10
94.4345343477
 20
153.5269132538
 30
0.0
 10
94.3475444362
 20
153.2258810986
 30
0.0
  0
SPLINE
  5
344
100
AcDbEntity
  8
0
100
AcDbSpline
 62
7
  6
BYLAYER
 70
0
 71
3
 72
9
 73
5
 74
0
 42
0.0000001
 43
0.0000001
 44
0.0000000001
 40
0.0
 40
0.0
 40
0.0
 40
0.0
 40
0.2739443202
 40
1.0
 40
1.0
 40
1.0
 40
1.0
 10
143.0078850553
 20
92.7953052333
 30
0.0
 10
143.0078850553
 20
93.0807870446
 30
0.0
 10
142.9610408729
 20
94.1202065228
 30
0.0
 10
142.7072105414
 20
95.1661021194
 30
0.0
 10
142.358821426
 20
95.8377572451
 30
0.0
  0
SPLINE
  5
345
100
AcDbEntity
  8
0
100
AcDbSpline
 62
7
  6
BYLAYER
 70
0
 71
3
 72
9
 73
5
 74
0
 42
0.0000001
 43
0.0000001
 44
0.0000000001
 40
0.0
 40
0.0
 40
0.0
 40
0.0
 40
0.4714018517
 40
1.0
 40
1.0
 40
1.0
 40
1.0
 10
68.0081910026
 20
174.0531275417
 30
0.0
 10
67.9437716485
 20
174.0663873432
 30
0.0
 10
67.7997982041
 20
174.0623906994
 30
0.0
 10
67.6686786049
 20
174.0077199195
 30
0.0
 10
67.6048092393
 20
173.9708451442
 30
0.0
  0
SPLINE
  5
346
100
AcDbEntity
  8
0
100
AcDbSpline
 62
7
  6
BYLAYER
 70
0
 71
3
 72
10
 73
6
 74
0
 42
0.0000001
 43
0.0000001
 44
0.0000000001
 40
0.0
 40
0.0
 40
0.0
 40
0.0
 40
0.5209947187
 40
0.7634953356
 40
1.0
 40
1.0
 40
1.0
 40
1.0
 10
128.8346891039
 20
84.0027801842
 30
0.0
 10
128.9731645588
 20
83.6144755184
 30
0.0
 10
129.2568258039
 20
83.0648934524
 30
0.0
 10
129.8004576827
 20
82.484718798
 30
0.0
 10
130.1106560486
 20
82.2617072916
 30
0.0
 10
130.2727286575
 20
82.1681384157
 30
0.0
  0
SPLINE
  5
347
100
AcDbEntity
  8
0
100
AcDbSpline
 62
7
  6
BYLAYER
 70
0
 71
3
 72
12
 73
8
 74
0
 42
0.0000001
 43
0.0000001
 44
0.0000000001
 40
0.0
 40
0.0
 40
0.0
 40
0.0
 40
0.2895723672
 40
0.5486435579
 40
0.7816386318
 40
0.8918404118
 40
1.0
 40
1.0
 40
1.0
 40
1.0
 10
118.9663545901
 20
78.9150040017
 30
0.0
 10
118.9663545901
 20
79.4218480734
 30
0.0
 10
118.8895275233
 20
80.3855802703
 30
0.0
 10
118.4999168873
 20
81.7089518511
 30
0.0
 10
117.9398652037
 20
82.6219777827
 30
0.0
 10
117.3743937258
 20
83.1781812913
 30
0.0
 10
117.0591563463
 20
83.3981642518
 30
0.0
 10
116.8952144161
 20
83.4928361036
 30
0.0
  0
SPLINE
  5
348
100
AcDbEntity
  8
0
100
AcDbSpline
 62
7
  6
BYLAYER
 70
0
 71
3
 72
11
 73
7
 74
0
 42
0.0000001
 43
0.0000001
 44
0.0000000001
 40
0.0
 40
0.0
 40
0.0
 40
0.0
 40
0.2372193634
 40
0.5000010919
 40
0.762782226
 40
1.0
 40
1.0
 40
1.0
 40
1.0
 10
146.5080490495
 20
140.1319979457
 30
0.0
 10
146.5080490495
 20
140.2479074645
 30
0.0
 10
146.4645747946
 20
140.4923744936
 30
0.0
 10
146.3130324026
 20
140.8359037307
 30
0.0
 10
146.0912976416
 20
141.1389062769
 30
0.0
 10
145.9013198074
 20
141.2987877295
 30
0.0
 10
145.8009393244
 20
141.3567411173
 30
0.0
  0
SPLINE
  5
349
100
AcDbEntity
  8
0
100
AcDbSpline
 62
7
  6
BYLAYER
 70
0
 71
3
 72
10
 73
6
 74
0
 42
0.0000001
 43
0.0000001
 44
0.0000000001
 40
0.0
 40
0.0
 40
0.0
 40
0.0
 40
0.5243091566
 40
0.7656716893
 40
1.0
 40
1.0
 40
1.0
 40
1.0
 10
104.7169814359
 20
70.3548294683
 30
0.0
 10
104.8484794709
 20
69.9168358729
 30
0.0
 10
105.1338277279
 20
69.2934185357
 30
0.0
 10
105.7164583504
 20
68.6376833834
 30
0.0
 10
106.0541951858
 20
68.39002578
 30
0.0
 10
106.2311981922
 20
68.2878371841
 30
0.0
  0
SPLINE
  5
34A
100
AcDbEntity
  8
0
100
AcDbSpline
 62
7
  6
BYLAYER
 70
0
 71
3
 72
18
 73
14
 74
0
 42
0.0000001
 43
0.0000001
 44
0.0000000001
 40
0.0
 40
0.0
 40
0.0
 40
0.0
 40
0.1286567823
 40
0.2702038947
 40
0.4173190723
 40
0.5616273857
 40
0.6952633069
 40
0.7562701408
 40
0.8127628395
 40
0.8647124815
 40
0.9125341601
 40
0.9571523644
 40
1.0
 40
1.0
 40
1.0
 40
1.0
 10
105.8849336016
 20
71.3624871551
 30
0.0
 10
105.8849336016
 20
72.0890363931
 30
0.0
 10
106.0881990872
 20
73.6166860677
 30
0.0
 10
106.8467513535
 20
75.8596146204
 30
0.0
 10
108.0159754705
 20
78.0206493641
 30
0.0
 10
109.5003033611
 20
79.9210020583
 30
0.0
 10
110.9446860068
 20
81.2002199978
 30
0.0
 10
112.1571320095
 20
81.9423767904
 30
0.0
 10
113.0354345215
 20
82.3305492184
 30
0.0
 10
113.8923929196
 20
82.5581718032
 30
0.0
 10
114.7112116581
 20
82.6185040644
 30
0.0
 10
115.4737470188
 20
82.5067774405
 30
0.0
 10
115.9356576606
 20
82.3147430757
 30
0.0
 10
116.1452127257
 20
82.193765654
 30
0.0
  0
SPLINE
  5
34B
100
AcDbEntity
  8
0
100
AcDbSpline
 62
7
  6
BYLAYER
 70
0
 71
3
 72
20
 73
16
 74
0
 42
0.0000001
 43
0.0000001
 44
0.0000000001
 40
0.0
 40
0.0
 40
0.0
 40
0.0
 40
0.1173656148
 40
0.2361183863
 40
0.3563960207
 40
0.4784382169
 40
0.6026626077
 40
0.6658191858
 40
0.7298727872
 40
0.7950835681
 40
0.8618969511
 40
0.8961459915
 40
0.9311266895
 40
0.966742144
 40
1.0
 40
1.0
 40
1.0
 40
1.0
 10
109.8357685037
 20
124.0727341043
 30
0.0
 10
109.9990971488
 20
123.9784384004
 30
0.0
 10
110.3295492158
 20
123.791939806
 30
0.0
 10
110.8339197979
 20
123.5205882299
 30
0.0
 10
111.3508426387
 20
123.2569701342
 30
0.0
 10
111.8821875426
 20
123.002666533
 30
0.0
 10
112.3371716678
 20
122.8018429403
 30
0.0
 10
112.7117277072
 20
122.650277462
 30
0.0
 10
113.0013155934
 20
122.5417541311
 30
0.0
 10
113.2999849155
 20
122.4412674285
 30
0.0
 10
113.5572819295
 20
122.3682737644
 30
0.0
 10
113.770829587
 20
122.3216729011
 30
0.0
 10
113.9378827305
 20
122.2959831384
 30
0.0
 10
114.103613705
 20
122.2877619816
 30
0.0
 10
114.2178318804
 20
122.3058460697
 30
0.0
 10
114.2641140726
 20
122.3325669463
 30
0.0
  0
SPLINE
  5
34C
100
AcDbEntity
  8
0
100
AcDbSpline
 62
7
  6
BYLAYER
 70
0
 71
3
 72
11
 73
7
 74
0
 42
0.0000001
 43
0.0000001
 44
0.0000000001
 40
0.0
 40
0.0
 40
0.0
 40
0.0
 40
0.2372398078
 40
0.4999994051
 40
0.7627593222
 40
1.0
 40
1.0
 40
1.0
 40
1.0
 10
100.6170041264
 20
115.2699396849
 30
0.0
 10
100.3158368759
 20
115.0960617297
 30
0.0
 10
99.615476312
 20
114.8423326819
 30
0.0
 10
98.4956873756
 20
114.7207682415
 30
0.0
 10
97.3758965871
 20
114.8423274759
 30
0.0
 10
96.6755330481
 20
115.0960530658
 30
0.0
 10
96.3743634394
 20
115.2699294869
 30
0.0
  0
SPLINE
  5
34D
100
AcDbEntity
  8
0
100
AcDbSpline
 62
7
  6
BYLAYER
 70
0
 71
3
 72
15
 73
11
 74
0
 42
0.0000001
 43
0.0000001
 44
0.0000000001
 40
0.0
 40
0.0
 40
0.0
 40
0.0
 40
0.1482334979
 40
0.2824865269
 40
0.4039798261
 40
0.5166864437
 40
0.6265433025
 40
0.7402722663
 40
0.8635570703
 40
1.0
 40
1.0
 40
1.0
 40
1.0
 10
23.8249056393
 20
157.1554309007
 30
0.0
 10
23.7052026156
 20
157.2245399101
 30
0.0
 10
23.4860963379
 20
157.3732630311
 30
0.0
 10
23.2164289157
 20
157.6398808023
 30
0.0
 10
23.030972904
 20
157.9334066089
 30
0.0
 10
22.9388026189
 20
158.2456397881
 30
0.0
 10
22.9467505284
 20
158.5643140212
 30
0.0
 10
23.0540544409
 20
158.8743067123
 30
0.0
 10
23.2532060674
 20
159.164053232
 30
0.0
 10
23.4320496873
 20
159.3300585115
 30
0.0
 10
23.5322507416
 20
159.4084566386
 30
0.0
  0
SPLINE
  5
34E
100
AcDbEntity
  8
0
100
AcDbSpline
 62
7
  6
BYLAYER
 70
0
 71
3
 72
9
 73
5
 74
0
 42
0.0000001
 43
0.0000001
 44
0.0000000001
 40
0.0
 40
0.0
 40
0.0
 40
0.0
 40
0.2428832163
 40
1.0
 40
1.0
 40
1.0
 40
1.0
 10
23.5322507416
 20
159.4084566386
 30
0.0
 10
23.5547346852
 20
159.4260482606
 30
0.0
 10
23.6486870764
 20
159.4967027442
 30
0.0
 10
23.7478200699
 20
159.5603907154
 30
0.0
 10
23.8248879755
 20
159.6048856258
 30
0.0
  0
SPLINE
  5
34F
100
AcDbEntity
  8
0
100
AcDbSpline
 62
7
  6
BYLAYER
 70
0
 71
3
 72
11
 73
7
 74
0
 42
0.0000001
 43
0.0000001
 44
0.0000000001
 40
0.0
 40
0.0
 40
0.0
 40
0.0
 40
0.2372398078
 40
0.4999994051
 40
0.7627593222
 40
1.0
 40
1.0
 40
1.0
 40
1.0
 10
69.0088231734
 20
185.6916870582
 30
0.0
 10
69.309990424
 20
185.8655650135
 30
0.0
 10
70.0103509879
 20
186.1192940613
 30
0.0
 10
71.1301399242
 20
186.2408585017
 30
0.0
 10
72.2499307127
 20
186.1192992673
 30
0.0
 10
72.9502942518
 20
185.8655736774
 30
0.0
 10
73.2514638605
 20
185.6916972563
 30
0.0
  0
SPLINE
  5
350
100
AcDbEntity
  8
0
100
AcDbSpline
 62
7
  6
BYLAYER
 70
0
 71
3
 72
9
 73
5
 74
0
 42
0.0000001
 43
0.0000001
 44
0.0000000001
 40
0.0
 40
0.0
 40
0.0
 40
0.0
 40
0.25716957
 40
1.0
 40
1.0
 40
1.0
 40
1.0
 10
145.8009216606
 20
143.8061958425
 30
0.0
 10
145.8270990785
 20
143.7910826451
 30
0.0
 10
145.9279241519
 20
143.7306710791
 30
0.0
 10
146.0247975533
 20
143.6635690022
 30
0.0
 10
146.0935617388
 20
143.6097682849
 30
0.0
  0
SPLINE
  5
351
100
AcDbEntity
  8
0
100
AcDbSpline
 62
7
  6
BYLAYER
 70
0
 71
3
 72
15
 73
11
 74
0
 42
0.0000001
 43
0.0000001
 44
0.0000000001
 40
0.0
 40
0.0
 40
0.0
 40
0.0
 40
0.1364435823
 40
0.2597289758
 40
0.3734583321
 40
0.4833152749
 40
0.5960216654
 40
0.7175145275
 40
0.8517670557
 40
1.0
 40
1.0
 40
1.0
 40
1.0
 10
146.0935617388
 20
143.6097682849
 30
0.0
 10
146.1937638851
 20
143.5313706815
 30
0.0
 10
146.3726097433
 20
143.3653663518
 30
0.0
 10
146.5717654631
 20
143.0756211133
 30
0.0
 10
146.6790740107
 20
142.7656292087
 30
0.0
 10
146.6870266808
 20
142.4469550446
 30
0.0
 10
146.5948611266
 20
142.1347211824
 30
0.0
 10
146.4094092832
 20
141.8411941717
 30
0.0
 10
146.1397455038
 20
141.5745749407
 30
0.0
 10
145.9206413357
 20
141.4258506932
 30
0.0
 10
145.8009393244
 20
141.3567411173
 30
0.0
  0
SPLINE
  5
352
100
AcDbEntity
  8
0
100
AcDbSpline
 62
7
  6
BYLAYER
 70
0
 71
3
 72
9
 73
5
 74
0
 42
0.0000001
 43
0.0000001
 44
0.0000000001
 40
0.0
 40
0.0
 40
0.0
 40
0.0
 40
0.4611916917
 40
1.0
 40
1.0
 40
1.0
 40
1.0
 10
47.8976183758
 20
162.827116598
 30
0.0
 10
47.9527963014
 20
162.8589447424
 30
0.0
 10
48.0949608495
 20
162.8911193763
 30
0.0
 10
48.232208665
 20
162.854473495
 30
0.0
 10
48.3008744834
 20
162.8257797435
 30
0.0
  0
SPLINE
  5
353
100
AcDbEntity
  8
0
100
AcDbSpline
 62
7
  6
BYLAYER
 70
0
 71
3
 72
11
 73
7
 74
0
 42
0.0000001
 43
0.0000001
 44
0.0000000001
 40
0.0
 40
0.0
 40
0.0
 40
0.0
 40
0.2270125456
 40
0.464390019
 40
0.7203967987
 40
1.0
 40
1.0
 40
1.0
 40
1.0
 10
100.52484244
 20
160.8300143127
 30
0.0
 10
100.5248276551
 20
161.4009968449
 30
0.0
 10
100.3629291324
 20
162.5744685356
 30
0.0
 10
99.6534457595
 20
164.2606079194
 30
0.0
 10
98.5068075994
 20
165.8478961001
 30
0.0
 10
97.5193777838
 20
166.7758035286
 30
0.0
 10
96.9718648259
 20
167.2171677056
 30
0.0
  0
SPLINE
  5
354
100
AcDbEntity
  8
0
100
AcDbSpline
 62
7
  6
BYLAYER
 70
0
 71
3
 72
16
 73
12
 74
0
 42
0.0000001
 43
0.0000001
 44
0.0000000001
 40
0.0
 40
0.0
 40
0.0
 40
0.0
 40
0.0456654565
 40
0.0925427142
 40
0.1917966573
 40
0.3011952805
 40
0.4220581579
 40
0.5541521308
 40
0.6960821071
 40
0.8456165394
 40
1.0
 40
1.0
 40
1.0
 40
1.0
 10
55.5854836994
 20
147.5581754148
 30
0.0
 10
55.6378391461
 20
147.1162390054
 30
0.0
 10
55.8128451802
 20
146.2274328647
 30
0.0
 10
56.4377751888
 20
144.4600397607
 30
0.0
 10
57.7536303633
 20
142.3109308221
 30
0.0
 10
60.0219553205
 20
140.0080232741
 30
0.0
 10
62.9329471347
 20
137.9797259689
 30
0.0
 10
66.3990663751
 20
136.279333167
 30
0.0
 10
70.3186518377
 20
134.9528092069
 30
0.0
 10
74.5748125429
 20
134.0384492516
 30
0.0
 10
77.526178585
 20
133.7246065501
 30
0.0
 10
79.0283748291
 20
133.6409441297
 30
0.0
  0
SPLINE
  5
355
100
AcDbEntity
  8
0
100
AcDbSpline
 62
7
  6
BYLAYER
 70
0
 71
3
 72
11
 73
7
 74
0
 42
0.0000001
 43
0.0000001
 44
0.0000000001
 40
0.0
 40
0.0
 40
0.0
 40
0.0
 40
0.2307791958
 40
0.4652049504
 40
0.7192629054
 40
1.0
 40
1.0
 40
1.0
 40
1.0
 10
21.0675855223
 20
134.6602280549
 30
0.0
 10
21.0675595111
 20
134.4111558909
 30
0.0
 10
21.1604118199
 20
133.9029185781
 30
0.0
 10
21.5917545123
 20
133.236146493
 30
0.0
 10
22.2669787856
 20
132.7285226564
 30
0.0
 10
22.8209786931
 20
132.5347148705
 30
0.0
 10
23.1178194659
 20
132.4739817206
 30
0.0
  0
SPLINE
  5
356
100
AcDbEntity
  8
0
100
AcDbSpline
 62
7
  6
BYLAYER
 70
0
 71
3
 72
14
 73
10
 74
0
 42
0.0000001
 43
0.0000001
 44
0.0000000001
 40
0.0
 40
0.0
 40
0.0
 40
0.0
 40
0.1080473166
 40
0.2181307128
 40
0.3321046006
 40
0.4515050756
 40
0.5774576142
 40
0.710717944
 40
1.0
 40
1.0
 40
1.0
 40
1.0
 10
107.5248693116
 20
160.8300143132
 30
0.0
 10
107.5248413465
 20
160.3378018511
 30
0.0
 10
107.4393714457
 20
159.3421040088
 30
0.0
 10
107.0578292316
 20
157.871434446
 30
0.0
 10
106.4281284612
 20
156.4323737627
 30
0.0
 10
105.5580061693
 20
155.0397569318
 30
0.0
 10
104.4575397023
 20
153.7057057088
 30
0.0
 10
102.6492914623
 20
151.9750896545
 30
0.0
 10
101.0510115297
 20
150.8746678472
 30
0.0
 10
99.9097336607
 20
150.2157546955
 30
0.0
  0
SPLINE
  5
357
100
AcDbEntity
  8
0
100
AcDbSpline
 62
7
  6
BYLAYER
 70
0
 71
3
 72
12
 73
8
 74
0
 42
0.0000001
 43
0.0000001
 44
0.0000000001
 40
0.0
 40
0.0
 40
0.0
 40
0.0
 40
0.2823498225
 40
0.5390232556
 40
0.7750699522
 40
0.8882968515
 40
1.0
 40
1.0
 40
1.0
 40
1.0
 10
61.0792868802
 20
151.5569293714
 30
0.0
 10
60.2297846975
 20
152.1812480378
 30
0.0
 10
58.6952200367
 20
153.5026734418
 30
0.0
 10
56.8990191978
 20
155.7984754049
 30
0.0
 10
55.9546603618
 20
157.8855264988
 30
0.0
 10
55.586088516
 20
159.5718022309
 30
0.0
 10
55.5248686058
 20
160.41293513
 30
0.0
 10
55.5248923022
 20
160.8300143128
 30
0.0
  0
SPLINE
  5
358
100
AcDbEntity
  8
0
100
AcDbSpline
 62
7
  6
BYLAYER
 70
0
 71
3
 72
9
 73
5
 74
0
 42
0.0000001
 43
0.0000001
 44
0.0000000001
 40
0.0
 40
0.0
 40
0.0
 40
0.0
 40
0.2540293309
 40
1.0
 40
1.0
 40
1.0
 40
1.0
 10
87.7764258022
 20
134.0119601666
 30
0.0
 10
88.1934859331
 20
134.0716056244
 30
0.0
 10
89.8316245812
 20
134.3308925315
 30
0.0
 10
91.4545571663
 20
134.6884976933
 30
0.0
 10
92.6479798217
 20
135.0146234065
 30
0.0
  0
SPLINE
  5
359
100
AcDbEntity
  8
0
100
AcDbSpline
 62
7
  6
BYLAYER
 70
0
 71
3
 72
10
 73
6
 74
0
 42
0.0000001
 43
0.0000001
 44
0.0000000001
 40
0.0
 40
0.0
 40
0.0
 40
0.0
 40
0.2710625023
 40
0.5280367634
 40
1.0
 40
1.0
 40
1.0
 40
1.0
 10
72.4032595594
 20
163.4837924513
 30
0.0
 10
74.8720711437
 20
164.8800085477
 30
0.0
 10
79.7998220899
 20
167.402431652
 30
0.0
 10
89.5260084602
 20
171.2750150989
 30
0.0
 10
97.0509742608
 20
173.0017607851
 30
0.0
 10
101.9704747336
 20
173.4334804145
 30
0.0
  0
SPLINE
  5
35A
100
AcDbEntity
  8
0
100
AcDbSpline
 62
7
  6
BYLAYER
 70
0
 71
3
 72
11
 73
7
 74
0
 42
0.0000001
 43
0.0000001
 44
0.0000000001
 40
0.0
 40
0.0
 40
0.0
 40
0.0
 40
0.2913940901
 40
0.5501891467
 40
0.7816297043
 40
1.0
 40
1.0
 40
1.0
 40
1.0
 10
101.2580850521
 20
170.5083057526
 30
0.0
 10
101.3058193606
 20
170.5358650039
 30
0.0
 10
101.4007765988
 20
170.5803747013
 30
0.0
 10
101.5468691398
 20
170.611877074
 30
0.0
 10
101.6828352222
 20
170.6007713903
 30
0.0
 10
101.7616527123
 20
170.5629680264
 30
0.0
 10
101.7949242393
 20
170.5384898
 30
0.0
  0
SPLINE
  5
35B
100
AcDbEntity
  8
0
100
AcDbSpline
 62
7
  6
BYLAYER
 70
0
 71
3
 72
15
 73
11
 74
0
 42
0.0000001
 43
0.0000001
 44
0.0000000001
 40
0.0
 40
0.0
 40
0.0
 40
0.0
 40
0.1132364625
 40
0.2347208605
 40
0.3623882744
 40
0.4936972699
 40
0.6258667859
 40
0.7560594056
 40
0.881559763
 40
1.0
 40
1.0
 40
1.0
 40
1.0
 10
99.7120472253
 20
150.1028353254
 30
0.0
 10
98.5500612512
 20
149.4461660035
 30
0.0
 10
96.0308681689
 20
148.2759104709
 30
0.0
 10
91.9473202536
 20
146.9905912276
 30
0.0
 10
87.5341499963
 20
146.1431466605
 30
0.0
 10
82.9312722621
 20
145.7608536656
 30
0.0
 10
78.2838849598
 20
145.855384663
 30
0.0
 10
73.7388324584
 20
146.4240780736
 30
0.0
 10
69.4405212562
 20
147.4484139541
 30
0.0
 10
66.7347526679
 20
148.4492105695
 30
0.0
 10
65.4633671761
 20
149.0258366933
 30
0.0
  0
SPLINE
  5
35C
100
AcDbEntity
  8
0
100
AcDbSpline
 62
7
  6
BYLAYER
 70
0
 71
3
 72
11
 73
7
 74
0
 42
0.0000001
 43
0.0000001
 44
0.0000000001
 40
0.0
 40
0.0
 40
0.0
 40
0.0
 40
0.2374065919
 40
0.5003300478
 40
0.7629281974
 40
1.0
 40
1.0
 40
1.0
 40
1.0
 10
65.4633671761
 20
149.0258366933
 30
0.0
 10
65.4633671761
 20
149.1422719928
 30
0.0
 10
65.5075076542
 20
149.387808655
 30
0.0
 10
65.660794579
 20
149.7321795967
 30
0.0
 10
65.8842149814
 20
150.0355719092
 30
0.0
 10
66.0750629783
 20
150.1954997384
 30
0.0
 10
66.1757568576
 20
150.2536350297
 30
0.0
  0
SPLINE
  5
35D
100
AcDbEntity
  8
0
100
AcDbSpline
 62
7
  6
BYLAYER
 70
0
 71
3
 72
15
 73
11
 74
0
 42
0.0000001
 43
0.0000001
 44
0.0000000001
 40
0.0
 40
0.0
 40
0.0
 40
0.0
 40
0.120935172
 40
0.2481033084
 40
0.3791288134
 40
0.5113449978
 40
0.64201873
 40
0.7685116517
 40
0.8884668722
 40
1.0
 40
1.0
 40
1.0
 40
1.0
 10
70.1196742228
 20
152.1612183102
 30
0.0
 10
71.1180726603
 20
151.7611401337
 30
0.0
 10
73.2225458978
 20
151.076248093
 30
0.0
 10
76.5330724244
 20
150.4038925426
 30
0.0
 10
79.9958920352
 20
150.0739265148
 30
0.0
 10
83.505192745
 20
150.096790946
 30
0.0
 10
86.9541316227
 20
150.4716086813
 30
0.0
 10
90.2381177817
 20
151.187215743
 30
0.0
 10
93.2568747527
 20
152.2216754102
 30
0.0
 10
95.1081421808
 20
153.141692285
 30
0.0
 10
95.9580353828
 20
153.6532160259
 30
0.0
  0
SPLINE
  5
35E
100
AcDbEntity
  8
0
100
AcDbSpline
 62
7
  6
BYLAYER
 70
0
 71
3
 72
18
 73
14
 74
0
 42
0.0000001
 43
0.0000001
 44
0.0000000001
 40
0.0
 40
0.0
 40
0.0
 40
0.0
 40
0.1472570032
 40
0.2806340104
 40
0.4017774416
 40
0.4590233623
 40
0.514844624
 40
0.5700243831
 40
0.6253938813
 40
0.6817703919
 40
0.7398920794
 40
0.863549339
 40
1.0
 40
1.0
 40
1.0
 40
1.0
 10
95.9580353828
 20
153.6532160259
 30
0.0
 10
96.7251743706
 20
154.1149326321
 30
0.0
 10
98.1270576862
 20
155.1041030424
 30
0.0
 10
99.8424337076
 20
156.8653082937
 30
0.0
 10
100.836289855
 20
158.5057077132
 30
0.0
 10
101.3081219716
 20
159.8539415638
 30
0.0
 10
101.5043172121
 20
160.8618212765
 30
0.0
 10
101.5463995701
 20
161.8764040789
 30
0.0
 10
101.4345086719
 20
162.8890367571
 30
0.0
 10
101.1692449449
 20
163.8910401963
 30
0.0
 10
100.604444857
 20
165.2289883671
 30
0.0
 10
99.5000137174
 20
166.8426177685
 30
0.0
 10
98.3384031966
 20
167.9319837189
 30
0.0
 10
97.6880832061
 20
168.447176529
 30
0.0
  0
SPLINE
  5
35F
100
AcDbEntity
  8
0
100
AcDbSpline
 62
7
  6
BYLAYER
 70
0
 71
3
 72
18
 73
14
 74
0
 42
0.0000001
 43
0.0000001
 44
0.0000000001
 40
0.0
 40
0.0
 40
0.0
 40
0.0
 40
0.1370350436
 40
0.2617562291
 40
0.3205355576
 40
0.3775793505
 40
0.4335655163
 40
0.4892403352
 40
0.5453707338
 40
0.6026927945
 40
0.723219442
 40
0.8549923901
 40
1.0
 40
1.0
 40
1.0
 40
1.0
 10
101.9237913701
 20
169.9906851362
 30
0.0
 10
102.687661511
 20
169.3681336382
 30
0.0
 10
104.0546812632
 20
168.0564229911
 30
0.0
 10
105.3626756395
 20
166.1315413919
 30
0.0
 10
106.0476507611
 20
164.5382217019
 30
0.0
 10
106.3805877019
 20
163.3443170303
 30
0.0
 10
106.5395788321
 20
162.1374290161
 30
0.0
 10
106.5228762958
 20
160.9267303849
 30
0.0
 10
106.330867618
 20
159.7215336807
 30
0.0
 10
105.835737904
 20
158.1084502355
 30
0.0
 10
104.7554533662
 20
156.1326770625
 30
0.0
 10
102.8458832121
 20
153.9829087288
 30
0.0
 10
101.2642584081
 20
152.756493059
 30
0.0
 10
100.3957370559
 20
152.1794167366
 30
0.0
  0
SPLINE
  5
360
100
AcDbEntity
  8
0
100
AcDbSpline
 62
7
  6
BYLAYER
 70
0
 71
3
 72
15
 73
11
 74
0
 42
0.0000001
 43
0.0000001
 44
0.0000000001
 40
0.0
 40
0.0
 40
0.0
 40
0.0
 40
0.1131899452
 40
0.2346039029
 40
0.3621939577
 40
0.4934391776
 40
0.6255795924
 40
0.7557969954
 40
0.881390741
 40
1.0
 40
1.0
 40
1.0
 40
1.0
 10
99.0125408246
 20
151.3319215497
 30
0.0
 10
97.8991093746
 20
150.7026916868
 30
0.0
 10
95.4857544522
 20
149.5808139672
 30
0.0
 10
91.5741553118
 20
148.3469028076
 30
0.0
 10
87.3468129744
 20
147.5310569217
 30
0.0
 10
82.9368755037
 20
147.159356633
 30
0.0
 10
78.4825420604
 20
147.243081727
 30
0.0
 10
74.1236418384
 20
147.7799118744
 30
0.0
 10
69.9977708056
 20
148.7524763562
 30
0.0
 10
67.3983032541
 20
149.7046232243
 30
0.0
 10
66.1757568576
 20
150.2536350297
 30
0.0
  0
SPLINE
  5
361
100
AcDbEntity
  8
0
100
AcDbSpline
 62
7
  6
BYLAYER
 70
0
 71
3
 72
11
 73
7
 74
0
 42
0.0000001
 43
0.0000001
 44
0.0000000001
 40
0.0
 40
0.0
 40
0.0
 40
0.0
 40
0.2375325371
 40
0.5005657894
 40
0.7630389532
 40
1.0
 40
1.0
 40
1.0
 40
1.0
 10
96.9718648259
 20
167.2171677056
 30
0.0
 10
96.9718648259
 20
167.3339759631
 30
0.0
 10
97.0165530446
 20
167.5802703701
 30
0.0
 10
97.1711138871
 20
167.9252294838
 30
0.0
 10
97.3957534907
 20
168.2288812061
 30
0.0
 10
97.58716752
 20
168.3889131783
 30
0.0
 10
97.6880832061
 20
168.447176529
 30
0.0
  0
SPLINE
  5
362
100
AcDbEntity
  8
0
100
AcDbSpline
 62
7
  6
BYLAYER
 70
0
 71
3
 72
9
 73
5
 74
0
 42
0.0000001
 43
0.0000001
 44
0.0000000001
 40
0.0
 40
0.0
 40
0.0
 40
0.0
 40
0.5479649034
 40
1.0
 40
1.0
 40
1.0
 40
1.0
 10
69.7457587036
 20
152.3147642532
 30
0.0
 10
69.8230055548
 20
152.3593624774
 30
0.0
 10
69.9763241763
 20
152.4242892466
 30
0.0
 10
70.1483223442
 20
152.4136864555
 30
0.0
 10
70.2162395833
 20
152.3853758075
 30
0.0
  0
SPLINE
  5
363
100
AcDbEntity
  8
0
100
AcDbSpline
 62
7
  6
BYLAYER
 70
0
 71
3
 72
11
 73
7
 74
0
 42
0.0000001
 43
0.0000001
 44
0.0000000001
 40
0.0
 40
0.0
 40
0.0
 40
0.0
 40
0.2730340509
 40
0.5318940544
 40
0.7722865373
 40
1.0
 40
1.0
 40
1.0
 40
1.0
 10
47.6905027889
 20
161.5528622269
 30
0.0
 10
47.6263462293
 20
161.6520642364
 30
0.0
 10
47.5286069779
 20
161.8649371438
 30
0.0
 10
47.4888798416
 20
162.2028064636
 30
0.0
 10
47.5660170754
 20
162.5159320525
 30
0.0
 10
47.6966323169
 20
162.6807851785
 30
0.0
 10
47.7735495839
 20
162.7423639243
 30
0.0
  0
SPLINE
  5
364
100
AcDbEntity
  8
0
100
AcDbSpline
 62
7
  6
BYLAYER
 70
0
 71
3
 72
11
 73
7
 74
0
 42
0.0000001
 43
0.0000001
 44
0.0000000001
 40
0.0
 40
0.0
 40
0.0
 40
0.0
 40
0.2331038564
 40
0.4915194852
 40
0.7545774479
 40
1.0
 40
1.0
 40
1.0
 40
1.0
 10
48.3008744834
 20
162.8257797435
 30
0.0
 10
48.2014739752
 20
162.7683911759
 30
0.0
 10
48.0161010098
 20
162.6047971863
 30
0.0
 10
47.8139232037
 20
162.2887252887
 30
0.0
 10
47.6927530144
 20
161.9272151601
 30
0.0
 10
47.6770677079
 20
161.6729562963
 30
0.0
 10
47.6905027889
 20
161.5528622269
 30
0.0
  0
SPLINE
  5
365
100
AcDbEntity
  8
0
100
AcDbSpline
 62
7
  6
BYLAYER
 70
0
 71
3
 72
9
 73
5
 74
0
 42
0.0000001
 43
0.0000001
 44
0.0000000001
 40
0.0
 40
0.0
 40
0.0
 40
0.0
 40
0.255571876
 40
1.0
 40
1.0
 40
1.0
 40
1.0
 10
96.9718648259
 20
158.0723406337
 30
0.0
 10
97.0655882509
 20
157.9967877874
 30
0.0
 10
97.4284067907
 20
157.6963769564
 30
0.0
 10
97.7751977346
 20
157.3764559792
 30
0.0
 10
98.0218568655
 20
157.1272224171
 30
0.0
  0
SPLINE
  5
366
100
AcDbEntity
  8
0
100
AcDbSpline
 62
7
  6
BYLAYER
 70
0
 71
3
 72
9
 73
5
 74
0
 42
0.0000001
 43
0.0000001
 44
0.0000000001
 40
0.0
 40
0.0
 40
0.0
 40
0.0
 40
0.2592145768
 40
1.0
 40
1.0
 40
1.0
 40
1.0
 10
55.4937790364
 20
158.1076326486
 30
0.0
 10
55.4793662107
 20
158.1130542934
 30
0.0
 10
55.4241598922
 20
158.1349891491
 30
0.0
 10
55.370550939
 20
158.161077778
 30
0.0
 10
55.3324396493
 20
158.1830808436
 30
0.0
  0
SPLINE
  5
367
100
AcDbEntity
  8
0
100
AcDbSpline
 62
7
  6
BYLAYER
 70
0
 71
3
 72
9
 73
5
 74
0
 42
0.0000001
 43
0.0000001
 44
0.0000000001
 40
0.0
 40
0.0
 40
0.0
 40
0.0
 40
0.4806075052
 40
1.0
 40
1.0
 40
1.0
 40
1.0
 10
55.3324396493
 20
158.1830808434
 30
0.0
 10
55.3221216581
 20
158.3103537969
 30
0.0
 10
55.3503620279
 20
158.5795241813
 30
0.0
 10
55.4482985237
 20
158.8298634255
 30
0.0
 10
55.5146069362
 20
158.9508834569
 30
0.0
  0
SPLINE
  5
368
100
AcDbEntity
  8
0
100
AcDbSpline
 62
7
  6
BYLAYER
 70
0
 71
3
 72
11
 73
7
 74
0
 42
0.0000001
 43
0.0000001
 44
0.0000000001
 40
0.0
 40
0.0
 40
0.0
 40
0.0
 40
0.2928702353
 40
0.5505017908
 40
0.7800193742
 40
1.0
 40
1.0
 40
1.0
 40
1.0
 10
91.9141424647
 20
158.7448913328
 30
0.0
 10
91.9675728071
 20
158.7757391712
 30
0.0
 10
92.0737278783
 20
158.8248961339
 30
0.0
 10
92.2373052889
 20
158.8560062124
 30
0.0
 10
92.3881516533
 20
158.8341322661
 30
0.0
 10
92.4710840355
 20
158.7819734799
 30
0.0
 10
92.5045064246
 20
158.7498730614
 30
0.0
  0
SPLINE
  5
369
100
AcDbEntity
  8
0
100
AcDbSpline
 62
7
  6
BYLAYER
 70
0
 71
3
 72
13
 73
9
 74
0
 42
0.0000001
 43
0.0000001
 44
0.0000000001
 40
0.0
 40
0.0
 40
0.0
 40
0.0
 40
0.2627790524
 40
0.3844165531
 40
0.5026247231
 40
0.6204604241
 40
0.7410357301
 40
1.0
 40
1.0
 40
1.0
 40
1.0
 10
92.1741069936
 20
158.4711249812
 30
0.0
 10
92.575201088
 20
158.0251446791
 30
0.0
 10
93.0828586128
 20
157.2842202415
 30
0.0
 10
93.4479916978
 20
156.1903203292
 30
0.0
 10
93.5512631745
 20
155.3747525726
 30
0.0
 10
93.487416964
 20
154.5575168977
 30
0.0
 10
93.175625687
 20
153.4595499616
 30
0.0
 10
92.7028349399
 20
152.7079839703
 30
0.0
 10
92.3227028371
 20
152.2553201309
 30
0.0
  0
SPLINE
  5
36A
100
AcDbEntity
  8
0
100
AcDbSpline
 62
7
  6
BYLAYER
 70
0
 71
3
 72
9
 73
5
 74
0
 42
0.0000001
 43
0.0000001
 44
0.0000000001
 40
0.0
 40
0.0
 40
0.0
 40
0.0
 40
0.2746016274
 40
1.0
 40
1.0
 40
1.0
 40
1.0
 10
67.6048092393
 20
173.9708451442
 30
0.0
 10
67.5800211501
 20
173.9812034752
 30
0.0
 10
67.4880977265
 20
174.0141163289
 30
0.0
 10
67.3864071398
 20
174.0253712273
 30
0.0
 10
67.3164715402
 20
174.013307666
 30
0.0
  0
SPLINE
  5
36B
100
AcDbEntity
  8
0
100
AcDbSpline
 62
7
  6
BYLAYER
 70
0
 71
3
 72
9
 73
5
 74
0
 42
0.0000001
 43
0.0000001
 44
0.0000000001
 40
0.0
 40
0.0
 40
0.0
 40
0.0
 40
0.2550080362
 40
1.0
 40
1.0
 40
1.0
 40
1.0
 10
67.3164715402
 20
174.013307666
 30
0.0
 10
67.3062176228
 20
174.0115389136
 30
0.0
 10
67.2663123889
 20
174.0029571126
 30
0.0
 10
67.2278851005
 20
173.9873710022
 30
0.0
 10
67.2015531317
 20
173.9721819987
 30
0.0
  0
SPLINE
  5
36C
100
AcDbEntity
  8
0
100
AcDbSpline
 62
7
  6
BYLAYER
 70
0
 71
3
 72
15
 73
11
 74
0
 42
0.0000001
 43
0.0000001
 44
0.0000000001
 40
0.0
 40
0.0
 40
0.0
 40
0.0
 40
0.1510380964
 40
0.2908198009
 40
0.4199115899
 40
0.5400958319
 40
0.6542383646
 40
0.7661796266
 40
0.8801496515
 40
1.0
 40
1.0
 40
1.0
 40
1.0
 10
67.091726231
 20
169.6398174344
 30
0.0
 10
66.4760176697
 20
169.2692419953
 30
0.0
 10
65.3305348367
 20
168.4849007149
 30
0.0
 10
63.8516025772
 20
167.1304789683
 30
0.0
 10
62.7057195445
 20
165.6639694282
 30
0.0
 10
61.9187497512
 20
164.1102256038
 30
0.0
 10
61.5135081442
 20
162.4978909005
 30
0.0
 10
61.5051401858
 20
160.863806621
 30
0.0
 10
61.893716559
 20
159.2502718037
 30
0.0
 10
62.3916812691
 20
158.2448150706
 30
0.0
 10
62.6918565911
 20
157.7599796145
 30
0.0
  0
SPLINE
  5
36D
100
AcDbEntity
  8
0
100
AcDbSpline
 62
7
  6
BYLAYER
 70
0
 71
3
 72
18
 73
14
 74
0
 42
0.0000001
 43
0.0000001
 44
0.0000000001
 40
0.0
 40
0.0
 40
0.0
 40
0.0
 40
0.1339091737
 40
0.2553812089
 40
0.3126918128
 40
0.3684885863
 40
0.4235491551
 40
0.478703941
 40
0.5347744617
 40
0.5925183654
 40
0.7152444418
 40
0.850638906
 40
1.0
 40
1.0
 40
1.0
 40
1.0
 10
60.9172714155
 20
153.4750928856
 30
0.0
 10
60.1341364466
 20
154.1334837422
 30
0.0
 10
58.7436448489
 20
155.5231204852
 30
0.0
 10
57.4602925061
 20
157.570078922
 30
0.0
 10
56.8374742521
 20
159.2565320396
 30
0.0
 10
56.5692558984
 20
160.517943999
 30
0.0
 10
56.4939626984
 20
161.7889886031
 30
0.0
 10
56.612627442
 20
163.0587950204
 30
0.0
 10
56.923791855
 20
164.3165432597
 30
0.0
 10
57.6041531489
 20
165.996587006
 30
0.0
 10
58.9572564283
 20
168.0272487701
 30
0.0
 10
61.2205202603
 20
170.1919366943
 30
0.0
 10
63.0437121957
 20
171.3996536581
 30
0.0
 10
64.0372207892
 20
171.9611119106
 30
0.0
  0
SPLINE
  5
36E
100
AcDbEntity
  8
0
100
AcDbSpline
 62
7
  6
BYLAYER
 70
0
 71
3
 72
11
 73
7
 74
0
 42
0.0000001
 43
0.0000001
 44
0.0000000001
 40
0.0
 40
0.0
 40
0.0
 40
0.0
 40
0.2305126885
 40
0.4761848621
 40
0.7339382623
 40
1.0
 40
1.0
 40
1.0
 40
1.0
 10
64.0372207892
 20
171.9611119106
 30
0.0
 10
65.0086016421
 20
172.5100651856
 30
0.0
 10
67.0954496498
 20
173.5054938031
 30
0.0
 10
70.463408807
 20
174.656081999
 30
0.0
 10
74.099507403
 20
175.4905208917
 30
0.0
 10
76.617935844
 20
175.8190849148
 30
0.0
 10
77.9011882649
 20
175.9276276356
 30
0.0
  0
SPLINE
  5
36F
100
AcDbEntity
  8
0
100
AcDbSpline
 62
7
  6
BYLAYER
 70
0
 71
3
 72
9
 73
5
 74
0
 42
0.0000001
 43
0.0000001
 44
0.0000000001
 40
0.0
 40
0.0
 40
0.0
 40
0.0
 40
0.5066686323
 40
1.0
 40
1.0
 40
1.0
 40
1.0
 10
78.1606639305
 20
175.9487724308
 30
0.0
 10
80.4673129949
 20
176.1296154656
 30
0.0
 10
85.0551727781
 20
176.1190762939
 30
0.0
 10
89.5864021806
 20
175.3785861751
 30
0.0
 10
91.7671132622
 20
174.8131603781
 30
0.0
  0
SPLINE
  5
370
100
AcDbEntity
  8
0
100
AcDbSpline
 62
7
  6
BYLAYER
 70
0
 71
3
 72
11
 73
7
 74
0
 42
0.0000001
 43
0.0000001
 44
0.0000000001
 40
0.0
 40
0.0
 40
0.0
 40
0.0
 40
0.2663695324
 40
0.5252677489
 40
0.7712739576
 40
1.0
 40
1.0
 40
1.0
 40
1.0
 10
80.6423164283
 20
171.7876612879
 30
0.0
 10
79.4819039088
 20
171.7565348217
 30
0.0
 10
77.1949029481
 20
171.5741785179
 30
0.0
 10
73.8866479721
 20
170.9412569768
 30
0.0
 10
70.8319074823
 20
169.972015391
 30
0.0
 10
68.9530347954
 20
169.0849768081
 30
0.0
 10
68.0897960291
 20
168.5865886489
 30
0.0
  0
SPLINE
  5
371
100
AcDbEntity
  8
0
100
AcDbSpline
 62
7
  6
BYLAYER
 70
0
 71
3
 72
13
 73
9
 74
0
 42
0.0000001
 43
0.0000001
 44
0.0000000001
 40
0.0
 40
0.0
 40
0.0
 40
0.0
 40
0.2882226078
 40
0.5466819761
 40
0.6662647466
 40
0.7806413607
 40
0.8912936977
 40
1.0
 40
1.0
 40
1.0
 40
1.0
 10
67.8133839598
 20
168.4236499821
 30
0.0
 10
67.0180035741
 20
167.944935775
 30
0.0
 10
65.5766958258
 20
166.9148821236
 30
0.0
 10
64.1093225646
 20
165.3197299451
 30
0.0
 10
63.2842640057
 20
163.959749
 30
0.0
 10
62.8481023981
 20
162.9344906548
 30
0.0
 10
62.5840110752
 20
161.888027954
 30
0.0
 10
62.5249101076
 20
161.1801442392
 30
0.0
 10
62.5249191738
 20
160.8300143134
 30
0.0
  0
SPLINE
  5
372
100
AcDbEntity
  8
0
100
AcDbSpline
 62
7
  6
BYLAYER
 70
0
 71
3
 72
11
 73
7
 74
0
 42
0.0000001
 43
0.0000001
 44
0.0000000001
 40
0.0
 40
0.0
 40
0.0
 40
0.0
 40
0.33076148
 40
0.5898369885
 40
0.8032435982
 40
1.0
 40
1.0
 40
1.0
 40
1.0
 10
64.822490303
 20
160.9299029141
 30
0.0
 10
64.7859202523
 20
161.0685774783
 30
0.0
 10
64.6952946936
 20
161.3113393219
 30
0.0
 10
64.477854444
 20
161.5920469769
 30
0.0
 10
64.2185351407
 20
161.7407589304
 30
0.0
 10
64.0340226256
 20
161.7517947759
 30
0.0
 10
63.9497194554
 20
161.7387139078
 30
0.0
  0
SPLINE
  5
373
100
AcDbEntity
  8
0
100
AcDbSpline
 62
7
  6
BYLAYER
 70
0
 71
3
 72
11
 73
7
 74
0
 42
0.0000001
 43
0.0000001
 44
0.0000000001
 40
0.0
 40
0.0
 40
0.0
 40
0.0
 40
0.2267334034
 40
0.4669338703
 40
0.7245674349
 40
1.0
 40
1.0
 40
1.0
 40
1.0
 10
132.158723543
 20
123.8681150023
 30
0.0
 10
132.1587008741
 20
124.0599829306
 30
0.0
 10
132.1019614137
 20
124.456591982
 30
0.0
 10
131.8654140349
 20
125.0279287535
 30
0.0
 10
131.4891527231
 20
125.5685267515
 30
0.0
 10
131.1657387346
 20
125.8867502667
 30
0.0
 10
130.9871551503
 20
126.0365283666
 30
0.0
  0
ELLIPSE
  5
374
100
AcDbEntity
  8
0
100
AcDbEllipse
 62
7
  6
BYLAYER
 10
130.6606296174
 20
91.7590201246
 30
0.0
 11
13.1216616287
 21
10.8508150609
 31
0.0
 40
0.1954311671
 41
0.1447500731
 42
0.3891985365
  0
ELLIPSE
  5
375
100
AcDbEntity
  8
0
100
AcDbEllipse
 62
7
  6
BYLAYER
 10
106.6190991521
 20
77.878718893
 30
0.0
 11
13.9417654805
 21
11.5289910022
 31
0.0
 40
0.1954311671
 41
1.3352908561
 42
1.6367728694
  0
ELLIPSE
  5
376
100
AcDbEntity
  8
0
100
AcDbEllipse
 62
7
  6
BYLAYER
 10
94.8105670166
 20
68.0717136881
 30
0.0
 11
9.8061496678
 21
26.4742347234
 31
0.0
 40
0.2107190278
 41
0.2487723838
 42
0.4380935826
  0
ELLIPSE
  5
377
100
AcDbEntity
  8
0
100
AcDbEllipse
 62
7
  6
BYLAYER
 10
140.2501321035
 20
138.620836521
 30
0.0
 11
-6.4456051585
 21
24.2033303351
 31
0.0
 40
0.3158876422
 41
-3.0566386459
 42
-2.9882013215
  0
ELLIPSE
  5
378
100
AcDbEntity
  8
0
100
AcDbEllipse
 62
7
  6
BYLAYER
 10
96.0561422777
 20
71.4308521811
 30
0.0
 11
9.8320264281
 21
9.860339436
 31
0.0
 40
0.1851024467
 41
0.6018478523
 42
0.7337713985
  0
ELLIPSE
  5
379
100
AcDbEntity
  8
0
100
AcDbEllipse
 62
7
  6
BYLAYER
 10
29.3756951963
 20
147.7168577411
 30
0.0
 11
6.4685968784
 21
20.3243171403
 31
0.0
 40
0.3752200049
 41
-3.325423883
 42
-3.2235272987
  0
ELLIPSE
  5
37A
100
AcDbEntity
  8
0
100
AcDbEllipse
 62
7
  6
BYLAYER
 10
96.0561422777
 20
109.2197545898
 30
0.0
 11
6.4685968784
 21
20.3243171403
 31
0.0
 40
0.3752200049
 41
-3.2235272987
 42
-3.1216307143
  0
ELLIPSE
  5
37B
100
AcDbEntity
  8
0
100
AcDbEllipse
 62
7
  6
BYLAYER
 10
140.2501321035
 20
96.946111798
 30
0.0
 11
9.8320264281
 21
9.860339436
 31
0.0
 40
0.1851024467
 41
0.4699243061
 42
0.6018478523
  0
ELLIPSE
  5
37C
100
AcDbEntity
  8
0
100
AcDbEllipse
 62
7
  6
BYLAYER
 10
29.3756951963
 20
112.5185035418
 30
0.0
 11
9.9636353863
 21
-7.6530236591
 31
0.0
 40
0.1113335989
 41
2.4414976241
 42
2.6288619489
  0
ELLIPSE
  5
37D
100
AcDbEntity
  8
0
100
AcDbEllipse
 62
7
  6
BYLAYER
 10
96.0561422777
 20
74.0214003905
 30
0.0
 11
9.9636353863
 21
-7.6530236591
 31
0.0
 40
0.1113335989
 41
2.2541332993
 42
2.4414976241
  0
ELLIPSE
  5
37E
100
AcDbEntity
  8
0
100
AcDbEllipse
 62
7
  6
BYLAYER
 10
94.9562438584
 20
90.4882468185
 30
0.0
 11
-8.2519905769
 21
10.7209087075
 31
0.0
 40
0.717594206
 41
-3.3622723892
 42
-3.2368721603
  0
ELLIPSE
  5
37F
100
AcDbEntity
  8
0
100
AcDbEllipse
 62
7
  6
BYLAYER
 10
95.1165213202
 20
73.2338097336
 30
0.0
 11
-7.0331404029
 21
21.2278671041
 31
0.0
 40
0.2701397882
 41
-0.4677754472
 42
-0.2946843592
  0
ELLIPSE
  5
380
100
AcDbEntity
  8
0
100
AcDbEllipse
 62
7
  6
BYLAYER
 10
19.4259170607
 20
116.9328118745
 30
0.0
 11
3.8825138338
 21
15.4978176901
 31
0.0
 40
0.5292465786
 41
-0.1499763235
 42
0.0231147645
  0
ELLIPSE
  5
381
100
AcDbEntity
  8
0
100
AcDbEllipse
 62
7
  6
BYLAYER
 10
96.0561422777
 20
113.105576904
 30
0.0
 11
-6.4456051585
 21
24.2033303351
 31
0.0
 40
0.3158876422
 41
-3.1250759703
 42
-3.0566386459
  0
ELLIPSE
  5
382
100
AcDbEntity
  8
0
100
AcDbEllipse
 62
7
  6
BYLAYER
 10
153.0215958846
 20
101.6796662625
 30
0.0
 11
-7.7654841996
 21
16.9680139628
 31
0.0
 40
0.4823229628
 41
-0.1436882034
 42
0.0456329953
  0
ELLIPSE
  5
383
100
AcDbEntity
  8
0
100
AcDbEllipse
 62
7
  6
BYLAYER
 10
152.8759190428
 20
123.9279872692
 30
0.0
 11
10.0099451062
 21
20.3034151647
 31
0.0
 40
0.2563163445
 41
-2.7753758975
 42
-2.6499756685
  0
ELLIPSE
  5
384
100
AcDbEntity
  8
0
100
AcDbEllipse
 62
7
  6
BYLAYER
 10
19.308741234
 20
133.6639383217
 30
0.0
 11
-7.3295679097
 21
16.4870897086
 31
0.0
 40
0.3245212147
 41
-3.6486581234
 42
-3.5612279865
  0
ELLIPSE
  5
385
100
AcDbEntity
  8
0
100
AcDbEllipse
 62
7
  6
BYLAYER
 10
95.233697147
 20
89.8296362516
 30
0.0
 11
2.5912041431
 21
11.567255314
 31
0.0
 40
0.7518503791
 41
-3.3726186019
 42
-3.285188465
  0
ELLIPSE
  5
386
100
AcDbEntity
  8
0
100
AcDbEllipse
 62
7
  6
BYLAYER
 10
47.2339356755
 20
161.0315829989
 30
0.0
 11
1.1550139432
 21
-0.2483957781
 31
0.0
 40
0.5399694308
 41
2.7261614843
 42
4.1743095908
  0
ELLIPSE
  5
387
100
AcDbEntity
  8
0
100
AcDbEllipse
 62
7
  6
BYLAYER
 10
81.5248808069
 20
182.7775992855
 30
0.0
 11
19.038232812
 21
28.8924517073
 31
0.0
 40
0.6128666971
 41
-3.2248969319
 42
-2.9858667542
  0
ENDSEC
  0
SECTION
  2
OBJECTS
  0
DICTIONARY
  5
C
100
AcDbDictionary
280
0
281
1
  3
ACAD_GROUP
350
D
  3
ACAD_MLINESTYLE
350
17
  3
ACAD_LAYOUT
350
1A
  3
ACAD_PLOTSETTINGS
350
19
  3
ACAD_PLOTSTYLENAME
350
E
  0
DICTIONARY
  5
D
102
{ACAD_REACTORS
330
C
102
}
100
AcDbDictionary
280
0
281
1
  0
ACDBDICTIONARYWDFLT
  5
E
102
{ACAD_REACTORS
330
C
102
}
100
AcDbDictionary
281
1
  3
Normal
350
F
100
AcDbDictionaryWithDefault
340
F
  0
DICTIONARY
  5
17
102
{ACAD_REACTORS
330
C
102
}
100
AcDbDictionary
280
0
281
1
  3
Standard
350
18
  0
DICTIONARY
  5
19
102
{ACAD_REACTORS
330
C
102
}
100
AcDbDictionary
281
1
  0
DICTIONARY
  5
1A
102
{ACAD_REACTORS
330
C
102
}
100
AcDbDictionary
281
1
  3
Model
350
388
  3
Layout1
350
389
  0
ACDBPLACEHOLDER
  5
F
102
{ACAD_REACTORS
330
E
102
}
  0
MLINESTYLE
  5
18
102
{ACAD_REACTORS
330
17
102
}
100
AcDbMlineStyle
  2
STANDARD
 70
0
  3

 62
256
 51
90.0
 52
90.0
 71
2
 49
0.5
 62
256
  6
BYLAYER
 49
-0.5
 62
256
  6
BYLAYER
  0
LAYOUT
  5
388
102
{ACAD_REACTORS
330
1A
102
}
100
AcDbPlotSettings
  1

  2
none_device
  4

  6

 40
0.0
 41
0.0
 42
0.0
 43
0.0
 44
210.0
 45
297.0
 46
0.0
 47
0.0
 48
0.0
 49
0.0
140
0.0
141
0.0
142
1.0
143
1.0
 70
1024
 72
1
 73
0
 74
0
  7

 75
0
147
1.0
148
0.0
149
0.0
100
AcDbLayout
  1
Model
 70
0
 71
0
 10
0.0
 20
0.0
 11
210.0
 21
297.0
 12
0.0
 22
0.0
 32
0.0
 14
0.0
 24
0.0
 34
0.0
 15
0.0
 25
0.0
 35
0.0
146
0.0
 13
0.0
 23
0.0
 33
0.0
 16
1.0
 26
0.0
 36
0.0
 17
0.0
 27
1.0
 37
0.0
 76
0
330
210
345
0
346
0
  0
LAYOUT
  5
389
102
{ACAD_REACTORS
330
1A
102
}
100
AcDbPlotSettings
  1

  2
none_device
  4

  6

 40
0.0
 41
0.0
 42
0.0
 43
0.0
 44
210.0
 45
297.0
 46
0.0
 47
0.0
 48
0.0
 49
0.0
140
0.0
141
0.0
142
1.0
143
1.0
 70
0
 72
1
 73
0
 74
0
  7

 75
0
147
1.0
148
0.0
149
0.0
100
AcDbLayout
  1
Layout1
 70
0
 71
1
 10
0.0
 20
0.0
 11
210.0
 21
297.0
 12
0.0
 22
0.0
 32
0.0
 14
0.0
 24
0.0
 34
0.0
 15
0.0
 25
0.0
 35
0.0
146
0.0
 13
0.0
 23
0.0
 33
0.0
 16
1.0
 26
0.0
 36
0.0
 17
0.0
 27
1.0
 37
0.0
 76
0
330
211
345
0
346
0
  0
ENDSEC
  0
EOF
