999
DXF file: C:\Users\sesa63760\Dev\_Creo\CAD\MCADID0004675_3D-CAD\drw0001_1.dxf
999
Pro/ENGINEER 2019471 by Parametric Technology Corporation
  0
SECTION
  2
HEADER
  9
$ACADVER
  1
AC1024
  9
$DWGCODEPAGE
  3
ANSI_1252
  9
$EXTMAX
 10
50.9427142509
 20
72.047553012
 30
0.0
  9
$EXTMIN
 10
0.0
 20
0.0
 30
0.0
  9
$LIMMIN
 10
0.0
 20
0.0
  9
$LIMMAX
 10
50.9427142509
 20
72.047553012
  9
$VIEWCTR
 10
25.4713571255
 20
36.023776506
  9
$VIEWSIZE
 40
72.047553012
  9
$CLAYER
  8
0
  9
$LTSCALE
 40
4.6964330852
  9
$CELTYPE
  6
BYLAYER
  9
$DIMSCALE
 40
1.0
  9
$DIMASZ
 40
0.6064608839
  9
$DIMEXO
 40
1.0
  9
$DIMDLI
 40
3.2448083134
  9
$DIMEXE
 40
1.0
  9
$DIMCEN
 40
0.7685072321
  9
$DIMLFAC
 40
1.0
  9
$DIMBLK
  1
_FILLED
  9
$DIMALT
 70
0
  9
$DIMALTF
 40
0.0393700787
  9
$DIMTXT
 40
0.8490452375
  9
$DIMTOL
 70
1
  9
$DIMLIM
 70
0
  9
$DIMTFAC
 40
1.0
  9
$DIMTP
 40
0.01
  9
$DIMTM
 40
0.01
  9
$DIMGAP
 40
0.625
  9
$DIMDSEP
 70
46
  9
$AUNITS
 70
0
  9
$PDMODE
 70
3
  9
$PDSIZE
 40
0.3125
  9
$HANDSEED
  5
2B9
  9
$TILEMODE
 70
1
  9
$MEASUREMENT
 70
1
  9
$INSUNITS
 70
4
  0
ENDSEC
  0
SECTION
  2
CLASSES
  0
CLASS
  1
ACDBDICTIONARYWDFLT
  2
AcDbDictionaryWithDefault
  3
AutoCAD 2000
 90
0
 91
1
280
0
281
0
  0
CLASS
  1
ACDBPLACEHOLDER
  2
AcDbPlaceHolder
  3
AutoCAD 2000
 90
0
 91
1
280
0
281
0
  0
CLASS
  1
LAYOUT
  2
AcDbLayout
  3
AutoCAD 2000
 90
0
 91
0
280
0
281
0
  0
ENDSEC
  0
SECTION
  2
TABLES
  0
TABLE
  2
VPORT
  5
8
100
AcDbSymbolTable
 70
2
  0
VPORT
  5
1F4
100
AcDbSymbolTableRecord
100
AcDbViewportTableRecord
  2
*ACTIVE
 70
0
 10
0.0
 20
0.0
 11
1.0
 21
1.0
 12
25.4713571255
 22
36.023776506
 13
0.0
 23
0.0
 14
1.0
 24
1.0
 15
0.0
 25
0.0
 16
0.0
 26
0.0
 36
1.0
 17
0.0
 27
0.0
 37
0.0
 40
72.047553012
 41
0.7070707071
 42
50.0
 43
0.0
 44
0.0
 50
0.0
 51
0.0
 71
0
 72
100
 73
1
 74
1
 75
0
 76
0
 77
0
 78
0
  0
ENDTAB
  0
TABLE
  2
LTYPE
  5
5
100
AcDbSymbolTable
 70
6
  0
LTYPE
  5
14
100
AcDbSymbolTableRecord
100
AcDbLinetypeTableRecord
  2
BYBLOCK
 70
0
  3

 72
65
 73
0
 40
0.0
  0
LTYPE
  5
15
100
AcDbSymbolTableRecord
100
AcDbLinetypeTableRecord
  2
BYLAYER
 70
0
  3

 72
65
 73
0
 40
0.0
  0
LTYPE
  5
16
100
AcDbSymbolTableRecord
100
AcDbLinetypeTableRecord
  2
CONTINUOUS
 70
64
  3
Solid line
 72
65
 73
0
 40
0.0
  0
LTYPE
  5
1F5
100
AcDbSymbolTableRecord
100
AcDbLinetypeTableRecord
  2
CENTER
 70
64
  3
____ _ ____ _ ____ _ ____ _ ____ _ ____ _ ____
 72
65
 73
4
 40
0.6
 49
0.375
 74
0
 49
-0.075
 74
0
 49
0.075
 74
0
 49
-0.075
 74
0
  0
LTYPE
  5
1F6
100
AcDbSymbolTableRecord
100
AcDbLinetypeTableRecord
  2
HIDDEN
 70
64
  3
- - - - - - - - - - - - - - - - - - - -
 72
65
 73
2
 40
0.2
 49
0.1
 74
0
 49
-0.1
 74
0
  0
LTYPE
  5
1F7
100
AcDbSymbolTableRecord
100
AcDbLinetypeTableRecord
  2
PHANTOM
 70
64
  3
_____ _ _ _____ _ _ _____ _ _ _____
 72
65
 73
6
 40
0.8
 49
0.45
 74
0
 49
-0.05
 74
0
 49
0.1
 74
0
 49
-0.05
 74
0
 49
0.1
 74
0
 49
-0.05
 74
0
  0
LTYPE
  5
1F8
100
AcDbSymbolTableRecord
100
AcDbLinetypeTableRecord
  2
DOT
 70
64
  3
. . . . . . . . . . . . . . . . . . . .
 72
65
 73
2
 40
0.2
 49
0.1
 74
0
 49
-0.1
 74
0
  0
LTYPE
  5
1F9
100
AcDbSymbolTableRecord
100
AcDbLinetypeTableRecord
  2
DASHED
 70
64
  3
- - - - - - - - - - - - - - - - - - - -
 72
65
 73
2
 40
0.2
 49
0.1
 74
0
 49
-0.1
 74
0
  0
ENDTAB
  0
TABLE
  2
LAYER
  5
2
100
AcDbSymbolTable
 70
36
  0
LAYER
  5
10
100
AcDbSymbolTableRecord
100
AcDbLayerTableRecord
  2
0
 70
0
 62
7
  6
CONTINUOUS
370
-3
390
F
  0
LAYER
  5
1FA
100
AcDbSymbolTableRecord
100
AcDbLayerTableRecord
  2
DEFAULT_1
 70
0
 62
7
  6
CENTER
370
-3
390
F
  0
LAYER
  5
1FB
100
AcDbSymbolTableRecord
100
AcDbLayerTableRecord
  2
DEFAULT_2
 70
0
 62
7
  6
HIDDEN
370
-3
390
F
  0
LAYER
  5
1FC
100
AcDbSymbolTableRecord
100
AcDbLayerTableRecord
  2
DEFAULT_3
 70
0
 62
7
  6
PHANTOM
370
-3
390
F
  0
LAYER
  5
1FD
100
AcDbSymbolTableRecord
100
AcDbLayerTableRecord
  2
00_COMPONENTS
 70
0
 62
7
  6
CONTINUOUS
370
-3
390
F
  0
LAYER
  5
1FE
100
AcDbSymbolTableRecord
100
AcDbLayerTableRecord
  2
01_1_DEFAULT_DATUMS
 70
0
 62
7
  6
CONTINUOUS
370
-3
390
F
  0
LAYER
  5
1FF
100
AcDbSymbolTableRecord
100
AcDbLayerTableRecord
  2
01_PLANES
 70
0
 62
7
  6
CONTINUOUS
370
-3
390
F
  0
LAYER
  5
200
100
AcDbSymbolTableRecord
100
AcDbLayerTableRecord
  2
02_COORD_SYS
 70
0
 62
7
  6
CONTINUOUS
370
-3
390
F
  0
LAYER
  5
201
100
AcDbSymbolTableRecord
100
AcDbLayerTableRecord
  2
03_AXES
 70
0
 62
7
  6
CONTINUOUS
370
-3
390
F
  0
LAYER
  5
202
100
AcDbSymbolTableRecord
100
AcDbLayerTableRecord
  2
04_POINTS
 70
0
 62
7
  6
CONTINUOUS
370
-3
390
F
  0
LAYER
  5
203
100
AcDbSymbolTableRecord
100
AcDbLayerTableRecord
  2
05_CURVES
 70
0
 62
7
  6
CONTINUOUS
370
-3
390
F
  0
LAYER
  5
204
100
AcDbSymbolTableRecord
100
AcDbLayerTableRecord
  2
06_SURFS
 70
0
 62
7
  6
CONTINUOUS
370
-3
390
F
  0
LAYER
  5
205
100
AcDbSymbolTableRecord
100
AcDbLayerTableRecord
  2
07_COSMETICS
 70
0
 62
7
  6
CONTINUOUS
370
-3
390
F
  0
LAYER
  5
206
100
AcDbSymbolTableRecord
100
AcDbLayerTableRecord
  2
10_NOTES
 70
0
 62
7
  6
CONTINUOUS
370
-3
390
F
  0
LAYER
  5
207
100
AcDbSymbolTableRecord
100
AcDbLayerTableRecord
  2
11_NOTES_PUB
 70
0
 62
7
  6
CONTINUOUS
370
-3
390
F
  0
LAYER
  5
208
100
AcDbSymbolTableRecord
100
AcDbLayerTableRecord
  2
13_REF_GTOL
 70
0
 62
7
  6
CONTINUOUS
370
-3
390
F
  0
LAYER
  5
209
100
AcDbSymbolTableRecord
100
AcDbLayerTableRecord
  2
16_MISC
 70
0
 62
7
  6
CONTINUOUS
370
-3
390
F
  0
LAYER
  5
20A
100
AcDbSymbolTableRecord
100
AcDbLayerTableRecord
  2
17_NO_PRINT
 70
0
 62
7
  6
CONTINUOUS
370
-3
390
F
  0
LAYER
  5
20B
100
AcDbSymbolTableRecord
100
AcDbLayerTableRecord
  2
18_DATUM_CAMS_JOINTS
 70
0
 62
7
  6
CONTINUOUS
370
-3
390
F
  0
LAYER
  5
20C
100
AcDbSymbolTableRecord
100
AcDbLayerTableRecord
  2
19_DATUM_FUNCTIONAL
 70
0
 62
7
  6
CONTINUOUS
370
-3
390
F
  0
LAYER
  5
20D
100
AcDbSymbolTableRecord
100
AcDbLayerTableRecord
  2
20_DATUM_KINEMATIC_SCHEME
 70
0
 62
7
  6
CONTINUOUS
370
-3
390
F
  0
ENDTAB
  0
TABLE
  2
STYLE
  5
3
100
AcDbSymbolTable
 70
1
  0
STYLE
  5
11
100
AcDbSymbolTableRecord
100
AcDbTextStyleTableRecord
  2
STANDARD
 70
0
 40
0.0
 41
1.0
 50
0.0
 71
0
 42
0.2
  3
ARIAL.TTF
  4

  0
STYLE
  5
20E
100
AcDbSymbolTableRecord
100
AcDbTextStyleTableRecord
  2
TEXTSTYLE_1
 70
0
 40
0.0
 41
0.8
 50
0.0
 71
0
 42
0.2
  3
gdt
  4

  0
ENDTAB
  0
TABLE
  2
VIEW
  5
6
100
AcDbSymbolTable
 70
0
  0
ENDTAB
  0
TABLE
  2
UCS
  5
7
100
AcDbSymbolTable
 70
0
  0
ENDTAB
  0
TABLE
  2
APPID
  5
9
100
AcDbSymbolTable
 70
1
  0
APPID
  5
20F
100
AcDbSymbolTableRecord
100
AcDbRegAppTableRecord
  2
ACAD
 70
0
  0
ENDTAB
  0
TABLE
  2
BLOCK_RECORD
  5
1
100
AcDbSymbolTable
 70
0
  0
BLOCK_RECORD
  5
210
100
AcDbSymbolTableRecord
100
AcDbBlockTableRecord
  2
*Model_Space
  0
BLOCK_RECORD
  5
211
100
AcDbSymbolTableRecord
100
AcDbBlockTableRecord
  2
*Paper_Space
  0
BLOCK_RECORD
  5
212
100
AcDbSymbolTableRecord
100
AcDbBlockTableRecord
  2
_FILLED
  0
ENDTAB
  0
TABLE
  2
DIMSTYLE
  5
A
100
AcDbSymbolTable
 70
1
100
AcDbDimStyleTable
 71
0
  0
DIMSTYLE
105
213
100
AcDbSymbolTableRecord
100
AcDbDimStyleTableRecord
  2
STANDARD
 70
0
  3

  4

 40
1.0
 41
0.6064608839
 42
1.0
 43
0.38
 44
1.0
 45
0.0
 46
0.0
 47
0.01
 48
0.01
140
0.8490452375
141
0.09
142
0.0
143
25.4
144
1.0
145
0.0
146
1.0
147
0.625
 71
1
 72
0
 73
0
 74
0
 75
0
 76
0
 77
1
 78
8
 79
2
170
0
171
1
172
0
173
0
174
0
175
0
176
0
177
0
178
0
270
2
179
2
271
2
272
2
273
2
274
2
275
0
280
0
281
0
282
0
283
1
284
8
285
0
286
0
287
3
288
0
340
11
278
46
341
212
342
212
343
212
344
212
  0
ENDTAB
  0
ENDSEC
  0
SECTION
  2
BLOCKS
  0
BLOCK
  5
20
100
AcDbEntity
  8
0
100
AcDbBlockBegin
  2
*Model_Space
 70
0
 10
0.0
 20
0.0
 30
0.0
  3
*Model_Space
  1

  0
ENDBLK
  5
21
100
AcDbEntity
  8
0
100
AcDbBlockEnd
  0
BLOCK
  5
1C
100
AcDbEntity
  8
0
100
AcDbBlockBegin
  2
*Paper_Space
 70
0
 10
0.0
 20
0.0
 30
0.0
  3
*Paper_Space
  1

  0
ENDBLK
  5
1D
100
AcDbEntity
  8
0
100
AcDbBlockEnd
  0
BLOCK
  5
214
100
AcDbEntity
  8
0
100
AcDbBlockBegin
  2
_FILLED
 70
64
 10
0.0
 20
0.0
  3
_FILLED
  1

  0
SOLID
  5
215
100
AcDbEntity
  8
0
  6
BYBLOCK
 62
0
100
AcDbTrace
 10
0.0
 20
0.0
 11
-1.0
 21
0.25
 12
-1.0
 22
-0.25
 13
-1.0
 23
-0.25
  0
ENDBLK
  5
216
100
AcDbEntity
  8
0
  6
BYBLOCK
 62
0
100
AcDbBlockEnd
  0
ENDSEC
  0
SECTION
  2
ENTITIES
  0
LINE
  5
217
100
AcDbEntity
  8
0
100
AcDbLine
 62
7
  6
BYLAYER
 10
18.5884651673
 20
62.8148991214
 11
20.4097750984
 21
64.2613598693
  0
LWPOLYLINE
  5
218
100
AcDbEntity
  8
0
100
AcDbPolyline
 62
7
  6
BYLAYER
 90
4
 70
0
 10
20.4097750984
 20
64.3838352319
 10
18.5580986533
 20
62.9151366735
 10
16.9601300037
 20
60.8514804261
 10
15.8198895108
 20
58.4509095019
  0
LWPOLYLINE
  5
219
100
AcDbEntity
  8
0
100
AcDbPolyline
 62
7
  6
BYLAYER
 90
5
 70
0
 10
15.8198895108
 20
58.4509095019
 10
15.3047501206
 20
56.0580269052
 10
15.3054270923
 20
54.967560828
 10
15.8199906692
 20
53.1773877872
 10
16.7849695969
 20
52.1857031519
  0
LWPOLYLINE
  5
21A
100
AcDbEntity
  8
0
100
AcDbPolyline
 62
7
  6
BYLAYER
 90
4
 70
0
 10
15.4110062775
 20
56.1161030225
 10
15.9148612413
 20
58.4512091985
 10
17.0249618579
 20
60.7914297259
 10
18.5884651673
 20
62.8148991214
  0
LINE
  5
21B
100
AcDbEntity
  8
0
100
AcDbLine
 62
7
  6
BYLAYER
 10
29.8671951752
 20
48.1882551962
 11
29.8594536316
 21
48.1837856406
  0
LINE
  5
21C
100
AcDbEntity
  8
0
100
AcDbLine
 62
7
  6
BYLAYER
 10
38.6064684068
 20
51.0072530055
 11
38.5924313829
 21
50.9991487744
  0
LINE
  5
21D
100
AcDbEntity
  8
0
100
AcDbLine
 62
7
  6
BYLAYER
 10
33.3399467204
 20
47.9666434422
 11
33.3259096965
 21
47.958539211
  0
LINE
  5
21E
100
AcDbEntity
  8
0
100
AcDbLine
 62
7
  6
BYLAYER
 10
27.8472548291
 20
26.2213682482
 11
27.1574708319
 21
27.6269928188
  0
LINE
  5
21F
100
AcDbEntity
  8
0
100
AcDbLine
 62
7
  6
BYLAYER
 10
27.8705288583
 20
37.6217609
 11
28.2249441146
 21
37.8263814222
  0
LINE
  5
220
100
AcDbEntity
  8
0
100
AcDbLine
 62
7
  6
BYLAYER
 10
33.7655663871
 20
40.9522462559
 11
38.1668117162
 21
43.4932912634
  0
LINE
  5
221
100
AcDbEntity
  8
0
100
AcDbLine
 62
7
  6
BYLAYER
 10
26.9624434932
 20
28.8457405403
 11
27.3500918143
 21
27.7140171071
  0
LINE
  5
222
100
AcDbEntity
  8
0
100
AcDbLine
 62
7
  6
BYLAYER
 10
27.1574708319
 20
27.6269928188
 11
26.9624410496
 21
28.4374893322
  0
LINE
  5
223
100
AcDbEntity
  8
0
100
AcDbLine
 62
7
  6
BYLAYER
 10
26.8012053952
 20
38.2391211227
 11
26.200167565
 21
47.8171559966
  0
LINE
  5
224
100
AcDbEntity
  8
0
100
AcDbLine
 62
7
  6
BYLAYER
 10
27.2294173327
 20
47.8384032509
 11
27.8705288583
 21
37.6217609
  0
LINE
  5
225
100
AcDbEntity
  8
0
100
AcDbLine
 62
7
  6
BYLAYER
 10
28.2249441146
 20
37.8263814222
 11
27.6609380668
 21
46.8142842197
  0
LINE
  5
226
100
AcDbEntity
  8
0
100
AcDbLine
 62
7
  6
BYLAYER
 10
26.9624410496
 20
28.8457405408
 11
26.9624410496
 21
28.4374893322
  0
LINE
  5
227
100
AcDbEntity
  8
0
100
AcDbLine
 62
7
  6
BYLAYER
 10
27.4054202698
 20
37.4830206136
 11
27.4054202698
 21
37.8902853939
  0
LINE
  5
228
100
AcDbEntity
  8
0
100
AcDbLine
 62
7
  6
BYLAYER
 10
27.6770855633
 20
36.0036685091
 11
27.6770855633
 21
28.8661525785
  0
LINE
  5
229
100
AcDbEntity
  8
0
100
AcDbLine
 62
7
  6
BYLAYER
 10
30.324716185
 20
36.2048672407
 11
30.6088779309
 21
36.3689271219
  0
LINE
  5
22A
100
AcDbEntity
  8
0
100
AcDbLine
 62
7
  6
BYLAYER
 10
30.8802938059
 20
36.2593032038
 11
30.6088779309
 21
36.3689271219
  0
LINE
  5
22B
100
AcDbEntity
  8
0
100
AcDbLine
 62
7
  6
BYLAYER
 10
30.324716185
 20
36.2048672407
 11
29.2729211957
 21
36.8121076232
  0
LINE
  5
22C
100
AcDbEntity
  8
0
100
AcDbLine
 62
7
  6
BYLAYER
 10
27.8705288583
 20
37.6217609
 11
26.8012053952
 21
38.2391211227
  0
LINE
  5
22D
100
AcDbEntity
  8
0
100
AcDbLine
 62
7
  6
BYLAYER
 10
27.737385069
 20
35.7955544006
 11
27.0752161829
 21
38.0809244995
  0
LINE
  5
22E
100
AcDbEntity
  8
0
100
AcDbLine
 62
7
  6
BYLAYER
 10
24.382737389
 20
47.9964091314
 11
25.7759274666
 21
39.4279356841
  0
LINE
  5
22F
100
AcDbEntity
  8
0
100
AcDbLine
 62
7
  6
BYLAYER
 10
24.5860641942
 20
48.174438194
 11
26.0659347303
 21
39.0728578723
  0
LINE
  5
230
100
AcDbEntity
  8
0
100
AcDbLine
 62
7
  6
BYLAYER
 10
29.2729211957
 20
36.8121076232
 11
28.6098929597
 21
47.3780108803
  0
LINE
  5
231
100
AcDbEntity
  8
0
100
AcDbLine
 62
7
  6
BYLAYER
 10
29.6616879489
 20
46.7707704977
 11
30.324716185
 21
36.2048672407
  0
LINE
  5
232
100
AcDbEntity
  8
0
100
AcDbLine
 62
7
  6
BYLAYER
 10
29.9624410496
 20
6.8001752783
 11
29.9624410496
 21
24.6082880839
  0
LINE
  5
233
100
AcDbEntity
  8
0
100
AcDbLine
 62
7
  6
BYLAYER
 10
30.0312644033
 20
36.374287873
 11
30.0312644033
 21
35.9670230927
  0
LINE
  5
234
100
AcDbEntity
  8
0
100
AcDbLine
 62
7
  6
BYLAYER
 10
33.4333321674
 20
36.3853892072
 11
37.4383813481
 21
38.6976916272
  0
LINE
  5
235
100
AcDbEntity
  8
0
100
AcDbLine
 62
7
  6
BYLAYER
 10
29.2462755006
 20
37.2367288113
 11
28.2249441146
 21
37.8263814222
  0
LINE
  5
236
100
AcDbEntity
  8
0
100
AcDbLine
 62
7
  6
BYLAYER
 10
26.0659347303
 20
39.0728578723
 11
26.7745597
 21
38.6637423108
  0
LINE
  5
237
100
AcDbEntity
  8
0
100
AcDbLine
 62
7
  6
BYLAYER
 10
30.6088779309
 20
36.3689271219
 11
29.8671951752
 21
48.1882551962
  0
LINE
  5
238
100
AcDbEntity
  8
0
100
AcDbLine
 62
7
  6
BYLAYER
 10
31.2015450527
 20
40.8090266715
 11
30.7611433076
 21
47.827192687
  0
LINE
  5
239
100
AcDbEntity
  8
0
100
AcDbLine
 62
7
  6
BYLAYER
 10
30.8802938059
 20
36.2593032038
 11
31.2015450527
 21
40.8090266715
  0
LWPOLYLINE
  5
23A
100
AcDbEntity
  8
0
100
AcDbPolyline
 62
7
  6
BYLAYER
 90
4
 70
0
 10
16.8599889176
 20
52.3156433351
 10
15.9150044566
 20
53.2866780156
 10
15.4103976292
 20
55.0474804626
 10
15.4110062775
 20
56.1161030225
  0
LINE
  5
23B
100
AcDbEntity
  8
0
100
AcDbLine
 62
7
  6
BYLAYER
 10
33.3259096965
 20
47.958539211
 11
33.7655663871
 21
40.9522462559
  0
LINE
  5
23C
100
AcDbEntity
  8
0
100
AcDbLine
 62
7
  6
BYLAYER
 10
34.1229456234
 20
35.9670329279
 11
34.1229456234
 21
36.7835353451
  0
LINE
  5
23D
100
AcDbEntity
  8
0
100
AcDbLine
 62
7
  6
BYLAYER
 10
34.2624410496
 20
6.8001752783
 11
34.2624410496
 21
24.5762219985
  0
LINE
  5
23E
100
AcDbEntity
  8
0
100
AcDbLine
 62
7
  6
BYLAYER
 10
33.7553547737
 20
40.9460370605
 11
33.4333321674
 21
36.3853892072
  0
LINE
  5
23F
100
AcDbEntity
  8
0
100
AcDbLine
 62
7
  6
BYLAYER
 10
37.1071929544
 20
38.178383481
 11
36.7487678921
 21
37.4830430722
  0
LWPOLYLINE
  5
240
100
AcDbEntity
  8
0
100
AcDbPolyline
 62
7
  6
BYLAYER
 90
3
 70
0
 10
37.2624386059
 20
28.8457405412
 10
36.8747902848
 20
29.9774639745
 10
36.4770855633
 20
30.3219301739
  0
LINE
  5
241
100
AcDbEntity
  8
0
100
AcDbLine
 62
7
  6
BYLAYER
 10
36.4770855633
 20
36.0036685091
 11
36.4770855633
 21
28.8661525785
  0
LINE
  5
242
100
AcDbEntity
  8
0
100
AcDbLine
 62
7
  6
BYLAYER
 10
36.7487678921
 20
38.2995454894
 11
36.7487678921
 21
37.4830430722
  0
LINE
  5
243
100
AcDbEntity
  8
0
100
AcDbLine
 62
7
  6
BYLAYER
 10
37.2624410496
 20
28.8457405408
 11
37.2624410496
 21
28.4374893322
  0
LINE
  5
244
100
AcDbEntity
  8
0
100
AcDbLine
 62
7
  6
BYLAYER
 10
37.4383813481
 20
38.6976916272
 11
38.1769473133
 21
43.4988294655
  0
LINE
  5
245
100
AcDbEntity
  8
0
100
AcDbLine
 62
7
  6
BYLAYER
 10
36.4167860576
 20
35.7955544006
 11
37.1071929544
 21
38.178383481
  0
LINE
  5
246
100
AcDbEntity
  8
0
100
AcDbLine
 62
7
  6
BYLAYER
 10
37.8544341168
 20
39.0500201116
 11
38.0118486877
 21
39.40659737
  0
LWPOLYLINE
  5
247
100
AcDbEntity
  8
0
100
AcDbPolyline
 62
7
  6
BYLAYER
 90
3
 70
0
 10
16.7849695969
 20
52.1857031519
 10
16.9535912239
 20
52.0967275436
 10
17.3293385343
 20
52.0443158974
  0
LINE
  5
248
100
AcDbEntity
  8
0
100
AcDbLine
 62
7
  6
BYLAYER
 10
14.0271086758
 20
53.7776119631
 11
16.7897802832
 21
52.1826495675
  0
LINE
  5
249
100
AcDbEntity
  8
0
100
AcDbLine
 62
7
  6
BYLAYER
 10
17.8455011916
 20
51.5731118887
 11
20.6739400922
 21
49.9401488706
  0
LINE
  5
24A
100
AcDbEntity
  8
0
100
AcDbLine
 62
7
  6
BYLAYER
 10
17.4618721268
 20
51.9677993231
 11
16.8598353313
 21
52.3153775657
  0
LINE
  5
24B
100
AcDbEntity
  8
0
100
AcDbLine
 62
7
  6
BYLAYER
 10
24.5860641942
 20
48.174438194
 11
26.2375800805
 21
47.2209566231
  0
LINE
  5
24C
100
AcDbEntity
  8
0
100
AcDbLine
 62
7
  6
BYLAYER
 10
24.0164439243
 20
48.5877440441
 11
23.752374751
 21
48.7402010034
  0
LINE
  5
24D
100
AcDbEntity
  8
0
100
AcDbLine
 62
7
  6
BYLAYER
 10
24.4743752448
 20
48.4965135603
 11
26.2047103961
 21
47.497526695
  0
LINE
  5
24E
100
AcDbEntity
  8
0
100
AcDbLine
 62
7
  6
BYLAYER
 10
28.6098929597
 20
47.3780108803
 11
29.6616879489
 21
46.7707704977
  0
LWPOLYLINE
  5
24F
100
AcDbEntity
  8
0
100
AcDbPolyline
 62
7
  6
BYLAYER
 90
4
 70
0
 10
24.016449946
 20
48.5877405845
 10
24.0415624257
 20
48.5717068161
 10
24.2255331809
 20
48.3845565663
 10
24.3826262592
 20
47.9970945779
  0
LWPOLYLINE
  5
250
100
AcDbEntity
  8
0
100
AcDbPolyline
 62
7
  6
BYLAYER
 90
3
 70
0
 10
29.0859987825
 20
60.8174903298
 10
28.887935724
 20
61.5069578417
 10
27.9238170812
 20
62.4975882451
  0
LINE
  5
251
100
AcDbEntity
  8
0
100
AcDbLine
 62
7
  6
BYLAYER
 10
38.1668117162
 20
43.4932912634
 11
38.6064684068
 21
51.0072530055
  0
LINE
  5
252
100
AcDbEntity
  8
0
100
AcDbLine
 62
7
  6
BYLAYER
 10
38.7515539466
 20
44.2335653821
 11
39.1935505405
 21
51.7875172911
  0
LINE
  5
253
100
AcDbEntity
  8
0
100
AcDbLine
 62
7
  6
BYLAYER
 10
38.7449462283
 20
44.1711904118
 11
38.7515531565
 21
44.2335518791
  0
LINE
  5
254
100
AcDbEntity
  8
0
100
AcDbLine
 62
7
  6
BYLAYER
 10
38.7449461152
 20
44.1711883704
 11
38.0120010192
 21
39.4065896755
  0
LINE
  5
255
100
AcDbEntity
  8
0
100
AcDbLine
 62
7
  6
BYLAYER
 10
37.2624410496
 20
28.4374893322
 11
37.0674112672
 21
27.6269928188
  0
LINE
  5
256
100
AcDbEntity
  8
0
100
AcDbLine
 62
7
  6
BYLAYER
 10
36.8671650166
 20
27.7033898564
 11
37.2624386059
 21
28.8457405412
  0
LINE
  5
257
100
AcDbEntity
  8
0
100
AcDbLine
 62
7
  6
BYLAYER
 10
29.8671951752
 20
48.1882551962
 11
30.7611433076
 21
47.827192687
  0
LINE
  5
258
100
AcDbEntity
  8
0
100
AcDbLine
 62
7
  6
BYLAYER
 10
30.7785812183
 20
47.8372604093
 11
29.7147976201
 21
48.2673009384
  0
LINE
  5
259
100
AcDbEntity
  8
0
100
AcDbLine
 62
7
  6
BYLAYER
 10
29.8594536316
 20
48.1837856406
 11
29.7147976201
 21
48.2673009384
  0
LINE
  5
25A
100
AcDbEntity
  8
0
100
AcDbLine
 62
7
  6
BYLAYER
 10
36.3776272701
 20
26.2213682482
 11
37.0674112672
 21
27.6269928188
  0
LINE
  5
25B
100
AcDbEntity
  8
0
100
AcDbLine
 62
7
  6
BYLAYER
 10
24.4826489678
 20
64.2822136426
 11
24.0629824095
 21
64.7134944363
  0
LINE
  5
25C
100
AcDbEntity
  8
0
100
AcDbLine
 62
7
  6
BYLAYER
 10
37.9715038932
 20
54.8368731877
 11
34.5530604271
 21
57.9450843688
  0
LINE
  5
25D
100
AcDbEntity
  8
0
100
AcDbLine
 62
7
  6
BYLAYER
 10
25.0900108549
 20
64.1330123882
 11
25.0952175842
 21
64.1302733709
  0
LINE
  5
25E
100
AcDbEntity
  8
0
100
AcDbLine
 62
7
  6
BYLAYER
 10
33.5870664802
 20
58.6506366445
 11
30.5022602236
 21
60.4316100762
  0
LINE
  5
25F
100
AcDbEntity
  8
0
100
AcDbLine
 62
7
  6
BYLAYER
 10
24.5482061435
 20
64.2732499383
 11
23.9597148654
 21
64.6130078497
  0
LINE
  5
260
100
AcDbEntity
  8
0
100
AcDbLine
 62
7
  6
BYLAYER
 10
21.2769856648
 20
66.3350513376
 11
24.0347135929
 21
64.742912395
  0
LINE
  5
261
100
AcDbEntity
  8
0
100
AcDbLine
 62
7
  6
BYLAYER
 10
25.0902729404
 20
64.1334671617
 11
27.9238170812
 21
62.4975882451
  0
ARC
  5
262
100
AcDbEntity
  8
0
100
AcDbCircle
 62
7
  6
BYLAYER
 10
30.7911258202
 20
53.808563235
 40
5.5913289187
100
AcDbArc
 50
47.7152324465
 51
59.9967317992
  0
ARC
  5
263
100
AcDbEntity
  8
0
100
AcDbCircle
 62
7
  6
BYLAYER
 10
31.1709683391
 20
28.9133082109
 40
4.3909841128
100
AcDbArc
 50
240.0350538714
 51
242.8794759859
  0
ARC
  5
264
100
AcDbEntity
  8
0
100
AcDbCircle
 62
7
  6
BYLAYER
 10
31.2192622769
 20
28.5250623187
 40
4.1647749226
100
AcDbArc
 50
236.6528756124
 51
240.0112984994
  0
ARC
  5
265
100
AcDbEntity
  8
0
100
AcDbCircle
 62
7
  6
BYLAYER
 10
28.2661310163
 20
49.2007490139
 40
2.6740271578
100
AcDbArc
 50
213.7682353826
 51
219.5647828619
  0
ARC
  5
266
100
AcDbEntity
  8
0
100
AcDbCircle
 62
7
  6
BYLAYER
 10
27.5138203574
 20
49.767598051
 40
2.6204948057
100
AcDbArc
 50
240.0287323357
 51
240.4347177331
  0
ARC
  5
267
100
AcDbEntity
  8
0
100
AcDbCircle
 62
7
  6
BYLAYER
 10
19.0550053419
 20
53.6676204732
 40
2.4186289994
100
AcDbArc
 50
239.065582599
 51
239.995098672
  0
ARC
  5
268
100
AcDbEntity
  8
0
100
AcDbCircle
 62
7
  6
BYLAYER
 10
22.8252956371
 20
62.648551956
 40
2.4184578968
100
AcDbArc
 50
59.0651882917
 51
59.995111362
  0
ARC
  5
269
100
AcDbEntity
  8
0
100
AcDbCircle
 62
7
  6
BYLAYER
 10
33.0101583925
 20
56.2491803523
 40
2.2927273381
100
AcDbArc
 50
47.7046257447
 51
51.4229293076
  0
ARC
  5
26A
100
AcDbEntity
  8
0
100
AcDbCircle
 62
7
  6
BYLAYER
 10
38.5254228929
 20
51.8264716076
 40
0.6692532264
100
AcDbArc
 50
356.6631891037
 51
359.1724790131
  0
ARC
  5
26B
100
AcDbEntity
  8
0
100
AcDbCircle
 62
7
  6
BYLAYER
 10
38.510346329
 20
51.8155259093
 40
0.6678498338
100
AcDbArc
 50
358.095357569
 51
0.0089521357
  0
ARC
  5
26C
100
AcDbEntity
  8
0
100
AcDbCircle
 62
7
  6
BYLAYER
 10
25.9083518974
 20
47.2522327766
 40
0.3847046686
100
AcDbArc
 50
34.924999777
 51
39.6143369595
  0
SPLINE
  5
26D
100
AcDbEntity
  8
0
100
AcDbSpline
 62
7
  6
BYLAYER
 70
0
 71
3
 72
15
 73
11
 74
0
 42
0.0000001
 43
0.0000001
 44
0.0000000001
 40
0.0
 40
0.0
 40
0.0
 40
0.0
 40
0.1485541249
 40
0.2895082741
 40
0.4227311632
 40
0.5486381674
 40
0.6679988585
 40
0.7819380265
 40
0.8919874018
 40
1.0
 40
1.0
 40
1.0
 40
1.0
 10
17.6520471703
 20
65.9759741745
 30
0.0
 10
17.8155241899
 20
66.0703571124
 30
0.0
 10
18.1419612456
 20
66.2412057257
 30
0.0
 10
18.6398533408
 20
66.445054553
 30
0.0
 10
19.128933039
 20
66.5876194529
 30
0.0
 10
19.6044710004
 20
66.6673721618
 30
0.0
 10
20.0620905767
 20
66.6833101624
 30
0.0
 10
20.4973966277
 20
66.6347427516
 30
0.0
 10
20.9057529468
 20
66.5218595364
 30
0.0
 10
21.1581085728
 20
66.4036519285
 30
0.0
 10
21.2769719903
 20
66.3350276521
 30
0.0
  0
SPLINE
  5
26E
100
AcDbEntity
  8
0
100
AcDbSpline
 62
7
  6
BYLAYER
 70
0
 71
3
 72
9
 73
5
 74
0
 42
0.0000001
 43
0.0000001
 44
0.0000000001
 40
0.0
 40
0.0
 40
0.0
 40
0.0
 40
0.2480713872
 40
1.0
 40
1.0
 40
1.0
 40
1.0
 10
37.1726575764
 20
38.5416743747
 30
0.0
 10
37.1704623412
 20
38.511196872
 30
0.0
 10
37.1583317575
 20
38.3885913897
 30
0.0
 10
37.1329695375
 20
38.2673442215
 30
0.0
 10
37.1071944829
 20
38.1783833334
 30
0.0
  0
SPLINE
  5
26F
100
AcDbEntity
  8
0
100
AcDbSpline
 62
7
  6
BYLAYER
 70
0
 71
3
 72
22
 73
18
 74
0
 42
0.0000001
 43
0.0000001
 44
0.0000000001
 40
0.0
 40
0.0
 40
0.0
 40
0.0
 40
0.0428173791
 40
0.0874038763
 40
0.1351903703
 40
0.1871068804
 40
0.2435589613
 40
0.3045219639
 40
0.369628234
 40
0.4382430778
 40
0.5095506959
 40
0.5825940992
 40
0.7296179714
 40
0.8016134085
 40
0.8712260252
 40
0.937626545
 40
1.0
 40
1.0
 40
1.0
 40
1.0
 10
34.2624286801
 20
6.800175277
 30
0.0
 10
34.2624183302
 20
6.7389737573
 30
0.0
 10
34.2460836488
 20
6.6135060991
 30
0.0
 10
34.1740881411
 20
6.4323637549
 30
0.0
 10
34.0573683183
 20
6.2606020967
 30
0.0
 10
33.8990963058
 20
6.1016991081
 30
0.0
 10
33.7030071452
 20
5.9584060165
 30
0.0
 10
33.4732540982
 20
5.8334197496
 30
0.0
 10
33.2146261269
 20
5.7292516996
 30
0.0
 10
32.9325960464
 20
5.6479422053
 30
0.0
 10
32.6330647343
 20
5.5912560218
 30
0.0
 10
32.2182524954
 20
5.5500210969
 30
0.0
 10
31.7985071237
 20
5.5616014954
 30
0.0
 10
31.3906235811
 20
5.6262071921
 30
0.0
 10
31.1019710259
 20
5.6994650234
 30
0.0
 10
30.8349535269
 20
5.7962910971
 30
0.0
 10
30.6693780608
 20
5.8778739908
 30
0.0
 10
30.5921677996
 20
5.9224503475
 30
0.0
  0
SPLINE
  5
270
100
AcDbEntity
  8
0
100
AcDbSpline
 62
7
  6
BYLAYER
 70
0
 71
3
 72
11
 73
7
 74
0
 42
0.0000001
 43
0.0000001
 44
0.0000000001
 40
0.0
 40
0.0
 40
0.0
 40
0.0
 40
0.2581920937
 40
0.5098797343
 40
0.7564153665
 40
1.0
 40
1.0
 40
1.0
 40
1.0
 10
28.9298435898
 20
25.0459945943
 30
0.0
 10
28.8137214077
 20
25.1225051538
 30
0.0
 10
28.5920769419
 20
25.2857737375
 30
0.0
 10
28.2942179649
 20
25.5652650005
 30
0.0
 10
28.0407557173
 20
25.8757013918
 30
0.0
 10
27.9050518084
 20
26.1035910099
 30
0.0
 10
27.8472548291
 20
26.2213682482
 30
0.0
  0
SPLINE
  5
271
100
AcDbEntity
  8
0
100
AcDbSpline
 62
7
  6
BYLAYER
 70
0
 71
3
 72
22
 73
18
 74
0
 42
0.0000001
 43
0.0000001
 44
0.0000000001
 40
0.0
 40
0.0
 40
0.0
 40
0.0
 40
0.0544603939
 40
0.1096974634
 40
0.166311564
 40
0.2246377723
 40
0.2849329327
 40
0.3472711456
 40
0.4115119215
 40
0.4773439867
 40
0.5443285013
 40
0.6119250496
 40
0.7465313592
 40
0.8125029468
 40
0.8769207281
 40
0.9395272935
 40
1.0
 40
1.0
 40
1.0
 40
1.0
 10
36.3776272701
 20
26.2213682482
 30
0.0
 10
36.3132578826
 20
26.0901979209
 30
0.0
 10
36.1594742936
 20
25.8372408522
 30
0.0
 10
35.8679083651
 20
25.4973300889
 30
0.0
 10
35.5230241521
 20
25.1959910371
 30
0.0
 10
35.1317269231
 20
24.9333763516
 30
0.0
 10
34.6998963936
 20
24.7094962704
 30
0.0
 10
34.2331621936
 20
24.5243008938
 30
0.0
 10
33.7372508113
 20
24.3785157665
 30
0.0
 10
33.2186194557
 20
24.2728847175
 30
0.0
 10
32.6842203367
 20
24.2082469354
 30
0.0
 10
31.9621570258
 20
24.1774843875
 30
0.0
 10
31.2410124884
 20
24.2294313428
 30
0.0
 10
30.5424984784
 20
24.3651767164
 30
0.0
 10
30.0436843506
 20
24.5067074507
 30
0.0
 10
29.5736064802
 20
24.6877458765
 30
0.0
 10
29.2780941587
 20
24.8367303376
 30
0.0
 10
29.1375861028
 20
24.9178508663
 30
0.0
  0
SPLINE
  5
272
100
AcDbEntity
  8
0
100
AcDbSpline
 62
7
  6
BYLAYER
 70
0
 71
3
 72
13
 73
9
 74
0
 42
0.0000001
 43
0.0000001
 44
0.0000000001
 40
0.0
 40
0.0
 40
0.0
 40
0.0
 40
0.1243261823
 40
0.2481361654
 40
0.3720554774
 40
0.4961806513
 40
0.7456638388
 40
1.0
 40
1.0
 40
1.0
 40
1.0
 10
37.9715038932
 20
54.8368731877
 30
0.0
 10
38.074142682
 20
54.7435491254
 30
0.0
 10
38.2674559308
 20
54.5441437551
 30
0.0
 10
38.5181778872
 20
54.2120743938
 30
0.0
 10
38.7280252513
 20
53.8530513797
 30
0.0
 10
38.9537574404
 20
53.3448020916
 30
0.0
 10
39.1347063086
 20
52.6628454294
 30
0.0
 10
39.1782119326
 20
52.0994184839
 30
0.0
 10
39.1782119326
 20
51.8156302834
 30
0.0
  0
SPLINE
  5
273
100
AcDbEntity
  8
0
100
AcDbSpline
 62
7
  6
BYLAYER
 70
0
 71
3
 72
15
 73
11
 74
0
 42
0.0000001
 43
0.0000001
 44
0.0000000001
 40
0.0
 40
0.0
 40
0.0
 40
0.0
 40
0.1184871485
 40
0.2372608097
 40
0.3573245968
 40
0.479177945
 40
0.6036563386
 40
0.7315620218
 40
0.8636075936
 40
1.0
 40
1.0
 40
1.0
 40
1.0
 10
23.752374751
 20
48.7402010034
 30
0.0
 10
23.613165869
 20
48.8205714707
 30
0.0
 10
23.3472324003
 20
49.0049853657
 30
0.0
 10
22.9979188843
 20
49.3439241504
 30
0.0
 10
22.7024174446
 20
49.7363010462
 30
0.0
 10
22.4634091073
 20
50.1739559316
 30
0.0
 10
22.2805243489
 20
50.6490081345
 30
0.0
 10
22.1523643025
 20
51.1557112854
 30
0.0
 10
22.0772290741
 20
51.6890352632
 30
0.0
 10
22.0614704233
 20
52.0534671163
 30
0.0
 10
22.0614704233
 20
52.238501655
 30
0.0
  0
SPLINE
  5
274
100
AcDbEntity
  8
0
100
AcDbSpline
 62
7
  6
BYLAYER
 70
0
 71
3
 72
25
 73
21
 74
0
 42
0.0000001
 43
0.0000001
 44
0.0000000001
 40
0.0
 40
0.0
 40
0.0
 40
0.0
 40
0.0618688586
 40
0.1266187839
 40
0.1937920852
 40
0.2628173224
 40
0.3329095581
 40
0.4032150115
 40
0.4728604844
 40
0.5410253731
 40
0.6070110404
 40
0.6703086259
 40
0.7306689151
 40
0.7881584487
 40
0.8431546644
 40
0.8699419869
 40
0.8963706252
 40
0.9483777101
 40
0.9741735393
 40
1.0
 40
1.0
 40
1.0
 40
1.0
 10
22.0614704233
 20
52.238501655
 30
0.0
 10
22.0614704233
 20
52.5182378061
 30
0.0
 10
22.0988229517
 20
53.0911502493
 30
0.0
 10
22.2531071159
 20
53.9552115544
 30
0.0
 10
22.5024093584
 20
54.8304160528
 30
0.0
 10
22.8405622356
 20
55.701045274
 30
0.0
 10
23.260717773
 20
56.5509672169
 30
0.0
 10
23.7543491814
 20
57.3636882055
 30
0.0
 10
24.3118726069
 20
58.1232529619
 30
0.0
 10
24.9229287145
 20
58.8147295856
 30
0.0
 10
25.576944247
 20
59.4246196639
 30
0.0
 10
26.2637388229
 20
59.9409531274
 30
0.0
 10
26.9741355311
 20
60.3530612966
 30
0.0
 10
27.6997604271
 20
60.6504822357
 30
0.0
 10
28.3163228974
 20
60.7945283439
 30
0.0
 10
28.8044026527
 20
60.8381785386
 30
0.0
 10
29.2807093233
 20
60.8331277249
 30
0.0
 10
29.749896286
 20
60.7531523889
 30
0.0
 10
30.1917218332
 20
60.5946374824
 30
0.0
 10
30.4011315123
 20
60.489995444
 30
0.0
 10
30.5022602236
 20
60.4316100762
 30
0.0
  0
SPLINE
  5
275
100
AcDbEntity
  8
0
100
AcDbSpline
 62
7
  6
BYLAYER
 70
0
 71
3
 72
15
 73
11
 74
0
 42
0.0000001
 43
0.0000001
 44
0.0000000001
 40
0.0
 40
0.0
 40
0.0
 40
0.0
 40
0.1485109674
 40
0.2894602381
 40
0.4226910318
 40
0.5486089889
 40
0.6679854214
 40
0.7819449949
 40
0.892000607
 40
1.0
 40
1.0
 40
1.0
 40
1.0
 10
21.4704396861
 20
63.7714741001
 30
0.0
 10
21.6336178688
 20
63.8656845055
 30
0.0
 10
21.9594900436
 20
64.0362528063
 30
0.0
 10
22.4565059527
 20
64.2399154772
 30
0.0
 10
22.9447790611
 20
64.382489924
 30
0.0
 10
23.4195600756
 20
64.4625169932
 30
0.0
 10
23.8765094649
 20
64.4788806554
 30
0.0
 10
24.3112711509
 20
64.4310925458
 30
0.0
 10
24.7192031836
 20
64.3190967364
 30
0.0
 10
24.9714470345
 20
64.2016999815
 30
0.0
 10
25.0902729404
 20
64.1334671617
 30
0.0
  0
SPLINE
  5
276
100
AcDbEntity
  8
0
100
AcDbSpline
 62
7
  6
BYLAYER
 70
0
 71
3
 72
11
 73
7
 74
0
 42
0.0000001
 43
0.0000001
 44
0.0000000001
 40
0.0
 40
0.0
 40
0.0
 40
0.0
 40
0.2353897737
 40
0.4770753867
 40
0.7305661604
 40
1.0
 40
1.0
 40
1.0
 40
1.0
 10
20.6739468613
 20
49.9401605946
 30
0.0
 10
20.8162895082
 20
49.8579640252
 30
0.0
 10
21.1228541897
 20
49.7208089684
 30
0.0
 10
21.6235944996
 20
49.6084814363
 30
0.0
 10
22.159833302
 20
49.5891347976
 30
0.0
 10
22.5236446015
 20
49.6360318502
 30
0.0
 10
22.708118437
 20
49.6730089872
 30
0.0
  0
SPLINE
  5
277
100
AcDbEntity
  8
0
100
AcDbSpline
 62
7
  6
BYLAYER
 70
0
 71
3
 72
11
 73
7
 74
0
 42
0.0000001
 43
0.0000001
 44
0.0000000001
 40
0.0
 40
0.0
 40
0.0
 40
0.0
 40
0.2439680209
 40
0.490541229
 40
0.7419005881
 40
1.0
 40
1.0
 40
1.0
 40
1.0
 10
17.8116931506
 20
51.5930262884
 30
0.0
 10
17.7288672885
 20
51.6426640591
 30
0.0
 10
17.568165042
 20
51.7525798288
 30
0.0
 10
17.3466236708
 20
51.9462898514
 30
0.0
 10
17.145094293
 20
52.1683155514
 30
0.0
 10
17.0264533288
 20
52.3319083873
 30
0.0
 10
16.9707599354
 20
52.4175454982
 30
0.0
  0
SPLINE
  5
278
100
AcDbEntity
  8
0
100
AcDbSpline
 62
7
  6
BYLAYER
 70
0
 71
3
 72
23
 73
19
 74
0
 42
0.0000001
 43
0.0000001
 44
0.0000000001
 40
0.0
 40
0.0
 40
0.0
 40
0.0
 40
0.0454487111
 40
0.0942741616
 40
0.1468694085
 40
0.2033231643
 40
0.2634732118
 40
0.3269619428
 40
0.3932785321
 40
0.4617951896
 40
0.5318042884
 40
0.6025451829
 40
0.6732293116
 40
0.7430761078
 40
0.8113296632
 40
0.8772838273
 40
0.9403557873
 40
1.0
 40
1.0
 40
1.0
 40
1.0
 10
16.9707599354
 20
52.4175454982
 30
0.0
 10
16.8614105082
 20
52.5856869683
 30
0.0
 10
16.6692654435
 20
52.957794254
 30
0.0
 10
16.472218974
 20
53.5778323968
 30
0.0
 10
16.3590112692
 20
54.2674763494
 30
0.0
 10
16.3309743987
 20
55.0153242524
 30
0.0
 10
16.3880858015
 20
55.8094469629
 30
0.0
 10
16.529281867
 20
56.6369765313
 30
0.0
 10
16.7522161432
 20
57.4844123469
 30
0.0
 10
17.0531488964
 20
58.3378565851
 30
0.0
 10
17.4271075094
 20
59.1832535618
 30
0.0
 10
17.8679529558
 20
60.0066143628
 30
0.0
 10
18.3683673182
 20
60.794343104
 30
0.0
 10
18.9200818979
 20
61.5334219528
 30
0.0
 10
19.5139726624
 20
62.2116162956
 30
0.0
 10
20.1403504702
 20
62.8178618238
 30
0.0
 10
20.7888228678
 20
63.3419102157
 30
0.0
 10
21.2424858871
 20
63.6398656985
 30
0.0
 10
21.4704396861
 20
63.7714741001
 30
0.0
  0
SPLINE
  5
279
100
AcDbEntity
  8
0
100
AcDbSpline
 62
7
  6
BYLAYER
 70
0
 71
3
 72
25
 73
21
 74
0
 42
0.0000001
 43
0.0000001
 44
0.0000000001
 40
0.0
 40
0.0
 40
0.0
 40
0.0
 40
0.0213324278
 40
0.0428930677
 40
0.0648990511
 40
0.0875438511
 40
0.1353198112
 40
0.1872210252
 40
0.2436584171
 40
0.3046059872
 40
0.3696937705
 40
0.438290907
 40
0.5095768114
 40
0.5826008831
 40
0.6563323296
 40
0.7297077759
 40
0.8016850693
 40
0.8712727824
 40
0.9376232422
 40
1.0
 40
1.0
 40
1.0
 40
1.0
 10
14.0271191502
 20
53.7776298495
 30
0.0
 10
13.9380503386
 20
53.8290637914
 30
0.0
 10
13.7653854257
 20
53.9440833616
 30
0.0
 10
13.5283717767
 20
54.1495571359
 30
0.0
 10
13.3141053953
 20
54.3872648811
 30
0.0
 10
13.0556686841
 20
54.7513613576
 30
0.0
 10
12.7970306847
 20
55.2864422388
 30
0.0
 10
12.599848044
 20
56.016431607
 30
0.0
 10
12.5119723167
 20
56.8307576134
 30
0.0
 10
12.5344142135
 20
57.7124626425
 30
0.0
 10
12.6661960943
 20
58.6434214407
 30
0.0
 10
12.9043667096
 20
59.6041572795
 30
0.0
 10
13.2438073581
 20
60.5744097266
 30
0.0
 10
13.6772948802
 20
61.5335771732
 30
0.0
 10
14.1955876051
 20
62.4612175056
 30
0.0
 10
14.7876440103
 20
63.337551947
 30
0.0
 10
15.4408367787
 20
64.1438358275
 30
0.0
 10
16.1413033732
 20
64.8631009223
 30
0.0
 10
16.8741304903
 20
65.4797543029
 30
0.0
 10
17.3915937788
 20
65.8256022364
 30
0.0
 10
17.6520471703
 20
65.9759741745
 30
0.0
  0
SPLINE
  5
27A
100
AcDbEntity
  8
0
100
AcDbSpline
 62
7
  6
BYLAYER
 70
0
 71
3
 72
13
 73
9
 74
0
 42
0.0000001
 43
0.0000001
 44
0.0000000001
 40
0.0
 40
0.0
 40
0.0
 40
0.0
 40
0.2893497657
 40
0.548326184
 40
0.6677516446
 40
0.7817653446
 40
0.891905974
 40
1.0
 40
1.0
 40
1.0
 40
1.0
 10
30.5921677996
 20
5.9224503475
 30
0.0
 10
30.4978125631
 20
5.9769251362
 30
0.0
 10
30.326689961
 20
6.0947005493
 30
0.0
 10
30.1516791411
 20
6.2787984382
 30
0.0
 10
30.0531300306
 20
6.4365249063
 30
0.0
 10
30.0011026432
 20
6.5555328942
 30
0.0
 10
29.9695189693
 20
6.6771319851
 30
0.0
 10
29.962446536
 20
6.7594736806
 30
0.0
 10
29.962453419
 20
6.8001752795
 30
0.0
  0
SPLINE
  5
27B
100
AcDbEntity
  8
0
100
AcDbSpline
 62
7
  6
BYLAYER
 70
0
 71
3
 72
9
 73
5
 74
0
 42
0.0000001
 43
0.0000001
 44
0.0000000001
 40
0.0
 40
0.0
 40
0.0
 40
0.0
 40
0.2398646133
 40
1.0
 40
1.0
 40
1.0
 40
1.0
 10
28.5996088407
 20
47.612979614
 30
0.0
 10
28.5996088407
 20
47.6647445334
 30
0.0
 10
28.6055376989
 20
47.8805407471
 30
0.0
 10
28.6338955314
 20
48.0954859232
 30
0.0
 10
28.6654372059
 20
48.2564690025
 30
0.0
  0
SPLINE
  5
27C
100
AcDbEntity
  8
0
100
AcDbSpline
 62
7
  6
BYLAYER
 70
0
 71
3
 72
9
 73
5
 74
0
 42
0.0000001
 43
0.0000001
 44
0.0000000001
 40
0.0
 40
0.0
 40
0.0
 40
0.0
 40
0.2451870601
 40
1.0
 40
1.0
 40
1.0
 40
1.0
 10
28.6098929597
 20
47.3780108803
 30
0.0
 10
28.6081689266
 20
47.3971592496
 30
0.0
 10
28.6020669582
 20
47.4753382504
 30
0.0
 10
28.5996088407
 20
47.5537925537
 30
0.0
 10
28.5996088407
 20
47.612979614
 30
0.0
  0
SPLINE
  5
27D
100
AcDbEntity
  8
0
100
AcDbSpline
 62
7
  6
BYLAYER
 70
0
 71
3
 72
11
 73
7
 74
0
 42
0.0000001
 43
0.0000001
 44
0.0000000001
 40
0.0
 40
0.0
 40
0.0
 40
0.0
 40
0.2718527503
 40
0.5258661462
 40
0.7665290812
 40
1.0
 40
1.0
 40
1.0
 40
1.0
 10
27.6069081771
 20
30.2859025883
 30
0.0
 10
27.5056057156
 20
30.1802591677
 30
0.0
 10
27.3238139444
 20
29.9613921705
 30
0.0
 10
27.1172392407
 20
29.6014752506
 30
0.0
 10
26.990972059
 20
29.2275336144
 30
0.0
 10
26.9624480124
 20
28.9714408586
 30
0.0
 10
26.9624472141
 20
28.8457405403
 30
0.0
  0
SPLINE
  5
27E
100
AcDbEntity
  8
0
100
AcDbSpline
 62
7
  6
BYLAYER
 70
0
 71
3
 72
25
 73
21
 74
0
 42
0.0000001
 43
0.0000001
 44
0.0000000001
 40
0.0
 40
0.0
 40
0.0
 40
0.0
 40
0.0623762279
 40
0.1287254749
 40
0.198312566
 40
0.2702901879
 40
0.343667126
 40
0.4173987979
 40
0.4904230993
 40
0.5617095994
 40
0.6303073028
 40
0.6953955392
 40
0.7563433391
 40
0.8127807237
 40
0.8646816877
 40
0.9124572118
 40
0.9351017743
 40
0.9571074821
 40
0.9786678079
 40
1.0
 40
1.0
 40
1.0
 40
1.0
 10
24.2988785867
 20
62.138511082
 30
0.0
 10
24.0384271863
 20
61.9881402935
 30
0.0
 10
23.520969392
 20
61.6422983559
 30
0.0
 10
22.7881501125
 20
61.0256521946
 30
0.0
 10
22.0876844585
 20
60.3063951878
 30
0.0
 10
21.4344864775
 20
59.500106872
 30
0.0
 10
20.8424212819
 20
58.6237654048
 30
0.0
 10
20.3241219019
 20
57.6961168918
 30
0.0
 10
19.8906324794
 20
56.7369437541
 30
0.0
 10
19.5511887024
 20
55.7666843552
 30
0.0
 10
19.3130168487
 20
54.8059398644
 30
0.0
 10
19.181235785
 20
53.8749740021
 30
0.0
 10
19.1587970051
 20
52.9932648063
 30
0.0
 10
19.2466765894
 20
52.1789386672
 30
0.0
 10
19.4438619581
 20
51.4489527327
 30
0.0
 10
19.7025024896
 20
50.9138774728
 30
0.0
 10
19.9609391591
 20
50.5497861234
 30
0.0
 10
20.1752047376
 20
50.3120827121
 30
0.0
 10
20.4122157713
 20
50.1066117313
 30
0.0
 10
20.584878676
 20
49.9915935237
 30
0.0
 10
20.6739468613
 20
49.9401605946
 30
0.0
  0
SPLINE
  5
27F
100
AcDbEntity
  8
0
100
AcDbSpline
 62
7
  6
BYLAYER
 70
0
 71
3
 72
16
 73
12
 74
0
 42
0.0000001
 43
0.0000001
 44
0.0000000001
 40
0.0
 40
0.0
 40
0.0
 40
0.0
 40
0.1092032555
 40
0.2190688973
 40
0.3320474128
 40
0.4502529403
 40
0.5118789537
 40
0.5753746897
 40
0.7083756104
 40
0.849956101
 40
1.0
 40
1.0
 40
1.0
 40
1.0
 10
28.1398917027
 20
60.7022860236
 30
0.0
 10
28.0442491244
 20
60.7767367288
 30
0.0
 10
27.8379885314
 20
60.9086460225
 30
0.0
 10
27.4938140799
 20
61.0460460592
 30
0.0
 10
27.120763034
 20
61.1208552697
 30
0.0
 10
26.7944489758
 20
61.130462151
 30
0.0
 10
26.5251120258
 20
61.1082475552
 30
0.0
 10
26.2417847145
 20
61.0643401296
 30
0.0
 10
25.8776721835
 20
60.9691772084
 30
0.0
 10
25.438145836
 20
60.7966395309
 30
0.0
 10
25.1502101405
 20
60.6474500426
 30
0.0
 10
25.0059883118
 20
60.564184028
 30
0.0
  0
SPLINE
  5
280
100
AcDbEntity
  8
0
100
AcDbSpline
 62
7
  6
BYLAYER
 70
0
 71
3
 72
25
 73
21
 74
0
 42
0.0000001
 43
0.0000001
 44
0.0000000001
 40
0.0
 40
0.0
 40
0.0
 40
0.0
 40
0.0629580619
 40
0.1300192196
 40
0.2003843832
 40
0.2731469119
 40
0.3472428144
 40
0.4215582982
 40
0.4949656381
 40
0.5663789961
 40
0.634810189
 40
0.6994264533
 40
0.7596218943
 40
0.8150979477
 40
0.865960558
 40
0.9128244713
 40
0.9351481558
 40
0.9569653594
 40
0.9785023047
 40
1.0
 40
1.0
 40
1.0
 40
1.0
 10
25.0059883118
 20
60.564184028
 30
0.0
 10
24.7910118872
 20
60.4400680722
 30
0.0
 10
24.3640571235
 20
60.1535864429
 30
0.0
 10
23.7606936629
 20
59.6413793733
 30
0.0
 10
23.1854383948
 20
59.0429705678
 30
0.0
 10
22.6511918007
 20
58.3720577946
 30
0.0
 10
22.1699156368
 20
57.6435008888
 30
0.0
 10
21.7524234151
 20
56.8737331701
 30
0.0
 10
21.4080735402
 20
56.0800551198
 30
0.0
 10
21.144611651
 20
55.2802769133
 30
0.0
 10
20.9679627752
 20
54.4922747632
 30
0.0
 10
20.8821557883
 20
53.7335201118
 30
0.0
 10
20.889251659
 20
53.0206655457
 30
0.0
 10
20.9897026227
 20
52.3690756637
 30
0.0
 10
21.1822551293
 20
51.793042117
 30
0.0
 10
21.4221308102
 20
51.3800222834
 30
0.0
 10
21.655541805
 20
51.1064384535
 30
0.0
 10
21.8473811488
 20
50.9314210954
 30
0.0
 10
22.0574830582
 20
50.7844701916
 30
0.0
 10
22.2086231556
 20
50.7060894903
 30
0.0
 10
22.2862398864
 20
50.6720277266
 30
0.0
  0
SPLINE
  5
281
100
AcDbEntity
  8
0
100
AcDbSpline
 62
7
  6
BYLAYER
 70
0
 71
3
 72
11
 73
7
 74
0
 42
0.0000001
 43
0.0000001
 44
0.0000000001
 40
0.0
 40
0.0
 40
0.0
 40
0.0
 40
0.2769318429
 40
0.5354592733
 40
0.7757833939
 40
1.0
 40
1.0
 40
1.0
 40
1.0
 10
25.0059883118
 20
59.6481891638
 30
0.0
 10
25.1409739339
 20
59.7261226839
 30
0.0
 10
25.410225689
 20
59.8632331869
 30
0.0
 10
25.8219819431
 20
60.0123093519
 30
0.0
 10
26.2219738732
 20
60.0951349032
 30
0.0
 10
26.4848951939
 20
60.105104787
 30
0.0
 10
26.6108707367
 20
60.097621605
 30
0.0
  0
SPLINE
  5
282
100
AcDbEntity
  8
0
100
AcDbSpline
 62
7
  6
BYLAYER
 70
0
 71
3
 72
15
 73
11
 74
0
 42
0.0000001
 43
0.0000001
 44
0.0000000001
 40
0.0
 40
0.0
 40
0.0
 40
0.0
 40
0.1080123463
 40
0.2180618712
 40
0.332003975
 40
0.451361086
 40
0.5772658582
 40
0.7104953781
 40
0.851458928
 40
1.0
 40
1.0
 40
1.0
 40
1.0
 10
27.9238103121
 20
62.4975765211
 30
0.0
 10
27.8049531981
 20
62.5662112363
 30
0.0
 10
27.5525755003
 20
62.6843707042
 30
0.0
 10
27.1442329787
 20
62.7973128308
 30
0.0
 10
26.7089185598
 20
62.8458195308
 30
0.0
 10
26.2513033809
 20
62.8299327443
 30
0.0
 10
25.7757661997
 20
62.7501520325
 30
0.0
 10
25.2866674583
 20
62.6075925439
 30
0.0
 10
24.7887798221
 20
62.4037206351
 30
0.0
 10
24.4623413385
 20
62.2328857825
 30
0.0
 10
24.2988785867
 20
62.138511082
 30
0.0
  0
SPLINE
  5
283
100
AcDbEntity
  8
0
100
AcDbSpline
 62
7
  6
BYLAYER
 70
0
 71
3
 72
15
 73
11
 74
0
 42
0.0000001
 43
0.0000001
 44
0.0000000001
 40
0.0
 40
0.0
 40
0.0
 40
0.0
 40
0.1485537688
 40
0.2895072193
 40
0.4227299353
 40
0.5486371437
 40
0.6679980985
 40
0.7819375009
 40
0.8919871476
 40
1.0
 40
1.0
 40
1.0
 40
1.0
 10
27.1273174873
 20
60.0972968554
 30
0.0
 10
27.2795200559
 20
60.1851705248
 30
0.0
 10
27.5834431752
 20
60.3442366832
 30
0.0
 10
28.0469969418
 20
60.5340270383
 30
0.0
 10
28.5023463193
 20
60.6667614732
 30
0.0
 10
28.9450892089
 20
60.7410155061
 30
0.0
 10
29.3711501289
 20
60.7558565305
 30
0.0
 10
29.776436595
 20
60.7106392285
 30
0.0
 10
30.1566321085
 20
60.6055419173
 30
0.0
 10
30.391584807
 20
60.4954861525
 30
0.0
 10
30.502251146
 20
60.4315943529
 30
0.0
  0
SPLINE
  5
284
100
AcDbEntity
  8
0
100
AcDbSpline
 62
7
  6
BYLAYER
 70
0
 71
3
 72
19
 73
15
 74
0
 42
0.0000001
 43
0.0000001
 44
0.0000000001
 40
0.0
 40
0.0
 40
0.0
 40
0.0
 40
0.0558341902
 40
0.1142087532
 40
0.1748270319
 40
0.237406679
 40
0.367018528
 40
0.5000016005
 40
0.6329844501
 40
0.7625956479
 40
0.8251748248
 40
0.8857925496
 40
0.944166488
 40
1.0
 40
1.0
 40
1.0
 40
1.0
 10
22.3543665861
 20
51.8302575011
 30
0.0
 10
22.3543665861
 20
52.0148532118
 30
0.0
 10
22.3708035686
 20
52.3925796976
 30
0.0
 10
22.4403049167
 20
52.9668790507
 30
0.0
 10
22.5547577189
 20
53.5566769067
 30
0.0
 10
22.7681506678
 20
54.3653180194
 30
0.0
 10
23.1403199497
 20
55.3769484757
 30
0.0
 10
23.7309600106
 20
56.546848232
 30
0.0
 10
24.4487963377
 20
57.6433091327
 30
0.0
 10
25.1388031208
 20
58.4714319012
 30
0.0
 10
25.7324048068
 20
59.0605539569
 30
0.0
 10
26.1859535484
 20
59.454569134
 30
0.0
 10
26.6485556983
 20
59.8019052118
 30
0.0
 10
26.9674546156
 20
60.0050005343
 30
0.0
 10
27.1273174873
 20
60.0972968554
 30
0.0
  0
SPLINE
  5
285
100
AcDbEntity
  8
0
100
AcDbSpline
 62
7
  6
BYLAYER
 70
0
 71
3
 72
13
 73
9
 74
0
 42
0.0000001
 43
0.0000001
 44
0.0000000001
 40
0.0
 40
0.0
 40
0.0
 40
0.0
 40
0.1082347828
 40
0.2187341806
 40
0.3331593479
 40
0.4529011205
 40
0.7118427683
 40
1.0
 40
1.0
 40
1.0
 40
1.0
 10
39.1778271933
 20
51.7933291458
 30
0.0
 10
39.1766130981
 20
51.7568209152
 30
0.0
 10
39.1680358728
 20
51.6831080391
 30
0.0
 10
39.137171686
 20
51.574537384
 30
0.0
 10
39.0887434266
 20
51.4683139834
 30
0.0
 10
38.9990477584
 20
51.3275823086
 30
0.0
 10
38.8424875711
 20
51.1629654068
 30
0.0
 10
38.6902317322
 20
51.0566237329
 30
0.0
 10
38.6064330599
 20
51.0072728133
 30
0.0
  0
SPLINE
  5
286
100
AcDbEntity
  8
0
100
AcDbSpline
 62
7
  6
BYLAYER
 70
0
 71
3
 72
15
 73
11
 74
0
 42
0.0000001
 43
0.0000001
 44
0.0000000001
 40
0.0
 40
0.0
 40
0.0
 40
0.0
 40
0.110298135
 40
0.2203170917
 40
0.3328436007
 40
0.4503653966
 40
0.5748072085
 40
0.7075185057
 40
0.8492681559
 40
1.0
 40
1.0
 40
1.0
 40
1.0
 10
37.9714947685
 20
54.8368597347
 30
0.0
 10
37.879015125
 20
54.920935032
 30
0.0
 10
37.6777004025
 20
55.0717538148
 30
0.0
 10
37.3348506764
 20
55.2345429196
 30
0.0
 10
36.9591122723
 20
55.3299834501
 30
0.0
 10
36.556336263
 20
55.356982197
 30
0.0
 10
36.1320777658
 20
55.3161730234
 30
0.0
 10
35.6916454773
 20
55.2085540301
 30
0.0
 10
35.2406938674
 20
55.0358835611
 30
0.0
 10
34.9454654103
 20
54.8837513161
 30
0.0
 10
34.7975462317
 20
54.7983506483
 30
0.0
  0
SPLINE
  5
287
100
AcDbEntity
  8
0
100
AcDbSpline
 62
7
  6
BYLAYER
 70
0
 71
3
 72
15
 73
11
 74
0
 42
0.0000001
 43
0.0000001
 44
0.0000000001
 40
0.0
 40
0.0
 40
0.0
 40
0.0
 40
0.1485414054
 40
0.2895049804
 40
0.422735015
 40
0.5486405945
 40
0.667998209
 40
0.7819396964
 40
0.8919877248
 40
1.0
 40
1.0
 40
1.0
 40
1.0
 10
20.4097750984
 20
64.2613598693
 30
0.0
 10
20.5698561089
 20
64.3537821322
 30
0.0
 10
20.8895407413
 20
64.5210828254
 30
0.0
 10
21.3771282536
 20
64.7207361997
 30
0.0
 10
21.8561091518
 20
64.8603459608
 30
0.0
 10
22.3218098324
 20
64.9384751242
 30
0.0
 10
22.7699577742
 20
64.9540304866
 30
0.0
 10
23.1962631139
 20
64.9065270815
 30
0.0
 10
23.5961547919
 20
64.7959234232
 30
0.0
 10
23.843307143
 20
64.68020557
 30
0.0
 10
23.959704633
 20
64.6129903639
 30
0.0
  0
SPLINE
  5
288
100
AcDbEntity
  8
0
100
AcDbSpline
 62
7
  6
BYLAYER
 70
0
 71
3
 72
23
 73
19
 74
0
 42
0.0000001
 43
0.0000001
 44
0.0000000001
 40
0.0
 40
0.0
 40
0.0
 40
0.0
 40
0.0452899092
 40
0.0939388639
 40
0.146363625
 40
0.2026713264
 40
0.2627148621
 40
0.3261391095
 40
0.3924340703
 40
0.4609722301
 40
0.5310386183
 40
0.6018661413
 40
0.6726606095
 40
0.7426308702
 40
0.811009097
 40
0.877084154
 40
0.940269182
 40
1.0
 40
1.0
 40
1.0
 40
1.0
 10
37.0673935637
 20
27.6269957149
 30
0.0
 10
37.0046373128
 20
27.4991267061
 30
0.0
 10
36.8473398924
 20
27.2466768
 30
0.0
 10
36.5394899822
 20
26.9020347877
 30
0.0
 10
36.1580319566
 20
26.5841666303
 30
0.0
 10
35.7095140186
 20
26.2980057037
 30
0.0
 10
35.2012766116
 20
26.0479474782
 30
0.0
 10
34.6417178627
 20
25.837927691
 30
0.0
 10
34.0400710233
 20
25.6713300379
 30
0.0
 10
33.4062960316
 20
25.5509536012
 30
0.0
 10
32.750946367
 20
25.4787438534
 30
0.0
 10
32.0849452405
 20
25.4558903955
 30
0.0
 10
31.4193984837
 20
25.4828288583
 30
0.0
 10
30.7654179401
 20
25.5590819548
 30
0.0
 10
30.1339199009
 20
25.6833382116
 30
0.0
 10
29.5352986054
 20
25.8536125315
 30
0.0
 10
28.9797125681
 20
26.0671060155
 30
0.0
 10
28.6335454439
 20
26.2411054367
 30
0.0
 10
28.4708562879
 20
26.3350319398
 30
0.0
  0
SPLINE
  5
289
100
AcDbEntity
  8
0
100
AcDbSpline
 62
7
  6
BYLAYER
 70
0
 71
3
 72
15
 73
11
 74
0
 42
0.0000001
 43
0.0000001
 44
0.0000000001
 40
0.0
 40
0.0
 40
0.0
 40
0.0
 40
0.1080093289
 40
0.2180585419
 40
0.3320012511
 40
0.4513454678
 40
0.5772512041
 40
0.710510041
 40
0.8514953979
 40
1.0
 40
1.0
 40
1.0
 40
1.0
 10
36.4770680016
 20
28.8661525791
 30
0.0
 10
36.4770596992
 20
28.7828580607
 30
0.0
 10
36.4626086585
 20
28.6143580636
 30
0.0
 10
36.3980385517
 20
28.3654704716
 30
0.0
 10
36.2914418512
 20
28.1219676326
 30
0.0
 10
36.1442629809
 20
27.8862604356
 30
0.0
 10
35.9580112348
 20
27.6605302714
 30
0.0
 10
35.7346324472
 20
27.4467042012
 30
0.0
 10
35.4763746086
 20
27.2468967989
 30
0.0
 10
35.2875488665
 20
27.1271548124
 30
0.0
 10
35.188368354
 20
27.0698932586
 30
0.0
  0
SPLINE
  5
28A
100
AcDbEntity
  8
0
100
AcDbSpline
 62
7
  6
BYLAYER
 70
0
 71
3
 72
15
 73
11
 74
0
 42
0.0000001
 43
0.0000001
 44
0.0000000001
 40
0.0
 40
0.0
 40
0.0
 40
0.0
 40
0.1080098623
 40
0.2180556448
 40
0.3319811622
 40
0.4513238094
 40
0.5772481816
 40
0.7105047375
 40
0.8514701963
 40
1.0
 40
1.0
 40
1.0
 40
1.0
 10
33.5870638361
 20
58.6506320649
 30
0.0
 10
33.4764055318
 20
58.7145304895
 30
0.0
 10
33.2414295817
 20
58.8245143709
 30
0.0
 10
32.8612833707
 20
58.9296830255
 30
0.0
 10
32.4560334379
 20
58.9748577302
 30
0.0
 10
32.0299892578
 20
58.9600874137
 30
0.0
 10
31.5872166946
 20
58.8857649498
 30
0.0
 10
31.1317844912
 20
58.7530585603
 30
0.0
 10
30.6682126219
 20
58.5632386601
 30
0.0
 10
30.3643016297
 20
58.4041828433
 30
0.0
 10
30.2121237439
 20
58.3163234237
 30
0.0
  0
SPLINE
  5
28B
100
AcDbEntity
  8
0
100
AcDbSpline
 62
7
  6
BYLAYER
 70
0
 71
3
 72
15
 73
11
 74
0
 42
0.0000001
 43
0.0000001
 44
0.0000000001
 40
0.0
 40
0.0
 40
0.0
 40
0.0
 40
0.1080108328
 40
0.2180577843
 40
0.3319987789
 40
0.4513556976
 40
0.5772612238
 40
0.7104926443
 40
0.8514584233
 40
1.0
 40
1.0
 40
1.0
 40
1.0
 10
24.0347032852
 20
64.7428947501
 30
0.0
 10
23.9158482955
 20
64.8115290693
 30
0.0
 10
23.6634765553
 20
64.9296881504
 30
0.0
 10
23.2551415061
 20
65.0426320749
 30
0.0
 10
22.8198323392
 20
65.0911363955
 30
0.0
 10
22.3622180802
 20
65.075258334
 30
0.0
 10
21.8866777834
 20
64.9954780566
 30
0.0
 10
21.3975727247
 20
64.8529197184
 30
0.0
 10
20.8996801832
 20
64.6490452428
 30
0.0
 10
20.5732382692
 20
64.4782101742
 30
0.0
 10
20.4097750984
 20
64.3838352319
 30
0.0
  0
SPLINE
  5
28C
100
AcDbEntity
  8
0
100
AcDbSpline
 62
7
  6
BYLAYER
 70
0
 71
3
 72
23
 73
19
 74
0
 42
0.0000001
 43
0.0000001
 44
0.0000000001
 40
0.0
 40
0.0
 40
0.0
 40
0.0
 40
0.0451680871
 40
0.0935753828
 40
0.1456309963
 40
0.2014560333
 40
0.2609284119
 40
0.3237414427
 40
0.3894314777
 40
0.4574260155
 40
0.5270673275
 40
0.597640792
 40
0.6684037198
 40
0.7386071355
 40
0.807516871
 40
0.8744356516
 40
0.9387757281
 40
1.0
 40
1.0
 40
1.0
 40
1.0
 10
36.3776259951
 20
26.2213684568
 30
0.0
 10
36.3251934895
 20
26.1145393801
 30
0.0
 10
36.1945729402
 20
25.9035824322
 30
0.0
 10
35.9401056838
 20
25.6145138497
 30
0.0
 10
35.6254979962
 20
25.3469077283
 30
0.0
 10
35.2558378079
 20
25.1047717553
 30
0.0
 10
34.8369331217
 20
24.8914697645
 30
0.0
 10
34.3752466481
 20
24.7103268802
 30
0.0
 10
33.8780087008
 20
24.5640242746
 30
0.0
 10
33.3529924972
 20
24.4548457322
 30
0.0
 10
32.808435217
 20
24.3845547279
 30
0.0
 10
32.2529175948
 20
24.3541513138
 30
0.0
 10
31.6951810993
 20
24.3642154262
 30
0.0
 10
31.1440192059
 20
24.4145431572
 30
0.0
 10
30.6081347498
 20
24.504314453
 30
0.0
 10
30.0958847891
 20
24.6321795433
 30
0.0
 10
29.6153433525
 20
24.7961149133
 30
0.0
 10
29.3128333732
 20
24.9315540691
 30
0.0
 10
29.1692778
 20
25.0051147069
 30
0.0
  0
SPLINE
  5
28D
100
AcDbEntity
  8
0
100
AcDbSpline
 62
7
  6
BYLAYER
 70
0
 71
3
 72
14
 73
10
 74
0
 42
0.0000001
 43
0.0000001
 44
0.0000000001
 40
0.0
 40
0.0
 40
0.0
 40
0.0
 40
0.1463064335
 40
0.2852755928
 40
0.4173578542
 40
0.5432290187
 40
0.7784883528
 40
0.8903182159
 40
1.0
 40
1.0
 40
1.0
 40
1.0
 10
38.175156568
 20
43.497901562
 30
0.0
 10
38.2145951447
 20
43.5187338945
 30
0.0
 10
38.2901835879
 20
43.5619336028
 30
0.0
 10
38.3953176756
 20
43.633864411
 30
0.0
 10
38.4882976829
 20
43.7117002239
 30
0.0
 10
38.592331796
 20
43.8205194869
 30
0.0
 10
38.6733261236
 20
43.9421361066
 30
0.0
 10
38.7244845245
 20
44.0720727036
 30
0.0
 10
38.7398602692
 20
44.1381412532
 30
0.0
 10
38.7449461159
 20
44.1711894747
 30
0.0
  0
SPLINE
  5
28E
100
AcDbEntity
  8
0
100
AcDbSpline
 62
7
  6
BYLAYER
 70
0
 71
3
 72
24
 73
20
 74
0
 42
0.0000001
 43
0.0000001
 44
0.0000000001
 40
0.0
 40
0.0
 40
0.0
 40
0.0
 40
0.0434680883
 40
0.0802321068
 40
0.1104165989
 40
0.1343130577
 40
0.1527667657
 40
0.1606681731
 40
0.1683068018
 40
0.1852562262
 40
0.2085306944
 40
0.2413853437
 40
0.2864761562
 40
0.3466790248
 40
0.4255385689
 40
0.5274084333
 40
0.6567901473
 40
0.81579591
 40
1.0
 40
1.0
 40
1.0
 40
1.0
 10
24.0164499191
 20
48.5877405999
 30
0.0
 10
24.0077522231
 20
48.5927620423
 30
0.0
 10
23.9919569576
 20
48.6025008277
 30
0.0
 10
23.9713735884
 20
48.6176267612
 30
0.0
 10
23.9559193997
 20
48.6319407259
 30
0.0
 10
23.9456164222
 20
48.6452546726
 30
0.0
 10
23.9412012435
 20
48.6563657714
 30
0.0
 10
23.9412929099
 20
48.6643218016
 30
0.0
 10
23.9436650444
 20
48.6715860961
 30
0.0
 10
23.9521461281
 20
48.6795824924
 30
0.0
 10
23.9683765611
 20
48.6850494964
 30
0.0
 10
23.9917667241
 20
48.6873570522
 30
0.0
 10
24.0237261665
 20
48.6854659981
 30
0.0
 10
24.0657136992
 20
48.6781916234
 30
0.0
 10
24.1195452224
 20
48.663768496
 30
0.0
 10
24.1872104994
 20
48.6400325009
 30
0.0
 10
24.2702118895
 20
48.604661205
 30
0.0
 10
24.3681338106
 20
48.5562433077
 30
0.0
 10
24.4375170087
 20
48.5177940827
 30
0.0
 10
24.4743747472
 20
48.4965141612
 30
0.0
  0
SPLINE
  5
28F
100
AcDbEntity
  8
0
100
AcDbSpline
 62
7
  6
BYLAYER
 70
0
 71
3
 72
15
 73
11
 74
0
 42
0.0000001
 43
0.0000001
 44
0.0000000001
 40
0.0
 40
0.0
 40
0.0
 40
0.0
 40
0.1080120998
 40
0.2180611092
 40
0.3320000828
 40
0.4513608801
 40
0.5772682185
 40
0.7104913351
 40
0.8514454206
 40
1.0
 40
1.0
 40
1.0
 40
1.0
 10
23.7523838286
 20
48.7402167266
 30
0.0
 10
23.6417138666
 20
48.8041106179
 30
0.0
 10
23.428916761
 20
48.9525591637
 30
0.0
 10
23.1477892274
 20
49.2292758324
 30
0.0
 10
22.9059755779
 20
49.5576658001
 30
0.0
 10
22.705788794
 20
49.9340797147
 30
0.0
 10
22.5487163382
 20
50.3546502854
 30
0.0
 10
22.4359884642
 20
50.8153813463
 30
0.0
 10
22.3685726503
 20
51.3117478559
 30
0.0
 10
22.3543665861
 20
51.6545014383
 30
0.0
 10
22.3543665861
 20
51.8302575011
 30
0.0
  0
LINE
  5
290
100
AcDbEntity
  8
0
100
AcDbLine
 62
7
  6
BYLAYER
 10
38.1769473133
 20
43.4988294655
 11
38.1668117162
 21
43.4932912634
  0
SPLINE
  5
291
100
AcDbEntity
  8
0
100
AcDbSpline
 62
7
  6
BYLAYER
 70
0
 71
3
 72
16
 73
12
 74
0
 42
0.0000001
 43
0.0000001
 44
0.0000000001
 40
0.0
 40
0.0
 40
0.0
 40
0.0
 40
0.1141344937
 40
0.1740571696
 40
0.2354468704
 40
0.3618795289
 40
0.4917101982
 40
0.6226712765
 40
0.75244952
 40
0.8789251306
 40
1.0
 40
1.0
 40
1.0
 40
1.0
 10
33.7553556472
 20
40.946049431
 30
0.0
 10
33.669853562
 20
40.8925337798
 30
0.0
 10
33.5334015313
 20
40.820154071
 30
0.0
 10
33.3406005531
 20
40.7415954025
 30
0.0
 10
33.1325049644
 20
40.6730094274
 30
0.0
 10
32.8580372184
 20
40.6106633115
 30
0.0
 10
32.5171677808
 20
40.5732366433
 30
0.0
 10
32.1712744803
 20
40.5742023734
 30
0.0
 10
31.8305533797
 20
40.6132241665
 30
0.0
 10
31.5051073533
 20
40.6892385222
 30
0.0
 10
31.2991081217
 20
40.7650834979
 30
0.0
 10
31.2015450527
 20
40.8090266715
 30
0.0
  0
LINE
  5
292
100
AcDbEntity
  8
0
100
AcDbLine
 62
7
  6
BYLAYER
 10
33.7553547737
 20
40.9460370605
 11
33.7655663871
 21
40.9522462558
  0
SPLINE
  5
293
100
AcDbEntity
  8
0
100
AcDbSpline
 62
7
  6
BYLAYER
 70
0
 71
3
 72
15
 73
11
 74
0
 42
0.0000001
 43
0.0000001
 44
0.0000000001
 40
0.0
 40
0.0
 40
0.0
 40
0.0
 40
0.1141543519
 40
0.237325601
 40
0.366974755
 40
0.4999984147
 40
0.6330222943
 40
0.7626720931
 40
0.8858443543
 40
1.0
 40
1.0
 40
1.0
 40
1.0
 10
35.9661890516
 20
52.5154538439
 30
0.0
 10
35.7864016022
 20
52.4116541312
 30
0.0
 10
35.4312892
 20
52.1627228479
 30
0.0
 10
34.9426739247
 20
51.7055836076
 30
0.0
 10
34.4923885434
 20
51.1652109152
 30
0.0
 10
34.0973932943
 20
50.5618758803
 30
0.0
 10
33.7723900993
 20
49.9181297995
 30
0.0
 10
33.5295579013
 20
49.2579806808
 30
0.0
 10
33.3779717915
 20
48.606252246
 30
0.0
 10
33.3399467204
 20
48.1742461499
 30
0.0
 10
33.3399467204
 20
47.9666434422
 30
0.0
  0
SPLINE
  5
294
100
AcDbEntity
  8
0
100
AcDbSpline
 62
7
  6
BYLAYER
 70
0
 71
3
 72
21
 73
17
 74
0
 42
0.0000001
 43
0.0000001
 44
0.0000000001
 40
0.0
 40
0.0
 40
0.0
 40
0.0
 40
0.1446376425
 40
0.211279743
 40
0.2742520101
 40
0.3339467942
 40
0.3909373552
 40
0.4459795887
 40
0.5000029357
 40
0.5540261473
 40
0.6090679878
 40
0.6660579319
 40
0.7257519251
 40
0.7887232762
 40
0.8553643836
 40
1.0
 40
1.0
 40
1.0
 40
1.0
 10
38.5924313829
 20
50.9991487744
 30
0.0
 10
38.5924313829
 20
51.1873984815
 30
0.0
 10
38.5704537781
 20
51.4637373713
 30
0.0
 10
38.485496624
 20
51.8110522356
 30
0.0
 10
38.3990846855
 20
52.0424951405
 30
0.0
 10
38.2888928902
 20
52.2495715103
 30
0.0
 10
38.1559026405
 20
52.4302885239
 30
0.0
 10
38.0011370136
 20
52.582531592
 30
0.0
 10
37.8262504692
 20
52.7046344506
 30
0.0
 10
37.633065725
 20
52.7950438051
 30
0.0
 10
37.4238393044
 20
52.8529576926
 30
0.0
 10
37.2008414552
 20
52.8777763641
 30
0.0
 10
36.9664150187
 20
52.8696710452
 30
0.0
 10
36.7227765291
 20
52.8287882188
 30
0.0
 10
36.379518414
 20
52.7287104601
 30
0.0
 10
36.1292160398
 20
52.6095769576
 30
0.0
 10
35.9661890516
 20
52.5154538439
 30
0.0
  0
SPLINE
  5
295
100
AcDbEntity
  8
0
100
AcDbSpline
 62
7
  6
BYLAYER
 70
0
 71
3
 72
15
 73
11
 74
0
 42
0.0000001
 43
0.0000001
 44
0.0000000001
 40
0.0
 40
0.0
 40
0.0
 40
0.0
 40
0.1204830816
 40
0.247292152
 40
0.3779418693
 40
0.5099244841
 40
0.6405483966
 40
0.7672206132
 40
0.887703103
 40
1.0
 40
1.0
 40
1.0
 40
1.0
 10
30.7611433076
 20
47.827192687
 30
0.0
 10
30.8596423628
 20
47.7874092647
 30
0.0
 10
31.0673880213
 20
47.719141627
 30
0.0
 10
31.3942864605
 20
47.6514361733
 30
0.0
 10
31.7365690845
 20
47.6172999886
 30
0.0
 10
32.083879123
 20
47.617623361
 30
0.0
 10
32.4259280832
 20
47.6524476804
 30
0.0
 10
32.7526477748
 20
47.7206084148
 30
0.0
 10
33.0542546904
 20
47.820179579
 30
0.0
 10
33.2401282548
 20
47.9090537834
 30
0.0
 10
33.3258753872
 20
47.9585596179
 30
0.0
  0
SPLINE
  5
296
100
AcDbEntity
  8
0
100
AcDbSpline
 62
7
  6
BYLAYER
 70
0
 71
3
 72
15
 73
11
 74
0
 42
0.0000001
 43
0.0000001
 44
0.0000000001
 40
0.0
 40
0.0
 40
0.0
 40
0.0
 40
0.1126804557
 40
0.2334180764
 40
0.360198978
 40
0.4908014634
 40
0.622652061
 40
0.7531005328
 40
0.8796922222
 40
1.0
 40
1.0
 40
1.0
 40
1.0
 10
33.3258753872
 20
47.9585596179
 30
0.0
 10
33.2400582351
 20
47.9099872196
 30
0.0
 10
33.054398119
 20
47.8229817384
 30
0.0
 10
32.7538329864
 20
47.7257916174
 30
0.0
 10
32.4289332046
 20
47.6596928492
 30
0.0
 10
32.0893383868
 20
47.6265684831
 30
0.0
 10
31.7449378652
 20
47.6274431486
 30
0.0
 10
31.4057907974
 20
47.6622138409
 30
0.0
 10
31.0819814983
 20
47.7299466452
 30
0.0
 10
30.8761915386
 20
47.797800886
 30
0.0
 10
30.7785812183
 20
47.8372604093
 30
0.0
  0
SPLINE
  5
297
100
AcDbEntity
  8
0
100
AcDbSpline
 62
7
  6
BYLAYER
 70
0
 71
3
 72
19
 73
15
 74
0
 42
0.0000001
 43
0.0000001
 44
0.0000000001
 40
0.0
 40
0.0
 40
0.0
 40
0.0
 40
0.0558239736
 40
0.1142040321
 40
0.1748291665
 40
0.2374053427
 40
0.3670149972
 40
0.4999983995
 40
0.6329820246
 40
0.7625923304
 40
0.8251689768
 40
0.8857946651
 40
0.9441753484
 40
1.0
 40
1.0
 40
1.0
 40
1.0
 10
34.7975462317
 20
54.7983506483
 30
0.0
 10
34.6629599652
 20
54.7206476949
 30
0.0
 10
34.3944568434
 20
54.549623793
 30
0.0
 10
34.0049060018
 20
54.2571736064
 30
0.0
 10
33.6229867845
 20
53.9253760824
 30
0.0
 10
33.1231387721
 20
53.4293249663
 30
0.0
 10
32.5421510682
 20
52.7320193858
 30
0.0
 10
31.9377019935
 20
51.8087750658
 30
0.0
 10
31.4403775121
 20
50.8236806009
 30
0.0
 10
31.1269892751
 20
49.9718729263
 30
0.0
 10
30.9473211492
 20
49.2909612853
 30
0.0
 10
30.8509356563
 20
48.7943061177
 30
0.0
 10
30.7924413177
 20
48.3107149625
 30
0.0
 10
30.7785812183
 20
47.9926688994
 30
0.0
 10
30.7785812183
 20
47.8372604093
 30
0.0
  0
SPLINE
  5
298
100
AcDbEntity
  8
0
100
AcDbSpline
 62
7
  6
BYLAYER
 70
0
 71
3
 72
9
 73
5
 74
0
 42
0.0000001
 43
0.0000001
 44
0.0000000001
 40
0.0
 40
0.0
 40
0.0
 40
0.0
 40
0.5061205943
 40
1.0
 40
1.0
 40
1.0
 40
1.0
 10
27.5626083161
 20
47.1461394223
 30
0.0
 10
27.7421799647
 20
47.1198006676
 30
0.0
 10
28.0978428327
 20
47.073454052
 30
0.0
 10
28.4554050537
 20
47.0432687565
 30
0.0
 10
28.6322955134
 20
47.0345876604
 30
0.0
  0
SPLINE
  5
299
100
AcDbEntity
  8
0
100
AcDbSpline
 62
7
  6
BYLAYER
 70
0
 71
3
 72
9
 73
5
 74
0
 42
0.0000001
 43
0.0000001
 44
0.0000000001
 40
0.0
 40
0.0
 40
0.0
 40
0.0
 40
0.509302772
 40
1.0
 40
1.0
 40
1.0
 40
1.0
 10
26.5036796516
 20
47.7676470937
 30
0.0
 10
26.6276458971
 20
47.7683050328
 30
0.0
 10
26.8710776258
 20
47.777698077
 30
0.0
 10
27.1129865914
 20
47.8117645389
 30
0.0
 10
27.2294173327
 20
47.8384032509
 30
0.0
  0
SPLINE
  5
29A
100
AcDbEntity
  8
0
100
AcDbSpline
 62
7
  6
BYLAYER
 70
0
 71
3
 72
9
 73
5
 74
0
 42
0.0000001
 43
0.0000001
 44
0.0000000001
 40
0.0
 40
0.0
 40
0.0
 40
0.0
 40
0.5102639231
 40
1.0
 40
1.0
 40
1.0
 40
1.0
 10
29.7147976201
 20
48.2673009384
 30
0.0
 10
29.5363886227
 20
48.2749370174
 30
0.0
 10
29.1863822778
 20
48.2824684189
 30
0.0
 10
28.8362934504
 20
48.2699644389
 30
0.0
 10
28.6654372059
 20
48.2564690025
 30
0.0
  0
SPLINE
  5
29B
100
AcDbEntity
  8
0
100
AcDbSpline
 62
7
  6
BYLAYER
 70
0
 71
3
 72
9
 73
5
 74
0
 42
0.0000001
 43
0.0000001
 44
0.0000000001
 40
0.0
 40
0.0
 40
0.0
 40
0.0
 40
0.2548478642
 40
1.0
 40
1.0
 40
1.0
 40
1.0
 10
29.65140383
 20
47.0057392314
 30
0.0
 10
29.65140383
 20
46.9857559724
 30
0.0
 10
29.6522348399
 20
46.907346847
 30
0.0
 10
29.6564484363
 20
46.8289643472
 30
0.0
 10
29.6616879489
 20
46.7707704977
 30
0.0
  0
SPLINE
  5
29C
100
AcDbEntity
  8
0
100
AcDbSpline
 62
7
  6
BYLAYER
 70
0
 71
3
 72
9
 73
5
 74
0
 42
0.0000001
 43
0.0000001
 44
0.0000000001
 40
0.0
 40
0.0
 40
0.0
 40
0.0
 40
0.5206583325
 40
1.0
 40
1.0
 40
1.0
 40
1.0
 10
29.8594536316
 20
48.1837856406
 30
0.0
 10
29.793366576
 20
47.9862692824
 30
0.0
 10
29.6915641722
 20
47.5978744114
 30
0.0
 10
29.65140383
 20
47.1974904742
 30
0.0
 10
29.65140383
 20
47.0057392314
 30
0.0
  0
SPLINE
  5
29D
100
AcDbEntity
  8
0
100
AcDbSpline
 62
7
  6
BYLAYER
 70
0
 71
3
 72
23
 73
19
 74
0
 42
0.0000001
 43
0.0000001
 44
0.0000000001
 40
0.0
 40
0.0
 40
0.0
 40
0.0
 40
0.043780619
 40
0.0905306534
 40
0.1410222525
 40
0.1956200637
 40
0.2543441741
 40
0.3169292238
 40
0.382892358
 40
0.4515900977
 40
0.522255608
 40
0.5940447748
 40
0.666070577
 40
0.7374377133
 40
0.8072705016
 40
0.8747548561
 40
0.9392149665
 40
1.0
 40
1.0
 40
1.0
 40
1.0
 10
27.7374077919
 20
35.7955565949
 30
0.0
 10
27.7713320452
 20
35.678459849
 30
0.0
 10
27.8698650104
 20
35.4439092865
 30
0.0
 10
28.0928850289
 20
35.1180792956
 30
0.0
 10
28.3896109952
 20
34.814298793
 30
0.0
 10
28.7540283735
 20
34.5376057261
 30
0.0
 10
29.1794612625
 20
34.2925353842
 30
0.0
 10
29.6581419316
 20
34.0832911341
 30
0.0
 10
30.1813388399
 20
33.9135103341
 30
0.0
 10
30.7394989789
 20
33.7863288676
 30
0.0
 10
31.3223494167
 20
33.7040394677
 30
0.0
 10
31.9191384419
 20
33.6681152638
 30
0.0
 10
32.51885218
 20
33.6792878304
 30
0.0
 10
33.1103983868
 20
33.7373315468
 30
0.0
 10
33.68284302
 20
33.8411103683
 30
0.0
 10
34.2257521107
 20
33.9888121479
 30
0.0
 10
34.7289177353
 20
34.1777519665
 30
0.0
 10
35.0417825144
 20
34.333784144
 30
0.0
 10
35.188368354
 20
34.4184150128
 30
0.0
  0
SPLINE
  5
29E
100
AcDbEntity
  8
0
100
AcDbSpline
 62
7
  6
BYLAYER
 70
0
 71
3
 72
23
 73
19
 74
0
 42
0.0000001
 43
0.0000001
 44
0.0000000001
 40
0.0
 40
0.0
 40
0.0
 40
0.0
 40
0.0458936727
 40
0.0952086857
 40
0.1482681004
 40
0.2051103978
 40
0.2655479209
 40
0.3292076971
 40
0.395574868
 40
0.4640316724
 40
0.5338820386
 40
0.6043827402
 40
0.6747701392
 40
0.7442869263
 40
0.8121975316
 40
0.8778236117
 40
0.94060578
 40
1.0
 40
1.0
 40
1.0
 40
1.0
 10
22.0481073989
 20
52.3533197175
 30
0.0
 10
21.9814573713
 20
52.4650730313
 30
0.0
 10
21.8653714727
 20
52.7105940836
 30
0.0
 10
21.7490209157
 20
53.1160663851
 30
0.0
 10
21.6858444014
 20
53.5643450738
 30
0.0
 10
21.6764895096
 20
54.0482177773
 30
0.0
 10
21.7209320692
 20
54.560152941
 30
0.0
 10
21.8183843928
 20
55.0920380657
 30
0.0
 10
21.9671957467
 20
55.6354216088
 30
0.0
 10
22.1650198528
 20
56.1815873791
 30
0.0
 10
22.4086615963
 20
56.7217549604
 30
0.0
 10
22.6941520894
 20
57.2472423696
 30
0.0
 10
23.0169427296
 20
57.7495589439
 30
0.0
 10
23.3718267587
 20
58.2206019053
 30
0.0
 10
23.7530245729
 20
58.6528177528
 30
0.0
 10
24.1545444321
 20
59.0392874563
 30
0.0
 10
24.5698586324
 20
59.3736250992
 30
0.0
 10
24.860152451
 20
59.5639912929
 30
0.0
 10
25.0059883118
 20
59.6481891638
 30
0.0
  0
SPLINE
  5
29F
100
AcDbEntity
  8
0
100
AcDbSpline
 62
7
  6
BYLAYER
 70
0
 71
3
 72
9
 73
5
 74
0
 42
0.0000001
 43
0.0000001
 44
0.0000000001
 40
0.0
 40
0.0
 40
0.0
 40
0.0
 40
0.4946433343
 40
1.0
 40
1.0
 40
1.0
 40
1.0
 10
28.6505888803
 20
46.7388173074
 30
0.0
 10
28.4869211918
 20
46.7420155664
 30
0.0
 10
28.1562455867
 20
46.7601716769
 30
0.0
 10
27.8269702446
 20
46.7941837898
 30
0.0
 10
27.6609380858
 20
46.8142841664
 30
0.0
  0
SPLINE
  5
2A0
100
AcDbEntity
  8
0
100
AcDbSpline
 62
7
  6
BYLAYER
 70
0
 71
3
 72
9
 73
5
 74
0
 42
0.0000001
 43
0.0000001
 44
0.0000000001
 40
0.0
 40
0.0
 40
0.0
 40
0.0
 40
0.4877808087
 40
1.0
 40
1.0
 40
1.0
 40
1.0
 10
27.5626080125
 20
47.1461399797
 30
0.0
 10
27.4941032925
 20
47.2508865335
 30
0.0
 10
27.3685630198
 20
47.4756335606
 30
0.0
 10
27.2720183802
 20
47.7140696218
 30
0.0
 10
27.2294173327
 20
47.8384032509
 30
0.0
  0
SPLINE
  5
2A1
100
AcDbEntity
  8
0
100
AcDbSpline
 62
7
  6
BYLAYER
 70
0
 71
3
 72
9
 73
5
 74
0
 42
0.0000001
 43
0.0000001
 44
0.0000000001
 40
0.0
 40
0.0
 40
0.0
 40
0.0
 40
0.2744307179
 40
1.0
 40
1.0
 40
1.0
 40
1.0
 10
27.6609380668
 20
46.8142842197
 30
0.0
 10
27.6589437353
 20
46.8460655682
 30
0.0
 10
27.6462211364
 20
46.9611726811
 30
0.0
 10
27.6086898127
 20
47.0756786779
 30
0.0
 10
27.5626080125
 20
47.1461399797
 30
0.0
  0
SPLINE
  5
2A2
100
AcDbEntity
  8
0
100
AcDbSpline
 62
7
  6
BYLAYER
 70
0
 71
3
 72
12
 73
8
 74
0
 42
0.0000001
 43
0.0000001
 44
0.0000000001
 40
0.0
 40
0.0
 40
0.0
 40
0.0
 40
0.1079054603
 40
0.2183161408
 40
0.4522165788
 40
0.7116253809
 40
1.0
 40
1.0
 40
1.0
 40
1.0
 10
39.1935414856
 20
51.7875174417
 30
0.0
 10
39.1914160932
 20
51.7510613531
 30
0.0
 10
39.1810001212
 20
51.6775236258
 30
0.0
 10
39.1356870264
 20
51.5307827354
 30
0.0
 10
39.0313992429
 20
51.3517403844
 30
0.0
 10
38.844910634
 20
51.161360557
 30
0.0
 10
38.6909515584
 20
51.0560692999
 30
0.0
 10
38.6064330599
 20
51.0072728133
 30
0.0
  0
SPLINE
  5
2A3
100
AcDbEntity
  8
0
100
AcDbSpline
 62
7
  6
BYLAYER
 70
0
 71
3
 72
11
 73
7
 74
0
 42
0.0000001
 43
0.0000001
 44
0.0000000001
 40
0.0
 40
0.0
 40
0.0
 40
0.0
 40
0.2771949471
 40
0.5358178083
 40
0.7760231079
 40
1.0
 40
1.0
 40
1.0
 40
1.0
 10
28.9778032084
 20
25.1092619193
 30
0.0
 10
28.8491922233
 20
25.1835138264
 30
0.0
 10
28.6079358809
 20
25.3404651398
 30
0.0
 10
28.2894734669
 20
25.6096603856
 30
0.0
 10
28.0320497058
 20
25.9009220118
 30
0.0
 10
27.9001443117
 20
26.1136481292
 30
0.0
 10
27.8472851677
 20
26.2213732103
 30
0.0
  0
SPLINE
  5
2A4
100
AcDbEntity
  8
0
100
AcDbSpline
 62
7
  6
BYLAYER
 70
0
 71
3
 72
19
 73
15
 74
0
 42
0.0000001
 43
0.0000001
 44
0.0000000001
 40
0.0
 40
0.0
 40
0.0
 40
0.0
 40
0.1046722021
 40
0.1947346541
 40
0.2698818922
 40
0.3319676201
 40
0.3845293488
 40
0.431700468
 40
0.477231016
 40
0.5237457161
 40
0.6244694146
 40
0.7381115519
 40
0.8638380204
 40
1.0
 40
1.0
 40
1.0
 40
1.0
 10
24.5860639637
 20
48.174433605
 30
0.0
 10
24.5743975051
 20
48.1826424515
 30
0.0
 10
24.5521088211
 20
48.1971268441
 30
0.0
 10
24.5192185672
 20
48.2137955244
 30
0.0
 10
24.4897046009
 20
48.2236738228
 30
0.0
 10
24.4638321858
 20
48.2269698281
 30
0.0
 10
24.4416761621
 20
48.2241653818
 30
0.0
 10
24.4233155162
 20
48.2160384753
 30
0.0
 10
24.4086375529
 20
48.203672323
 30
0.0
 10
24.3930175901
 20
48.1823080961
 30
0.0
 10
24.3806841263
 20
48.1483361153
 30
0.0
 10
24.3746747533
 20
48.1022075604
 30
0.0
 10
24.3753940597
 20
48.0508970115
 30
0.0
 10
24.3796682455
 20
48.0154070847
 30
0.0
 10
24.3826273383
 20
47.9970879743
 30
0.0
  0
SPLINE
  5
2A5
100
AcDbEntity
  8
0
100
AcDbSpline
 62
7
  6
BYLAYER
 70
0
 71
3
 72
10
 73
6
 74
0
 42
0.0000001
 43
0.0000001
 44
0.0000000001
 40
0.0
 40
0.0
 40
0.0
 40
0.0
 40
0.2765068373
 40
0.5359114831
 40
1.0
 40
1.0
 40
1.0
 40
1.0
 10
24.5860641862
 20
48.1744381986
 30
0.0
 10
24.5840698187
 20
48.2062205847
 30
0.0
 10
24.5767032071
 20
48.2677368275
 30
0.0
 10
24.5479604416
 20
48.3793664037
 30
0.0
 10
24.5084651003
 20
48.4553495614
 30
0.0
 10
24.4743740361
 20
48.4965142581
 30
0.0
  0
SPLINE
  5
2A6
100
AcDbEntity
  8
0
100
AcDbSpline
 62
7
  6
BYLAYER
 70
0
 71
3
 72
10
 73
6
 74
0
 42
0.0000001
 43
0.0000001
 44
0.0000000001
 40
0.0
 40
0.0
 40
0.0
 40
0.0
 40
0.4717357597
 40
0.7289370783
 40
1.0
 40
1.0
 40
1.0
 40
1.0
 10
27.3500918143
 20
27.7140171071
 30
0.0
 10
27.4862701545
 20
27.5229817556
 30
0.0
 10
27.7385327128
 20
27.256455134
 30
0.0
 10
28.1318500401
 20
26.9517066506
 30
0.0
 10
28.3541108678
 20
26.8106846232
 30
0.0
 10
28.4708562879
 20
26.7432831483
 30
0.0
  0
SPLINE
  5
2A7
100
AcDbEntity
  8
0
100
AcDbSpline
 62
7
  6
BYLAYER
 70
0
 71
3
 72
11
 73
7
 74
0
 42
0.0000001
 43
0.0000001
 44
0.0000000001
 40
0.0
 40
0.0
 40
0.0
 40
0.0
 40
0.2772238098
 40
0.5358136187
 40
0.776011368
 40
1.0
 40
1.0
 40
1.0
 40
1.0
 10
28.4708562879
 20
26.3350319398
 30
0.0
 10
28.321429853
 20
26.4213013805
 30
0.0
 10
28.0411453879
 20
26.6036176295
 30
0.0
 10
27.6712083645
 20
26.9163718657
 30
0.0
 10
27.3721529295
 20
27.2547148608
 30
0.0
 10
27.2189199354
 20
27.5018494217
 30
0.0
 10
27.1574962666
 20
27.6269969799
 30
0.0
  0
SPLINE
  5
2A8
100
AcDbEntity
  8
0
100
AcDbSpline
 62
7
  6
BYLAYER
 70
0
 71
3
 72
22
 73
18
 74
0
 42
0.0000001
 43
0.0000001
 44
0.0000000001
 40
0.0
 40
0.0
 40
0.0
 40
0.0
 40
0.0972305559
 40
0.1513567733
 40
0.2090756902
 40
0.2701457831
 40
0.3341714913
 40
0.4006402509
 40
0.46895041
 40
0.5384358267
 40
0.608401163
 40
0.6781368021
 40
0.7469223673
 40
0.8140796282
 40
0.8789950524
 40
0.9411356227
 40
1.0
 40
1.0
 40
1.0
 40
1.0
 10
26.5036837968
 20
47.7676372429
 30
0.0
 10
26.336253565
 20
48.1121348474
 30
0.0
 10
26.1720697063
 20
48.6971163198
 30
0.0
 10
26.0981036347
 20
49.5178689072
 30
0.0
 10
26.1124207853
 20
50.2004689802
 30
0.0
 10
26.1985403763
 20
50.9164380248
 30
0.0
 10
26.3549390541
 20
51.6556559971
 30
0.0
 10
26.5792716031
 20
52.4068505585
 30
0.0
 10
26.8681614779
 20
53.1586880776
 30
0.0
 10
27.2171797275
 20
53.8997788619
 30
0.0
 10
27.6210596076
 20
54.6188909786
 30
0.0
 10
28.0737000731
 20
55.3050597623
 30
0.0
 10
28.5681652792
 20
55.9478664595
 30
0.0
 10
29.0969625987
 20
56.5375319784
 30
0.0
 10
29.6522023463
 20
57.0651970183
 30
0.0
 10
30.2253525517
 20
57.5226681055
 30
0.0
 10
30.6252424744
 20
57.7839051432
 30
0.0
 10
30.8260653198
 20
57.8998495765
 30
0.0
  0
SPLINE
  5
2A9
100
AcDbEntity
  8
0
100
AcDbSpline
 62
7
  6
BYLAYER
 70
0
 71
3
 72
10
 73
6
 74
0
 42
0.0000001
 43
0.0000001
 44
0.0000000001
 40
0.0
 40
0.0
 40
0.0
 40
0.0
 40
0.265616125
 40
0.6439608537
 40
1.0
 40
1.0
 40
1.0
 40
1.0
 10
26.20016862
 20
47.8171391847
 30
0.0
 10
26.2262197147
 20
47.8088963266
 30
0.0
 10
26.2900758754
 20
47.79106612
 30
0.0
 10
26.3914085318
 20
47.7721303238
 30
0.0
 10
26.4670542503
 20
47.7674522031
 30
0.0
 10
26.5036796516
 20
47.7676470937
 30
0.0
  0
SPLINE
  5
2AA
100
AcDbEntity
  8
0
100
AcDbSpline
 62
7
  6
BYLAYER
 70
0
 71
3
 72
23
 73
19
 74
0
 42
0.0000001
 43
0.0000001
 44
0.0000000001
 40
0.0
 40
0.0
 40
0.0
 40
0.0
 40
0.059724568
 40
0.1228922973
 40
0.1889541613
 40
0.2573064821
 40
0.3272502636
 40
0.3980258808
 40
0.4688382073
 40
0.5388927106
 40
0.607426482
 40
0.6737261661
 40
0.7371630951
 40
0.7972233751
 40
0.8535472747
 40
0.9059926574
 40
0.9546752077
 40
1.0
 40
1.0
 40
1.0
 40
1.0
 10
30.2121237439
 20
58.3163234237
 30
0.0
 10
29.9989662811
 20
58.1932576389
 30
0.0
 10
29.5747616936
 20
57.9145261433
 30
0.0
 10
28.9686047013
 20
57.4240100303
 30
0.0
 10
28.3832788195
 20
56.8564846191
 30
0.0
 10
27.8285999146
 20
56.2215668404
 30
0.0
 10
27.3136728147
 20
55.5296955443
 30
0.0
 10
26.8470621768
 20
54.792372722
 30
0.0
 10
26.4365256596
 20
54.0219016536
 30
0.0
 10
26.088933588
 20
53.2311136172
 30
0.0
 10
25.8100873469
 20
52.4331640562
 30
0.0
 10
25.6046292446
 20
51.6412951041
 30
0.0
 10
25.4759826793
 20
50.8686252421
 30
0.0
 10
25.4263821239
 20
50.1278844973
 30
0.0
 10
25.4568042525
 20
49.4311803745
 30
0.0
 10
25.5671739791
 20
48.7896786932
 30
0.0
 10
25.7561336865
 20
48.2139965295
 30
0.0
 10
25.9393481941
 20
47.8696684452
 30
0.0
 10
26.0432316259
 20
47.7144315709
 30
0.0
  0
SPLINE
  5
2AB
100
AcDbEntity
  8
0
100
AcDbSpline
 62
7
  6
BYLAYER
 70
0
 71
3
 72
25
 73
21
 74
0
 42
0.0000001
 43
0.0000001
 44
0.0000000001
 40
0.0
 40
0.0
 40
0.0
 40
0.0
 40
0.0623687655
 40
0.1287302241
 40
0.1983154686
 40
0.2702934994
 40
0.3436709064
 40
0.4174012877
 40
0.4904272781
 40
0.5617144413
 40
0.6303118285
 40
0.6954001952
 40
0.756347041
 40
0.8127832241
 40
0.864684028
 40
0.9124588276
 40
0.9351031111
 40
0.9571081988
 40
0.9786687103
 40
1.0
 40
1.0
 40
1.0
 40
1.0
 10
35.188368354
 20
27.0698932586
 30
0.0
 10
35.0303216911
 20
26.9786455199
 30
0.0
 10
34.6915091084
 20
26.811641018
 30
0.0
 10
34.145044815
 20
26.613566698
 30
0.0
 10
33.5544303633
 20
26.4636611123
 30
0.0
 10
32.9324493123
 20
26.3650340791
 30
0.0
 10
32.2922011616
 20
26.3197792266
 30
0.0
 10
31.6473672841
 20
26.3288510504
 30
0.0
 10
31.0116961764
 20
26.3920525289
 30
0.0
 10
30.3987380411
 20
26.5080830384
 30
0.0
 10
29.8215148965
 20
26.6744384621
 30
0.0
 10
29.2922221576
 20
26.8876532863
 30
0.0
 10
28.8220065891
 20
27.1434096513
 30
0.0
 10
28.4206870496
 20
27.4366981897
 30
0.0
 10
28.096830723
 20
27.761819057
 30
0.0
 10
27.8941100418
 20
28.060129441
 30
0.0
 10
27.7811420985
 20
28.3064254175
 30
0.0
 10
27.7212819282
 20
28.4911837184
 30
0.0
 10
27.685143332
 20
28.6780831059
 30
0.0
 10
27.6770969035
 20
28.8037354165
 30
0.0
 10
27.677103125
 20
28.8661525779
 30
0.0
  0
SPLINE
  5
2AC
100
AcDbEntity
  8
0
100
AcDbSpline
 62
7
  6
BYLAYER
 70
0
 71
3
 72
15
 73
11
 74
0
 42
0.0000001
 43
0.0000001
 44
0.0000000001
 40
0.0
 40
0.0
 40
0.0
 40
0.0
 40
0.1501975233
 40
0.2918129954
 40
0.4247922515
 40
0.5497549737
 40
0.6678488408
 40
0.7807565799
 40
0.8906411761
 40
1.0
 40
1.0
 40
1.0
 40
1.0
 10
30.8260653198
 20
57.8998495765
 30
0.0
 10
30.9927153679
 20
57.9960644535
 30
0.0
 10
31.3253475126
 20
58.1683101998
 30
0.0
 10
31.8332515398
 20
58.3668557393
 30
0.0
 10
32.3301703316
 20
58.4954645801
 30
0.0
 10
32.8102502069
 20
58.5523029485
 30
0.0
 10
33.2680064909
 20
58.5361968615
 30
0.0
 10
33.6978251905
 20
58.4465350389
 30
0.0
 10
34.0937067928
 20
58.283993717
 30
0.0
 10
34.3302882853
 20
58.1289257365
 30
0.0
 10
34.4398270158
 20
58.04156599
 30
0.0
  0
SPLINE
  5
2AD
100
AcDbEntity
  8
0
100
AcDbSpline
 62
7
  6
BYLAYER
 70
0
 71
3
 72
21
 73
17
 74
0
 42
0.0000001
 43
0.0000001
 44
0.0000000001
 40
0.0
 40
0.0
 40
0.0
 40
0.0
 40
0.0586658572
 40
0.1205671735
 40
0.1852081216
 40
0.2520880264
 40
0.3899956425
 40
0.4597621907
 40
0.5291162005
 40
0.5973700625
 40
0.6638734419
 40
0.7280327353
 40
0.7893334471
 40
0.8473748372
 40
0.9018927811
 40
1.0
 40
1.0
 40
1.0
 40
1.0
 10
28.4708562879
 20
26.7432831483
 30
0.0
 10
28.6240369705
 20
26.6548462407
 30
0.0
 10
28.9489285789
 20
26.4901876098
 30
0.0
 10
29.4691174941
 20
26.2853084102
 30
0.0
 10
30.0286732918
 20
26.1185771166
 30
0.0
 10
30.8236954397
 20
25.9487857208
 30
0.0
 10
31.6509468907
 20
25.8673152398
 30
0.0
 10
32.4866417388
 20
25.8728768545
 30
0.0
 10
33.1105748788
 20
25.9212500846
 30
0.0
 10
33.7196209543
 20
26.0131462837
 30
0.0
 10
34.3048083268
 20
26.1471245244
 30
0.0
 10
34.8574783479
 20
26.3212621657
 30
0.0
 10
35.3693764124
 20
26.5329751325
 30
0.0
 10
35.8333167618
 20
26.7794032867
 30
0.0
 10
36.3592199427
 20
27.1361556954
 30
0.0
 10
36.6942072407
 20
27.4634345937
 30
0.0
 10
36.8671650166
 20
27.7033898564
 30
0.0
  0
SPLINE
  5
2AE
100
AcDbEntity
  8
0
100
AcDbSpline
 62
7
  6
BYLAYER
 70
0
 71
3
 72
15
 73
11
 74
0
 42
0.0000001
 43
0.0000001
 44
0.0000000001
 40
0.0
 40
0.0
 40
0.0
 40
0.0
 40
0.2544223583
 40
0.3825687622
 40
0.5111080961
 40
0.6394522819
 40
0.7661228498
 40
0.8880082736
 40
0.9456530579
 40
1.0
 40
1.0
 40
1.0
 40
1.0
 10
36.7487678921
 20
37.4830430722
 30
0.0
 10
36.6695296193
 20
37.2945325043
 30
0.0
 10
36.5444975396
 20
37.0134114412
 30
0.0
 10
36.3597220088
 20
36.6464299454
 30
0.0
 10
36.2091591026
 20
36.3759397374
 30
0.0
 10
36.044367199
 20
36.11512926
 30
0.0
 10
35.862993372
 20
35.8720821582
 30
0.0
 10
35.6941671276
 20
35.6916894497
 30
0.0
 10
35.5487882199
 20
35.5721516668
 30
0.0
 10
35.4736850598
 20
35.5221244244
 30
0.0
 10
35.4358567578
 20
35.5002843744
 30
0.0
  0
SPLINE
  5
2AF
100
AcDbEntity
  8
0
100
AcDbSpline
 62
7
  6
BYLAYER
 70
0
 71
3
 72
11
 73
7
 74
0
 42
0.0000001
 43
0.0000001
 44
0.0000000001
 40
0.0
 40
0.0
 40
0.0
 40
0.0
 40
0.2829044124
 40
0.5424588683
 40
0.7799605509
 40
1.0
 40
1.0
 40
1.0
 40
1.0
 10
35.188368354
 20
34.4184150128
 30
0.0
 10
35.3425132991
 20
34.5074101071
 30
0.0
 10
35.627719022
 20
34.6973186134
 30
0.0
 10
35.9904655946
 20
35.0313241238
 30
0.0
 10
36.2612027408
 20
35.3959501799
 30
0.0
 10
36.3782465098
 20
35.6625876231
 30
0.0
 10
36.4167846908
 20
35.7955545327
 30
0.0
  0
SPLINE
  5
2B0
100
AcDbEntity
  8
0
100
AcDbSpline
 62
7
  6
BYLAYER
 70
0
 71
3
 72
18
 73
14
 74
0
 42
0.0000001
 43
0.0000001
 44
0.0000000001
 40
0.0
 40
0.0
 40
0.0
 40
0.0
 40
0.0795083315
 40
0.1534740362
 40
0.2222066408
 40
0.2869197275
 40
0.3487562699
 40
0.4087309436
 40
0.5259187307
 40
0.6424831931
 40
0.7600349458
 40
0.8791709413
 40
1.0
 40
1.0
 40
1.0
 40
1.0
 10
35.4358567578
 20
35.5002843744
 30
0.0
 10
35.4005972303
 20
35.4799273982
 30
0.0
 10
35.3300655833
 20
35.4446949607
 30
0.0
 10
35.2220749638
 20
35.4077003055
 30
0.0
 10
35.117226614
 20
35.3883813594
 30
0.0
 10
35.0169428632
 20
35.3849577355
 30
0.0
 10
34.9216642496
 20
35.3949956473
 30
0.0
 10
34.8023380867
 20
35.423412909
 30
0.0
 10
34.6629093931
 20
35.482684762
 30
0.0
 10
34.5111209628
 20
35.5802830079
 30
0.0
 10
34.3718388661
 20
35.6962429224
 30
0.0
 10
34.2424775815
 20
35.82605737
 30
0.0
 10
34.1620855461
 20
35.9191123299
 30
0.0
 10
34.1229456234
 20
35.9670329279
 30
0.0
  0
SPLINE
  5
2B1
100
AcDbEntity
  8
0
100
AcDbSpline
 62
7
  6
BYLAYER
 70
0
 71
3
 72
11
 73
7
 74
0
 42
0.0000001
 43
0.0000001
 44
0.0000000001
 40
0.0
 40
0.0
 40
0.0
 40
0.0
 40
0.2464602668
 40
0.4999997158
 40
0.75353931
 40
1.0
 40
1.0
 40
1.0
 40
1.0
 10
34.1229456234
 20
35.9670329279
 30
0.0
 10
33.7940624262
 20
35.8838797113
 30
0.0
 10
33.1148146954
 20
35.7602922102
 30
0.0
 10
32.0771066451
 20
35.6991902127
 30
0.0
 10
31.0393977237
 20
35.7602872917
 30
0.0
 10
30.360148613
 20
35.8838715044
 30
0.0
 10
30.0312644033
 20
35.9670230927
 30
0.0
  0
SPLINE
  5
2B2
100
AcDbEntity
  8
0
100
AcDbSpline
 62
7
  6
BYLAYER
 70
0
 71
3
 72
9
 73
5
 74
0
 42
0.0000001
 43
0.0000001
 44
0.0000000001
 40
0.0
 40
0.0
 40
0.0
 40
0.0
 40
0.512418032
 40
1.0
 40
1.0
 40
1.0
 40
1.0
 10
27.4054202698
 20
37.4830206136
 30
0.0
 10
27.3370989767
 20
37.5730916245
 30
0.0
 10
27.2151328862
 20
37.7579136949
 30
0.0
 10
27.1221953459
 20
37.9591784083
 30
0.0
 10
27.0854956219
 20
38.0602963201
 30
0.0
  0
SPLINE
  5
2B3
100
AcDbEntity
  8
0
100
AcDbSpline
 62
7
  6
BYLAYER
 70
0
 71
3
 72
25
 73
21
 74
0
 42
0.0000001
 43
0.0000001
 44
0.0000000001
 40
0.0
 40
0.0
 40
0.0
 40
0.0
 40
0.1554300064
 40
0.2337168161
 40
0.3122449713
 40
0.3906475561
 40
0.4680306898
 40
0.5424805324
 40
0.5776753256
 40
0.6109110412
 40
0.6705221132
 40
0.6972673649
 40
0.7224534336
 40
0.7465219712
 40
0.7698643816
 40
0.8154742768
 40
0.8608450047
 40
0.9065993785
 40
0.9529701619
 40
1.0
 40
1.0
 40
1.0
 40
1.0
 10
27.4054202698
 20
37.4830206136
 30
0.0
 10
27.484659797
 20
37.2945090123
 30
0.0
 10
27.6096947284
 20
37.0133860653
 30
0.0
 10
27.7944727932
 20
36.6463997139
 30
0.0
 10
27.9450365426
 20
36.3759098392
 30
0.0
 10
28.1098295329
 20
36.1151086066
 30
0.0
 10
28.2912000344
 20
35.8720694127
 30
0.0
 10
28.4599677824
 20
35.6917354628
 30
0.0
 10
28.6053997472
 20
35.5721395829
 30
0.0
 10
28.7457189466
 20
35.4786425616
 30
0.0
 10
28.892191812
 20
35.4150715311
 30
0.0
 10
29.036991327
 20
35.3883639519
 30
0.0
 10
29.1372761233
 20
35.3849458889
 30
0.0
 10
29.2325478352
 20
35.3949874643
 30
0.0
 10
29.3518708879
 20
35.4234031225
 30
0.0
 10
29.4912979558
 20
35.482670214
 30
0.0
 10
29.6430852499
 20
35.5802693364
 30
0.0
 10
29.782368658
 20
35.6962314361
 30
0.0
 10
29.911731884
 20
35.8260461915
 30
0.0
 10
29.992124067
 20
35.9191021992
 30
0.0
 10
30.0312644033
 20
35.9670230927
 30
0.0
  0
ELLIPSE
  5
2B4
100
AcDbEntity
  8
0
100
AcDbEllipse
 62
7
  6
BYLAYER
 10
36.005230069
 20
39.5155062744
 30
0.0
 11
2.0145591948
 21
-0.0108980521
 31
0.0
 40
0.5739401184
 41
-0.7762124599
 42
-0.4048969478
  0
ELLIPSE
  5
2B5
100
AcDbEntity
  8
0
100
AcDbEllipse
 62
7
  6
BYLAYER
 10
32.0168034635
 20
37.2128008454
 30
0.0
 11
2.0027674261
 21
-0.011091826
 31
0.0
 40
0.5807176141
 41
-2.1710060875
 42
-0.7819341686
  0
ELLIPSE
  5
2B6
100
AcDbEntity
  8
0
100
AcDbEllipse
 62
7
  6
BYLAYER
 10
26.7808216506
 20
39.4786023274
 30
0.0
 11
1.0092386859
 21
-0.0043335943
 31
0.0
 40
0.5724402785
 41
-3.0462817737
 42
-2.3554829234
  0
ENDSEC
  0
SECTION
  2
OBJECTS
  0
DICTIONARY
  5
C
100
AcDbDictionary
280
0
281
1
  3
ACAD_GROUP
350
D
  3
ACAD_MLINESTYLE
350
17
  3
ACAD_LAYOUT
350
1A
  3
ACAD_PLOTSETTINGS
350
19
  3
ACAD_PLOTSTYLENAME
350
E
  0
DICTIONARY
  5
D
102
{ACAD_REACTORS
330
C
102
}
100
AcDbDictionary
280
0
281
1
  0
ACDBDICTIONARYWDFLT
  5
E
102
{ACAD_REACTORS
330
C
102
}
100
AcDbDictionary
281
1
  3
Normal
350
F
100
AcDbDictionaryWithDefault
340
F
  0
DICTIONARY
  5
17
102
{ACAD_REACTORS
330
C
102
}
100
AcDbDictionary
280
0
281
1
  3
Standard
350
18
  0
DICTIONARY
  5
19
102
{ACAD_REACTORS
330
C
102
}
100
AcDbDictionary
281
1
  0
DICTIONARY
  5
1A
102
{ACAD_REACTORS
330
C
102
}
100
AcDbDictionary
281
1
  3
Model
350
2B7
  3
Layout1
350
2B8
  0
ACDBPLACEHOLDER
  5
F
102
{ACAD_REACTORS
330
E
102
}
  0
MLINESTYLE
  5
18
102
{ACAD_REACTORS
330
17
102
}
100
AcDbMlineStyle
  2
STANDARD
 70
0
  3

 62
256
 51
90.0
 52
90.0
 71
2
 49
0.5
 62
256
  6
BYLAYER
 49
-0.5
 62
256
  6
BYLAYER
  0
LAYOUT
  5
2B7
102
{ACAD_REACTORS
330
1A
102
}
100
AcDbPlotSettings
  1

  2
none_device
  4

  6

 40
0.0
 41
0.0
 42
0.0
 43
0.0
 44
210.0
 45
297.0
 46
0.0
 47
0.0
 48
0.0
 49
0.0
140
0.0
141
0.0
142
1.0
143
1.0
 70
1024
 72
1
 73
0
 74
0
  7

 75
0
147
1.0
148
0.0
149
0.0
100
AcDbLayout
  1
Model
 70
0
 71
0
 10
0.0
 20
0.0
 11
210.0
 21
297.0
 12
0.0
 22
0.0
 32
0.0
 14
0.0
 24
0.0
 34
0.0
 15
0.0
 25
0.0
 35
0.0
146
0.0
 13
0.0
 23
0.0
 33
0.0
 16
1.0
 26
0.0
 36
0.0
 17
0.0
 27
1.0
 37
0.0
 76
0
330
210
345
0
346
0
  0
LAYOUT
  5
2B8
102
{ACAD_REACTORS
330
1A
102
}
100
AcDbPlotSettings
  1

  2
none_device
  4

  6

 40
0.0
 41
0.0
 42
0.0
 43
0.0
 44
210.0
 45
297.0
 46
0.0
 47
0.0
 48
0.0
 49
0.0
140
0.0
141
0.0
142
1.0
143
1.0
 70
0
 72
1
 73
0
 74
0
  7

 75
0
147
1.0
148
0.0
149
0.0
100
AcDbLayout
  1
Layout1
 70
0
 71
1
 10
0.0
 20
0.0
 11
210.0
 21
297.0
 12
0.0
 22
0.0
 32
0.0
 14
0.0
 24
0.0
 34
0.0
 15
0.0
 25
0.0
 35
0.0
146
0.0
 13
0.0
 23
0.0
 33
0.0
 16
1.0
 26
0.0
 36
0.0
 17
0.0
 27
1.0
 37
0.0
 76
0
330
211
345
0
346
0
  0
ENDSEC
  0
EOF
