999
DXF file: C:\Users\sesa63760\Dev\_Creo\CAD\MCADID0004354_3D-CAD\drw0001_4.dxf
999
Pro/ENGINEER 2019471 by Parametric Technology Corporation
  0
SECTION
  2
HEADER
  9
$ACADVER
  1
AC1024
  9
$DWGCODEPAGE
  3
ANSI_1252
  9
$EXTMAX
 10
35.7411525325
 20
50.5482014388
 30
0.0
  9
$EXTMIN
 10
0.0
 20
0.0
 30
0.0
  9
$LIMMIN
 10
0.0
 20
0.0
  9
$LIMMAX
 10
35.7411525325
 20
50.5482014388
  9
$VIEWCTR
 10
17.8705762663
 20
25.2741007194
  9
$VIEWSIZE
 40
50.5482014388
  9
$CLAYER
  8
0
  9
$LTSCALE
 40
3.2949938716
  9
$CELTYPE
  6
BYLAYER
  9
$DIMSCALE
 40
1.0
  9
$DIMASZ
 40
0.4254899111
  9
$DIMEXO
 40
1.0
  9
$DIMDLI
 40
2.2765412204
  9
$DIMEXE
 40
1.0
  9
$DIMCEN
 40
0.5391808153
  9
$DIMLFAC
 40
1.0
  9
$DIMBLK
  1
_FILLED
  9
$DIMALT
 70
0
  9
$DIMALTF
 40
0.0393700787
  9
$DIMTXT
 40
0.5956858755
  9
$DIMTOL
 70
1
  9
$DIMLIM
 70
0
  9
$DIMTFAC
 40
1.0
  9
$DIMTP
 40
0.01
  9
$DIMTM
 40
0.01
  9
$DIMGAP
 40
0.625
  9
$DIMDSEP
 70
46
  9
$AUNITS
 70
0
  9
$PDMODE
 70
3
  9
$PDSIZE
 40
0.3125
  9
$HANDSEED
  5
243
  9
$TILEMODE
 70
1
  9
$MEASUREMENT
 70
1
  9
$INSUNITS
 70
4
  0
ENDSEC
  0
SECTION
  2
CLASSES
  0
CLASS
  1
ACDBDICTIONARYWDFLT
  2
AcDbDictionaryWithDefault
  3
AutoCAD 2000
 90
0
 91
1
280
0
281
0
  0
CLASS
  1
ACDBPLACEHOLDER
  2
AcDbPlaceHolder
  3
AutoCAD 2000
 90
0
 91
1
280
0
281
0
  0
CLASS
  1
LAYOUT
  2
AcDbLayout
  3
AutoCAD 2000
 90
0
 91
0
280
0
281
0
  0
ENDSEC
  0
SECTION
  2
TABLES
  0
TABLE
  2
VPORT
  5
8
100
AcDbSymbolTable
 70
2
  0
VPORT
  5
1F4
100
AcDbSymbolTableRecord
100
AcDbViewportTableRecord
  2
*ACTIVE
 70
0
 10
0.0
 20
0.0
 11
1.0
 21
1.0
 12
17.8705762663
 22
25.2741007194
 13
0.0
 23
0.0
 14
1.0
 24
1.0
 15
0.0
 25
0.0
 16
0.0
 26
0.0
 36
1.0
 17
0.0
 27
0.0
 37
0.0
 40
50.5482014388
 41
0.7070707071
 42
50.0
 43
0.0
 44
0.0
 50
0.0
 51
0.0
 71
0
 72
100
 73
1
 74
1
 75
0
 76
0
 77
0
 78
0
  0
ENDTAB
  0
TABLE
  2
LTYPE
  5
5
100
AcDbSymbolTable
 70
6
  0
LTYPE
  5
14
100
AcDbSymbolTableRecord
100
AcDbLinetypeTableRecord
  2
BYBLOCK
 70
0
  3

 72
65
 73
0
 40
0.0
  0
LTYPE
  5
15
100
AcDbSymbolTableRecord
100
AcDbLinetypeTableRecord
  2
BYLAYER
 70
0
  3

 72
65
 73
0
 40
0.0
  0
LTYPE
  5
16
100
AcDbSymbolTableRecord
100
AcDbLinetypeTableRecord
  2
CONTINUOUS
 70
64
  3
Solid line
 72
65
 73
0
 40
0.0
  0
LTYPE
  5
1F5
100
AcDbSymbolTableRecord
100
AcDbLinetypeTableRecord
  2
CENTER
 70
64
  3
____ _ ____ _ ____ _ ____ _ ____ _ ____ _ ____
 72
65
 73
4
 40
0.6
 49
0.375
 74
0
 49
-0.075
 74
0
 49
0.075
 74
0
 49
-0.075
 74
0
  0
LTYPE
  5
1F6
100
AcDbSymbolTableRecord
100
AcDbLinetypeTableRecord
  2
HIDDEN
 70
64
  3
- - - - - - - - - - - - - - - - - - - -
 72
65
 73
2
 40
0.2
 49
0.1
 74
0
 49
-0.1
 74
0
  0
LTYPE
  5
1F7
100
AcDbSymbolTableRecord
100
AcDbLinetypeTableRecord
  2
PHANTOM
 70
64
  3
_____ _ _ _____ _ _ _____ _ _ _____
 72
65
 73
6
 40
0.8
 49
0.45
 74
0
 49
-0.05
 74
0
 49
0.1
 74
0
 49
-0.05
 74
0
 49
0.1
 74
0
 49
-0.05
 74
0
  0
LTYPE
  5
1F8
100
AcDbSymbolTableRecord
100
AcDbLinetypeTableRecord
  2
DOT
 70
64
  3
. . . . . . . . . . . . . . . . . . . .
 72
65
 73
2
 40
0.2
 49
0.1
 74
0
 49
-0.1
 74
0
  0
LTYPE
  5
1F9
100
AcDbSymbolTableRecord
100
AcDbLinetypeTableRecord
  2
DASHED
 70
64
  3
- - - - - - - - - - - - - - - - - - - -
 72
65
 73
2
 40
0.2
 49
0.1
 74
0
 49
-0.1
 74
0
  0
ENDTAB
  0
TABLE
  2
LAYER
  5
2
100
AcDbSymbolTable
 70
36
  0
LAYER
  5
10
100
AcDbSymbolTableRecord
100
AcDbLayerTableRecord
  2
0
 70
0
 62
7
  6
CONTINUOUS
370
-3
390
F
  0
LAYER
  5
1FA
100
AcDbSymbolTableRecord
100
AcDbLayerTableRecord
  2
DEFAULT_1
 70
0
 62
7
  6
CENTER
370
-3
390
F
  0
LAYER
  5
1FB
100
AcDbSymbolTableRecord
100
AcDbLayerTableRecord
  2
DEFAULT_2
 70
0
 62
7
  6
HIDDEN
370
-3
390
F
  0
LAYER
  5
1FC
100
AcDbSymbolTableRecord
100
AcDbLayerTableRecord
  2
DEFAULT_3
 70
0
 62
7
  6
PHANTOM
370
-3
390
F
  0
LAYER
  5
1FD
100
AcDbSymbolTableRecord
100
AcDbLayerTableRecord
  2
00_COMPONENTS
 70
0
 62
7
  6
CONTINUOUS
370
-3
390
F
  0
LAYER
  5
1FE
100
AcDbSymbolTableRecord
100
AcDbLayerTableRecord
  2
01_1_DEFAULT_DATUMS
 70
0
 62
7
  6
CONTINUOUS
370
-3
390
F
  0
LAYER
  5
1FF
100
AcDbSymbolTableRecord
100
AcDbLayerTableRecord
  2
01_PLANES
 70
0
 62
7
  6
CONTINUOUS
370
-3
390
F
  0
LAYER
  5
200
100
AcDbSymbolTableRecord
100
AcDbLayerTableRecord
  2
02_COORD_SYS
 70
0
 62
7
  6
CONTINUOUS
370
-3
390
F
  0
LAYER
  5
201
100
AcDbSymbolTableRecord
100
AcDbLayerTableRecord
  2
03_AXES
 70
0
 62
7
  6
CONTINUOUS
370
-3
390
F
  0
LAYER
  5
202
100
AcDbSymbolTableRecord
100
AcDbLayerTableRecord
  2
04_POINTS
 70
0
 62
7
  6
CONTINUOUS
370
-3
390
F
  0
LAYER
  5
203
100
AcDbSymbolTableRecord
100
AcDbLayerTableRecord
  2
05_CURVES
 70
0
 62
7
  6
CONTINUOUS
370
-3
390
F
  0
LAYER
  5
204
100
AcDbSymbolTableRecord
100
AcDbLayerTableRecord
  2
06_SURFS
 70
0
 62
7
  6
CONTINUOUS
370
-3
390
F
  0
LAYER
  5
205
100
AcDbSymbolTableRecord
100
AcDbLayerTableRecord
  2
07_COSMETICS
 70
0
 62
7
  6
CONTINUOUS
370
-3
390
F
  0
LAYER
  5
206
100
AcDbSymbolTableRecord
100
AcDbLayerTableRecord
  2
10_NOTES
 70
0
 62
7
  6
CONTINUOUS
370
-3
390
F
  0
LAYER
  5
207
100
AcDbSymbolTableRecord
100
AcDbLayerTableRecord
  2
11_NOTES_PUB
 70
0
 62
7
  6
CONTINUOUS
370
-3
390
F
  0
LAYER
  5
208
100
AcDbSymbolTableRecord
100
AcDbLayerTableRecord
  2
13_REF_GTOL
 70
0
 62
7
  6
CONTINUOUS
370
-3
390
F
  0
LAYER
  5
209
100
AcDbSymbolTableRecord
100
AcDbLayerTableRecord
  2
16_MISC
 70
0
 62
7
  6
CONTINUOUS
370
-3
390
F
  0
LAYER
  5
20A
100
AcDbSymbolTableRecord
100
AcDbLayerTableRecord
  2
17_NO_PRINT
 70
0
 62
7
  6
CONTINUOUS
370
-3
390
F
  0
LAYER
  5
20B
100
AcDbSymbolTableRecord
100
AcDbLayerTableRecord
  2
18_DATUM_CAMS_JOINTS
 70
0
 62
7
  6
CONTINUOUS
370
-3
390
F
  0
LAYER
  5
20C
100
AcDbSymbolTableRecord
100
AcDbLayerTableRecord
  2
19_DATUM_FUNCTIONAL
 70
0
 62
7
  6
CONTINUOUS
370
-3
390
F
  0
LAYER
  5
20D
100
AcDbSymbolTableRecord
100
AcDbLayerTableRecord
  2
20_DATUM_KINEMATIC_SCHEME
 70
0
 62
7
  6
CONTINUOUS
370
-3
390
F
  0
ENDTAB
  0
TABLE
  2
STYLE
  5
3
100
AcDbSymbolTable
 70
1
  0
STYLE
  5
11
100
AcDbSymbolTableRecord
100
AcDbTextStyleTableRecord
  2
STANDARD
 70
0
 40
0.0
 41
1.0
 50
0.0
 71
0
 42
0.2
  3
ARIAL.TTF
  4

  0
STYLE
  5
20E
100
AcDbSymbolTableRecord
100
AcDbTextStyleTableRecord
  2
TEXTSTYLE_1
 70
0
 40
0.0
 41
0.8
 50
0.0
 71
0
 42
0.2
  3
gdt
  4

  0
ENDTAB
  0
TABLE
  2
VIEW
  5
6
100
AcDbSymbolTable
 70
0
  0
ENDTAB
  0
TABLE
  2
UCS
  5
7
100
AcDbSymbolTable
 70
0
  0
ENDTAB
  0
TABLE
  2
APPID
  5
9
100
AcDbSymbolTable
 70
1
  0
APPID
  5
20F
100
AcDbSymbolTableRecord
100
AcDbRegAppTableRecord
  2
ACAD
 70
0
  0
ENDTAB
  0
TABLE
  2
BLOCK_RECORD
  5
1
100
AcDbSymbolTable
 70
0
  0
BLOCK_RECORD
  5
210
100
AcDbSymbolTableRecord
100
AcDbBlockTableRecord
  2
*Model_Space
  0
BLOCK_RECORD
  5
211
100
AcDbSymbolTableRecord
100
AcDbBlockTableRecord
  2
*Paper_Space
  0
BLOCK_RECORD
  5
212
100
AcDbSymbolTableRecord
100
AcDbBlockTableRecord
  2
_FILLED
  0
ENDTAB
  0
TABLE
  2
DIMSTYLE
  5
A
100
AcDbSymbolTable
 70
1
100
AcDbDimStyleTable
 71
0
  0
DIMSTYLE
105
213
100
AcDbSymbolTableRecord
100
AcDbDimStyleTableRecord
  2
STANDARD
 70
0
  3

  4

 40
1.0
 41
0.4254899111
 42
1.0
 43
0.38
 44
1.0
 45
0.0
 46
0.0
 47
0.01
 48
0.01
140
0.5956858755
141
0.09
142
0.0
143
25.4
144
1.0
145
0.0
146
1.0
147
0.625
 71
1
 72
0
 73
0
 74
0
 75
0
 76
0
 77
1
 78
8
 79
2
170
0
171
1
172
0
173
0
174
0
175
0
176
0
177
0
178
0
270
2
179
2
271
2
272
2
273
2
274
2
275
0
280
0
281
0
282
0
283
1
284
8
285
0
286
0
287
3
288
0
340
11
278
46
341
212
342
212
343
212
344
212
  0
ENDTAB
  0
ENDSEC
  0
SECTION
  2
BLOCKS
  0
BLOCK
  5
20
100
AcDbEntity
  8
0
100
AcDbBlockBegin
  2
*Model_Space
 70
0
 10
0.0
 20
0.0
 30
0.0
  3
*Model_Space
  1

  0
ENDBLK
  5
21
100
AcDbEntity
  8
0
100
AcDbBlockEnd
  0
BLOCK
  5
1C
100
AcDbEntity
  8
0
100
AcDbBlockBegin
  2
*Paper_Space
 70
0
 10
0.0
 20
0.0
 30
0.0
  3
*Paper_Space
  1

  0
ENDBLK
  5
1D
100
AcDbEntity
  8
0
100
AcDbBlockEnd
  0
BLOCK
  5
214
100
AcDbEntity
  8
0
100
AcDbBlockBegin
  2
_FILLED
 70
64
 10
0.0
 20
0.0
  3
_FILLED
  1

  0
SOLID
  5
215
100
AcDbEntity
  8
0
  6
BYBLOCK
 62
0
100
AcDbTrace
 10
0.0
 20
0.0
 11
-1.0
 21
0.25
 12
-1.0
 22
-0.25
 13
-1.0
 23
-0.25
  0
ENDBLK
  5
216
100
AcDbEntity
  8
0
  6
BYBLOCK
 62
0
100
AcDbBlockEnd
  0
ENDSEC
  0
SECTION
  2
ENTITIES
  0
LINE
  5
217
100
AcDbEntity
  8
0
100
AcDbLine
 62
7
  6
BYLAYER
 10
17.34400612
 20
3.6194244604
 11
17.0440108439
 21
3.6194244604
  0
LINE
  5
218
100
AcDbEntity
  8
0
100
AcDbLine
 62
7
  6
BYLAYER
 10
21.144006119
 20
16.6194244604
 11
15.144006121
 21
16.6194244604
  0
LINE
  5
219
100
AcDbEntity
  8
0
100
AcDbLine
 62
7
  6
BYLAYER
 10
22.1440061303
 20
17.6194244604
 11
14.1440061097
 21
17.6194244604
  0
LINE
  5
21A
100
AcDbEntity
  8
0
100
AcDbLine
 62
7
  6
BYLAYER
 10
14.144006117
 20
17.6194244604
 11
15.144006121
 21
16.6194244604
  0
LINE
  5
21B
100
AcDbEntity
  8
0
100
AcDbLine
 62
7
  6
BYLAYER
 10
13.5252039665
 20
28.2621588705
 11
13.5252039665
 21
26.9766900503
  0
LINE
  5
21C
100
AcDbEntity
  8
0
100
AcDbLine
 62
7
  6
BYLAYER
 10
13.5252039665
 20
28.2621588705
 11
14.14400612
 21
28.6194244604
  0
LINE
  5
21D
100
AcDbEntity
  8
0
100
AcDbLine
 62
7
  6
BYLAYER
 10
14.1440061097
 20
22.3694244884
 11
14.1440061097
 21
17.6194244604
  0
LINE
  5
21E
100
AcDbEntity
  8
0
100
AcDbLine
 62
7
  6
BYLAYER
 10
14.14400612
 20
38.6194244604
 11
14.14400612
 21
46.6194244604
  0
LINE
  5
21F
100
AcDbEntity
  8
0
100
AcDbLine
 62
7
  6
BYLAYER
 10
15.14400612
 20
38.6194244604
 11
15.14400612
 21
28.6194244604
  0
LINE
  5
220
100
AcDbEntity
  8
0
100
AcDbLine
 62
7
  6
BYLAYER
 10
15.14400612
 20
26.6194244604
 11
15.14400612
 21
22.3694244884
  0
LINE
  5
221
100
AcDbEntity
  8
0
100
AcDbLine
 62
7
  6
BYLAYER
 10
14.1440061023
 20
22.3694244884
 11
22.1440061377
 21
22.3694244884
  0
LINE
  5
222
100
AcDbEntity
  8
0
100
AcDbLine
 62
7
  6
BYLAYER
 10
15.8346050432
 20
28.2621588705
 11
15.8346050432
 21
26.9766900503
  0
LINE
  5
223
100
AcDbEntity
  8
0
100
AcDbLine
 62
7
  6
BYLAYER
 10
17.04400612
 20
16.6194244604
 11
17.04400612
 21
3.6194244604
  0
LINE
  5
224
100
AcDbEntity
  8
0
100
AcDbLine
 62
7
  6
BYLAYER
 10
14.14400612
 20
26.6194244604
 11
13.5252039665
 21
26.9766900503
  0
LINE
  5
225
100
AcDbEntity
  8
0
100
AcDbLine
 62
7
  6
BYLAYER
 10
19.24400612
 20
16.6194244604
 11
19.24400612
 21
4.3744079071
  0
LINE
  5
226
100
AcDbEntity
  8
0
100
AcDbLine
 62
7
  6
BYLAYER
 10
22.7628082735
 20
26.9766900503
 11
22.14400612
 21
26.6194244604
  0
LINE
  5
227
100
AcDbEntity
  8
0
100
AcDbLine
 62
7
  6
BYLAYER
 10
22.14400612
 20
26.6194244604
 11
14.14400612
 21
26.6194244604
  0
LINE
  5
228
100
AcDbEntity
  8
0
100
AcDbLine
 62
7
  6
BYLAYER
 10
20.4534071968
 20
28.2621588705
 11
20.4534071968
 21
26.9766900503
  0
LINE
  5
229
100
AcDbEntity
  8
0
100
AcDbLine
 62
7
  6
BYLAYER
 10
21.14400612
 20
22.3694244884
 11
21.14400612
 21
26.6194244604
  0
LINE
  5
22A
100
AcDbEntity
  8
0
100
AcDbLine
 62
7
  6
BYLAYER
 10
21.14400612
 20
28.6194244604
 11
21.14400612
 21
38.6194244604
  0
LINE
  5
22B
100
AcDbEntity
  8
0
100
AcDbLine
 62
7
  6
BYLAYER
 10
22.14400612
 20
46.6194244604
 11
22.14400612
 21
38.6194244604
  0
LINE
  5
22C
100
AcDbEntity
  8
0
100
AcDbLine
 62
7
  6
BYLAYER
 10
22.1440061303
 20
17.6194244604
 11
22.1440061303
 21
22.3694244884
  0
LINE
  5
22D
100
AcDbEntity
  8
0
100
AcDbLine
 62
7
  6
BYLAYER
 10
22.7628082735
 20
28.2621588705
 11
22.7628082735
 21
26.9766900503
  0
LINE
  5
22E
100
AcDbEntity
  8
0
100
AcDbLine
 62
7
  6
BYLAYER
 10
14.14400612
 20
28.6194244604
 11
22.14400612
 21
28.6194244604
  0
LINE
  5
22F
100
AcDbEntity
  8
0
100
AcDbLine
 62
7
  6
BYLAYER
 10
22.14400612
 20
28.6194244604
 11
22.7628082735
 21
28.2621588705
  0
LINE
  5
230
100
AcDbEntity
  8
0
100
AcDbLine
 62
7
  6
BYLAYER
 10
21.144006119
 20
16.6194244604
 11
22.1440061229
 21
17.6194244604
  0
LINE
  5
231
100
AcDbEntity
  8
0
100
AcDbLine
 62
7
  6
BYLAYER
 10
22.14400612
 20
38.6194244604
 11
14.14400612
 21
38.6194244604
  0
LINE
  5
232
100
AcDbEntity
  8
0
100
AcDbLine
 62
7
  6
BYLAYER
 10
14.14400612
 20
46.6194244604
 11
22.14400612
 21
46.6194244604
  0
ARC
  5
233
100
AcDbEntity
  8
0
100
AcDbCircle
 62
7
  6
BYLAYER
 10
19.14400612
 20
42.6194244604
 40
4.0
100
AcDbArc
 50
318.5903783904
 51
41.4096221093
  0
ARC
  5
234
100
AcDbEntity
  8
0
100
AcDbCircle
 62
7
  6
BYLAYER
 10
18.44400612
 20
3.6194244604
 40
1.1
100
AcDbArc
 50
43.3417585613
 51
180.0
  0
SPLINE
  5
235
100
AcDbEntity
  8
0
100
AcDbSpline
 62
7
  6
BYLAYER
 70
0
 71
3
 72
14
 73
10
 74
0
 42
0.0000001
 43
0.0000001
 44
0.0000000001
 40
0.0
 40
0.0
 40
0.0
 40
0.0
 40
0.1199286093
 40
0.2404930608
 40
0.3622461737
 40
0.485641672
 40
0.610991295
 40
0.7384771918
 40
1.0
 40
1.0
 40
1.0
 40
1.0
 10
21.6081077351
 20
26.6194244604
 30
0.0
 10
21.5592287093
 20
26.6194244604
 30
0.0
 10
21.461161891
 20
26.6235786241
 30
0.0
 10
21.3145349241
 20
26.6421425773
 30
0.0
 10
21.1684818198
 20
26.6726402583
 30
0.0
 10
21.0232318009
 20
26.7143721576
 30
0.0
 10
20.8789060746
 20
26.7664800497
 30
0.0
 10
20.6862214402
 20
26.8492969347
 30
0.0
 10
20.5457153254
 20
26.9233959274
 30
0.0
 10
20.4534071968
 20
26.9766900503
 30
0.0
  0
SPLINE
  5
236
100
AcDbEntity
  8
0
100
AcDbSpline
 62
7
  6
BYLAYER
 70
0
 71
3
 72
13
 73
9
 74
0
 42
0.0000001
 43
0.0000001
 44
0.0000000001
 40
0.0
 40
0.0
 40
0.0
 40
0.0
 40
0.2499870333
 40
0.499964558
 40
0.6249712931
 40
0.7499798971
 40
0.8749942858
 40
1.0
 40
1.0
 40
1.0
 40
1.0
 10
15.8346050432
 20
28.2621588705
 30
0.0
 10
16.022307509
 20
28.3163439051
 30
0.0
 10
16.4004146818
 20
28.4156694811
 30
0.0
 10
16.8798451097
 20
28.5109826136
 30
0.0
 10
17.2667190239
 20
28.5664492527
 30
0.0
 10
17.5583104804
 20
28.5968227532
 30
0.0
 10
17.850895289
 20
28.6152960209
 30
0.0
 10
18.0463131272
 20
28.6194244604
 30
0.0
 10
18.14400612
 20
28.6194244604
 30
0.0
  0
SPLINE
  5
237
100
AcDbEntity
  8
0
100
AcDbSpline
 62
7
  6
BYLAYER
 70
0
 71
3
 72
13
 73
9
 74
0
 42
0.0000001
 43
0.0000001
 44
0.0000000001
 40
0.0
 40
0.0
 40
0.0
 40
0.0
 40
0.2499870333
 40
0.499964558
 40
0.6249712931
 40
0.7499798971
 40
0.8749942858
 40
1.0
 40
1.0
 40
1.0
 40
1.0
 10
20.4534071968
 20
26.9766900503
 30
0.0
 10
20.265704731
 20
26.9225050158
 30
0.0
 10
19.8875975582
 20
26.8231794398
 30
0.0
 10
19.4081671303
 20
26.7278663073
 30
0.0
 10
19.0212932161
 20
26.6723996682
 30
0.0
 10
18.7297017596
 20
26.6420261676
 30
0.0
 10
18.437116951
 20
26.6235529
 30
0.0
 10
18.2416991127
 20
26.6194244604
 30
0.0
 10
18.14400612
 20
26.6194244604
 30
0.0
  0
SPLINE
  5
238
100
AcDbEntity
  8
0
100
AcDbSpline
 62
7
  6
BYLAYER
 70
0
 71
3
 72
13
 73
9
 74
0
 42
0.0000001
 43
0.0000001
 44
0.0000000001
 40
0.0
 40
0.0
 40
0.0
 40
0.0
 40
0.1250057515
 40
0.2500202242
 40
0.3750288535
 40
0.5000355765
 40
0.7500130495
 40
1.0
 40
1.0
 40
1.0
 40
1.0
 10
18.14400612
 20
26.6194244604
 30
0.0
 10
18.046313098
 20
26.6194244604
 30
0.0
 10
17.8508951683
 20
26.623552988
 30
0.0
 10
17.5583102339
 20
26.6420261251
 30
0.0
 10
17.2667187307
 20
26.6723999067
 30
0.0
 10
16.8798448003
 20
26.7278661911
 30
0.0
 10
16.4004144767
 20
26.8231793421
 30
0.0
 10
16.022307447
 20
26.9225050337
 30
0.0
 10
15.8346050432
 20
26.9766900503
 30
0.0
  0
SPLINE
  5
239
100
AcDbEntity
  8
0
100
AcDbSpline
 62
7
  6
BYLAYER
 70
0
 71
3
 72
14
 73
10
 74
0
 42
0.0000001
 43
0.0000001
 44
0.0000000001
 40
0.0
 40
0.0
 40
0.0
 40
0.0
 40
0.1199286093
 40
0.2404930608
 40
0.3622461737
 40
0.485641672
 40
0.610991295
 40
0.7384771918
 40
1.0
 40
1.0
 40
1.0
 40
1.0
 10
21.6081077351
 20
28.6194244604
 30
0.0
 10
21.656986761
 20
28.6194244604
 30
0.0
 10
21.7550535792
 20
28.6152702967
 30
0.0
 10
21.9016805462
 20
28.5967063436
 30
0.0
 10
22.0477336505
 20
28.5662086626
 30
0.0
 10
22.1929836694
 20
28.5244767633
 30
0.0
 10
22.3373093957
 20
28.4723688711
 30
0.0
 10
22.52999403
 20
28.3895519862
 30
0.0
 10
22.6705001449
 20
28.3154529934
 30
0.0
 10
22.7628082735
 20
28.2621588705
 30
0.0
  0
SPLINE
  5
23A
100
AcDbEntity
  8
0
100
AcDbSpline
 62
7
  6
BYLAYER
 70
0
 71
3
 72
14
 73
10
 74
0
 42
0.0000001
 43
0.0000001
 44
0.0000000001
 40
0.0
 40
0.0
 40
0.0
 40
0.0
 40
0.2615228632
 40
0.3890087986
 40
0.5143584456
 40
0.6377539801
 40
0.7595070544
 40
0.8800714271
 40
1.0
 40
1.0
 40
1.0
 40
1.0
 10
15.8346050432
 20
26.9766900503
 30
0.0
 10
15.7422968956
 20
26.9233959165
 30
0.0
 10
15.6017906919
 20
26.8492970126
 30
0.0
 10
15.4091060123
 20
26.7664801147
 30
0.0
 10
15.2647802625
 20
26.7143721899
 30
0.0
 10
15.1195303043
 20
26.6726400245
 30
0.0
 10
14.9734771762
 20
26.6421426166
 30
0.0
 10
14.8268502935
 20
26.6235785371
 30
0.0
 10
14.7287835156
 20
26.6194244604
 30
0.0
 10
14.6799045049
 20
26.6194244604
 30
0.0
  0
SPLINE
  5
23B
100
AcDbEntity
  8
0
100
AcDbSpline
 62
7
  6
BYLAYER
 70
0
 71
3
 72
14
 73
10
 74
0
 42
0.0000001
 43
0.0000001
 44
0.0000000001
 40
0.0
 40
0.0
 40
0.0
 40
0.0
 40
0.2615228632
 40
0.3890087986
 40
0.5143584456
 40
0.6377539801
 40
0.7595070544
 40
0.8800714271
 40
1.0
 40
1.0
 40
1.0
 40
1.0
 10
20.4534071968
 20
28.2621588705
 30
0.0
 10
20.5457153444
 20
28.3154530044
 30
0.0
 10
20.6862215481
 20
28.3895519083
 30
0.0
 10
20.8789062277
 20
28.4723688062
 30
0.0
 10
21.0232319775
 20
28.524476731
 30
0.0
 10
21.1684819357
 20
28.5662088963
 30
0.0
 10
21.3145350638
 20
28.5967063043
 30
0.0
 10
21.4611619465
 20
28.6152703838
 30
0.0
 10
21.5592287244
 20
28.6194244604
 30
0.0
 10
21.6081077351
 20
28.6194244604
 30
0.0
  0
SPLINE
  5
23C
100
AcDbEntity
  8
0
100
AcDbSpline
 62
7
  6
BYLAYER
 70
0
 71
3
 72
13
 73
9
 74
0
 42
0.0000001
 43
0.0000001
 44
0.0000000001
 40
0.0
 40
0.0
 40
0.0
 40
0.0
 40
0.1250057515
 40
0.2500202242
 40
0.3750288535
 40
0.5000355765
 40
0.7500130495
 40
1.0
 40
1.0
 40
1.0
 40
1.0
 10
18.14400612
 20
28.6194244604
 30
0.0
 10
18.241699142
 20
28.6194244604
 30
0.0
 10
18.4371170717
 20
28.6152959328
 30
0.0
 10
18.7297020061
 20
28.5968227957
 30
0.0
 10
19.0212935093
 20
28.5664490142
 30
0.0
 10
19.4081674397
 20
28.5109827297
 30
0.0
 10
19.8875977633
 20
28.4156695787
 30
0.0
 10
20.265704793
 20
28.3163438872
 30
0.0
 10
20.4534071968
 20
28.2621588705
 30
0.0
  0
SPLINE
  5
23D
100
AcDbEntity
  8
0
100
AcDbSpline
 62
7
  6
BYLAYER
 70
0
 71
3
 72
14
 73
10
 74
0
 42
0.0000001
 43
0.0000001
 44
0.0000000001
 40
0.0
 40
0.0
 40
0.0
 40
0.0
 40
0.1199286093
 40
0.2404930608
 40
0.3622461737
 40
0.485641672
 40
0.610991295
 40
0.7384771918
 40
1.0
 40
1.0
 40
1.0
 40
1.0
 10
14.6799045049
 20
26.6194244604
 30
0.0
 10
14.631025479
 20
26.6194244604
 30
0.0
 10
14.5329586608
 20
26.6235786241
 30
0.0
 10
14.3863316938
 20
26.6421425773
 30
0.0
 10
14.2402785895
 20
26.6726402583
 30
0.0
 10
14.0950285706
 20
26.7143721576
 30
0.0
 10
13.9507028443
 20
26.7664800497
 30
0.0
 10
13.75801821
 20
26.8492969347
 30
0.0
 10
13.6175120951
 20
26.9233959274
 30
0.0
 10
13.5252039665
 20
26.9766900503
 30
0.0
  0
SPLINE
  5
23E
100
AcDbEntity
  8
0
100
AcDbSpline
 62
7
  6
BYLAYER
 70
0
 71
3
 72
14
 73
10
 74
0
 42
0.0000001
 43
0.0000001
 44
0.0000000001
 40
0.0
 40
0.0
 40
0.0
 40
0.0
 40
0.2615228632
 40
0.3890087986
 40
0.5143584456
 40
0.6377539801
 40
0.7595070544
 40
0.8800714271
 40
1.0
 40
1.0
 40
1.0
 40
1.0
 10
13.5252039665
 20
28.2621588705
 30
0.0
 10
13.6175121141
 20
28.3154530044
 30
0.0
 10
13.7580183178
 20
28.3895519083
 30
0.0
 10
13.9507029974
 20
28.4723688062
 30
0.0
 10
14.0950287473
 20
28.524476731
 30
0.0
 10
14.2402787055
 20
28.5662088963
 30
0.0
 10
14.3863318336
 20
28.5967063043
 30
0.0
 10
14.5329587162
 20
28.6152703838
 30
0.0
 10
14.6310254941
 20
28.6194244604
 30
0.0
 10
14.6799045049
 20
28.6194244604
 30
0.0
  0
SPLINE
  5
23F
100
AcDbEntity
  8
0
100
AcDbSpline
 62
7
  6
BYLAYER
 70
0
 71
3
 72
14
 73
10
 74
0
 42
0.0000001
 43
0.0000001
 44
0.0000000001
 40
0.0
 40
0.0
 40
0.0
 40
0.0
 40
0.2615228632
 40
0.3890087986
 40
0.5143584456
 40
0.6377539801
 40
0.7595070544
 40
0.8800714271
 40
1.0
 40
1.0
 40
1.0
 40
1.0
 10
22.7628082735
 20
26.9766900503
 30
0.0
 10
22.6705001259
 20
26.9233959165
 30
0.0
 10
22.5299939222
 20
26.8492970126
 30
0.0
 10
22.3373092426
 20
26.7664801147
 30
0.0
 10
22.1929834927
 20
26.7143721899
 30
0.0
 10
22.0477335345
 20
26.6726400245
 30
0.0
 10
21.9016804064
 20
26.6421426166
 30
0.0
 10
21.7550535238
 20
26.6235785371
 30
0.0
 10
21.6569867459
 20
26.6194244604
 30
0.0
 10
21.6081077351
 20
26.6194244604
 30
0.0
  0
SPLINE
  5
240
100
AcDbEntity
  8
0
100
AcDbSpline
 62
7
  6
BYLAYER
 70
0
 71
3
 72
14
 73
10
 74
0
 42
0.0000001
 43
0.0000001
 44
0.0000000001
 40
0.0
 40
0.0
 40
0.0
 40
0.0
 40
0.1199286093
 40
0.2404930608
 40
0.3622461737
 40
0.485641672
 40
0.610991295
 40
0.7384771918
 40
1.0
 40
1.0
 40
1.0
 40
1.0
 10
14.6799045049
 20
28.6194244604
 30
0.0
 10
14.7287835307
 20
28.6194244604
 30
0.0
 10
14.826850349
 20
28.6152702967
 30
0.0
 10
14.9734773159
 20
28.5967063436
 30
0.0
 10
15.1195304202
 20
28.5662086626
 30
0.0
 10
15.2647804391
 20
28.5244767633
 30
0.0
 10
15.4091061654
 20
28.4723688711
 30
0.0
 10
15.6017907998
 20
28.3895519862
 30
0.0
 10
15.7422969146
 20
28.3154529934
 30
0.0
 10
15.8346050432
 20
28.2621588705
 30
0.0
  0
ENDSEC
  0
SECTION
  2
OBJECTS
  0
DICTIONARY
  5
C
100
AcDbDictionary
280
0
281
1
  3
ACAD_GROUP
350
D
  3
ACAD_MLINESTYLE
350
17
  3
ACAD_LAYOUT
350
1A
  3
ACAD_PLOTSETTINGS
350
19
  3
ACAD_PLOTSTYLENAME
350
E
  0
DICTIONARY
  5
D
102
{ACAD_REACTORS
330
C
102
}
100
AcDbDictionary
280
0
281
1
  0
ACDBDICTIONARYWDFLT
  5
E
102
{ACAD_REACTORS
330
C
102
}
100
AcDbDictionary
281
1
  3
Normal
350
F
100
AcDbDictionaryWithDefault
340
F
  0
DICTIONARY
  5
17
102
{ACAD_REACTORS
330
C
102
}
100
AcDbDictionary
280
0
281
1
  3
Standard
350
18
  0
DICTIONARY
  5
19
102
{ACAD_REACTORS
330
C
102
}
100
AcDbDictionary
281
1
  0
DICTIONARY
  5
1A
102
{ACAD_REACTORS
330
C
102
}
100
AcDbDictionary
281
1
  3
Model
350
241
  3
Layout1
350
242
  0
ACDBPLACEHOLDER
  5
F
102
{ACAD_REACTORS
330
E
102
}
  0
MLINESTYLE
  5
18
102
{ACAD_REACTORS
330
17
102
}
100
AcDbMlineStyle
  2
STANDARD
 70
0
  3

 62
256
 51
90.0
 52
90.0
 71
2
 49
0.5
 62
256
  6
BYLAYER
 49
-0.5
 62
256
  6
BYLAYER
  0
LAYOUT
  5
241
102
{ACAD_REACTORS
330
1A
102
}
100
AcDbPlotSettings
  1

  2
none_device
  4

  6

 40
0.0
 41
0.0
 42
0.0
 43
0.0
 44
210.0
 45
297.0
 46
0.0
 47
0.0
 48
0.0
 49
0.0
140
0.0
141
0.0
142
1.0
143
1.0
 70
1024
 72
1
 73
0
 74
0
  7

 75
0
147
1.0
148
0.0
149
0.0
100
AcDbLayout
  1
Model
 70
0
 71
0
 10
0.0
 20
0.0
 11
210.0
 21
297.0
 12
0.0
 22
0.0
 32
0.0
 14
0.0
 24
0.0
 34
0.0
 15
0.0
 25
0.0
 35
0.0
146
0.0
 13
0.0
 23
0.0
 33
0.0
 16
1.0
 26
0.0
 36
0.0
 17
0.0
 27
1.0
 37
0.0
 76
0
330
210
345
0
346
0
  0
LAYOUT
  5
242
102
{ACAD_REACTORS
330
1A
102
}
100
AcDbPlotSettings
  1

  2
none_device
  4

  6

 40
0.0
 41
0.0
 42
0.0
 43
0.0
 44
210.0
 45
297.0
 46
0.0
 47
0.0
 48
0.0
 49
0.0
140
0.0
141
0.0
142
1.0
143
1.0
 70
0
 72
1
 73
0
 74
0
  7

 75
0
147
1.0
148
0.0
149
0.0
100
AcDbLayout
  1
Layout1
 70
0
 71
1
 10
0.0
 20
0.0
 11
210.0
 21
297.0
 12
0.0
 22
0.0
 32
0.0
 14
0.0
 24
0.0
 34
0.0
 15
0.0
 25
0.0
 35
0.0
146
0.0
 13
0.0
 23
0.0
 33
0.0
 16
1.0
 26
0.0
 36
0.0
 17
0.0
 27
1.0
 37
0.0
 76
0
330
211
345
0
346
0
  0
ENDSEC
  0
EOF
