999
DXF file: C:\Users\sesa63760\Dev\_Creo\CAD\MCADID0003544_3D-CAD\drw0001_6.dxf
999
Pro/ENGINEER 2019471 by Parametric Technology Corporation
  0
SECTION
  2
HEADER
  9
$ACADVER
  1
AC1024
  9
$DWGCODEPAGE
  3
ANSI_1252
  9
$EXTMAX
 10
79.6728521245
 20
112.6801765761
 30
0.0
  9
$EXTMIN
 10
0.0
 20
0.0
 30
0.0
  9
$LIMMIN
 10
0.0
 20
0.0
  9
$LIMMAX
 10
79.6728521245
 20
112.6801765761
  9
$VIEWCTR
 10
39.8364260623
 20
56.3400882881
  9
$VIEWSIZE
 40
112.6801765761
  9
$CLAYER
  8
0
  9
$LTSCALE
 40
7.3450781768
  9
$CELTYPE
  6
BYLAYER
  9
$DIMSCALE
 40
1.0
  9
$DIMASZ
 40
0.9484863348
  9
$DIMEXO
 40
1.0
  9
$DIMDLI
 40
5.0747812858
  9
$DIMEXE
 40
1.0
  9
$DIMCEN
 40
1.2019218835
  9
$DIMLFAC
 40
1.0
  9
$DIMBLK
  1
_FILLED
  9
$DIMALT
 70
0
  9
$DIMALTF
 40
0.0393700787
  9
$DIMTXT
 40
1.3278808687
  9
$DIMTOL
 70
1
  9
$DIMLIM
 70
0
  9
$DIMTFAC
 40
1.0
  9
$DIMTP
 40
0.01
  9
$DIMTM
 40
0.01
  9
$DIMGAP
 40
0.625
  9
$DIMDSEP
 70
46
  9
$AUNITS
 70
0
  9
$PDMODE
 70
3
  9
$PDSIZE
 40
0.3125
  9
$HANDSEED
  5
266
  9
$TILEMODE
 70
1
  9
$MEASUREMENT
 70
1
  9
$INSUNITS
 70
4
  0
ENDSEC
  0
SECTION
  2
CLASSES
  0
CLASS
  1
ACDBDICTIONARYWDFLT
  2
AcDbDictionaryWithDefault
  3
AutoCAD 2000
 90
0
 91
1
280
0
281
0
  0
CLASS
  1
ACDBPLACEHOLDER
  2
AcDbPlaceHolder
  3
AutoCAD 2000
 90
0
 91
1
280
0
281
0
  0
CLASS
  1
LAYOUT
  2
AcDbLayout
  3
AutoCAD 2000
 90
0
 91
0
280
0
281
0
  0
ENDSEC
  0
SECTION
  2
TABLES
  0
TABLE
  2
VPORT
  5
8
100
AcDbSymbolTable
 70
2
  0
VPORT
  5
1F4
100
AcDbSymbolTableRecord
100
AcDbViewportTableRecord
  2
*ACTIVE
 70
0
 10
0.0
 20
0.0
 11
1.0
 21
1.0
 12
39.8364260623
 22
56.3400882881
 13
0.0
 23
0.0
 14
1.0
 24
1.0
 15
0.0
 25
0.0
 16
0.0
 26
0.0
 36
1.0
 17
0.0
 27
0.0
 37
0.0
 40
112.6801765761
 41
0.7070707071
 42
50.0
 43
0.0
 44
0.0
 50
0.0
 51
0.0
 71
0
 72
100
 73
1
 74
1
 75
0
 76
0
 77
0
 78
0
  0
ENDTAB
  0
TABLE
  2
LTYPE
  5
5
100
AcDbSymbolTable
 70
6
  0
LTYPE
  5
14
100
AcDbSymbolTableRecord
100
AcDbLinetypeTableRecord
  2
BYBLOCK
 70
0
  3

 72
65
 73
0
 40
0.0
  0
LTYPE
  5
15
100
AcDbSymbolTableRecord
100
AcDbLinetypeTableRecord
  2
BYLAYER
 70
0
  3

 72
65
 73
0
 40
0.0
  0
LTYPE
  5
16
100
AcDbSymbolTableRecord
100
AcDbLinetypeTableRecord
  2
CONTINUOUS
 70
64
  3
Solid line
 72
65
 73
0
 40
0.0
  0
LTYPE
  5
1F5
100
AcDbSymbolTableRecord
100
AcDbLinetypeTableRecord
  2
CENTER
 70
64
  3
____ _ ____ _ ____ _ ____ _ ____ _ ____ _ ____
 72
65
 73
4
 40
0.6
 49
0.375
 74
0
 49
-0.075
 74
0
 49
0.075
 74
0
 49
-0.075
 74
0
  0
LTYPE
  5
1F6
100
AcDbSymbolTableRecord
100
AcDbLinetypeTableRecord
  2
HIDDEN
 70
64
  3
- - - - - - - - - - - - - - - - - - - -
 72
65
 73
2
 40
0.2
 49
0.1
 74
0
 49
-0.1
 74
0
  0
LTYPE
  5
1F7
100
AcDbSymbolTableRecord
100
AcDbLinetypeTableRecord
  2
PHANTOM
 70
64
  3
_____ _ _ _____ _ _ _____ _ _ _____
 72
65
 73
6
 40
0.8
 49
0.45
 74
0
 49
-0.05
 74
0
 49
0.1
 74
0
 49
-0.05
 74
0
 49
0.1
 74
0
 49
-0.05
 74
0
  0
LTYPE
  5
1F8
100
AcDbSymbolTableRecord
100
AcDbLinetypeTableRecord
  2
DOT
 70
64
  3
. . . . . . . . . . . . . . . . . . . .
 72
65
 73
2
 40
0.2
 49
0.1
 74
0
 49
-0.1
 74
0
  0
LTYPE
  5
1F9
100
AcDbSymbolTableRecord
100
AcDbLinetypeTableRecord
  2
DASHED
 70
64
  3
- - - - - - - - - - - - - - - - - - - -
 72
65
 73
2
 40
0.2
 49
0.1
 74
0
 49
-0.1
 74
0
  0
ENDTAB
  0
TABLE
  2
LAYER
  5
2
100
AcDbSymbolTable
 70
36
  0
LAYER
  5
10
100
AcDbSymbolTableRecord
100
AcDbLayerTableRecord
  2
0
 70
0
 62
7
  6
CONTINUOUS
370
-3
390
F
  0
LAYER
  5
1FA
100
AcDbSymbolTableRecord
100
AcDbLayerTableRecord
  2
DEFAULT_1
 70
0
 62
7
  6
CENTER
370
-3
390
F
  0
LAYER
  5
1FB
100
AcDbSymbolTableRecord
100
AcDbLayerTableRecord
  2
DEFAULT_2
 70
0
 62
7
  6
HIDDEN
370
-3
390
F
  0
LAYER
  5
1FC
100
AcDbSymbolTableRecord
100
AcDbLayerTableRecord
  2
DEFAULT_3
 70
0
 62
7
  6
PHANTOM
370
-3
390
F
  0
LAYER
  5
1FD
100
AcDbSymbolTableRecord
100
AcDbLayerTableRecord
  2
00_COMPONENTS
 70
0
 62
7
  6
CONTINUOUS
370
-3
390
F
  0
LAYER
  5
1FE
100
AcDbSymbolTableRecord
100
AcDbLayerTableRecord
  2
01_1_DEFAULT_DATUMS
 70
0
 62
7
  6
CONTINUOUS
370
-3
390
F
  0
LAYER
  5
1FF
100
AcDbSymbolTableRecord
100
AcDbLayerTableRecord
  2
01_PLANES
 70
0
 62
7
  6
CONTINUOUS
370
-3
390
F
  0
LAYER
  5
200
100
AcDbSymbolTableRecord
100
AcDbLayerTableRecord
  2
02_COORD_SYS
 70
0
 62
7
  6
CONTINUOUS
370
-3
390
F
  0
LAYER
  5
201
100
AcDbSymbolTableRecord
100
AcDbLayerTableRecord
  2
03_AXES
 70
0
 62
7
  6
CONTINUOUS
370
-3
390
F
  0
LAYER
  5
202
100
AcDbSymbolTableRecord
100
AcDbLayerTableRecord
  2
04_POINTS
 70
0
 62
7
  6
CONTINUOUS
370
-3
390
F
  0
LAYER
  5
203
100
AcDbSymbolTableRecord
100
AcDbLayerTableRecord
  2
05_CURVES
 70
0
 62
7
  6
CONTINUOUS
370
-3
390
F
  0
LAYER
  5
204
100
AcDbSymbolTableRecord
100
AcDbLayerTableRecord
  2
06_SURFS
 70
0
 62
7
  6
CONTINUOUS
370
-3
390
F
  0
LAYER
  5
205
100
AcDbSymbolTableRecord
100
AcDbLayerTableRecord
  2
07_COSMETICS
 70
0
 62
7
  6
CONTINUOUS
370
-3
390
F
  0
LAYER
  5
206
100
AcDbSymbolTableRecord
100
AcDbLayerTableRecord
  2
10_NOTES
 70
0
 62
7
  6
CONTINUOUS
370
-3
390
F
  0
LAYER
  5
207
100
AcDbSymbolTableRecord
100
AcDbLayerTableRecord
  2
11_NOTES_PUB
 70
0
 62
7
  6
CONTINUOUS
370
-3
390
F
  0
LAYER
  5
208
100
AcDbSymbolTableRecord
100
AcDbLayerTableRecord
  2
13_REF_GTOL
 70
0
 62
7
  6
CONTINUOUS
370
-3
390
F
  0
LAYER
  5
209
100
AcDbSymbolTableRecord
100
AcDbLayerTableRecord
  2
16_MISC
 70
0
 62
7
  6
CONTINUOUS
370
-3
390
F
  0
LAYER
  5
20A
100
AcDbSymbolTableRecord
100
AcDbLayerTableRecord
  2
17_NO_PRINT
 70
0
 62
7
  6
CONTINUOUS
370
-3
390
F
  0
LAYER
  5
20B
100
AcDbSymbolTableRecord
100
AcDbLayerTableRecord
  2
18_DATUM_CAMS_JOINTS
 70
0
 62
7
  6
CONTINUOUS
370
-3
390
F
  0
LAYER
  5
20C
100
AcDbSymbolTableRecord
100
AcDbLayerTableRecord
  2
19_DATUM_FUNCTIONAL
 70
0
 62
7
  6
CONTINUOUS
370
-3
390
F
  0
LAYER
  5
20D
100
AcDbSymbolTableRecord
100
AcDbLayerTableRecord
  2
20_DATUM_KINEMATIC_SCHEME
 70
0
 62
7
  6
CONTINUOUS
370
-3
390
F
  0
LAYER
  5
20E
100
AcDbSymbolTableRecord
100
AcDbLayerTableRecord
  2
INTFCLR_17482
 70
0
 62
7
  6
CONTINUOUS
370
-3
390
F
  0
ENDTAB
  0
TABLE
  2
STYLE
  5
3
100
AcDbSymbolTable
 70
1
  0
STYLE
  5
11
100
AcDbSymbolTableRecord
100
AcDbTextStyleTableRecord
  2
STANDARD
 70
0
 40
0.0
 41
1.0
 50
0.0
 71
0
 42
0.2
  3
ARIAL.TTF
  4

  0
STYLE
  5
20F
100
AcDbSymbolTableRecord
100
AcDbTextStyleTableRecord
  2
TEXTSTYLE_1
 70
0
 40
0.0
 41
0.8
 50
0.0
 71
0
 42
0.2
  3
gdt
  4

  0
ENDTAB
  0
TABLE
  2
VIEW
  5
6
100
AcDbSymbolTable
 70
0
  0
ENDTAB
  0
TABLE
  2
UCS
  5
7
100
AcDbSymbolTable
 70
0
  0
ENDTAB
  0
TABLE
  2
APPID
  5
9
100
AcDbSymbolTable
 70
1
  0
APPID
  5
210
100
AcDbSymbolTableRecord
100
AcDbRegAppTableRecord
  2
ACAD
 70
0
  0
ENDTAB
  0
TABLE
  2
BLOCK_RECORD
  5
1
100
AcDbSymbolTable
 70
0
  0
BLOCK_RECORD
  5
211
100
AcDbSymbolTableRecord
100
AcDbBlockTableRecord
  2
*Model_Space
  0
BLOCK_RECORD
  5
212
100
AcDbSymbolTableRecord
100
AcDbBlockTableRecord
  2
*Paper_Space
  0
BLOCK_RECORD
  5
213
100
AcDbSymbolTableRecord
100
AcDbBlockTableRecord
  2
_FILLED
  0
ENDTAB
  0
TABLE
  2
DIMSTYLE
  5
A
100
AcDbSymbolTable
 70
1
100
AcDbDimStyleTable
 71
0
  0
DIMSTYLE
105
214
100
AcDbSymbolTableRecord
100
AcDbDimStyleTableRecord
  2
STANDARD
 70
0
  3

  4

 40
1.0
 41
0.9484863348
 42
1.0
 43
0.38
 44
1.0
 45
0.0
 46
0.0
 47
0.01
 48
0.01
140
1.3278808687
141
0.09
142
0.0
143
25.4
144
1.0
145
0.0
146
1.0
147
0.625
 71
1
 72
0
 73
0
 74
0
 75
0
 76
0
 77
1
 78
8
 79
2
170
0
171
1
172
0
173
0
174
0
175
0
176
0
177
0
178
0
270
2
179
2
271
2
272
2
273
2
274
2
275
0
280
0
281
0
282
0
283
1
284
8
285
0
286
0
287
3
288
0
340
11
278
46
341
213
342
213
343
213
344
213
  0
ENDTAB
  0
ENDSEC
  0
SECTION
  2
BLOCKS
  0
BLOCK
  5
20
100
AcDbEntity
  8
0
100
AcDbBlockBegin
  2
*Model_Space
 70
0
 10
0.0
 20
0.0
 30
0.0
  3
*Model_Space
  1

  0
ENDBLK
  5
21
100
AcDbEntity
  8
0
100
AcDbBlockEnd
  0
BLOCK
  5
1C
100
AcDbEntity
  8
0
100
AcDbBlockBegin
  2
*Paper_Space
 70
0
 10
0.0
 20
0.0
 30
0.0
  3
*Paper_Space
  1

  0
ENDBLK
  5
1D
100
AcDbEntity
  8
0
100
AcDbBlockEnd
  0
BLOCK
  5
215
100
AcDbEntity
  8
0
100
AcDbBlockBegin
  2
_FILLED
 70
64
 10
0.0
 20
0.0
  3
_FILLED
  1

  0
SOLID
  5
216
100
AcDbEntity
  8
0
  6
BYBLOCK
 62
0
100
AcDbTrace
 10
0.0
 20
0.0
 11
-1.0
 21
0.25
 12
-1.0
 22
-0.25
 13
-1.0
 23
-0.25
  0
ENDBLK
  5
217
100
AcDbEntity
  8
0
  6
BYBLOCK
 62
0
100
AcDbBlockEnd
  0
ENDSEC
  0
SECTION
  2
ENTITIES
  0
LINE
  5
218
100
AcDbEntity
  8
0
100
AcDbLine
 62
7
  6
BYLAYER
 10
11.9906136149
 20
64.0400907163
 11
11.9906136149
 21
63.3400907162
  0
LINE
  5
219
100
AcDbEntity
  8
0
100
AcDbLine
 62
7
  6
BYLAYER
 10
11.9906136149
 20
49.3400907162
 11
11.9906136149
 21
48.6400907162
  0
LINE
  5
21A
100
AcDbEntity
  8
0
100
AcDbLine
 62
7
  6
BYLAYER
 10
12.0906136149
 20
49.4400907162
 11
12.0906136149
 21
63.2400907162
  0
LINE
  5
21B
100
AcDbEntity
  8
0
100
AcDbLine
 62
7
  6
BYLAYER
 10
13.1906174349
 20
63.3400907162
 11
13.1906208506
 21
63.6400908263
  0
LINE
  5
21C
100
AcDbEntity
  8
0
100
AcDbLine
 62
7
  6
BYLAYER
 10
13.1906139933
 20
49.040090109
 11
13.1906136943
 21
49.3400907162
  0
LINE
  5
21D
100
AcDbEntity
  8
0
100
AcDbLine
 62
7
  6
BYLAYER
 10
13.5406136149
 20
49.3400907162
 11
13.5406136149
 21
49.4400907162
  0
LINE
  5
21E
100
AcDbEntity
  8
0
100
AcDbLine
 62
7
  6
BYLAYER
 10
13.5406136149
 20
63.2400907162
 11
13.5406136149
 21
63.3400907162
  0
LINE
  5
21F
100
AcDbEntity
  8
0
100
AcDbLine
 62
7
  6
BYLAYER
 10
64.6606136149
 20
49.8965480043
 11
64.706966164
 21
49.9038895268
  0
LWPOLYLINE
  5
220
100
AcDbEntity
  8
0
100
AcDbPolyline
 62
7
  6
BYLAYER
 90
4
 70
0
 10
51.1839667086
 20
48.3400624034
 10
51.4002754161
 20
48.3415943638
 10
51.7626737239
 20
48.3460812091
 10
51.9906137451
 20
48.3471613938
  0
LINE
  5
221
100
AcDbEntity
  8
0
100
AcDbLine
 62
7
  6
BYLAYER
 10
12.29061361
 20
48.3400907162
 11
62.9906136145
 21
48.3400907162
  0
LINE
  5
222
100
AcDbEntity
  8
0
100
AcDbLine
 62
7
  6
BYLAYER
 10
60.1806136168
 20
49.0400905838
 11
13.1906139933
 21
49.040090109
  0
LINE
  5
223
100
AcDbEntity
  8
0
100
AcDbLine
 62
7
  6
BYLAYER
 10
11.9906136149
 20
49.3400907162
 11
13.5406136149
 21
49.3400907162
  0
LINE
  5
224
100
AcDbEntity
  8
0
100
AcDbLine
 62
7
  6
BYLAYER
 10
13.5406136149
 20
49.4400907162
 11
12.0906136149
 21
49.4400907162
  0
LWPOLYLINE
  5
225
100
AcDbEntity
  8
0
100
AcDbPolyline
 62
7
  6
BYLAYER
 90
4
 70
0
 10
51.9906140262
 20
48.3471745224
 10
52.2055889085
 20
48.3461993517
 10
52.5679434652
 20
48.3417554266
 10
52.797264064
 20
48.3400502709
  0
LINE
  5
226
100
AcDbEntity
  8
0
100
AcDbLine
 62
7
  6
BYLAYER
 10
71.647597116
 20
52.8400907162
 11
65.7106136149
 21
52.8400907162
  0
LINE
  5
227
100
AcDbEntity
  8
0
100
AcDbLine
 62
7
  6
BYLAYER
 10
71.647597116
 20
59.8400907162
 11
65.7106136149
 21
59.8400907162
  0
LWPOLYLINE
  5
228
100
AcDbEntity
  8
0
100
AcDbPolyline
 62
7
  6
BYLAYER
 90
4
 70
0
 10
52.7972615734
 20
64.3401143943
 10
52.5804490301
 20
64.3385804708
 10
52.2180533681
 20
64.3340984714
 10
51.990613478
 20
64.3330099671
  0
LINE
  5
229
100
AcDbEntity
  8
0
100
AcDbLine
 62
7
  6
BYLAYER
 10
13.5406136149
 20
63.2400907162
 11
12.0906136149
 21
63.2400907162
  0
LINE
  5
22A
100
AcDbEntity
  8
0
100
AcDbLine
 62
7
  6
BYLAYER
 10
13.5406136149
 20
63.3400907162
 11
11.9906136149
 21
63.3400907162
  0
LINE
  5
22B
100
AcDbEntity
  8
0
100
AcDbLine
 62
7
  6
BYLAYER
 10
13.1906208506
 20
63.6400908263
 11
60.1806136141
 21
63.6400903911
  0
LINE
  5
22C
100
AcDbEntity
  8
0
100
AcDbLine
 62
7
  6
BYLAYER
 10
12.2906136127
 20
64.3400907162
 11
62.9906136145
 21
64.3400907162
  0
LWPOLYLINE
  5
22D
100
AcDbEntity
  8
0
100
AcDbPolyline
 62
7
  6
BYLAYER
 90
4
 70
0
 10
51.9906134673
 20
64.3330187038
 10
51.7752856561
 20
64.3339869968
 10
51.4129340635
 20
64.3384345516
 10
51.183963047
 20
64.3401191213
  0
LINE
  5
22E
100
AcDbEntity
  8
0
100
AcDbLine
 62
7
  6
BYLAYER
 10
64.6606136149
 20
62.7836334282
 11
64.706966164
 21
62.7762919056
  0
LINE
  5
22F
100
AcDbEntity
  8
0
100
AcDbLine
 62
7
  6
BYLAYER
 10
51.990613478
 20
64.3330099674
 11
51.9906134439
 21
64.3276885351
  0
LINE
  5
230
100
AcDbEntity
  8
0
100
AcDbLine
 62
7
  6
BYLAYER
 10
51.9906140084
 20
48.352495724
 11
51.9906140262
 21
48.3471745224
  0
LINE
  5
231
100
AcDbEntity
  8
0
100
AcDbLine
 62
7
  6
BYLAYER
 10
64.510613615
 20
50.6715088062
 11
63.4906136149
 21
50.3400907164
  0
LINE
  5
232
100
AcDbEntity
  8
0
100
AcDbLine
 62
7
  6
BYLAYER
 10
63.4906136149
 20
62.3400907161
 11
64.510613615
 21
62.0086726263
  0
LINE
  5
233
100
AcDbEntity
  8
0
100
AcDbLine
 62
7
  6
BYLAYER
 10
65.6069661641
 20
50.1963172533
 11
64.706966164
 21
49.903889527
  0
LINE
  5
234
100
AcDbEntity
  8
0
100
AcDbLine
 62
7
  6
BYLAYER
 10
64.706966164
 20
62.7762919054
 11
65.6069661641
 21
62.4838641792
  0
LINE
  5
235
100
AcDbEntity
  8
0
100
AcDbLine
 62
7
  6
BYLAYER
 10
60.1806136141
 20
63.6400903911
 11
60.1806136168
 21
49.0400905838
  0
LINE
  5
236
100
AcDbEntity
  8
0
100
AcDbLine
 62
7
  6
BYLAYER
 10
63.4906136149
 20
48.8400907158
 11
62.9906136147
 21
48.3400907165
  0
LINE
  5
237
100
AcDbEntity
  8
0
100
AcDbLine
 62
7
  6
BYLAYER
 10
63.4906136149
 20
63.8400907167
 11
62.9906136147
 21
64.340090716
  0
LINE
  5
238
100
AcDbEntity
  8
0
100
AcDbLine
 62
7
  6
BYLAYER
 10
62.9906136149
 20
64.3400907162
 11
62.9906136149
 21
48.3400907162
  0
LINE
  5
239
100
AcDbEntity
  8
0
100
AcDbLine
 62
7
  6
BYLAYER
 10
63.4906136149
 20
63.83989334
 11
63.4906136149
 21
48.8402880924
  0
LINE
  5
23A
100
AcDbEntity
  8
0
100
AcDbLine
 62
7
  6
BYLAYER
 10
64.5106136149
 20
62.6336334282
 11
64.5106136149
 21
50.0470209288
  0
LINE
  5
23B
100
AcDbEntity
  8
0
100
AcDbLine
 62
7
  6
BYLAYER
 10
64.706966164
 20
49.903889527
 11
64.706966164
 21
62.7762919054
  0
LINE
  5
23C
100
AcDbEntity
  8
0
100
AcDbLine
 62
7
  6
BYLAYER
 10
65.6069661641
 20
62.4838641792
 11
65.6069661641
 21
50.1963172533
  0
LINE
  5
23D
100
AcDbEntity
  8
0
100
AcDbLine
 62
7
  6
BYLAYER
 10
65.7106136149
 20
62.3412057016
 11
65.7106136149
 21
50.3389757309
  0
LINE
  5
23E
100
AcDbEntity
  8
0
100
AcDbLine
 62
7
  6
BYLAYER
 10
72.0406136149
 20
57.3400907162
 11
71.8447997755
 21
59.6734240496
  0
LINE
  5
23F
100
AcDbEntity
  8
0
100
AcDbLine
 62
7
  6
BYLAYER
 10
71.647597116
 20
59.8400907162
 11
71.647597116
 21
52.8400907162
  0
LINE
  5
240
100
AcDbEntity
  8
0
100
AcDbLine
 62
7
  6
BYLAYER
 10
71.844799771
 20
53.0067573565
 11
71.844799771
 21
59.673424076
  0
LINE
  5
241
100
AcDbEntity
  8
0
100
AcDbLine
 62
7
  6
BYLAYER
 10
72.0406136149
 20
57.3400904227
 11
72.0406136149
 21
55.3402882554
  0
LINE
  5
242
100
AcDbEntity
  8
0
100
AcDbLine
 62
7
  6
BYLAYER
 10
72.0406136149
 20
55.3400907162
 11
71.8447997755
 21
53.0067573829
  0
ARC
  5
243
100
AcDbEntity
  8
0
100
AcDbCircle
 62
7
  6
BYLAYER
 10
125.488302935
 20
56.3790126047
 40
64.0144582724
100
AcDbArc
 50
180.0348368187
 51
187.2142388398
  0
ARC
  5
244
100
AcDbEntity
  8
0
100
AcDbCircle
 62
7
  6
BYLAYER
 10
125.4879242955
 20
56.3011928125
 40
64.0140796184
100
AcDbArc
 50
172.7857398987
 51
179.9651844428
  0
ARC
  5
245
100
AcDbEntity
  8
0
100
AcDbCircle
 62
7
  6
BYLAYER
 10
12.7114328373
 20
56.3400907162
 40
3.7
100
AcDbArc
 50
99.5732252801
 51
260.4267747199
  0
ARC
  5
246
100
AcDbEntity
  8
0
100
AcDbCircle
 62
7
  6
BYLAYER
 10
12.2906136149
 20
64.0400907162
 40
0.3
100
AcDbArc
 50
90.0000006749
 51
180.0
  0
ARC
  5
247
100
AcDbEntity
  8
0
100
AcDbCircle
 62
7
  6
BYLAYER
 10
12.2906136149
 20
48.6400907162
 40
0.3
100
AcDbArc
 50
180.0
 51
269.9999993014
  0
ARC
  5
248
100
AcDbEntity
  8
0
100
AcDbCircle
 62
7
  6
BYLAYER
 10
71.647597116
 20
53.0400907162
 40
0.2
100
AcDbArc
 50
270.0
 51
350.4059317734
  0
ARC
  5
249
100
AcDbEntity
  8
0
100
AcDbCircle
 62
7
  6
BYLAYER
 10
71.647597116
 20
59.6400907162
 40
0.2
100
AcDbArc
 50
9.594068227
 51
90.0
  0
ARC
  5
24A
100
AcDbEntity
  8
0
100
AcDbCircle
 62
7
  6
BYLAYER
 10
65.5606136149
 20
50.3389757309
 40
0.15
100
AcDbArc
 50
288.0000000015
 51
360.0
  0
ARC
  5
24B
100
AcDbEntity
  8
0
100
AcDbCircle
 62
7
  6
BYLAYER
 10
65.5606136149
 20
62.3412057016
 40
0.15
100
AcDbArc
 50
0.0
 51
71.9999999985
  0
ARC
  5
24C
100
AcDbEntity
  8
0
100
AcDbCircle
 62
7
  6
BYLAYER
 10
64.6606136149
 20
62.6336334282
 40
0.15
100
AcDbArc
 50
90.0
 51
180.0
  0
ARC
  5
24D
100
AcDbEntity
  8
0
100
AcDbCircle
 62
7
  6
BYLAYER
 10
64.6606136149
 20
50.0465480043
 40
0.15
100
AcDbArc
 50
180.0
 51
270.0
  0
SPLINE
  5
24E
100
AcDbEntity
  8
0
100
AcDbSpline
 62
7
  6
BYLAYER
 70
0
 71
3
 72
14
 73
10
 74
0
 42
0.0000001
 43
0.0000001
 44
0.0000000001
 40
0.0
 40
0.0
 40
0.0
 40
0.0
 40
0.1843487578
 40
0.2948704239
 40
0.4165315396
 40
0.5487108973
 40
0.6913429812
 40
0.8430551529
 40
1.0
 40
1.0
 40
1.0
 40
1.0
 10
12.5106259281
 20
64.3400907162
 30
0.0
 10
12.5736776002
 20
64.3400907162
 30
0.0
 10
12.6735836086
 20
64.3054081145
 30
0.0
 10
12.7939831774
 20
64.2299435169
 30
0.0
 10
12.8891581311
 20
64.1484847497
 30
0.0
 10
12.9792082239
 20
64.0466478062
 30
0.0
 10
13.0613925045
 20
63.9256738747
 30
0.0
 10
13.1336698879
 20
63.7890018116
 30
0.0
 10
13.1733170999
 20
63.6909033864
 30
0.0
 10
13.1906227027
 20
63.6400906087
 30
0.0
  0
SPLINE
  5
24F
100
AcDbEntity
  8
0
100
AcDbSpline
 62
7
  6
BYLAYER
 70
0
 71
3
 72
9
 73
5
 74
0
 42
0.0000001
 43
0.0000001
 44
0.0000000001
 40
0.0
 40
0.0
 40
0.0
 40
0.0
 40
0.5064590034
 40
1.0
 40
1.0
 40
1.0
 40
1.0
 10
51.9906134411
 20
64.3276759383
 30
0.0
 10
51.8544248881
 20
64.3276873275
 30
0.0
 10
51.5855474946
 20
64.3324291551
 30
0.0
 10
51.3167149087
 20
64.34008138
 30
0.0
 10
51.1840000517
 20
64.3400907162
 30
0.0
  0
SPLINE
  5
250
100
AcDbEntity
  8
0
100
AcDbSpline
 62
7
  6
BYLAYER
 70
0
 71
3
 72
9
 73
5
 74
0
 42
0.0000001
 43
0.0000001
 44
0.0000000001
 40
0.0
 40
0.0
 40
0.0
 40
0.0
 40
0.223044716
 40
1.0
 40
1.0
 40
1.0
 40
1.0
 10
12.5106175546
 20
64.3400907162
 30
0.0
 10
12.5033518687
 20
64.340090751
 30
0.0
 10
12.4707773488
 20
64.3375928699
 30
0.0
 10
12.439390204
 20
64.3251971283
 30
0.0
 10
12.4176029839
 20
64.3123177108
 30
0.0
  0
SPLINE
  5
251
100
AcDbEntity
  8
0
100
AcDbSpline
 62
7
  6
BYLAYER
 70
0
 71
3
 72
9
 73
5
 74
0
 42
0.0000001
 43
0.0000001
 44
0.0000000001
 40
0.0
 40
0.0
 40
0.0
 40
0.0
 40
0.2322833395
 40
1.0
 40
1.0
 40
1.0
 40
1.0
 10
12.4176029839
 20
64.3123177108
 30
0.0
 10
12.411167416
 20
64.3085133537
 30
0.0
 10
12.3842227872
 20
64.290857193
 30
0.0
 10
12.3603062788
 20
64.268777691
 30
0.0
 10
12.3438000453
 20
64.2503912652
 30
0.0
  0
SPLINE
  5
252
100
AcDbEntity
  8
0
100
AcDbSpline
 62
7
  6
BYLAYER
 70
0
 71
3
 72
10
 73
6
 74
0
 42
0.0000001
 43
0.0000001
 44
0.0000000001
 40
0.0
 40
0.0
 40
0.0
 40
0.0
 40
0.2499495812
 40
0.5097563236
 40
1.0
 40
1.0
 40
1.0
 40
1.0
 10
12.3438000453
 20
64.2503912652
 30
0.0
 10
12.3273569673
 20
64.2320751888
 30
0.0
 10
12.2974763385
 20
64.1913563882
 30
0.0
 10
12.2516396924
 20
64.103966702
 30
0.0
 10
12.2308964594
 20
64.0318808636
 30
0.0
 10
12.2238298496
 20
63.9841235065
 30
0.0
  0
SPLINE
  5
253
100
AcDbEntity
  8
0
100
AcDbSpline
 62
7
  6
BYLAYER
 70
0
 71
3
 72
9
 73
5
 74
0
 42
0.0000001
 43
0.0000001
 44
0.0000000001
 40
0.0
 40
0.0
 40
0.0
 40
0.0
 40
0.457050113
 40
1.0
 40
1.0
 40
1.0
 40
1.0
 10
12.099742362
 20
64.0216396239
 30
0.0
 10
12.1188318941
 20
64.0165687355
 30
0.0
 10
12.1600923469
 20
64.0036538596
 30
0.0
 10
12.2013440261
 20
63.9907924219
 30
0.0
 10
12.2238389113
 20
63.9841195293
 30
0.0
  0
SPLINE
  5
254
100
AcDbEntity
  8
0
100
AcDbSpline
 62
7
  6
BYLAYER
 70
0
 71
3
 72
13
 73
9
 74
0
 42
0.0000001
 43
0.0000001
 44
0.0000000001
 40
0.0
 40
0.0
 40
0.0
 40
0.0
 40
0.2542143729
 40
0.3902414701
 40
0.5261613151
 40
0.6577238798
 40
0.781882467
 40
1.0
 40
1.0
 40
1.0
 40
1.0
 10
12.0997426067
 20
64.0216395594
 30
0.0
 10
12.1022421107
 20
64.061387684
 30
0.0
 10
12.1159769724
 20
64.1223645441
 30
0.0
 10
12.1532979208
 20
64.1961739235
 30
0.0
 10
12.1911605735
 20
64.2472657607
 30
0.0
 10
12.2369729107
 20
64.2887257776
 30
0.0
 10
12.3007775191
 20
64.3272813566
 30
0.0
 10
12.355062133
 20
64.3400907162
 30
0.0
 10
12.3892336374
 20
64.3400907162
 30
0.0
  0
SPLINE
  5
255
100
AcDbEntity
  8
0
100
AcDbSpline
 62
7
  6
BYLAYER
 70
0
 71
3
 72
18
 73
14
 74
0
 42
0.0000001
 43
0.0000001
 44
0.0000000001
 40
0.0
 40
0.0
 40
0.0
 40
0.0
 40
0.0039123338
 40
0.0156468707
 40
0.0352011619
 40
0.0625737519
 40
0.0977641303
 40
0.1407724517
 40
0.2502394457
 40
0.3909698541
 40
0.562922965
 40
0.7659970697
 40
1.0
 40
1.0
 40
1.0
 40
1.0
 10
11.9906136149
 20
64.0400907163
 30
0.0
 10
11.9906142381
 20
64.0402353524
 30
0.0
 10
11.9915433228
 20
64.0398901706
 30
0.0
 10
11.992505994
 20
64.0402096652
 30
0.0
 10
11.9948670007
 20
64.0399574625
 30
0.0
 10
11.9978145877
 20
64.0399057017
 30
0.0
 10
12.0017433221
 20
64.0396319919
 30
0.0
 10
12.0086442033
 20
64.0391007064
 30
0.0
 10
12.0194352736
 20
64.0379387428
 30
0.0
 10
12.0348868575
 20
64.0357591512
 30
0.0
 10
12.0536693745
 20
64.0324420006
 30
0.0
 10
12.0756969252
 20
64.0277631268
 30
0.0
 10
12.0913841509
 20
64.0238712173
 30
0.0
 10
12.099742362
 20
64.0216396239
 30
0.0
  0
SPLINE
  5
256
100
AcDbEntity
  8
0
100
AcDbSpline
 62
7
  6
BYLAYER
 70
0
 71
3
 72
14
 73
10
 74
0
 42
0.0000001
 43
0.0000001
 44
0.0000000001
 40
0.0
 40
0.0
 40
0.0
 40
0.0
 40
0.1425477371
 40
0.2836464946
 40
0.4212801662
 40
0.5538338305
 40
0.6797395406
 40
0.797225902
 40
1.0
 40
1.0
 40
1.0
 40
1.0
 10
13.1906191429
 20
63.6400913087
 30
0.0
 10
13.1432332162
 20
63.6518513334
 30
0.0
 10
13.0491122465
 20
63.6759495407
 30
0.0
 10
12.9103487327
 20
63.7156238412
 30
0.0
 10
12.776827027
 20
63.7607417048
 30
0.0
 10
12.6507071456
 20
63.8108199113
 30
0.0
 10
12.5320656685
 20
63.8608583994
 30
0.0
 10
12.3904351609
 20
63.9182508508
 30
0.0
 10
12.2878079913
 20
63.9570744755
 30
0.0
 10
12.2238389113
 20
63.9841195293
 30
0.0
  0
SPLINE
  5
257
100
AcDbEntity
  8
0
100
AcDbSpline
 62
7
  6
BYLAYER
 70
0
 71
3
 72
9
 73
5
 74
0
 42
0.0000001
 43
0.0000001
 44
0.0000000001
 40
0.0
 40
0.0
 40
0.0
 40
0.0
 40
0.5064616211
 40
1.0
 40
1.0
 40
1.0
 40
1.0
 10
51.9906139226
 20
48.352505494
 30
0.0
 10
52.1268031106
 20
48.352495604
 30
0.0
 10
52.3956803843
 20
48.3477515281
 30
0.0
 10
52.6645128154
 20
48.3401023291
 30
0.0
 10
52.7972269011
 20
48.3400907162
 30
0.0
  0
SPLINE
  5
258
100
AcDbEntity
  8
0
100
AcDbSpline
 62
7
  6
BYLAYER
 70
0
 71
3
 72
12
 73
8
 74
0
 42
0.0000001
 43
0.0000001
 44
0.0000000001
 40
0.0
 40
0.0
 40
0.0
 40
0.0
 40
0.3085801433
 40
0.5831171082
 40
0.7048756022
 40
0.8154039795
 40
1.0
 40
1.0
 40
1.0
 40
1.0
 10
13.1906140937
 20
49.0400903463
 30
0.0
 10
13.1558022858
 20
48.9405641299
 30
0.0
 10
13.0732147417
 20
48.757588474
 30
0.0
 10
12.926160422
 20
48.5634378338
 30
0.0
 10
12.793929603
 20
48.4503073809
 30
0.0
 10
12.6736307798
 20
48.3746900849
 30
0.0
 10
12.5736995315
 20
48.3400907162
 30
0.0
 10
12.5106249176
 20
48.3400907162
 30
0.0
  0
SPLINE
  5
259
100
AcDbEntity
  8
0
100
AcDbSpline
 62
7
  6
BYLAYER
 70
0
 71
3
 72
10
 73
6
 74
0
 42
0.0000001
 43
0.0000001
 44
0.0000000001
 40
0.0
 40
0.0
 40
0.0
 40
0.0
 40
0.490476094
 40
0.7503068235
 40
1.0
 40
1.0
 40
1.0
 40
1.0
 10
12.2238276873
 20
48.696057189
 30
0.0
 10
12.2309314255
 20
48.6480478687
 30
0.0
 10
12.2518368415
 20
48.5755950731
 30
0.0
 10
12.2980461719
 20
48.4878629806
 30
0.0
 10
12.3281798387
 20
48.4470520648
 30
0.0
 10
12.3447535529
 20
48.4287288507
 30
0.0
  0
SPLINE
  5
25A
100
AcDbEntity
  8
0
100
AcDbSpline
 62
7
  6
BYLAYER
 70
0
 71
3
 72
9
 73
5
 74
0
 42
0.0000001
 43
0.0000001
 44
0.0000000001
 40
0.0
 40
0.0
 40
0.0
 40
0.0
 40
0.2674438385
 40
1.0
 40
1.0
 40
1.0
 40
1.0
 10
12.3447535529
 20
48.4287288507
 30
0.0
 10
12.3505085597
 20
48.4223663529
 30
0.0
 10
12.3728156267
 20
48.3993261767
 30
0.0
 10
12.3982831772
 20
48.3791591858
 30
0.0
 10
12.4185674348
 20
48.3672950569
 30
0.0
  0
SPLINE
  5
25B
100
AcDbEntity
  8
0
100
AcDbSpline
 62
7
  6
BYLAYER
 70
0
 71
3
 72
9
 73
5
 74
0
 42
0.0000001
 43
0.0000001
 44
0.0000000001
 40
0.0
 40
0.0
 40
0.0
 40
0.0
 40
0.2808947343
 40
1.0
 40
1.0
 40
1.0
 40
1.0
 10
12.4185674348
 20
48.3672950569
 30
0.0
 10
12.4263753537
 20
48.3627282565
 30
0.0
 10
12.4550206976
 20
48.3480622408
 30
0.0
 10
12.4874580773
 20
48.3400907258
 30
0.0
 10
12.5106147765
 20
48.3400907162
 30
0.0
  0
SPLINE
  5
25C
100
AcDbEntity
  8
0
100
AcDbSpline
 62
7
  6
BYLAYER
 70
0
 71
3
 72
13
 73
9
 74
0
 42
0.0000001
 43
0.0000001
 44
0.0000000001
 40
0.0
 40
0.0
 40
0.0
 40
0.0
 40
0.2181175993
 40
0.3422761998
 40
0.4738387625
 40
0.6097585924
 40
0.745785668
 40
1.0
 40
1.0
 40
1.0
 40
1.0
 10
12.3892334713
 20
48.3400907162
 30
0.0
 10
12.3550619575
 20
48.3400907162
 30
0.0
 10
12.3007773321
 20
48.352900068
 30
0.0
 10
12.2369727056
 20
48.3914556369
 30
0.0
 10
12.1911603607
 20
48.4329156417
 30
0.0
 10
12.1532977037
 20
48.4840074663
 30
0.0
 10
12.1159767552
 20
48.5578168297
 30
0.0
 10
12.1022418991
 20
48.6187936804
 30
0.0
 10
12.099742401
 20
48.6585417979
 30
0.0
  0
SPLINE
  5
25D
100
AcDbEntity
  8
0
100
AcDbSpline
 62
7
  6
BYLAYER
 70
0
 71
3
 72
18
 73
14
 74
0
 42
0.0000001
 43
0.0000001
 44
0.0000000001
 40
0.0
 40
0.0
 40
0.0
 40
0.0
 40
0.2340029663
 40
0.437076807
 40
0.6090292274
 40
0.7497589131
 40
0.8592270398
 40
0.9022356964
 40
0.9374262274
 40
0.9647988779
 40
0.9843531768
 40
0.9960876959
 40
1.0
 40
1.0
 40
1.0
 40
1.0
 10
12.0997422835
 20
48.6585417898
 30
0.0
 10
12.0913838517
 20
48.656311042
 30
0.0
 10
12.0756969658
 20
48.6524179333
 30
0.0
 10
12.0536693483
 20
48.6477395201
 30
0.0
 10
12.0348869286
 20
48.6444222682
 30
0.0
 10
12.0194353753
 20
48.6422427083
 30
0.0
 10
12.0086442521
 20
48.641080728
 30
0.0
 10
12.0017433696
 20
48.6405494439
 30
0.0
 10
11.997814505
 20
48.6402757315
 30
0.0
 10
11.9948672032
 20
48.6402239728
 30
0.0
 10
11.992505538
 20
48.6399717634
 30
0.0
 10
11.9915440231
 20
48.6402912566
 30
0.0
 10
11.9906137473
 20
48.6399460801
 30
0.0
 10
11.9906136149
 20
48.6400907162
 30
0.0
  0
SPLINE
  5
25E
100
AcDbEntity
  8
0
100
AcDbSpline
 62
7
  6
BYLAYER
 70
0
 71
3
 72
17
 73
13
 74
0
 42
0.0000001
 43
0.0000001
 44
0.0000000001
 40
0.0
 40
0.0
 40
0.0
 40
0.0
 40
0.185506401
 40
0.3641535791
 40
0.5286842153
 40
0.6733801309
 40
0.7936990202
 40
0.8868769947
 40
0.9233785452
 40
0.9535904097
 40
0.9784766021
 40
1.0
 40
1.0
 40
1.0
 40
1.0
 10
60.1806136149
 20
49.0400905837
 30
0.0
 10
60.1806136209
 20
48.9939987629
 30
0.0
 10
60.1828404999
 20
48.903504875
 30
0.0
 10
60.1924455751
 20
48.7724420868
 30
0.0
 10
60.2077881481
 20
48.6521344334
 30
0.0
 10
60.2281731721
 20
48.5472536225
 30
0.0
 10
60.2525417704
 20
48.4615687201
 30
0.0
 10
60.2768523524
 20
48.4040052581
 30
0.0
 10
60.2985450726
 20
48.3705838415
 30
0.0
 10
60.313954887
 20
48.3536484717
 30
0.0
 10
60.3299229486
 20
48.3428127621
 30
0.0
 10
60.3415187288
 20
48.3400907162
 30
0.0
 10
60.3468665367
 20
48.3400907162
 30
0.0
  0
SPLINE
  5
25F
100
AcDbEntity
  8
0
100
AcDbSpline
 62
7
  6
BYLAYER
 70
0
 71
3
 72
17
 73
13
 74
0
 42
0.0000001
 43
0.0000001
 44
0.0000000001
 40
0.0
 40
0.0
 40
0.0
 40
0.0
 40
0.0215234149
 40
0.0464095284
 40
0.0766218032
 40
0.113125097
 40
0.2063076398
 40
0.3266263216
 40
0.4713217623
 40
0.6358532851
 40
0.8144966327
 40
1.0
 40
1.0
 40
1.0
 40
1.0
 10
60.3468665095
 20
64.3400907162
 30
0.0
 10
60.3415186915
 20
64.3400907162
 30
0.0
 10
60.3299228857
 20
64.3373690243
 30
0.0
 10
60.3139543778
 20
64.3265337006
 30
0.0
 10
60.298544163
 20
64.309597891
 30
0.0
 10
60.2768515567
 20
64.276174319
 30
0.0
 10
60.2525417758
 20
64.2186089051
 30
0.0
 10
60.2281718692
 20
64.1329233301
 30
0.0
 10
60.2077863539
 20
64.0280423736
 30
0.0
 10
60.1924456224
 20
63.9077352079
 30
0.0
 10
60.1828406909
 20
63.7766737904
 30
0.0
 10
60.1806136132
 20
63.6861815081
 30
0.0
 10
60.1806136149
 20
63.6400903912
 30
0.0
  0
SPLINE
  5
260
100
AcDbEntity
  8
0
100
AcDbSpline
 62
7
  6
BYLAYER
 70
0
 71
3
 72
9
 73
5
 74
0
 42
0.0000001
 43
0.0000001
 44
0.0000000001
 40
0.0
 40
0.0
 40
0.0
 40
0.0
 40
0.4935324215
 40
1.0
 40
1.0
 40
1.0
 40
1.0
 10
51.1840010805
 20
48.3400907162
 30
0.0
 10
51.3167135436
 20
48.3401035633
 30
0.0
 10
51.5855458278
 20
48.3477586294
 30
0.0
 10
51.8544231539
 20
48.3524929628
 30
0.0
 10
51.9906139226
 20
48.352505494
 30
0.0
  0
SPLINE
  5
261
100
AcDbEntity
  8
0
100
AcDbSpline
 62
7
  6
BYLAYER
 70
0
 71
3
 72
9
 73
5
 74
0
 42
0.0000001
 43
0.0000001
 44
0.0000000001
 40
0.0
 40
0.0
 40
0.0
 40
0.0
 40
0.4935406251
 40
1.0
 40
1.0
 40
1.0
 40
1.0
 10
52.7972262822
 20
64.3400907162
 30
0.0
 10
52.6645116153
 20
64.3400808341
 30
0.0
 10
52.3956792128
 20
64.3324281968
 30
0.0
 10
52.1268020012
 20
64.3276897948
 30
0.0
 10
51.9906134411
 20
64.3276759383
 30
0.0
  0
SPLINE
  5
262
100
AcDbEntity
  8
0
100
AcDbSpline
 62
7
  6
BYLAYER
 70
0
 71
3
 72
10
 73
6
 74
0
 42
0.0000001
 43
0.0000001
 44
0.0000000001
 40
0.0
 40
0.0
 40
0.0
 40
0.0
 40
0.446276582
 40
0.7163788502
 40
1.0
 40
1.0
 40
1.0
 40
1.0
 10
12.2238393294
 20
48.6960620431
 30
0.0
 10
12.3683029161
 20
48.74601192
 30
0.0
 10
12.5908512706
 20
48.8508496093
 30
0.0
 10
12.9123360231
 20
48.9693341143
 30
0.0
 10
13.0954165116
 20
49.0207399699
 30
0.0
 10
13.1906138438
 20
49.040088685
 30
0.0
  0
SPLINE
  5
263
100
AcDbEntity
  8
0
100
AcDbSpline
 62
7
  6
BYLAYER
 70
0
 71
3
 72
9
 73
5
 74
0
 42
0.0000001
 43
0.0000001
 44
0.0000000001
 40
0.0
 40
0.0
 40
0.0
 40
0.0
 40
0.4570539083
 40
1.0
 40
1.0
 40
1.0
 40
1.0
 10
12.0997422835
 20
48.6585417898
 30
0.0
 10
12.1188304354
 20
48.6636188249
 30
0.0
 10
12.1600943782
 20
48.676521573
 30
0.0
 10
12.2013444993
 20
48.6893892023
 30
0.0
 10
12.2238393294
 20
48.6960620431
 30
0.0
  0
ENDSEC
  0
SECTION
  2
OBJECTS
  0
DICTIONARY
  5
C
100
AcDbDictionary
280
0
281
1
  3
ACAD_GROUP
350
D
  3
ACAD_MLINESTYLE
350
17
  3
ACAD_LAYOUT
350
1A
  3
ACAD_PLOTSETTINGS
350
19
  3
ACAD_PLOTSTYLENAME
350
E
  0
DICTIONARY
  5
D
102
{ACAD_REACTORS
330
C
102
}
100
AcDbDictionary
280
0
281
1
  0
ACDBDICTIONARYWDFLT
  5
E
102
{ACAD_REACTORS
330
C
102
}
100
AcDbDictionary
281
1
  3
Normal
350
F
100
AcDbDictionaryWithDefault
340
F
  0
DICTIONARY
  5
17
102
{ACAD_REACTORS
330
C
102
}
100
AcDbDictionary
280
0
281
1
  3
Standard
350
18
  0
DICTIONARY
  5
19
102
{ACAD_REACTORS
330
C
102
}
100
AcDbDictionary
281
1
  0
DICTIONARY
  5
1A
102
{ACAD_REACTORS
330
C
102
}
100
AcDbDictionary
281
1
  3
Model
350
264
  3
Layout1
350
265
  0
ACDBPLACEHOLDER
  5
F
102
{ACAD_REACTORS
330
E
102
}
  0
MLINESTYLE
  5
18
102
{ACAD_REACTORS
330
17
102
}
100
AcDbMlineStyle
  2
STANDARD
 70
0
  3

 62
256
 51
90.0
 52
90.0
 71
2
 49
0.5
 62
256
  6
BYLAYER
 49
-0.5
 62
256
  6
BYLAYER
  0
LAYOUT
  5
264
102
{ACAD_REACTORS
330
1A
102
}
100
AcDbPlotSettings
  1

  2
none_device
  4

  6

 40
0.0
 41
0.0
 42
0.0
 43
0.0
 44
210.0
 45
297.0
 46
0.0
 47
0.0
 48
0.0
 49
0.0
140
0.0
141
0.0
142
1.0
143
1.0
 70
1024
 72
1
 73
0
 74
0
  7

 75
0
147
1.0
148
0.0
149
0.0
100
AcDbLayout
  1
Model
 70
0
 71
0
 10
0.0
 20
0.0
 11
210.0
 21
297.0
 12
0.0
 22
0.0
 32
0.0
 14
0.0
 24
0.0
 34
0.0
 15
0.0
 25
0.0
 35
0.0
146
0.0
 13
0.0
 23
0.0
 33
0.0
 16
1.0
 26
0.0
 36
0.0
 17
0.0
 27
1.0
 37
0.0
 76
0
330
211
345
0
346
0
  0
LAYOUT
  5
265
102
{ACAD_REACTORS
330
1A
102
}
100
AcDbPlotSettings
  1

  2
none_device
  4

  6

 40
0.0
 41
0.0
 42
0.0
 43
0.0
 44
210.0
 45
297.0
 46
0.0
 47
0.0
 48
0.0
 49
0.0
140
0.0
141
0.0
142
1.0
143
1.0
 70
0
 72
1
 73
0
 74
0
  7

 75
0
147
1.0
148
0.0
149
0.0
100
AcDbLayout
  1
Layout1
 70
0
 71
1
 10
0.0
 20
0.0
 11
210.0
 21
297.0
 12
0.0
 22
0.0
 32
0.0
 14
0.0
 24
0.0
 34
0.0
 15
0.0
 25
0.0
 35
0.0
146
0.0
 13
0.0
 23
0.0
 33
0.0
 16
1.0
 26
0.0
 36
0.0
 17
0.0
 27
1.0
 37
0.0
 76
0
330
212
345
0
346
0
  0
ENDSEC
  0
EOF
