999
DXF file: C:\Users\sesa63760\Dev\_Creo\CAD\MCADPD0004121_3D-CAD\drw0001_4.dxf
999
Pro/ENGINEER 2019471 by Parametric Technology Corporation
  0
SECTION
  2
HEADER
  9
$ACADVER
  1
AC1024
  9
$DWGCODEPAGE
  3
ANSI_1252
  9
$EXTMAX
 10
59.6794128334
 20
84.4037410072
 30
0.0
  9
$EXTMIN
 10
0.0
 20
0.0
 30
0.0
  9
$LIMMIN
 10
0.0
 20
0.0
  9
$LIMMAX
 10
59.6794128334
 20
84.4037410072
  9
$VIEWCTR
 10
29.8397064167
 20
42.2018705036
  9
$VIEWSIZE
 40
84.4037410072
  9
$CLAYER
  8
0
  9
$LTSCALE
 40
5.5018734879
  9
$CELTYPE
  6
BYLAYER
  9
$DIMSCALE
 40
1.0
  9
$DIMASZ
 40
0.7104692004
  9
$DIMEXO
 40
1.0
  9
$DIMDLI
 40
3.8012944098
  9
$DIMEXE
 40
1.0
  9
$DIMCEN
 40
0.9003065707
  9
$DIMLFAC
 40
1.0
  9
$DIMBLK
  1
_FILLED
  9
$DIMALT
 70
0
  9
$DIMALTF
 40
0.0393700787
  9
$DIMTXT
 40
0.9946568806
  9
$DIMTOL
 70
1
  9
$DIMLIM
 70
0
  9
$DIMTFAC
 40
1.0
  9
$DIMTP
 40
0.01
  9
$DIMTM
 40
0.01
  9
$DIMGAP
 40
0.625
  9
$DIMDSEP
 70
46
  9
$AUNITS
 70
0
  9
$PDMODE
 70
3
  9
$PDSIZE
 40
0.3125
  9
$HANDSEED
  5
285
  9
$TILEMODE
 70
1
  9
$MEASUREMENT
 70
1
  9
$INSUNITS
 70
4
  0
ENDSEC
  0
SECTION
  2
CLASSES
  0
CLASS
  1
ACDBDICTIONARYWDFLT
  2
AcDbDictionaryWithDefault
  3
AutoCAD 2000
 90
0
 91
1
280
0
281
0
  0
CLASS
  1
ACDBPLACEHOLDER
  2
AcDbPlaceHolder
  3
AutoCAD 2000
 90
0
 91
1
280
0
281
0
  0
CLASS
  1
LAYOUT
  2
AcDbLayout
  3
AutoCAD 2000
 90
0
 91
0
280
0
281
0
  0
ENDSEC
  0
SECTION
  2
TABLES
  0
TABLE
  2
VPORT
  5
8
100
AcDbSymbolTable
 70
2
  0
VPORT
  5
1F4
100
AcDbSymbolTableRecord
100
AcDbViewportTableRecord
  2
*ACTIVE
 70
0
 10
0.0
 20
0.0
 11
1.0
 21
1.0
 12
29.8397064167
 22
42.2018705036
 13
0.0
 23
0.0
 14
1.0
 24
1.0
 15
0.0
 25
0.0
 16
0.0
 26
0.0
 36
1.0
 17
0.0
 27
0.0
 37
0.0
 40
84.4037410072
 41
0.7070707071
 42
50.0
 43
0.0
 44
0.0
 50
0.0
 51
0.0
 71
0
 72
100
 73
1
 74
1
 75
0
 76
0
 77
0
 78
0
  0
ENDTAB
  0
TABLE
  2
LTYPE
  5
5
100
AcDbSymbolTable
 70
6
  0
LTYPE
  5
14
100
AcDbSymbolTableRecord
100
AcDbLinetypeTableRecord
  2
BYBLOCK
 70
0
  3

 72
65
 73
0
 40
0.0
  0
LTYPE
  5
15
100
AcDbSymbolTableRecord
100
AcDbLinetypeTableRecord
  2
BYLAYER
 70
0
  3

 72
65
 73
0
 40
0.0
  0
LTYPE
  5
16
100
AcDbSymbolTableRecord
100
AcDbLinetypeTableRecord
  2
CONTINUOUS
 70
64
  3
Solid line
 72
65
 73
0
 40
0.0
  0
LTYPE
  5
1F5
100
AcDbSymbolTableRecord
100
AcDbLinetypeTableRecord
  2
CENTER
 70
64
  3
____ _ ____ _ ____ _ ____ _ ____ _ ____ _ ____
 72
65
 73
4
 40
0.6
 49
0.375
 74
0
 49
-0.075
 74
0
 49
0.075
 74
0
 49
-0.075
 74
0
  0
LTYPE
  5
1F6
100
AcDbSymbolTableRecord
100
AcDbLinetypeTableRecord
  2
HIDDEN
 70
64
  3
- - - - - - - - - - - - - - - - - - - -
 72
65
 73
2
 40
0.2
 49
0.1
 74
0
 49
-0.1
 74
0
  0
LTYPE
  5
1F7
100
AcDbSymbolTableRecord
100
AcDbLinetypeTableRecord
  2
PHANTOM
 70
64
  3
_____ _ _ _____ _ _ _____ _ _ _____
 72
65
 73
6
 40
0.8
 49
0.45
 74
0
 49
-0.05
 74
0
 49
0.1
 74
0
 49
-0.05
 74
0
 49
0.1
 74
0
 49
-0.05
 74
0
  0
LTYPE
  5
1F8
100
AcDbSymbolTableRecord
100
AcDbLinetypeTableRecord
  2
DOT
 70
64
  3
. . . . . . . . . . . . . . . . . . . .
 72
65
 73
2
 40
0.2
 49
0.1
 74
0
 49
-0.1
 74
0
  0
LTYPE
  5
1F9
100
AcDbSymbolTableRecord
100
AcDbLinetypeTableRecord
  2
DASHED
 70
64
  3
- - - - - - - - - - - - - - - - - - - -
 72
65
 73
2
 40
0.2
 49
0.1
 74
0
 49
-0.1
 74
0
  0
ENDTAB
  0
TABLE
  2
LAYER
  5
2
100
AcDbSymbolTable
 70
36
  0
LAYER
  5
10
100
AcDbSymbolTableRecord
100
AcDbLayerTableRecord
  2
0
 70
0
 62
7
  6
CONTINUOUS
370
-3
390
F
  0
LAYER
  5
1FA
100
AcDbSymbolTableRecord
100
AcDbLayerTableRecord
  2
DEFAULT_1
 70
0
 62
7
  6
CENTER
370
-3
390
F
  0
LAYER
  5
1FB
100
AcDbSymbolTableRecord
100
AcDbLayerTableRecord
  2
DEFAULT_2
 70
0
 62
7
  6
HIDDEN
370
-3
390
F
  0
LAYER
  5
1FC
100
AcDbSymbolTableRecord
100
AcDbLayerTableRecord
  2
DEFAULT_3
 70
0
 62
7
  6
PHANTOM
370
-3
390
F
  0
LAYER
  5
1FD
100
AcDbSymbolTableRecord
100
AcDbLayerTableRecord
  2
00_COMPONENTS
 70
0
 62
7
  6
CONTINUOUS
370
-3
390
F
  0
LAYER
  5
1FE
100
AcDbSymbolTableRecord
100
AcDbLayerTableRecord
  2
01_1_DEFAULT_DATUMS
 70
0
 62
7
  6
CONTINUOUS
370
-3
390
F
  0
LAYER
  5
1FF
100
AcDbSymbolTableRecord
100
AcDbLayerTableRecord
  2
01_PLANES
 70
0
 62
7
  6
CONTINUOUS
370
-3
390
F
  0
LAYER
  5
200
100
AcDbSymbolTableRecord
100
AcDbLayerTableRecord
  2
02_COORD_SYS
 70
0
 62
7
  6
CONTINUOUS
370
-3
390
F
  0
LAYER
  5
201
100
AcDbSymbolTableRecord
100
AcDbLayerTableRecord
  2
03_AXES
 70
0
 62
7
  6
CONTINUOUS
370
-3
390
F
  0
LAYER
  5
202
100
AcDbSymbolTableRecord
100
AcDbLayerTableRecord
  2
04_POINTS
 70
0
 62
7
  6
CONTINUOUS
370
-3
390
F
  0
LAYER
  5
203
100
AcDbSymbolTableRecord
100
AcDbLayerTableRecord
  2
05_CURVES
 70
0
 62
7
  6
CONTINUOUS
370
-3
390
F
  0
LAYER
  5
204
100
AcDbSymbolTableRecord
100
AcDbLayerTableRecord
  2
06_SURFS
 70
0
 62
7
  6
CONTINUOUS
370
-3
390
F
  0
LAYER
  5
205
100
AcDbSymbolTableRecord
100
AcDbLayerTableRecord
  2
07_COSMETICS
 70
0
 62
7
  6
CONTINUOUS
370
-3
390
F
  0
LAYER
  5
206
100
AcDbSymbolTableRecord
100
AcDbLayerTableRecord
  2
10_NOTES
 70
0
 62
7
  6
CONTINUOUS
370
-3
390
F
  0
LAYER
  5
207
100
AcDbSymbolTableRecord
100
AcDbLayerTableRecord
  2
11_NOTES_PUB
 70
0
 62
7
  6
CONTINUOUS
370
-3
390
F
  0
LAYER
  5
208
100
AcDbSymbolTableRecord
100
AcDbLayerTableRecord
  2
13_REF_GTOL
 70
0
 62
7
  6
CONTINUOUS
370
-3
390
F
  0
LAYER
  5
209
100
AcDbSymbolTableRecord
100
AcDbLayerTableRecord
  2
16_MISC
 70
0
 62
7
  6
CONTINUOUS
370
-3
390
F
  0
LAYER
  5
20A
100
AcDbSymbolTableRecord
100
AcDbLayerTableRecord
  2
17_NO_PRINT
 70
0
 62
7
  6
CONTINUOUS
370
-3
390
F
  0
LAYER
  5
20B
100
AcDbSymbolTableRecord
100
AcDbLayerTableRecord
  2
18_DATUM_CAMS_JOINTS
 70
0
 62
7
  6
CONTINUOUS
370
-3
390
F
  0
LAYER
  5
20C
100
AcDbSymbolTableRecord
100
AcDbLayerTableRecord
  2
19_DATUM_FUNCTIONAL
 70
0
 62
7
  6
CONTINUOUS
370
-3
390
F
  0
LAYER
  5
20D
100
AcDbSymbolTableRecord
100
AcDbLayerTableRecord
  2
20_DATUM_KINEMATIC_SCHEME
 70
0
 62
7
  6
CONTINUOUS
370
-3
390
F
  0
ENDTAB
  0
TABLE
  2
STYLE
  5
3
100
AcDbSymbolTable
 70
1
  0
STYLE
  5
11
100
AcDbSymbolTableRecord
100
AcDbTextStyleTableRecord
  2
STANDARD
 70
0
 40
0.0
 41
1.0
 50
0.0
 71
0
 42
0.2
  3
ARIAL.TTF
  4

  0
STYLE
  5
20E
100
AcDbSymbolTableRecord
100
AcDbTextStyleTableRecord
  2
TEXTSTYLE_1
 70
0
 40
0.0
 41
0.8
 50
0.0
 71
0
 42
0.2
  3
gdt
  4

  0
ENDTAB
  0
TABLE
  2
VIEW
  5
6
100
AcDbSymbolTable
 70
0
  0
ENDTAB
  0
TABLE
  2
UCS
  5
7
100
AcDbSymbolTable
 70
0
  0
ENDTAB
  0
TABLE
  2
APPID
  5
9
100
AcDbSymbolTable
 70
1
  0
APPID
  5
20F
100
AcDbSymbolTableRecord
100
AcDbRegAppTableRecord
  2
ACAD
 70
0
  0
ENDTAB
  0
TABLE
  2
BLOCK_RECORD
  5
1
100
AcDbSymbolTable
 70
0
  0
BLOCK_RECORD
  5
210
100
AcDbSymbolTableRecord
100
AcDbBlockTableRecord
  2
*Model_Space
  0
BLOCK_RECORD
  5
211
100
AcDbSymbolTableRecord
100
AcDbBlockTableRecord
  2
*Paper_Space
  0
BLOCK_RECORD
  5
212
100
AcDbSymbolTableRecord
100
AcDbBlockTableRecord
  2
_FILLED
  0
ENDTAB
  0
TABLE
  2
DIMSTYLE
  5
A
100
AcDbSymbolTable
 70
1
100
AcDbDimStyleTable
 71
0
  0
DIMSTYLE
105
213
100
AcDbSymbolTableRecord
100
AcDbDimStyleTableRecord
  2
STANDARD
 70
0
  3

  4

 40
1.0
 41
0.7104692004
 42
1.0
 43
0.38
 44
1.0
 45
0.0
 46
0.0
 47
0.01
 48
0.01
140
0.9946568806
141
0.09
142
0.0
143
25.4
144
1.0
145
0.0
146
1.0
147
0.625
 71
1
 72
0
 73
0
 74
0
 75
0
 76
0
 77
1
 78
8
 79
2
170
0
171
1
172
0
173
0
174
0
175
0
176
0
177
0
178
0
270
2
179
2
271
2
272
2
273
2
274
2
275
0
280
0
281
0
282
0
283
1
284
8
285
0
286
0
287
3
288
0
340
11
278
46
341
212
342
212
343
212
344
212
  0
ENDTAB
  0
ENDSEC
  0
SECTION
  2
BLOCKS
  0
BLOCK
  5
20
100
AcDbEntity
  8
0
100
AcDbBlockBegin
  2
*Model_Space
 70
0
 10
0.0
 20
0.0
 30
0.0
  3
*Model_Space
  1

  0
ENDBLK
  5
21
100
AcDbEntity
  8
0
100
AcDbBlockEnd
  0
BLOCK
  5
1C
100
AcDbEntity
  8
0
100
AcDbBlockBegin
  2
*Paper_Space
 70
0
 10
0.0
 20
0.0
 30
0.0
  3
*Paper_Space
  1

  0
ENDBLK
  5
1D
100
AcDbEntity
  8
0
100
AcDbBlockEnd
  0
BLOCK
  5
214
100
AcDbEntity
  8
0
100
AcDbBlockBegin
  2
_FILLED
 70
64
 10
0.0
 20
0.0
  3
_FILLED
  1

  0
SOLID
  5
215
100
AcDbEntity
  8
0
  6
BYBLOCK
 62
0
100
AcDbTrace
 10
0.0
 20
0.0
 11
-1.0
 21
0.25
 12
-1.0
 22
-0.25
 13
-1.0
 23
-0.25
  0
ENDBLK
  5
216
100
AcDbEntity
  8
0
  6
BYBLOCK
 62
0
100
AcDbBlockEnd
  0
ENDSEC
  0
SECTION
  2
ENTITIES
  0
LINE
  5
217
100
AcDbEntity
  8
0
100
AcDbLine
 62
7
  6
BYLAYER
 10
20.1395265606
 20
6.0435971223
 11
23.9395265606
 21
6.0435971223
  0
LINE
  5
218
100
AcDbEntity
  8
0
100
AcDbLine
 62
7
  6
BYLAYER
 10
20.1395265606
 20
6.5435971223
 11
23.3565820993
 21
6.5435971223
  0
LINE
  5
219
100
AcDbEntity
  8
0
100
AcDbLine
 62
7
  6
BYLAYER
 10
45.2395265606
 20
6.5499725851
 11
23.9251944302
 21
6.5499725851
  0
LINE
  5
21A
100
AcDbEntity
  8
0
100
AcDbLine
 62
7
  6
BYLAYER
 10
23.9164451614
 20
6.5600755754
 11
45.2395265606
 21
6.5600755754
  0
LINE
  5
21B
100
AcDbEntity
  8
0
100
AcDbLine
 62
7
  6
BYLAYER
 10
43.5395265606
 20
6.6010161079
 11
45.2395265606
 21
6.6010161079
  0
LINE
  5
21C
100
AcDbEntity
  8
0
100
AcDbLine
 62
7
  6
BYLAYER
 10
23.4857961254
 20
7.7281527341
 11
43.2395265606
 21
7.7281527341
  0
LINE
  5
21D
100
AcDbEntity
  8
0
100
AcDbLine
 62
7
  6
BYLAYER
 10
23.3565820993
 20
9.6585388438
 11
43.2395265606
 21
9.6585388438
  0
LINE
  5
21E
100
AcDbEntity
  8
0
100
AcDbLine
 62
7
  6
BYLAYER
 10
45.7395265606
 20
12.2499725851
 11
43.2395265606
 21
12.2499725851
  0
LINE
  5
21F
100
AcDbEntity
  8
0
100
AcDbLine
 62
7
  6
BYLAYER
 10
43.5395265606
 20
12.5499725851
 11
45.7395265606
 21
12.5499725851
  0
LINE
  5
220
100
AcDbEntity
  8
0
100
AcDbLine
 62
7
  6
BYLAYER
 10
19.9395265606
 20
15.1435971223
 11
15.9895265606
 21
15.1435971223
  0
LINE
  5
221
100
AcDbEntity
  8
0
100
AcDbLine
 62
7
  6
BYLAYER
 10
15.9895265606
 20
19.3435971223
 11
19.9395265606
 21
19.3435971223
  0
LINE
  5
222
100
AcDbEntity
  8
0
100
AcDbLine
 62
7
  6
BYLAYER
 10
34.8692703507
 20
25.0435971223
 11
31.0097827704
 21
25.0435971223
  0
LINE
  5
223
100
AcDbEntity
  8
0
100
AcDbLine
 62
7
  6
BYLAYER
 10
31.4395265606
 20
26.1435971223
 11
34.4395265606
 21
26.1435971223
  0
LINE
  5
224
100
AcDbEntity
  8
0
100
AcDbLine
 62
7
  6
BYLAYER
 10
31.0097827705
 20
26.6435971223
 11
34.8692703507
 21
26.6435971223
  0
LINE
  5
225
100
AcDbEntity
  8
0
100
AcDbLine
 62
7
  6
BYLAYER
 10
15.4895265606
 20
15.6435971223
 11
15.4895265606
 21
18.8435971223
  0
LINE
  5
226
100
AcDbEntity
  8
0
100
AcDbLine
 62
7
  6
BYLAYER
 10
15.4895265606
 20
65.0435971223
 11
15.4895265606
 21
68.2435971223
  0
LINE
  5
227
100
AcDbEntity
  8
0
100
AcDbLine
 62
7
  6
BYLAYER
 10
20.1395265606
 20
6.0435971223
 11
20.1395265606
 21
14.9435971223
  0
LINE
  5
228
100
AcDbEntity
  8
0
100
AcDbLine
 62
7
  6
BYLAYER
 10
20.1395265606
 20
19.5435971223
 11
20.1395265606
 21
64.3435971223
  0
LINE
  5
229
100
AcDbEntity
  8
0
100
AcDbLine
 62
7
  6
BYLAYER
 10
20.1395265606
 20
68.9435971223
 11
20.1395265606
 21
77.8435971223
  0
LINE
  5
22A
100
AcDbEntity
  8
0
100
AcDbLine
 62
7
  6
BYLAYER
 10
20.9395265606
 20
68.9435971223
 11
20.9395265606
 21
77.8435971223
  0
LINE
  5
22B
100
AcDbEntity
  8
0
100
AcDbLine
 62
7
  6
BYLAYER
 10
23.1395265606
 20
68.9435971223
 11
23.1395265606
 21
77.8435971223
  0
LINE
  5
22C
100
AcDbEntity
  8
0
100
AcDbLine
 62
7
  6
BYLAYER
 10
23.3565820993
 20
9.6585388438
 11
23.3565820993
 21
6.5435971223
  0
LINE
  5
22D
100
AcDbEntity
  8
0
100
AcDbLine
 62
7
  6
BYLAYER
 10
23.9395265606
 20
6.0435971223
 11
23.9395265606
 21
6.5499725851
  0
LINE
  5
22E
100
AcDbEntity
  8
0
100
AcDbLine
 62
7
  6
BYLAYER
 10
23.9395265606
 20
74.2286554008
 11
23.9395265606
 21
77.8435971223
  0
LINE
  5
22F
100
AcDbEntity
  8
0
100
AcDbLine
 62
7
  6
BYLAYER
 10
25.1395265606
 20
68.9435971223
 11
25.1395265606
 21
76.1365338037
  0
LINE
  5
230
100
AcDbEntity
  8
0
100
AcDbLine
 62
7
  6
BYLAYER
 10
31.0097827704
 20
25.0435971223
 11
31.0097827704
 21
26.6435971223
  0
LINE
  5
231
100
AcDbEntity
  8
0
100
AcDbLine
 62
7
  6
BYLAYER
 10
31.1093575511
 20
57.2435971223
 11
31.1093575511
 21
58.8435971223
  0
LINE
  5
232
100
AcDbEntity
  8
0
100
AcDbLine
 62
7
  6
BYLAYER
 10
31.1145983283
 20
26.6435971223
 11
31.1145983242
 21
26.0432669115
  0
LINE
  5
233
100
AcDbEntity
  8
0
100
AcDbLine
 62
7
  6
BYLAYER
 10
31.2141729804
 20
57.2435971223
 11
31.2141714841
 21
57.8437681822
  0
LINE
  5
234
100
AcDbEntity
  8
0
100
AcDbLine
 62
7
  6
BYLAYER
 10
31.4395265606
 20
58.8435971223
 11
31.4395265606
 21
57.7435971223
  0
LINE
  5
235
100
AcDbEntity
  8
0
100
AcDbLine
 62
7
  6
BYLAYER
 10
31.4395265606
 20
26.1435971223
 11
31.4395265606
 21
25.0435971223
  0
LINE
  5
236
100
AcDbEntity
  8
0
100
AcDbLine
 62
7
  6
BYLAYER
 10
34.4395265606
 20
58.8435971223
 11
34.4395265606
 21
57.7435971223
  0
LINE
  5
237
100
AcDbEntity
  8
0
100
AcDbLine
 62
7
  6
BYLAYER
 10
34.4395265606
 20
26.1435971223
 11
34.4395265606
 21
25.0435971223
  0
LINE
  5
238
100
AcDbEntity
  8
0
100
AcDbLine
 62
7
  6
BYLAYER
 10
34.6648800122
 20
57.2435971223
 11
34.6648800163
 21
57.8439272958
  0
LINE
  5
239
100
AcDbEntity
  8
0
100
AcDbLine
 62
7
  6
BYLAYER
 10
34.7644549213
 20
26.6435971223
 11
34.7644564177
 21
26.0434260626
  0
LINE
  5
23A
100
AcDbEntity
  8
0
100
AcDbLine
 62
7
  6
BYLAYER
 10
34.7696955701
 20
58.8435971223
 11
34.7696955701
 21
57.2435971223
  0
LINE
  5
23B
100
AcDbEntity
  8
0
100
AcDbLine
 62
7
  6
BYLAYER
 10
34.8692703507
 20
26.6435971223
 11
34.8692703507
 21
25.0435971223
  0
LINE
  5
23C
100
AcDbEntity
  8
0
100
AcDbLine
 62
7
  6
BYLAYER
 10
40.7395265606
 20
68.9435971223
 11
40.7395265606
 21
76.1365338037
  0
LINE
  5
23D
100
AcDbEntity
  8
0
100
AcDbLine
 62
7
  6
BYLAYER
 10
41.9395265606
 20
68.9435971223
 11
41.9395265606
 21
76.5435971181
  0
LINE
  5
23E
100
AcDbEntity
  8
0
100
AcDbLine
 62
7
  6
BYLAYER
 10
43.2395265606
 20
6.6636507759
 11
43.2395265606
 21
12.2499725851
  0
LINE
  5
23F
100
AcDbEntity
  8
0
100
AcDbLine
 62
7
  6
BYLAYER
 10
43.5395265606
 20
12.5499725851
 11
43.5395265606
 21
6.6010161079
  0
LINE
  5
240
100
AcDbEntity
  8
0
100
AcDbLine
 62
7
  6
BYLAYER
 10
45.2395265606
 20
6.5499725851
 11
45.2395265606
 21
6.6010161079
  0
LINE
  5
241
100
AcDbEntity
  8
0
100
AcDbLine
 62
7
  6
BYLAYER
 10
45.2395265606
 20
12.5499725851
 11
45.2395265606
 21
68.7435971223
  0
LINE
  5
242
100
AcDbEntity
  8
0
100
AcDbLine
 62
7
  6
BYLAYER
 10
45.7395265606
 20
7.1116628023
 11
45.7395265606
 21
68.7435971223
  0
LINE
  5
243
100
AcDbEntity
  8
0
100
AcDbLine
 62
7
  6
BYLAYER
 10
34.7696955701
 20
57.2435971223
 11
31.1093575511
 21
57.2435971223
  0
LINE
  5
244
100
AcDbEntity
  8
0
100
AcDbLine
 62
7
  6
BYLAYER
 10
31.4395265606
 20
57.7435971223
 11
34.4395265606
 21
57.7435971223
  0
LINE
  5
245
100
AcDbEntity
  8
0
100
AcDbLine
 62
7
  6
BYLAYER
 10
31.1093575511
 20
58.8435971223
 11
34.76969557
 21
58.8435971223
  0
LINE
  5
246
100
AcDbEntity
  8
0
100
AcDbLine
 62
7
  6
BYLAYER
 10
19.9395265606
 20
64.5435971223
 11
15.9895265606
 21
64.5435971223
  0
LINE
  5
247
100
AcDbEntity
  8
0
100
AcDbLine
 62
7
  6
BYLAYER
 10
40.5395265606
 20
68.7435971223
 11
25.3395265606
 21
68.7435971223
  0
LINE
  5
248
100
AcDbEntity
  8
0
100
AcDbLine
 62
7
  6
BYLAYER
 10
15.9895265606
 20
68.7435971223
 11
19.9395265606
 21
68.7435971223
  0
LINE
  5
249
100
AcDbEntity
  8
0
100
AcDbLine
 62
7
  6
BYLAYER
 10
21.1395265606
 20
68.7435971223
 11
22.9395265606
 21
68.7435971223
  0
LINE
  5
24A
100
AcDbEntity
  8
0
100
AcDbLine
 62
7
  6
BYLAYER
 10
42.1395265606
 20
68.7435971223
 11
45.7395265606
 21
68.7435971223
  0
LINE
  5
24B
100
AcDbEntity
  8
0
100
AcDbLine
 62
7
  6
BYLAYER
 10
20.9395265606
 20
71.8435971223
 11
23.1395265606
 21
71.8435971223
  0
LINE
  5
24C
100
AcDbEntity
  8
0
100
AcDbLine
 62
7
  6
BYLAYER
 10
20.9395265606
 20
73.0435971223
 11
23.1395265606
 21
73.0435971223
  0
LINE
  5
24D
100
AcDbEntity
  8
0
100
AcDbLine
 62
7
  6
BYLAYER
 10
41.9395265606
 20
74.2286554008
 11
40.7395265606
 21
74.2286554008
  0
LINE
  5
24E
100
AcDbEntity
  8
0
100
AcDbLine
 62
7
  6
BYLAYER
 10
25.1395265606
 20
74.2286554008
 11
23.9395265606
 21
74.2286554008
  0
LINE
  5
24F
100
AcDbEntity
  8
0
100
AcDbLine
 62
7
  6
BYLAYER
 10
20.9395265606
 20
75.4684682529
 11
23.1395265606
 21
75.4684682529
  0
LINE
  5
250
100
AcDbEntity
  8
0
100
AcDbLine
 62
7
  6
BYLAYER
 10
40.7395265606
 20
76.1365338037
 11
25.1395265606
 21
76.1365338037
  0
LINE
  5
251
100
AcDbEntity
  8
0
100
AcDbLine
 62
7
  6
BYLAYER
 10
23.9395265606
 20
76.1590416876
 11
41.9395265606
 21
76.1590416876
  0
LINE
  5
252
100
AcDbEntity
  8
0
100
AcDbLine
 62
7
  6
BYLAYER
 10
23.9395265606
 20
76.5435971223
 11
41.9395265606
 21
76.5435971223
  0
LINE
  5
253
100
AcDbEntity
  8
0
100
AcDbLine
 62
7
  6
BYLAYER
 10
23.9395265606
 20
77.3435971223
 11
23.1395265606
 21
77.3435971223
  0
LINE
  5
254
100
AcDbEntity
  8
0
100
AcDbLine
 62
7
  6
BYLAYER
 10
20.9395265606
 20
77.3435971223
 11
20.1395265606
 21
77.3435971223
  0
LINE
  5
255
100
AcDbEntity
  8
0
100
AcDbLine
 62
7
  6
BYLAYER
 10
20.1395265606
 20
77.8435971223
 11
23.9395265606
 21
77.8435971223
  0
ARC
  5
256
100
AcDbEntity
  8
0
100
AcDbCircle
 62
7
  6
BYLAYER
 10
15.9895265606
 20
15.6435971223
 40
0.5
100
AcDbArc
 50
180.0
 51
270.0
  0
ARC
  5
257
100
AcDbEntity
  8
0
100
AcDbCircle
 62
7
  6
BYLAYER
 10
15.9895265606
 20
18.8435971223
 40
0.5
100
AcDbArc
 50
90.0
 51
180.0
  0
CIRCLE
  5
258
100
AcDbEntity
  8
0
100
AcDbCircle
 62
7
  6
BYLAYER
 10
29.0395265606
 20
26.9435971223
 40
0.5
  0
CIRCLE
  5
259
100
AcDbEntity
  8
0
100
AcDbCircle
 62
7
  6
BYLAYER
 10
23.0395265606
 20
33.9435971223
 40
0.5
  0
CIRCLE
  5
25A
100
AcDbEntity
  8
0
100
AcDbCircle
 62
7
  6
BYLAYER
 10
23.0395265606
 20
26.9435971223
 40
0.5
  0
CIRCLE
  5
25B
100
AcDbEntity
  8
0
100
AcDbCircle
 62
7
  6
BYLAYER
 10
27.5395265606
 20
16.4435971223
 40
0.5
  0
CIRCLE
  5
25C
100
AcDbEntity
  8
0
100
AcDbCircle
 62
7
  6
BYLAYER
 10
23.0395265606
 20
20.4435971223
 40
0.5
  0
ARC
  5
25D
100
AcDbEntity
  8
0
100
AcDbCircle
 62
7
  6
BYLAYER
 10
19.9395265606
 20
14.9435971223
 40
0.2
100
AcDbArc
 50
0.0
 51
90.0
  0
ARC
  5
25E
100
AcDbEntity
  8
0
100
AcDbCircle
 62
7
  6
BYLAYER
 10
19.9395265606
 20
19.5435971223
 40
0.2
100
AcDbArc
 50
270.0
 51
360.0
  0
ARC
  5
25F
100
AcDbEntity
  8
0
100
AcDbCircle
 62
7
  6
BYLAYER
 10
15.9895265606
 20
65.0435971223
 40
0.5
100
AcDbArc
 50
180.0
 51
270.0
  0
ARC
  5
260
100
AcDbEntity
  8
0
100
AcDbCircle
 62
7
  6
BYLAYER
 10
15.9895265606
 20
68.2435971223
 40
0.5
100
AcDbArc
 50
90.0
 51
180.0
  0
CIRCLE
  5
261
100
AcDbEntity
  8
0
100
AcDbCircle
 62
7
  6
BYLAYER
 10
29.0395265606
 20
56.9435971223
 40
0.5
  0
CIRCLE
  5
262
100
AcDbEntity
  8
0
100
AcDbCircle
 62
7
  6
BYLAYER
 10
23.0395265606
 20
49.9435971223
 40
0.5
  0
CIRCLE
  5
263
100
AcDbEntity
  8
0
100
AcDbCircle
 62
7
  6
BYLAYER
 10
23.0395265606
 20
56.9435971223
 40
0.5
  0
CIRCLE
  5
264
100
AcDbEntity
  8
0
100
AcDbCircle
 62
7
  6
BYLAYER
 10
23.0395265606
 20
41.9435971223
 40
0.5
  0
CIRCLE
  5
265
100
AcDbEntity
  8
0
100
AcDbCircle
 62
7
  6
BYLAYER
 10
23.0395265606
 20
63.4435971223
 40
0.5
  0
ARC
  5
266
100
AcDbEntity
  8
0
100
AcDbCircle
 62
7
  6
BYLAYER
 10
19.9395265606
 20
64.3435971223
 40
0.2
100
AcDbArc
 50
0.0
 51
90.0
  0
ARC
  5
267
100
AcDbEntity
  8
0
100
AcDbCircle
 62
7
  6
BYLAYER
 10
19.9395265606
 20
68.9435971223
 40
0.2
100
AcDbArc
 50
270.0
 51
360.0
  0
ARC
  5
268
100
AcDbEntity
  8
0
100
AcDbCircle
 62
7
  6
BYLAYER
 10
21.1395265606
 20
68.9435971223
 40
0.2
100
AcDbArc
 50
180.0
 51
270.0
  0
ARC
  5
269
100
AcDbEntity
  8
0
100
AcDbCircle
 62
7
  6
BYLAYER
 10
22.9395265606
 20
68.9435971223
 40
0.2
100
AcDbArc
 50
270.0
 51
360.0
  0
ARC
  5
26A
100
AcDbEntity
  8
0
100
AcDbCircle
 62
7
  6
BYLAYER
 10
25.3395265606
 20
68.9435971223
 40
0.2
100
AcDbArc
 50
180.0
 51
270.0
  0
ARC
  5
26B
100
AcDbEntity
  8
0
100
AcDbCircle
 62
7
  6
BYLAYER
 10
45.2395265606
 20
7.0499725851
 40
0.5
100
AcDbArc
 50
270.0
 51
359.9999999999
  0
CIRCLE
  5
26C
100
AcDbEntity
  8
0
100
AcDbCircle
 62
7
  6
BYLAYER
 10
37.3395265606
 20
26.9435971223
 40
0.5
  0
CIRCLE
  5
26D
100
AcDbEntity
  8
0
100
AcDbCircle
 62
7
  6
BYLAYER
 10
42.0395265606
 20
33.9435971223
 40
0.5
  0
CIRCLE
  5
26E
100
AcDbEntity
  8
0
100
AcDbCircle
 62
7
  6
BYLAYER
 10
42.0395265606
 20
26.9435971223
 40
0.5
  0
CIRCLE
  5
26F
100
AcDbEntity
  8
0
100
AcDbCircle
 62
7
  6
BYLAYER
 10
40.1395265606
 20
16.4435971223
 40
0.5
  0
ARC
  5
270
100
AcDbEntity
  8
0
100
AcDbCircle
 62
7
  6
BYLAYER
 10
43.5395265606
 20
12.2499725851
 40
0.3
100
AcDbArc
 50
90.0
 51
180.0
  0
CIRCLE
  5
271
100
AcDbEntity
  8
0
100
AcDbCircle
 62
7
  6
BYLAYER
 10
37.3395265606
 20
56.9435971223
 40
0.5
  0
CIRCLE
  5
272
100
AcDbEntity
  8
0
100
AcDbCircle
 62
7
  6
BYLAYER
 10
42.0395265606
 20
49.9435971223
 40
0.5
  0
CIRCLE
  5
273
100
AcDbEntity
  8
0
100
AcDbCircle
 62
7
  6
BYLAYER
 10
42.0395265606
 20
56.9435971223
 40
0.5
  0
CIRCLE
  5
274
100
AcDbEntity
  8
0
100
AcDbCircle
 62
7
  6
BYLAYER
 10
42.0395265606
 20
41.9435971223
 40
0.5
  0
CIRCLE
  5
275
100
AcDbEntity
  8
0
100
AcDbCircle
 62
7
  6
BYLAYER
 10
32.9395265606
 20
41.9435971223
 40
0.5
  0
ARC
  5
276
100
AcDbEntity
  8
0
100
AcDbCircle
 62
7
  6
BYLAYER
 10
40.5395265606
 20
68.9435971223
 40
0.2
100
AcDbArc
 50
270.0
 51
360.0
  0
ARC
  5
277
100
AcDbEntity
  8
0
100
AcDbCircle
 62
7
  6
BYLAYER
 10
42.1395265606
 20
68.9435971223
 40
0.2
100
AcDbArc
 50
180.0
 51
270.0
  0
SPLINE
  5
278
100
AcDbEntity
  8
0
100
AcDbSpline
 62
7
  6
BYLAYER
 70
0
 71
3
 72
20
 73
16
 74
0
 42
0.0000001
 43
0.0000001
 44
0.0000000001
 40
0.0
 40
0.0
 40
0.0
 40
0.0
 40
0.006978279
 40
0.013439379
 40
0.0221097362
 40
0.0462230775
 40
0.0793919859
 40
0.121346142
 40
0.1716846983
 40
0.2299829999
 40
0.2956791146
 40
0.4465823603
 40
0.6187419062
 40
0.8058083604
 40
1.0
 40
1.0
 40
1.0
 40
1.0
 10
34.7120175125
 20
25.0435971227
 30
0.0
 10
34.7143538304
 20
25.043592255
 30
0.0
 10
34.7174286353
 20
25.0484462518
 30
0.0
 10
34.7200035721
 20
25.0548943545
 30
0.0
 10
34.7237979143
 20
25.0677310464
 30
0.0
 10
34.727950553
 20
25.0892810745
 30
0.0
 10
34.7326516526
 20
25.1222501169
 30
0.0
 10
34.7371520857
 20
25.1639914354
 30
0.0
 10
34.7414822234
 20
25.2142348058
 30
0.0
 10
34.7455427179
 20
25.2724589328
 30
0.0
 10
34.7508013217
 20
25.364347129
 30
0.0
 10
34.7562265996
 20
25.4943968689
 30
0.0
 10
34.7609069472
 20
25.6651279834
 30
0.0
 10
34.7637958331
 20
25.8503929802
 30
0.0
 10
34.7644544792
 20
25.9780388709
 30
0.0
 10
34.7644547969
 20
26.0430540969
 30
0.0
  0
SPLINE
  5
279
100
AcDbEntity
  8
0
100
AcDbSpline
 62
7
  6
BYLAYER
 70
0
 71
3
 72
20
 73
16
 74
0
 42
0.0000001
 43
0.0000001
 44
0.0000000001
 40
0.0
 40
0.0
 40
0.0
 40
0.0
 40
0.0069940472
 40
0.0134783006
 40
0.0221767776
 40
0.0463461405
 40
0.0795486774
 40
0.1215106742
 40
0.1718410407
 40
0.2301247999
 40
0.2958049164
 40
0.4466781063
 40
0.6188137346
 40
0.8058491525
 40
1.0
 40
1.0
 40
1.0
 40
1.0
 10
31.1670199056
 20
25.0435971227
 30
0.0
 10
31.1646778469
 20
25.0435922436
 30
0.0
 10
31.1616088848
 20
25.0484793961
 30
0.0
 10
31.1590349917
 20
25.0549474739
 30
0.0
 10
31.1552434669
 20
25.0678279885
 30
0.0
 10
31.1510921441
 20
25.0894205469
 30
0.0
 10
31.1463908592
 20
25.1224300123
 30
0.0
 10
31.1418898506
 20
25.1641904632
 30
0.0
 10
31.1375596245
 20
25.2144389063
 30
0.0
 10
31.1334991564
 20
25.272661534
 30
0.0
 10
31.1282405205
 20
25.3645475963
 30
0.0
 10
31.1228150636
 20
25.4945995577
 30
0.0
 10
31.1181357857
 20
25.6653359318
 30
0.0
 10
31.1152530998
 20
25.8506055152
 30
0.0
 10
31.1145986412
 20
25.9782525253
 30
0.0
 10
31.1145983242
 20
26.0432669115
 30
0.0
  0
SPLINE
  5
27A
100
AcDbEntity
  8
0
100
AcDbSpline
 62
7
  6
BYLAYER
 70
0
 71
3
 72
20
 73
16
 74
0
 42
0.0000001
 43
0.0000001
 44
0.0000000001
 40
0.0
 40
0.0
 40
0.0
 40
0.0
 40
0.0069940481
 40
0.0134783029
 40
0.0221767817
 40
0.0463461485
 40
0.0795486883
 40
0.1215106868
 40
0.1718410543
 40
0.2301248141
 40
0.2958049308
 40
0.44667812
 40
0.6188137453
 40
0.8058491587
 40
1.0
 40
1.0
 40
1.0
 40
1.0
 10
34.6124584369
 20
58.8435971219
 30
0.0
 10
34.614800496
 20
58.843602001
 30
0.0
 10
34.6178694577
 20
58.8387148462
 30
0.0
 10
34.6204433508
 20
58.8322467671
 30
0.0
 10
34.6242348754
 20
58.8193662493
 30
0.0
 10
34.6283861981
 20
58.7977736873
 30
0.0
 10
34.633087483
 20
58.7647642177
 30
0.0
 10
34.6375884915
 20
58.7230037635
 30
0.0
 10
34.6419187176
 20
58.6727553174
 30
0.0
 10
34.6459791856
 20
58.614532687
 30
0.0
 10
34.6512378213
 20
58.5226466213
 30
0.0
 10
34.6566632779
 20
58.3925946564
 30
0.0
 10
34.6613425556
 20
58.2218582789
 30
0.0
 10
34.664225241
 20
58.0365886933
 30
0.0
 10
34.6648796993
 20
57.9089416822
 30
0.0
 10
34.6648800163
 20
57.8439272958
 30
0.0
  0
SPLINE
  5
27B
100
AcDbEntity
  8
0
100
AcDbSpline
 62
7
  6
BYLAYER
 70
0
 71
3
 72
20
 73
16
 74
0
 42
0.0000001
 43
0.0000001
 44
0.0000000001
 40
0.0
 40
0.0
 40
0.0
 40
0.0
 40
0.0069782796
 40
0.0134393807
 40
0.0221097394
 40
0.0462230843
 40
0.0793919965
 40
0.1213461561
 40
0.1716847153
 40
0.2299830189
 40
0.2956791347
 40
0.4465823803
 40
0.618741923
 40
0.8058083703
 40
1.0
 40
1.0
 40
1.0
 40
1.0
 10
31.2666103864
 20
58.8435971219
 30
0.0
 10
31.2642740682
 20
58.8436019896
 30
0.0
 10
31.2611992635
 20
58.838747991
 30
0.0
 10
31.2586243267
 20
58.832299887
 30
0.0
 10
31.2548299846
 20
58.8194631919
 30
0.0
 10
31.250677346
 20
58.7979131597
 30
0.0
 10
31.2459762465
 20
58.7649441118
 30
0.0
 10
31.2414758136
 20
58.7232027875
 30
0.0
 10
31.237145676
 20
58.6729594116
 30
0.0
 10
31.2330851817
 20
58.6147352794
 30
0.0
 10
31.2278265782
 20
58.5228470772
 30
0.0
 10
31.2224013008
 20
58.392797331
 30
0.0
 10
31.2177209538
 20
58.2220662107
 30
0.0
 10
31.2148320685
 20
58.0368012105
 30
0.0
 10
31.2141734225
 20
57.9091553186
 30
0.0
 10
31.2141731048
 20
57.8441400924
 30
0.0
  0
SPLINE
  5
27C
100
AcDbEntity
  8
0
100
AcDbSpline
 62
7
  6
BYLAYER
 70
0
 71
3
 72
11
 73
7
 74
0
 42
0.0000001
 43
0.0000001
 44
0.0000000001
 40
0.0
 40
0.0
 40
0.0
 40
0.0
 40
0.2499545757
 40
0.4999082038
 40
0.7499054383
 40
1.0
 40
1.0
 40
1.0
 40
1.0
 10
45.2395265606
 20
6.6010161079
 30
0.0
 10
45.3052387892
 20
6.6010161079
 30
0.0
 10
45.4381826396
 20
6.6282285728
 30
0.0
 10
45.6043599228
 20
6.743478648
 30
0.0
 10
45.7141400127
 20
6.9130624738
 30
0.0
 10
45.7395265606
 20
7.0459137717
 30
0.0
 10
45.7395265606
 20
7.1116628023
 30
0.0
  0
SPLINE
  5
27D
100
AcDbEntity
  8
0
100
AcDbSpline
 62
7
  6
BYLAYER
 70
0
 71
3
 72
11
 73
7
 74
0
 42
0.0000001
 43
0.0000001
 44
0.0000000001
 40
0.0
 40
0.0
 40
0.0
 40
0.0
 40
0.2523788783
 40
0.5033298168
 40
0.752333497
 40
1.0
 40
1.0
 40
1.0
 40
1.0
 10
45.2395265606
 20
6.5600755754
 30
0.0
 10
45.3045133679
 20
6.5600755754
 30
0.0
 10
45.4355082571
 20
6.5853771667
 30
0.0
 10
45.6016234939
 20
6.694064559
 30
0.0
 10
45.7133284077
 20
6.8568611166
 30
0.0
 10
45.7395265606
 20
6.9861992004
 30
0.0
 10
45.7395265606
 20
7.0499725851
 30
0.0
  0
SPLINE
  5
27E
100
AcDbEntity
  8
0
100
AcDbSpline
 62
7
  6
BYLAYER
 70
0
 71
3
 72
16
 73
12
 74
0
 42
0.0000001
 43
0.0000001
 44
0.0000000001
 40
0.0
 40
0.0
 40
0.0
 40
0.0
 40
0.0424582364
 40
0.0715657355
 40
0.107405978
 40
0.200520991
 40
0.3213357496
 40
0.4669578132
 40
0.6327784708
 40
0.8131213741
 40
1.0
 40
1.0
 40
1.0
 40
1.0
 10
43.2395265606
 20
6.6636507759
 30
0.0
 10
43.2395265606
 20
6.659180035
 30
0.0
 10
43.243845685
 20
6.6519298358
 30
0.0
 10
43.252618001
 20
6.6449500088
 30
0.0
 10
43.2671097804
 20
6.6365525982
 30
0.0
 10
43.2919277155
 20
6.6275233576
 30
0.0
 10
43.3287091453
 20
6.6184133691
 30
0.0
 10
43.3736431839
 20
6.6109232998
 30
0.0
 10
43.4251375932
 20
6.6052718618
 30
0.0
 10
43.4811771751
 20
6.6018141083
 30
0.0
 10
43.5198487319
 20
6.6010161079
 30
0.0
 10
43.5395265606
 20
6.6010161079
 30
0.0
  0
ELLIPSE
  5
27F
100
AcDbEntity
  8
0
100
AcDbEllipse
 62
7
  6
BYLAYER
 10
23.9251944302
 20
7.0499725851
 30
0.0
 11
-0.0
 21
0.5
 31
0.0
 40
0.0874886635
 41
-3.3429599631
 42
-3.1415939858
  0
ELLIPSE
  5
280
100
AcDbEntity
  8
0
100
AcDbEllipse
 62
7
  6
BYLAYER
 10
25.3163281623
 20
84.9435971223
 30
0.0
 11
-0.0
 21
80.0
 31
0.0
 40
0.0874886635
 41
-3.4062084549
 42
-3.3429599631
  0
ELLIPSE
  5
281
100
AcDbEntity
  8
0
100
AcDbEllipse
 62
7
  6
BYLAYER
 10
23.5315594264
 20
9.6585388438
 30
0.0
 11
-0.0
 21
2.0
 31
0.0
 40
0.0874886635
 41
-4.7123889804
 42
-3.4062084549
  0
ELLIPSE
  5
282
100
AcDbEntity
  8
0
100
AcDbEllipse
 62
7
  6
BYLAYER
 10
23.4003264311
 20
6.5435971223
 30
0.0
 11
-0.0
 21
0.5
 31
0.0
 40
0.0874886635
 41
-4.7123889804
 42
-3.1415926536
  0
ENDSEC
  0
SECTION
  2
OBJECTS
  0
DICTIONARY
  5
C
100
AcDbDictionary
280
0
281
1
  3
ACAD_GROUP
350
D
  3
ACAD_MLINESTYLE
350
17
  3
ACAD_LAYOUT
350
1A
  3
ACAD_PLOTSETTINGS
350
19
  3
ACAD_PLOTSTYLENAME
350
E
  0
DICTIONARY
  5
D
102
{ACAD_REACTORS
330
C
102
}
100
AcDbDictionary
280
0
281
1
  0
ACDBDICTIONARYWDFLT
  5
E
102
{ACAD_REACTORS
330
C
102
}
100
AcDbDictionary
281
1
  3
Normal
350
F
100
AcDbDictionaryWithDefault
340
F
  0
DICTIONARY
  5
17
102
{ACAD_REACTORS
330
C
102
}
100
AcDbDictionary
280
0
281
1
  3
Standard
350
18
  0
DICTIONARY
  5
19
102
{ACAD_REACTORS
330
C
102
}
100
AcDbDictionary
281
1
  0
DICTIONARY
  5
1A
102
{ACAD_REACTORS
330
C
102
}
100
AcDbDictionary
281
1
  3
Model
350
283
  3
Layout1
350
284
  0
ACDBPLACEHOLDER
  5
F
102
{ACAD_REACTORS
330
E
102
}
  0
MLINESTYLE
  5
18
102
{ACAD_REACTORS
330
17
102
}
100
AcDbMlineStyle
  2
STANDARD
 70
0
  3

 62
256
 51
90.0
 52
90.0
 71
2
 49
0.5
 62
256
  6
BYLAYER
 49
-0.5
 62
256
  6
BYLAYER
  0
LAYOUT
  5
283
102
{ACAD_REACTORS
330
1A
102
}
100
AcDbPlotSettings
  1

  2
none_device
  4

  6

 40
0.0
 41
0.0
 42
0.0
 43
0.0
 44
210.0
 45
297.0
 46
0.0
 47
0.0
 48
0.0
 49
0.0
140
0.0
141
0.0
142
1.0
143
1.0
 70
1024
 72
1
 73
0
 74
0
  7

 75
0
147
1.0
148
0.0
149
0.0
100
AcDbLayout
  1
Model
 70
0
 71
0
 10
0.0
 20
0.0
 11
210.0
 21
297.0
 12
0.0
 22
0.0
 32
0.0
 14
0.0
 24
0.0
 34
0.0
 15
0.0
 25
0.0
 35
0.0
146
0.0
 13
0.0
 23
0.0
 33
0.0
 16
1.0
 26
0.0
 36
0.0
 17
0.0
 27
1.0
 37
0.0
 76
0
330
210
345
0
346
0
  0
LAYOUT
  5
284
102
{ACAD_REACTORS
330
1A
102
}
100
AcDbPlotSettings
  1

  2
none_device
  4

  6

 40
0.0
 41
0.0
 42
0.0
 43
0.0
 44
210.0
 45
297.0
 46
0.0
 47
0.0
 48
0.0
 49
0.0
140
0.0
141
0.0
142
1.0
143
1.0
 70
0
 72
1
 73
0
 74
0
  7

 75
0
147
1.0
148
0.0
149
0.0
100
AcDbLayout
  1
Layout1
 70
0
 71
1
 10
0.0
 20
0.0
 11
210.0
 21
297.0
 12
0.0
 22
0.0
 32
0.0
 14
0.0
 24
0.0
 34
0.0
 15
0.0
 25
0.0
 35
0.0
146
0.0
 13
0.0
 23
0.0
 33
0.0
 16
1.0
 26
0.0
 36
0.0
 17
0.0
 27
1.0
 37
0.0
 76
0
330
211
345
0
346
0
  0
ENDSEC
  0
EOF
