999
DXF file: C:\Users\sesa63760\Dev\_Creo\CAD\MCADID0000585_3D-CAD\drw0001_1.dxf
999
Pro/ENGINEER 2019471 by Parametric Technology Corporation
  0
SECTION
  2
HEADER
  9
$ACADVER
  1
AC1024
  9
$DWGCODEPAGE
  3
ANSI_1252
  9
$EXTMAX
 10
165.2421469979
 20
233.699607897
 30
0.0
  9
$EXTMIN
 10
0.0
 20
0.0
 30
0.0
  9
$LIMMIN
 10
0.0
 20
0.0
  9
$LIMMAX
 10
165.2421469979
 20
233.699607897
  9
$VIEWCTR
 10
82.6210734989
 20
116.8498039485
  9
$VIEWSIZE
 40
233.699607897
  9
$CLAYER
  8
0
  9
$LTSCALE
 40
15.2337522185
  9
$CELTYPE
  6
BYLAYER
  9
$DIMSCALE
 40
1.0
  9
$DIMASZ
 40
1.9671684166
  9
$DIMEXO
 40
1.0
  9
$DIMDLI
 40
10.5251378964
  9
$DIMEXE
 40
1.0
  9
$DIMCEN
 40
2.4927958176
  9
$DIMLFAC
 40
1.0
  9
$DIMBLK
  1
_FILLED
  9
$DIMALT
 70
0
  9
$DIMALTF
 40
0.0393700787
  9
$DIMTXT
 40
2.7540357833
  9
$DIMTOL
 70
1
  9
$DIMLIM
 70
0
  9
$DIMTFAC
 40
1.0
  9
$DIMTP
 40
0.01
  9
$DIMTM
 40
0.01
  9
$DIMGAP
 40
0.625
  9
$DIMDSEP
 70
46
  9
$AUNITS
 70
0
  9
$PDMODE
 70
3
  9
$PDSIZE
 40
0.3125
  9
$HANDSEED
  5
358
  9
$TILEMODE
 70
1
  9
$MEASUREMENT
 70
1
  9
$INSUNITS
 70
4
  0
ENDSEC
  0
SECTION
  2
CLASSES
  0
CLASS
  1
ACDBDICTIONARYWDFLT
  2
AcDbDictionaryWithDefault
  3
AutoCAD 2000
 90
0
 91
1
280
0
281
0
  0
CLASS
  1
ACDBPLACEHOLDER
  2
AcDbPlaceHolder
  3
AutoCAD 2000
 90
0
 91
1
280
0
281
0
  0
CLASS
  1
LAYOUT
  2
AcDbLayout
  3
AutoCAD 2000
 90
0
 91
0
280
0
281
0
  0
ENDSEC
  0
SECTION
  2
TABLES
  0
TABLE
  2
VPORT
  5
8
100
AcDbSymbolTable
 70
2
  0
VPORT
  5
1F4
100
AcDbSymbolTableRecord
100
AcDbViewportTableRecord
  2
*ACTIVE
 70
0
 10
0.0
 20
0.0
 11
1.0
 21
1.0
 12
82.6210734989
 22
116.8498039485
 13
0.0
 23
0.0
 14
1.0
 24
1.0
 15
0.0
 25
0.0
 16
0.0
 26
0.0
 36
1.0
 17
0.0
 27
0.0
 37
0.0
 40
233.699607897
 41
0.7070707071
 42
50.0
 43
0.0
 44
0.0
 50
0.0
 51
0.0
 71
0
 72
100
 73
1
 74
1
 75
0
 76
0
 77
0
 78
0
  0
ENDTAB
  0
TABLE
  2
LTYPE
  5
5
100
AcDbSymbolTable
 70
6
  0
LTYPE
  5
14
100
AcDbSymbolTableRecord
100
AcDbLinetypeTableRecord
  2
BYBLOCK
 70
0
  3

 72
65
 73
0
 40
0.0
  0
LTYPE
  5
15
100
AcDbSymbolTableRecord
100
AcDbLinetypeTableRecord
  2
BYLAYER
 70
0
  3

 72
65
 73
0
 40
0.0
  0
LTYPE
  5
16
100
AcDbSymbolTableRecord
100
AcDbLinetypeTableRecord
  2
CONTINUOUS
 70
64
  3
Solid line
 72
65
 73
0
 40
0.0
  0
LTYPE
  5
1F5
100
AcDbSymbolTableRecord
100
AcDbLinetypeTableRecord
  2
CENTER
 70
64
  3
____ _ ____ _ ____ _ ____ _ ____ _ ____ _ ____
 72
65
 73
4
 40
0.6
 49
0.375
 74
0
 49
-0.075
 74
0
 49
0.075
 74
0
 49
-0.075
 74
0
  0
LTYPE
  5
1F6
100
AcDbSymbolTableRecord
100
AcDbLinetypeTableRecord
  2
HIDDEN
 70
64
  3
- - - - - - - - - - - - - - - - - - - -
 72
65
 73
2
 40
0.2
 49
0.1
 74
0
 49
-0.1
 74
0
  0
LTYPE
  5
1F7
100
AcDbSymbolTableRecord
100
AcDbLinetypeTableRecord
  2
PHANTOM
 70
64
  3
_____ _ _ _____ _ _ _____ _ _ _____
 72
65
 73
6
 40
0.8
 49
0.45
 74
0
 49
-0.05
 74
0
 49
0.1
 74
0
 49
-0.05
 74
0
 49
0.1
 74
0
 49
-0.05
 74
0
  0
LTYPE
  5
1F8
100
AcDbSymbolTableRecord
100
AcDbLinetypeTableRecord
  2
DOT
 70
64
  3
. . . . . . . . . . . . . . . . . . . .
 72
65
 73
2
 40
0.2
 49
0.1
 74
0
 49
-0.1
 74
0
  0
LTYPE
  5
1F9
100
AcDbSymbolTableRecord
100
AcDbLinetypeTableRecord
  2
DASHED
 70
64
  3
- - - - - - - - - - - - - - - - - - - -
 72
65
 73
2
 40
0.2
 49
0.1
 74
0
 49
-0.1
 74
0
  0
ENDTAB
  0
TABLE
  2
LAYER
  5
2
100
AcDbSymbolTable
 70
36
  0
LAYER
  5
10
100
AcDbSymbolTableRecord
100
AcDbLayerTableRecord
  2
0
 70
0
 62
7
  6
CONTINUOUS
370
-3
390
F
  0
LAYER
  5
1FA
100
AcDbSymbolTableRecord
100
AcDbLayerTableRecord
  2
DEFAULT_1
 70
0
 62
7
  6
CENTER
370
-3
390
F
  0
LAYER
  5
1FB
100
AcDbSymbolTableRecord
100
AcDbLayerTableRecord
  2
DEFAULT_2
 70
0
 62
8
  6
HIDDEN
370
-3
390
F
  0
LAYER
  5
1FC
100
AcDbSymbolTableRecord
100
AcDbLayerTableRecord
  2
DEFAULT_3
 70
0
 62
7
  6
PHANTOM
370
-3
390
F
  0
LAYER
  5
1FD
100
AcDbSymbolTableRecord
100
AcDbLayerTableRecord
  2
00_COMPONENTS
 70
0
 62
7
  6
CONTINUOUS
370
-3
390
F
  0
LAYER
  5
1FE
100
AcDbSymbolTableRecord
100
AcDbLayerTableRecord
  2
01_1_DEFAULT_DATUMS
 70
0
 62
7
  6
CONTINUOUS
370
-3
390
F
  0
LAYER
  5
1FF
100
AcDbSymbolTableRecord
100
AcDbLayerTableRecord
  2
01_PLANES
 70
0
 62
7
  6
CONTINUOUS
370
-3
390
F
  0
LAYER
  5
200
100
AcDbSymbolTableRecord
100
AcDbLayerTableRecord
  2
02_COORD_SYS
 70
0
 62
7
  6
CONTINUOUS
370
-3
390
F
  0
LAYER
  5
201
100
AcDbSymbolTableRecord
100
AcDbLayerTableRecord
  2
03_AXES
 70
0
 62
7
  6
CONTINUOUS
370
-3
390
F
  0
LAYER
  5
202
100
AcDbSymbolTableRecord
100
AcDbLayerTableRecord
  2
04_POINTS
 70
0
 62
7
  6
CONTINUOUS
370
-3
390
F
  0
LAYER
  5
203
100
AcDbSymbolTableRecord
100
AcDbLayerTableRecord
  2
05_CURVES
 70
0
 62
7
  6
CONTINUOUS
370
-3
390
F
  0
LAYER
  5
204
100
AcDbSymbolTableRecord
100
AcDbLayerTableRecord
  2
06_SURFS
 70
0
 62
7
  6
CONTINUOUS
370
-3
390
F
  0
LAYER
  5
205
100
AcDbSymbolTableRecord
100
AcDbLayerTableRecord
  2
07_COSMETICS
 70
0
 62
7
  6
CONTINUOUS
370
-3
390
F
  0
LAYER
  5
206
100
AcDbSymbolTableRecord
100
AcDbLayerTableRecord
  2
10_NOTES
 70
0
 62
7
  6
CONTINUOUS
370
-3
390
F
  0
LAYER
  5
207
100
AcDbSymbolTableRecord
100
AcDbLayerTableRecord
  2
11_NOTES_PUB
 70
0
 62
7
  6
CONTINUOUS
370
-3
390
F
  0
LAYER
  5
208
100
AcDbSymbolTableRecord
100
AcDbLayerTableRecord
  2
13_REF_GTOL
 70
0
 62
7
  6
CONTINUOUS
370
-3
390
F
  0
LAYER
  5
209
100
AcDbSymbolTableRecord
100
AcDbLayerTableRecord
  2
16_MISC
 70
0
 62
7
  6
CONTINUOUS
370
-3
390
F
  0
LAYER
  5
20A
100
AcDbSymbolTableRecord
100
AcDbLayerTableRecord
  2
17_NO_PRINT
 70
0
 62
7
  6
CONTINUOUS
370
-3
390
F
  0
LAYER
  5
20B
100
AcDbSymbolTableRecord
100
AcDbLayerTableRecord
  2
18_DATUM_CAMS_JOINTS
 70
0
 62
7
  6
CONTINUOUS
370
-3
390
F
  0
LAYER
  5
20C
100
AcDbSymbolTableRecord
100
AcDbLayerTableRecord
  2
19_DATUM_FUNCTIONAL
 70
0
 62
7
  6
CONTINUOUS
370
-3
390
F
  0
LAYER
  5
20D
100
AcDbSymbolTableRecord
100
AcDbLayerTableRecord
  2
20_DATUM_KINEMATIC_SCHEME
 70
0
 62
7
  6
CONTINUOUS
370
-3
390
F
  0
ENDTAB
  0
TABLE
  2
STYLE
  5
3
100
AcDbSymbolTable
 70
1
  0
STYLE
  5
11
100
AcDbSymbolTableRecord
100
AcDbTextStyleTableRecord
  2
STANDARD
 70
0
 40
0.0
 41
0.8
 50
0.0
 71
0
 42
0.2
  3
txt
  4

  0
STYLE
  5
20E
100
AcDbSymbolTableRecord
100
AcDbTextStyleTableRecord
  2
TEXTSTYLE_1
 70
0
 40
0.0
 41
0.8
 50
0.0
 71
0
 42
0.2
  3
gdt
  4

  0
ENDTAB
  0
TABLE
  2
VIEW
  5
6
100
AcDbSymbolTable
 70
0
  0
ENDTAB
  0
TABLE
  2
UCS
  5
7
100
AcDbSymbolTable
 70
0
  0
ENDTAB
  0
TABLE
  2
APPID
  5
9
100
AcDbSymbolTable
 70
1
  0
APPID
  5
20F
100
AcDbSymbolTableRecord
100
AcDbRegAppTableRecord
  2
ACAD
 70
0
  0
ENDTAB
  0
TABLE
  2
BLOCK_RECORD
  5
1
100
AcDbSymbolTable
 70
0
  0
BLOCK_RECORD
  5
210
100
AcDbSymbolTableRecord
100
AcDbBlockTableRecord
  2
*Model_Space
  0
BLOCK_RECORD
  5
211
100
AcDbSymbolTableRecord
100
AcDbBlockTableRecord
  2
*Paper_Space
  0
BLOCK_RECORD
  5
212
100
AcDbSymbolTableRecord
100
AcDbBlockTableRecord
  2
_FILLED
  0
ENDTAB
  0
TABLE
  2
DIMSTYLE
  5
A
100
AcDbSymbolTable
 70
1
100
AcDbDimStyleTable
 71
0
  0
DIMSTYLE
105
213
100
AcDbSymbolTableRecord
100
AcDbDimStyleTableRecord
  2
STANDARD
 70
0
  3

  4

 40
1.0
 41
1.9671684166
 42
1.0
 43
0.38
 44
1.0
 45
0.0
 46
0.0
 47
0.01
 48
0.01
140
2.7540357833
141
0.09
142
0.0
143
25.4
144
1.0
145
0.0
146
1.0
147
0.625
 71
1
 72
0
 73
0
 74
0
 75
0
 76
0
 77
1
 78
8
 79
2
170
0
171
1
172
0
173
0
174
0
175
0
176
0
177
0
178
0
270
2
179
2
271
2
272
2
273
2
274
2
275
0
280
0
281
0
282
0
283
1
284
8
285
0
286
0
287
3
288
0
340
11
278
46
341
212
342
212
343
212
344
212
  0
ENDTAB
  0
ENDSEC
  0
SECTION
  2
BLOCKS
  0
BLOCK
  5
20
100
AcDbEntity
  8
0
100
AcDbBlockBegin
  2
*Model_Space
 70
0
 10
0.0
 20
0.0
 30
0.0
  3
*Model_Space
  1

  0
ENDBLK
  5
21
100
AcDbEntity
  8
0
100
AcDbBlockEnd
  0
BLOCK
  5
1C
100
AcDbEntity
  8
0
100
AcDbBlockBegin
  2
*Paper_Space
 70
0
 10
0.0
 20
0.0
 30
0.0
  3
*Paper_Space
  1

  0
ENDBLK
  5
1D
100
AcDbEntity
  8
0
100
AcDbBlockEnd
  0
BLOCK
  5
214
100
AcDbEntity
  8
0
100
AcDbBlockBegin
  2
_FILLED
 70
64
 10
0.0
 20
0.0
  3
_FILLED
  1

  0
SOLID
  5
215
100
AcDbEntity
  8
0
  6
BYBLOCK
 62
0
100
AcDbTrace
 10
0.0
 20
0.0
 11
-1.0
 21
0.25
 12
-1.0
 22
-0.25
 13
-1.0
 23
-0.25
  0
ENDBLK
  5
216
100
AcDbEntity
  8
0
  6
BYBLOCK
 62
0
100
AcDbBlockEnd
  0
ENDSEC
  0
SECTION
  2
ENTITIES
  0
LINE
  5
217
100
AcDbEntity
  8
0
100
AcDbLine
 62
7
  6
CONTINUOUS
 10
22.5262745648
 20
171.3742419272
 11
62.9726140534
 21
194.7258075286
  0
LINE
  5
218
100
AcDbEntity
  8
0
100
AcDbLine
 62
7
  6
CONTINUOUS
 10
24.4706094794
 20
170.251705036
 11
26.9454729097
 21
171.6805595745
  0
LINE
  5
219
100
AcDbEntity
  8
0
100
AcDbLine
 62
7
  6
CONTINUOUS
 10
62.4420855378
 20
192.1744160989
 11
64.916948968
 21
193.6032706374
  0
LINE
  5
21A
100
AcDbEntity
  8
0
100
AcDbLine
 62
7
  6
CONTINUOUS
 10
21.3679245951
 20
167.1439859619
 11
21.9458337295
 21
167.4776399646
  0
LINE
  5
21B
100
AcDbEntity
  8
0
100
AcDbLine
 62
7
  6
CONTINUOUS
 10
24.4706094794
 20
167.8021977846
 11
26.0668020851
 21
168.7237545142
  0
LINE
  5
21C
100
AcDbEntity
  8
0
100
AcDbLine
 62
7
  6
CONTINUOUS
 10
22.5262745648
 20
171.3742419272
 11
21.8543034964
 21
166.8631813249
  0
LINE
  5
21D
100
AcDbEntity
  8
0
100
AcDbLine
 62
7
  6
CONTINUOUS
 10
69.1596073189
 20
191.1538261103
 11
66.6847438887
 21
189.7249715718
  0
LINE
  5
21E
100
AcDbEntity
  8
0
100
AcDbLine
 62
7
  6
CONTINUOUS
 10
31.1881312605
 20
169.2311150474
 11
28.7132678303
 21
167.8022605089
  0
LINE
  5
21F
100
AcDbEntity
  8
0
100
AcDbLine
 62
7
  6
CONTINUOUS
 10
29.4911044254
 20
162.0051521203
 11
31.4002847858
 21
163.1074113357
  0
LINE
  5
220
100
AcDbEntity
  8
0
100
AcDbLine
 62
7
  6
CONTINUOUS
 10
29.4911044254
 20
162.0051521203
 11
29.7696755996
 21
143.4160185027
  0
LINE
  5
221
100
AcDbEntity
  8
0
100
AcDbLine
 62
7
  6
CONTINUOUS
 10
24.4706094794
 20
170.251705036
 11
24.4706094794
 21
167.8021977846
  0
LINE
  5
222
100
AcDbEntity
  8
0
100
AcDbLine
 62
7
  6
CONTINUOUS
 10
24.4706094794
 20
165.3526905332
 11
24.4706094794
 21
97.419689428
  0
LINE
  5
223
100
AcDbEntity
  8
0
100
AcDbLine
 62
7
  6
CONTINUOUS
 10
26.0668020851
 20
169.312733927
 11
26.0668020851
 21
168.0063300596
  0
LINE
  5
224
100
AcDbEntity
  8
0
100
AcDbLine
 62
7
  6
CONTINUOUS
 10
26.9454729097
 20
171.6805595745
 11
26.9454729097
 21
170.5374561905
  0
LINE
  5
225
100
AcDbEntity
  8
0
100
AcDbLine
 62
7
  6
CONTINUOUS
 10
28.7132678303
 20
167.8022605089
 11
28.7132678303
 21
165.3527532575
  0
LINE
  5
226
100
AcDbEntity
  8
0
100
AcDbLine
 62
7
  6
CONTINUOUS
 10
104.0853318245
 20
39.8472569017
 11
99.8426734737
 21
42.2967014288
  0
LINE
  5
227
100
AcDbEntity
  8
0
100
AcDbLine
 62
7
  6
CONTINUOUS
 10
102.6769680436
 20
42.9602027069
 11
98.4343096927
 21
45.409647234
  0
LINE
  5
228
100
AcDbEntity
  8
0
100
AcDbLine
 62
7
  6
CONTINUOUS
 10
59.830304224
 20
73.9938294238
 11
86.2054280831
 21
58.7662444279
  0
LINE
  5
229
100
AcDbEntity
  8
0
100
AcDbLine
 62
7
  6
CONTINUOUS
 10
90.6602882404
 20
56.1945325267
 11
98.4343096927
 21
51.7063006859
  0
LINE
  5
22A
100
AcDbEntity
  8
0
100
AcDbLine
 62
7
  6
CONTINUOUS
 10
90.6293609556
 20
56.2287180473
 11
77.9323131877
 21
63.5591961564
  0
LINE
  5
22B
100
AcDbEntity
  8
0
100
AcDbLine
 62
7
  6
CONTINUOUS
 10
58.4826131659
 20
75.9870808564
 11
54.239954815
 21
78.4365253835
  0
LINE
  5
22C
100
AcDbEntity
  8
0
100
AcDbLine
 62
7
  6
CONTINUOUS
 10
98.4343096927
 20
53.3297206802
 11
89.6661491009
 21
58.3919060362
  0
LINE
  5
22D
100
AcDbEntity
  8
0
100
AcDbLine
 62
7
  6
CONTINUOUS
 10
76.9381740482
 20
65.7402396176
 11
58.8361650845
 21
76.1912029333
  0
LINE
  5
22E
100
AcDbEntity
  8
0
100
AcDbLine
 62
7
  6
CONTINUOUS
 10
21.9000036006
 20
97.8891583527
 11
37.2090204843
 21
89.0506932867
  0
LINE
  5
22F
100
AcDbEntity
  8
0
100
AcDbLine
 62
7
  6
CONTINUOUS
 10
89.6802911776
 20
58.7738015264
 11
76.952316125
 21
66.1221351077
  0
LINE
  5
230
100
AcDbEntity
  8
0
100
AcDbLine
 62
7
  6
CONTINUOUS
 10
37.1221373737
 20
90.1154916356
 11
21.0708935428
 21
99.3824719351
  0
LINE
  5
231
100
AcDbEntity
  8
0
100
AcDbLine
 62
7
  6
CONTINUOUS
 10
37.4293599619
 20
86.3503167665
 11
67.8534233611
 21
68.7841925928
  0
LINE
  5
232
100
AcDbEntity
  8
0
100
AcDbLine
 62
7
  6
CONTINUOUS
 10
66.1900832631
 20
146.1655005193
 11
68.6649466933
 21
147.5943550578
  0
LINE
  5
233
100
AcDbEntity
  8
0
100
AcDbLine
 62
7
  6
CONTINUOUS
 10
104.1615593215
 20
168.0882115822
 11
106.6364227517
 21
169.5170661207
  0
LINE
  5
234
100
AcDbEntity
  8
0
100
AcDbLine
 62
7
  6
CONTINUOUS
 10
61.9474408096
 20
143.2669014878
 11
63.8566211701
 21
144.3691607032
  0
LINE
  5
235
100
AcDbEntity
  8
0
100
AcDbLine
 62
7
  6
CONTINUOUS
 10
117.0722318736
 20
59.0751622851
 11
115.6580124233
 21
59.8916437942
  0
LINE
  5
236
100
AcDbEntity
  8
0
100
AcDbLine
 62
7
  6
CONTINUOUS
 10
54.239954815
 20
78.4365253835
 11
54.239954815
 21
104.5646027316
  0
LINE
  5
237
100
AcDbEntity
  8
0
100
AcDbLine
 62
7
  6
CONTINUOUS
 10
57.3512116987
 20
123.2624770432
 11
57.3512116987
 21
110.6702020958
  0
LINE
  5
238
100
AcDbEntity
  8
0
100
AcDbLine
 62
7
  6
CONTINUOUS
 10
57.4219220825
 20
110.7372725797
 11
57.4219220825
 21
123.2216512169
  0
LINE
  5
239
100
AcDbEntity
  8
0
100
AcDbLine
 62
7
  6
CONTINUOUS
 10
66.1900832631
 20
143.7159932679
 11
67.7862758688
 21
144.6375499975
  0
LINE
  5
23A
100
AcDbEntity
  8
0
100
AcDbLine
 62
7
  6
CONTINUOUS
 10
75.3824714184
 20
146.1655226151
 11
106.6364610233
 21
164.2099142162
  0
LINE
  5
23B
100
AcDbEntity
  8
0
100
AcDbLine
 62
7
  6
CONTINUOUS
 10
72.9076079882
 20
142.2871608251
 11
75.3824714184
 21
143.7160153637
  0
LINE
  5
23C
100
AcDbEntity
  8
0
100
AcDbLine
 62
7
  6
CONTINUOUS
 10
106.6364610233
 20
161.7604069648
 11
109.1113244535
 21
163.1892615033
  0
LINE
  5
23D
100
AcDbEntity
  8
0
100
AcDbLine
 62
7
  6
CONTINUOUS
 10
74.7814331568
 20
142.6749807783
 11
107.2374992849
 21
161.413387441
  0
LINE
  5
23E
100
AcDbEntity
  8
0
100
AcDbLine
 62
7
  6
CONTINUOUS
 10
58.4826131659
 20
75.9870808564
 11
58.4826131659
 21
102.1151582045
  0
LINE
  5
23F
100
AcDbEntity
  8
0
100
AcDbLine
 62
7
  6
CONTINUOUS
 10
58.8361650845
 20
76.1912029333
 11
58.8361650845
 21
102.3192802814
  0
LINE
  5
240
100
AcDbEntity
  8
0
100
AcDbLine
 62
7
  6
CONTINUOUS
 10
61.6645804333
 20
108.5327787777
 11
61.6645804333
 21
108.2878280526
  0
LINE
  5
241
100
AcDbEntity
  8
0
100
AcDbLine
 62
7
  6
CONTINUOUS
 10
62.4420855378
 20
191.0313127149
 11
62.4420855378
 21
192.1744160989
  0
LINE
  5
242
100
AcDbEntity
  8
0
100
AcDbLine
 62
7
  6
CONTINUOUS
 10
61.6688696354
 20
124.9994268782
 11
61.9474408096
 21
143.2669014878
  0
LINE
  5
243
100
AcDbEntity
  8
0
100
AcDbLine
 62
7
  6
CONTINUOUS
 10
63.8566211701
 20
144.3691607032
 11
63.5780499959
 21
126.1016860936
  0
LINE
  5
244
100
AcDbEntity
  8
0
100
AcDbLine
 62
7
  6
CONTINUOUS
 10
109.1113244535
 20
160.739754252
 11
108.7578114653
 21
160.5356546514
  0
LINE
  5
245
100
AcDbEntity
  8
0
100
AcDbLine
 62
7
  6
CONTINUOUS
 10
74.8079696251
 20
140.9348213271
 11
72.9076079882
 21
139.8376535737
  0
LINE
  5
246
100
AcDbEntity
  8
0
100
AcDbLine
 62
7
  6
CONTINUOUS
 10
109.1466955428
 20
160.3111374038
 11
76.6906294147
 21
141.5727307411
  0
LINE
  5
247
100
AcDbEntity
  8
0
100
AcDbLine
 62
7
  6
CONTINUOUS
 10
54.239954815
 20
104.5646027316
 11
58.4826131659
 21
102.1151582045
  0
LINE
  5
248
100
AcDbEntity
  8
0
100
AcDbLine
 62
7
  6
CONTINUOUS
 10
58.8361650845
 20
102.3192802814
 11
76.9381740482
 21
91.8683169657
  0
LINE
  5
249
100
AcDbEntity
  8
0
100
AcDbLine
 62
7
  6
CONTINUOUS
 10
89.6661491009
 20
84.5199833843
 11
98.4343096927
 21
79.4577980283
  0
LINE
  5
24A
100
AcDbEntity
  8
0
100
AcDbLine
 62
7
  6
CONTINUOUS
 10
76.952316125
 20
92.2175523592
 11
89.6802911776
 21
84.8692187778
  0
LINE
  5
24B
100
AcDbEntity
  8
0
100
AcDbLine
 62
7
  6
CONTINUOUS
 10
92.012725725
 20
89.586325647
 11
79.2847506724
 21
96.9346592283
  0
LINE
  5
24C
100
AcDbEntity
  8
0
100
AcDbLine
 62
7
  6
CONTINUOUS
 10
98.4343096927
 20
85.908752861
 11
92.0215738946
 21
89.6110638428
  0
LINE
  5
24D
100
AcDbEntity
  8
0
100
AcDbLine
 62
7
  6
CONTINUOUS
 10
79.2935988419
 20
96.9593974242
 11
61.1915898782
 21
107.4103607399
  0
LINE
  5
24E
100
AcDbEntity
  8
0
100
AcDbLine
 62
7
  6
CONTINUOUS
 10
61.0833947089
 20
107.736559544
 11
37.0981787357
 21
121.5841171691
  0
LINE
  5
24F
100
AcDbEntity
  8
0
100
AcDbLine
 62
7
  6
CONTINUOUS
 10
64.916948968
 20
193.6032706374
 11
64.916948968
 21
191.5241604168
  0
LINE
  5
250
100
AcDbEntity
  8
0
100
AcDbLine
 62
7
  6
CONTINUOUS
 10
66.1900832631
 20
146.1655005193
 11
66.1900832631
 21
143.7159932679
  0
LINE
  5
251
100
AcDbEntity
  8
0
100
AcDbLine
 62
7
  6
CONTINUOUS
 10
67.7862758688
 20
145.2265294103
 11
67.7862758688
 21
143.9201255429
  0
LINE
  5
252
100
AcDbEntity
  8
0
100
AcDbLine
 62
7
  6
CONTINUOUS
 10
68.6649466933
 20
147.5943550578
 11
68.6649466933
 21
146.4512516738
  0
LINE
  5
253
100
AcDbEntity
  8
0
100
AcDbLine
 62
7
  6
CONTINUOUS
 10
68.6649673011
 20
142.2871506271
 11
68.6649673011
 21
116.7306249709
  0
LINE
  5
254
100
AcDbEntity
  8
0
100
AcDbLine
 62
7
  6
CONTINUOUS
 10
70.8570068603
 20
115.465076881
 11
70.8570068603
 21
103.225648969
  0
LINE
  5
255
100
AcDbEntity
  8
0
100
AcDbLine
 62
7
  6
CONTINUOUS
 10
57.3512116987
 20
110.6702020958
 11
57.4219220825
 21
110.7372725797
  0
LINE
  5
256
100
AcDbEntity
  8
0
100
AcDbLine
 62
7
  6
CONTINUOUS
 10
63.5780499959
 20
126.1016860936
 11
61.6688696354
 21
124.9994268782
  0
LINE
  5
257
100
AcDbEntity
  8
0
100
AcDbLine
 62
7
  6
CONTINUOUS
 10
62.7500329265
 20
124.3272933471
 11
60.840852566
 21
123.2250341317
  0
LINE
  5
258
100
AcDbEntity
  8
0
100
AcDbLine
 62
7
  6
CONTINUOUS
 10
37.8123533359
 20
121.950712032
 11
57.3512116987
 21
110.6702020958
  0
LINE
  5
259
100
AcDbEntity
  8
0
100
AcDbLine
 62
7
  6
CONTINUOUS
 10
57.4219220825
 20
110.7372725797
 11
61.6645804333
 21
108.2878280526
  0
LINE
  5
25A
100
AcDbEntity
  8
0
100
AcDbLine
 62
7
  6
CONTINUOUS
 10
70.8570068603
 20
103.225648969
 11
61.6645804333
 21
108.5327787777
  0
LINE
  5
25B
100
AcDbEntity
  8
0
100
AcDbLine
 62
7
  6
CONTINUOUS
 10
98.4343096927
 20
87.3778714745
 11
102.6769680436
 21
84.9284269473
  0
LINE
  5
25C
100
AcDbEntity
  8
0
100
AcDbLine
 62
7
  6
CONTINUOUS
 10
141.3356198158
 20
63.5421097582
 11
125.0720961374
 21
72.9316471121
  0
LINE
  5
25D
100
AcDbEntity
  8
0
100
AcDbLine
 62
7
  6
CONTINUOUS
 10
73.0920353721
 20
105.3456267706
 11
82.443188412
 21
99.9468581823
  0
LINE
  5
25E
100
AcDbEntity
  8
0
100
AcDbLine
 62
7
  6
CONTINUOUS
 10
95.1711634646
 20
92.5985246009
 11
99.0739201879
 21
90.3453179305
  0
LINE
  5
25F
100
AcDbEntity
  8
0
100
AcDbLine
 62
7
  6
CONTINUOUS
 10
82.4650726371
 20
99.9623801944
 11
95.1930476897
 21
92.6140466131
  0
LINE
  5
260
100
AcDbEntity
  8
0
100
AcDbLine
 62
7
  6
CONTINUOUS
 10
75.0600020114
 20
124.4075075079
 11
74.7814331568
 21
142.6749807783
  0
LINE
  5
261
100
AcDbEntity
  8
0
100
AcDbLine
 62
7
  6
CONTINUOUS
 10
76.6906294147
 20
141.5727307411
 11
76.9691982693
 21
123.3052574707
  0
LINE
  5
262
100
AcDbEntity
  8
0
100
AcDbLine
 62
7
  6
CONTINUOUS
 10
72.9075873804
 20
146.4512618719
 11
72.9075873804
 21
147.5943652559
  0
LINE
  5
263
100
AcDbEntity
  8
0
100
AcDbLine
 62
7
  6
CONTINUOUS
 10
72.9076079882
 20
116.730635169
 11
72.9076079882
 21
142.2871608251
  0
LINE
  5
264
100
AcDbEntity
  8
0
100
AcDbLine
 62
7
  6
CONTINUOUS
 10
73.7862758688
 20
145.2265294103
 11
73.7862758688
 21
143.9201255429
  0
LINE
  5
265
100
AcDbEntity
  8
0
100
AcDbLine
 62
7
  6
CONTINUOUS
 10
75.3824714184
 20
146.1655226151
 11
75.3824714184
 21
143.7160153637
  0
LINE
  5
266
100
AcDbEntity
  8
0
100
AcDbLine
 62
7
  6
CONTINUOUS
 10
76.9381740482
 20
65.7402396176
 11
76.9381740482
 21
91.8683169657
  0
LINE
  5
267
100
AcDbEntity
  8
0
100
AcDbLine
 62
7
  6
CONTINUOUS
 10
76.952316125
 20
92.2175523592
 11
76.952316125
 21
66.1221351077
  0
LINE
  5
268
100
AcDbEntity
  8
0
100
AcDbLine
 62
7
  6
CONTINUOUS
 10
76.952316125
 20
92.2176030549
 11
76.9381740482
 21
91.8683169657
  0
LINE
  5
269
100
AcDbEntity
  8
0
100
AcDbLine
 62
7
  6
CONTINUOUS
 10
75.1155317541
 20
108.5892329955
 11
76.1279518269
 21
112.8106244174
  0
LINE
  5
26A
100
AcDbEntity
  8
0
100
AcDbLine
 62
7
  6
CONTINUOUS
 10
61.6645804333
 20
108.2878280526
 11
61.0833947089
 21
107.736559544
  0
LINE
  5
26B
100
AcDbEntity
  8
0
100
AcDbLine
 62
7
  6
CONTINUOUS
 10
61.1915898782
 20
107.4103607399
 11
62.1061509363
 21
108.2778436964
  0
LINE
  5
26C
100
AcDbEntity
  8
0
100
AcDbLine
 62
7
  6
CONTINUOUS
 10
79.7971828368
 20
121.7289754356
 11
106.0401421207
 21
136.8802646015
  0
LINE
  5
26D
100
AcDbEntity
  8
0
100
AcDbLine
 62
7
  6
CONTINUOUS
 10
100.9924144213
 20
93.6683156331
 11
97.0896792492
 21
95.9215098612
  0
LINE
  5
26E
100
AcDbEntity
  8
0
100
AcDbLine
 62
7
  6
CONTINUOUS
 10
84.3617041965
 20
103.2698434426
 11
75.1236592372
 21
108.6033105275
  0
LINE
  5
26F
100
AcDbEntity
  8
0
100
AcDbLine
 62
7
  6
CONTINUOUS
 10
97.1038213259
 20
95.9296747443
 11
84.3758462733
 21
103.2780083257
  0
LINE
  5
270
100
AcDbEntity
  8
0
100
AcDbLine
 62
7
  6
CONTINUOUS
 10
145.3355519477
 20
70.4703521717
 11
129.0720282693
 21
79.8598895256
  0
LINE
  5
271
100
AcDbEntity
  8
0
100
AcDbLine
 62
7
  6
CONTINUOUS
 10
107.4852741367
 20
93.2567036301
 11
103.2426157858
 21
95.7061481573
  0
LINE
  5
272
100
AcDbEntity
  8
0
100
AcDbLine
 62
7
  6
CONTINUOUS
 10
70.8570068603
 20
115.465076881
 11
57.3512116987
 21
123.2624770432
  0
LINE
  5
273
100
AcDbEntity
  8
0
100
AcDbLine
 62
7
  6
CONTINUOUS
 10
76.1360793099
 20
112.8247019494
 11
85.3741242693
 21
107.4912348645
  0
LINE
  5
274
100
AcDbEntity
  8
0
100
AcDbLine
 62
7
  6
CONTINUOUS
 10
98.1020993219
 20
100.1429012832
 11
104.5147748035
 21
96.4406251243
  0
LINE
  5
275
100
AcDbEntity
  8
0
100
AcDbLine
 62
7
  6
CONTINUOUS
 10
85.388266346
 20
107.4993997476
 11
98.1162413987
 21
100.1510661663
  0
LINE
  5
276
100
AcDbEntity
  8
0
100
AcDbLine
 62
7
  6
CONTINUOUS
 10
32.5976837152
 20
138.5742942525
 11
58.8408615198
 21
123.4231312477
  0
LINE
  5
277
100
AcDbEntity
  8
0
100
AcDbLine
 62
7
  6
CONTINUOUS
 10
109.1113244535
 20
137.6327358472
 11
72.9076079882
 21
116.730635169
  0
LINE
  5
278
100
AcDbEntity
  8
0
100
AcDbLine
 62
7
  6
CONTINUOUS
 10
111.1619255814
 20
138.7349936517
 11
70.8570068603
 21
115.465076881
  0
LINE
  5
279
100
AcDbEntity
  8
0
100
AcDbLine
 62
7
  6
CONTINUOUS
 10
102.3231276163
 20
130.9374837518
 11
79.6958048254
 21
117.8736708279
  0
LINE
  5
27A
100
AcDbEntity
  8
0
100
AcDbLine
 62
7
  6
CONTINUOUS
 10
101.0379900295
 20
104.5414394492
 11
88.3100149769
 21
111.8897730306
  0
LINE
  5
27B
100
AcDbEntity
  8
0
100
AcDbLine
 62
7
  6
CONTINUOUS
 10
110.1015230067
 20
99.6661164498
 11
101.3333624149
 21
104.7283018059
  0
LINE
  5
27C
100
AcDbEntity
  8
0
100
AcDbLine
 62
7
  6
CONTINUOUS
 10
88.6053873623
 20
112.0766353872
 11
79.2295493936
 21
117.4896555035
  0
LINE
  5
27D
100
AcDbEntity
  8
0
100
AcDbLine
 62
7
  6
CONTINUOUS
 10
75.8880205129
 20
122.6331139346
 11
77.7972167708
 21
121.5308638973
  0
LINE
  5
27E
100
AcDbEntity
  8
0
100
AcDbLine
 62
7
  6
CONTINUOUS
 10
89.6661491009
 20
58.3919060362
 11
89.6661491009
 21
84.5199833843
  0
LINE
  5
27F
100
AcDbEntity
  8
0
100
AcDbLine
 62
7
  6
CONTINUOUS
 10
89.6661491009
 20
84.5199833843
 11
89.6802911776
 21
84.8692695034
  0
LINE
  5
280
100
AcDbEntity
  8
0
100
AcDbLine
 62
7
  6
CONTINUOUS
 10
85.3741242693
 20
107.4912348645
 11
84.3617041965
 21
103.2698434426
  0
LINE
  5
281
100
AcDbEntity
  8
0
100
AcDbLine
 62
7
  6
CONTINUOUS
 10
84.3758462733
 20
103.2780083257
 11
85.388266346
 21
107.4993997476
  0
LINE
  5
282
100
AcDbEntity
  8
0
100
AcDbLine
 62
7
  6
CONTINUOUS
 10
70.8570068603
 20
103.225648969
 11
73.4254107058
 21
105.6618412185
  0
LINE
  5
283
100
AcDbEntity
  8
0
100
AcDbLine
 62
7
  6
CONTINUOUS
 10
88.6053873623
 20
112.0766353872
 11
88.3099930123
 21
111.890051935
  0
LINE
  5
284
100
AcDbEntity
  8
0
100
AcDbLine
 62
7
  6
CONTINUOUS
 10
88.6053873623
 20
112.0766353872
 11
111.2327101531
 21
125.1404483111
  0
LINE
  5
285
100
AcDbEntity
  8
0
100
AcDbLine
 62
7
  6
CONTINUOUS
 10
110.9090536142
 20
124.9372561883
 11
88.3100149769
 21
111.8897730306
  0
LINE
  5
286
100
AcDbEntity
  8
0
100
AcDbLine
 62
7
  6
CONTINUOUS
 10
76.9691982693
 20
123.3052574707
 11
75.0600020114
 21
124.4075075079
  0
LINE
  5
287
100
AcDbEntity
  8
0
100
AcDbLine
 62
7
  6
CONTINUOUS
 10
137.0718925331
 20
93.7163743526
 11
135.6576730828
 21
94.5328558617
  0
LINE
  5
288
100
AcDbEntity
  8
0
100
AcDbLine
 62
7
  6
CONTINUOUS
 10
94.3632813606
 20
171.2725500681
 11
94.3632813606
 21
168.4147916082
  0
LINE
  5
289
100
AcDbEntity
  8
0
100
AcDbLine
 62
7
  6
CONTINUOUS
 10
79.2847506724
 20
96.9346592283
 11
82.4438636671
 21
99.9448449643
  0
LINE
  5
28A
100
AcDbEntity
  8
0
100
AcDbLine
 62
7
  6
CONTINUOUS
 10
82.4445417687
 20
99.9428344562
 11
82.4650726371
 21
99.9623801944
  0
LINE
  5
28B
100
AcDbEntity
  8
0
100
AcDbLine
 62
7
  6
CONTINUOUS
 10
82.4438636671
 20
99.9448449643
 11
79.2935988419
 21
96.9593974242
  0
LINE
  5
28C
100
AcDbEntity
  8
0
100
AcDbLine
 62
7
  6
CONTINUOUS
 10
37.666602496
 20
121.9333850264
 11
37.8123533359
 21
121.950712032
  0
LINE
  5
28D
100
AcDbEntity
  8
0
100
AcDbLine
 62
7
  6
CONTINUOUS
 10
61.9474408096
 20
143.2669014878
 11
29.4911044254
 21
162.0051521203
  0
LINE
  5
28E
100
AcDbEntity
  8
0
100
AcDbLine
 62
7
  6
CONTINUOUS
 10
68.6649673011
 20
139.8376433757
 11
63.8300844808
 21
142.6290011245
  0
LINE
  5
28F
100
AcDbEntity
  8
0
100
AcDbLine
 62
7
  6
CONTINUOUS
 10
29.8799726054
 20
162.2296639286
 11
21.3679245951
 21
167.1439859619
  0
LINE
  5
290
100
AcDbEntity
  8
0
100
AcDbLine
 62
7
  6
CONTINUOUS
 10
31.4002847858
 20
163.1074113357
 11
63.8566211701
 21
144.3691607032
  0
LINE
  5
291
100
AcDbEntity
  8
0
100
AcDbLine
 62
7
  6
CONTINUOUS
 10
24.4706094794
 20
167.8021977846
 11
28.7132678303
 21
165.3527532575
  0
LINE
  5
292
100
AcDbEntity
  8
0
100
AcDbLine
 62
7
  6
CONTINUOUS
 10
66.1900832631
 20
143.7159932679
 11
68.6649673011
 21
142.2871506271
  0
LINE
  5
293
100
AcDbEntity
  8
0
100
AcDbLine
 62
7
  6
CONTINUOUS
 10
98.4343096927
 20
45.409647234
 11
98.4343096927
 21
53.3297206802
  0
LINE
  5
294
100
AcDbEntity
  8
0
100
AcDbLine
 62
7
  6
CONTINUOUS
 10
98.4343096927
 20
79.4577980283
 11
98.4343096927
 21
87.3778714745
  0
LINE
  5
295
100
AcDbEntity
  8
0
100
AcDbLine
 62
7
  6
CONTINUOUS
 10
102.3632813606
 20
171.2725500681
 11
102.3632813606
 21
168.4147916082
  0
LINE
  5
296
100
AcDbEntity
  8
0
100
AcDbLine
 62
7
  6
CONTINUOUS
 10
102.6769680436
 20
42.9602027069
 11
102.6769680436
 21
84.9284269473
  0
LINE
  5
297
100
AcDbEntity
  8
0
100
AcDbLine
 62
7
  6
CONTINUOUS
 10
104.1615593215
 20
166.9451081982
 11
104.1615593215
 21
168.0882115822
  0
LINE
  5
298
100
AcDbEntity
  8
0
100
AcDbLine
 62
7
  6
CONTINUOUS
 10
97.0896792492
 20
95.9215098612
 11
98.1020993219
 21
100.1429012832
  0
LINE
  5
299
100
AcDbEntity
  8
0
100
AcDbLine
 62
7
  6
CONTINUOUS
 10
101.0379680778
 20
104.5417181891
 11
101.3333624149
 21
104.7283018059
  0
LINE
  5
29A
100
AcDbEntity
  8
0
100
AcDbLine
 62
7
  6
CONTINUOUS
 10
101.3333624149
 20
104.7283018059
 11
123.9606852058
 21
117.7921147298
  0
LINE
  5
29B
100
AcDbEntity
  8
0
100
AcDbLine
 62
7
  6
CONTINUOUS
 10
22.5262745648
 20
171.3742419272
 11
24.4706094794
 21
170.251705036
  0
LINE
  5
29C
100
AcDbEntity
  8
0
100
AcDbLine
 62
7
  6
CONTINUOUS
 10
28.7132678303
 20
167.8022605089
 11
66.1900832631
 21
146.1655005193
  0
LINE
  5
29D
100
AcDbEntity
  8
0
100
AcDbLine
 62
7
  6
CONTINUOUS
 10
76.6906294147
 20
141.5727307411
 11
74.7814331568
 21
142.6749807783
  0
LINE
  5
29E
100
AcDbEntity
  8
0
100
AcDbLine
 62
7
  6
CONTINUOUS
 10
73.7862758688
 20
144.6375584459
 11
75.3824714184
 21
143.7160153637
  0
LINE
  5
29F
100
AcDbEntity
  8
0
100
AcDbLine
 62
7
  6
CONTINUOUS
 10
110.9090536142
 20
124.9372561883
 11
123.6370286669
 21
117.588922607
  0
LINE
  5
2A0
100
AcDbEntity
  8
0
100
AcDbLine
 62
7
  6
CONTINUOUS
 10
101.7574300608
 20
130.6108800654
 11
111.2327101531
 21
125.1404483111
  0
LINE
  5
2A1
100
AcDbEntity
  8
0
100
AcDbLine
 62
7
  6
CONTINUOUS
 10
123.9606852058
 20
117.7921147298
 11
132.7288457976
 21
112.7299293737
  0
LINE
  5
2A2
100
AcDbEntity
  8
0
100
AcDbLine
 62
7
  6
CONTINUOUS
 10
72.9075873804
 20
147.5943652559
 11
75.3824714184
 21
146.1655226151
  0
LINE
  5
2A3
100
AcDbEntity
  8
0
100
AcDbLine
 62
7
  6
CONTINUOUS
 10
106.6364227517
 20
169.5170661207
 11
106.6364227517
 21
167.4379559001
  0
LINE
  5
2A4
100
AcDbEntity
  8
0
100
AcDbLine
 62
7
  6
CONTINUOUS
 10
106.6364610233
 20
164.2099142162
 11
106.6364610233
 21
161.7604069648
  0
LINE
  5
2A5
100
AcDbEntity
  8
0
100
AcDbLine
 62
7
  6
CONTINUOUS
 10
109.1113244535
 20
163.1892615033
 11
109.1113244535
 21
160.3315584497
  0
LINE
  5
2A6
100
AcDbEntity
  8
0
100
AcDbLine
 62
7
  6
CONTINUOUS
 10
109.1113244535
 20
157.9507947405
 11
109.1113244535
 21
137.6327358472
  0
LINE
  5
2A7
100
AcDbEntity
  8
0
100
AcDbLine
 62
7
  6
CONTINUOUS
 10
109.2828884969
 20
165.7203859346
 11
109.2828884969
 21
164.4139820672
  0
LINE
  5
2A8
100
AcDbEntity
  8
0
100
AcDbLine
 62
7
  6
CONTINUOUS
 10
109.9899952781
 20
138.8574581107
 11
109.9899952781
 21
164.4139837669
  0
LINE
  5
2A9
100
AcDbEntity
  8
0
100
AcDbLine
 62
7
  6
CONTINUOUS
 10
111.1619255814
 20
126.8046345137
 11
111.1619255814
 21
138.7349936517
  0
LINE
  5
2AA
100
AcDbEntity
  8
0
100
AcDbLine
 62
7
  6
CONTINUOUS
 10
108.8681266882
 20
141.7220024471
 11
109.1466955428
 21
160.3111374038
  0
LINE
  5
2AB
100
AcDbEntity
  8
0
100
AcDbLine
 62
7
  6
CONTINUOUS
 10
95.1725168255
 20
92.5945008788
 11
95.1930476897
 21
92.6140466131
  0
LINE
  5
2AC
100
AcDbEntity
  8
0
100
AcDbLine
 62
7
  6
CONTINUOUS
 10
92.0215738946
 20
89.6110638428
 11
95.1718387198
 21
92.596511383
  0
LINE
  5
2AD
100
AcDbEntity
  8
0
100
AcDbLine
 62
7
  6
CONTINUOUS
 10
126.3155748986
 20
118.0395392946
 11
113.6185273555
 21
125.3700172739
  0
LINE
  5
2AE
100
AcDbEntity
  8
0
100
AcDbLine
 62
7
  6
CONTINUOUS
 10
103.3910392994
 20
131.291056304
 11
121.9057843277
 21
120.6015604769
  0
LINE
  5
2AF
100
AcDbEntity
  8
0
100
AcDbLine
 62
7
  6
CONTINUOUS
 10
126.3606444849
 20
118.0298485756
 11
134.1347019384
 21
113.54159595
  0
LINE
  5
2B0
100
AcDbEntity
  8
0
100
AcDbLine
 62
7
  6
CONTINUOUS
 10
103.5522714963
 20
131.3444383208
 11
105.8909806148
 21
129.9942145278
  0
LINE
  5
2B1
100
AcDbEntity
  8
0
100
AcDbLine
 62
7
  6
CONTINUOUS
 10
139.5877530186
 20
116.6898976663
 11
143.8304113694
 21
114.2404531391
  0
LINE
  5
2B2
100
AcDbEntity
  8
0
100
AcDbLine
 62
7
  6
CONTINUOUS
 10
105.8909806148
 20
129.9942145278
 11
105.9510679708
 21
129.8130564983
  0
LINE
  5
2B3
100
AcDbEntity
  8
0
100
AcDbLine
 62
7
  6
CONTINUOUS
 10
103.2426157858
 20
95.7061481573
 11
110.1015230067
 21
99.6661164498
  0
LINE
  5
2B4
100
AcDbEntity
  8
0
100
AcDbLine
 62
7
  6
CONTINUOUS
 10
132.7288457976
 20
112.7299293737
 11
139.5877530186
 21
116.6898976663
  0
LINE
  5
2B5
100
AcDbEntity
  8
0
100
AcDbLine
 62
7
  6
CONTINUOUS
 10
107.4852741367
 20
93.2567036301
 11
143.8304113694
 21
114.2404531391
  0
LINE
  5
2B6
100
AcDbEntity
  8
0
100
AcDbLine
 62
7
  6
CONTINUOUS
 10
147.2303536816
 20
114.5772427541
 11
142.9876953307
 21
117.0266872813
  0
LINE
  5
2B7
100
AcDbEntity
  8
0
100
AcDbLine
 62
7
  6
CONTINUOUS
 10
111.1619255814
 20
138.7349936517
 11
109.9899952781
 21
139.4115926211
  0
LINE
  5
2B8
100
AcDbEntity
  8
0
100
AcDbLine
 62
7
  6
CONTINUOUS
 10
109.1466955428
 20
160.3111374038
 11
107.2374992849
 21
161.413387441
  0
LINE
  5
2B9
100
AcDbEntity
  8
0
100
AcDbLine
 62
7
  6
CONTINUOUS
 10
106.6364610233
 20
164.2099142162
 11
104.1615769853
 21
165.638756857
  0
LINE
  5
2BA
100
AcDbEntity
  8
0
100
AcDbLine
 62
7
  6
CONTINUOUS
 10
106.6364227517
 20
169.5170661207
 11
101.9022629503
 21
172.2502727231
  0
LINE
  5
2BB
100
AcDbEntity
  8
0
100
AcDbLine
 62
7
  6
CONTINUOUS
 10
100.0567414161
 20
173.315760973
 11
69.1596073189
 21
191.1538261103
  0
LINE
  5
2BC
100
AcDbEntity
  8
0
100
AcDbLine
 62
7
  6
CONTINUOUS
 10
64.916948968
 20
193.6032706374
 11
62.9726140534
 21
194.7258075286
  0
LINE
  5
2BD
100
AcDbEntity
  8
0
100
AcDbLine
 62
7
  6
CONTINUOUS
 10
148.6387174625
 20
111.464296949
 11
148.6387174625
 21
69.4960727085
  0
LINE
  5
2BE
100
AcDbEntity
  8
0
100
AcDbLine
 62
7
  6
CONTINUOUS
 10
143.8304113694
 20
61.1677960257
 11
107.4852741367
 21
40.1840465167
  0
ARC
  5
2BF
100
AcDbEntity
  8
0
100
AcDbCircle
 62
7
  6
CONTINUOUS
 10
333.7828544458
 20
118.3565697162
 40
297.9491830749
100
AcDbArc
 50
179.6530319219
 51
180.0011073703
  0
ARC
  5
2C0
100
AcDbEntity
  8
0
100
AcDbCircle
 62
7
  6
CONTINUOUS
 10
96.575988729
 20
84.8094983028
 40
6.6179850497
100
AcDbArc
 50
133.4868074471
 51
133.6871868548
  0
ARC
  5
2C1
100
AcDbEntity
  8
0
100
AcDbCircle
 62
7
  6
CONTINUOUS
 10
63.706396442
 20
102.1125310402
 40
5.2237839368
100
AcDbArc
 50
177.3726199927
 51
179.9711845984
  0
ARC
  5
2C2
100
AcDbEntity
  8
0
100
AcDbCircle
 62
7
  6
CONTINUOUS
 10
70.7862788756
 20
144.4865549601
 40
5.1562245781
100
AcDbArc
 50
263.5258730156
 51
276.4737961813
  0
ARC
  5
2C3
100
AcDbEntity
  8
0
100
AcDbCircle
 62
7
  6
CONTINUOUS
 10
29.0625075973
 20
172.6876216846
 40
5.1068003863
100
AcDbArc
 50
266.0731906645
 51
266.2771437937
  0
ARC
  5
2C4
100
AcDbEntity
  8
0
100
AcDbCircle
 62
7
  6
CONTINUOUS
 10
106.2871838314
 20
169.0952625307
 40
5.1067891937
100
AcDbArc
 50
273.723133953
 51
273.927243542
  0
ARC
  5
2C5
100
AcDbEntity
  8
0
100
AcDbCircle
 62
7
  6
CONTINUOUS
 10
29.0620468346
 20
172.6809935697
 40
5.1001562779
100
AcDbArc
 50
265.6065755673
 51
266.0732555268
  0
ARC
  5
2C6
100
AcDbEntity
  8
0
100
AcDbCircle
 62
7
  6
CONTINUOUS
 10
106.2876448463
 20
169.0886314756
 40
5.1001421348
100
AcDbArc
 50
273.9271786807
 51
274.3938670823
  0
ARC
  5
2C7
100
AcDbEntity
  8
0
100
AcDbCircle
 62
7
  6
CONTINUOUS
 10
113.6686326326
 20
120.900834386
 40
4.8895784404
100
AcDbArc
 50
120.0714047485
 51
124.3592305634
  0
ARC
  5
2C8
100
AcDbEntity
  8
0
100
AcDbCircle
 62
7
  6
CONTINUOUS
 10
81.7228090759
 20
65.7545300025
 40
4.7846354624
100
AcDbArc
 50
175.5936041897
 51
179.9755751277
  0
ARC
  5
2C9
100
AcDbEntity
  8
0
100
AcDbCircle
 62
7
  6
CONTINUOUS
 10
87.0110962383
 20
60.1610706832
 40
1.6107776455
100
AcDbArc
 50
232.8604252942
 51
239.988760486
  0
ARC
  5
2CA
100
AcDbEntity
  8
0
100
AcDbCircle
 62
7
  6
CONTINUOUS
 10
121.1008945867
 20
119.2068403856
 40
1.6102942696
100
AcDbArc
 50
60.010855783
 51
66.9314170156
  0
ARC
  5
2CB
100
AcDbEntity
  8
0
100
AcDbCircle
 62
7
  6
CONTINUOUS
 10
112.8305221495
 20
123.9885197112
 40
1.6045264123
100
AcDbArc
 50
54.6393136064
 51
60.0054014109
  0
ARC
  5
2CC
100
AcDbEntity
  8
0
100
AcDbCircle
 62
7
  6
CONTINUOUS
 10
78.7346902595
 20
64.9323833835
 40
1.6045155953
100
AcDbArc
 50
239.9957058214
 51
245.3576541977
  0
ARC
  5
2CD
100
AcDbEntity
  8
0
100
AcDbCircle
 62
7
  6
CONTINUOUS
 10
121.1045666191
 20
119.2137666904
 40
1.6024598687
100
AcDbArc
 50
58.1594881965
 51
60.0007873963
  0
ARC
  5
2CE
100
AcDbEntity
  8
0
100
AcDbCircle
 62
7
  6
CONTINUOUS
 10
87.0066043349
 20
60.1539141254
 40
1.602333902
100
AcDbArc
 50
239.9998513513
 51
241.8699098434
  0
ARC
  5
2CF
100
AcDbEntity
  8
0
100
AcDbCircle
 62
7
  6
CONTINUOUS
 10
112.8318713346
 20
123.990656412
 40
1.6020013952
100
AcDbArc
 50
60.0089892312
 51
60.4197700771
  0
ARC
  5
2D0
100
AcDbEntity
  8
0
100
AcDbCircle
 62
7
  6
CONTINUOUS
 10
125.5598469861
 20
116.6423237477
 40
1.6020003034
100
AcDbArc
 50
60.0089913891
 51
61.5822525378
  0
ARC
  5
2D1
100
AcDbEntity
  8
0
100
AcDbCircle
 62
7
  6
CONTINUOUS
 10
91.4614937037
 20
57.5818209556
 40
1.6019995621
100
AcDbArc
 50
238.418885266
 51
239.9921304095
  0
ARC
  5
2D2
100
AcDbEntity
  8
0
100
AcDbCircle
 62
7
  6
CONTINUOUS
 10
78.7335181587
 20
64.9301535641
 40
1.6019984753
100
AcDbArc
 50
239.581338229
 51
239.9921282528
  0
ARC
  5
2D3
100
AcDbEntity
  8
0
100
AcDbCircle
 62
7
  6
CONTINUOUS
 10
62.9562892472
 20
189.6339414994
 40
1.4332141138
100
AcDbArc
 50
143.7716157652
 51
147.9635674832
  0
SPLINE
  5
2D4
100
AcDbEntity
  8
0
100
AcDbSpline
 62
7
  6
CONTINUOUS
 70
0
 71
3
 72
12
 73
8
 74
0
 42
0.0000001
 43
0.0000001
 44
0.0000000001
 40
0.0
 40
0.0
 40
0.0
 40
0.0
 40
0.2895815875
 40
0.5486326666
 40
0.7816361232
 40
0.8918379233
 40
1.0
 40
1.0
 40
1.0
 40
1.0
 10
58.8408615198
 20
123.4231312477
 30
0.0
 10
59.0164392734
 20
123.3217636777
 30
0.0
 10
59.3656343329
 20
123.1556278281
 30
0.0
 10
59.9019711851
 20
123.0259654655
 30
0.0
 10
60.3302519453
 20
123.0373153174
 30
0.0
 10
60.6360033599
 20
123.1220082664
 30
0.0
 10
60.7752705094
 20
123.1871751682
 30
0.0
 10
60.8408490953
 20
123.2250401408
 30
0.0
  0
SPLINE
  5
2D5
100
AcDbEntity
  8
0
100
AcDbSpline
 62
7
  6
CONTINUOUS
 70
0
 71
3
 72
15
 73
11
 74
0
 42
0.0000001
 43
0.0000001
 44
0.0000000001
 40
0.0
 40
0.0
 40
0.0
 40
0.0
 40
0.1148263591
 40
0.2383901443
 40
0.3681607991
 40
0.501083093
 40
0.6338551732
 40
0.7631866601
 40
0.8860576628
 40
1.0
 40
1.0
 40
1.0
 40
1.0
 10
29.7696755996
 20
143.4160185027
 30
0.0
 10
29.7730127336
 20
143.1933306029
 30
0.0
 10
29.8194926165
 20
142.7311802439
 30
0.0
 10
29.9881590021
 20
142.0354676673
 30
0.0
 10
30.2524519097
 20
141.3325889421
 30
0.0
 10
30.602701487
 20
140.6484162469
 30
0.0
 10
31.0260647512
 20
140.0079250128
 30
0.0
 10
31.5071226354
 20
139.4345390136
 30
0.0
 10
32.0281485426
 20
138.9493050087
 30
0.0
 10
32.4062925018
 20
138.6847915213
 30
0.0
 10
32.5976837152
 20
138.5742942525
 30
0.0
  0
SPLINE
  5
2D6
100
AcDbEntity
  8
0
100
AcDbSpline
 62
7
  6
CONTINUOUS
 70
0
 71
3
 72
12
 73
8
 74
0
 42
0.0000001
 43
0.0000001
 44
0.0000000001
 40
0.0
 40
0.0
 40
0.0
 40
0.0
 40
0.288578566
 40
0.5472734103
 40
0.7806914594
 40
0.8913263451
 40
1.0
 40
1.0
 40
1.0
 40
1.0
 10
63.5780499959
 20
126.1016860936
 30
0.0
 10
63.5750522096
 20
125.9051044266
 30
0.0
 10
63.5396487381
 20
125.5314315333
 30
0.0
 10
63.3811716231
 20
125.0191502223
 30
0.0
 10
63.1594655276
 20
124.6659278409
 30
0.0
 10
62.9374981233
 20
124.4500828911
 30
0.0
 10
62.8141467609
 20
124.3643205949
 30
0.0
 10
62.750029455
 20
124.3272993576
 30
0.0
  0
SPLINE
  5
2D7
100
AcDbEntity
  8
0
100
AcDbSpline
 62
7
  6
CONTINUOUS
 70
0
 71
3
 72
12
 73
8
 74
0
 42
0.0000001
 43
0.0000001
 44
0.0000000001
 40
0.0
 40
0.0
 40
0.0
 40
0.0
 40
0.1086736605
 40
0.2193085503
 40
0.4527266067
 40
0.7114214418
 40
1.0
 40
1.0
 40
1.0
 40
1.0
 10
60.8408490953
 20
123.2250401408
 30
0.0
 10
60.9049664069
 20
123.262061376
 30
0.0
 10
61.0283177689
 20
123.3478236853
 30
0.0
 10
61.2502851881
 20
123.5636686358
 30
0.0
 10
61.4719912692
 20
123.9168910309
 30
0.0
 10
61.6304683855
 20
124.4291723328
 30
0.0
 10
61.6658718492
 20
124.8028452163
 30
0.0
 10
61.6688696354
 20
124.9994268782
 30
0.0
  0
SPLINE
  5
2D8
100
AcDbEntity
  8
0
100
AcDbSpline
 62
7
  6
CONTINUOUS
 70
0
 71
3
 72
15
 73
11
 74
0
 42
0.0000001
 43
0.0000001
 44
0.0000000001
 40
0.0
 40
0.0
 40
0.0
 40
0.0
 40
0.113942031
 40
0.2368128637
 40
0.3661442943
 40
0.4989164145
 40
0.6318388157
 40
0.7616096149
 40
0.8851735401
 40
1.0
 40
1.0
 40
1.0
 40
1.0
 10
106.0401421207
 20
136.8802646015
 30
0.0
 10
106.2315319073
 20
136.9907628867
 30
0.0
 10
106.6096729502
 20
137.2552784267
 30
0.0
 10
107.1306944654
 20
137.7405149695
 30
0.0
 10
107.6117482749
 20
138.3139032957
 30
0.0
 10
108.0351079383
 20
138.9543965349
 30
0.0
 10
108.3853545221
 20
139.6385708461
 30
0.0
 10
108.6496451483
 20
140.3414507214
 30
0.0
 10
108.8183100804
 20
141.0371639383
 30
0.0
 10
108.8647895813
 20
141.4993144861
 30
0.0
 10
108.8681266882
 20
141.7220024471
 30
0.0
  0
SPLINE
  5
2D9
100
AcDbEntity
  8
0
100
AcDbSpline
 62
7
  6
CONTINUOUS
 70
0
 71
3
 72
12
 73
8
 74
0
 42
0.0000001
 43
0.0000001
 44
0.0000000001
 40
0.0
 40
0.0
 40
0.0
 40
0.0
 40
0.1081618764
 40
0.2183635
 40
0.4513667606
 40
0.7104179405
 40
1.0
 40
1.0
 40
1.0
 40
1.0
 10
77.7972202421
 20
121.5308699075
 30
0.0
 10
77.8627982116
 20
121.4930059171
 30
0.0
 10
78.0020639875
 20
121.4278409309
 30
0.0
 10
78.3078121244
 20
121.3431515129
 30
0.0
 10
78.7360877991
 20
121.3318054548
 30
0.0
 10
79.2724175362
 20
121.4614708536
 30
0.0
 10
79.6216075791
 20
121.6276076184
 30
0.0
 10
79.7971828368
 20
121.7289754356
 30
0.0
  0
SPLINE
  5
2DA
100
AcDbEntity
  8
0
100
AcDbSpline
 62
7
  6
CONTINUOUS
 70
0
 71
3
 72
12
 73
8
 74
0
 42
0.0000001
 43
0.0000001
 44
0.0000000001
 40
0.0
 40
0.0
 40
0.0
 40
0.0
 40
0.1086732176
 40
0.2193077256
 40
0.4527253853
 40
0.7114204933
 40
1.0
 40
1.0
 40
1.0
 40
1.0
 10
75.8880239834
 20
122.6331199434
 30
0.0
 10
75.8239065856
 20
122.6701406105
 30
0.0
 10
75.7005549992
 20
122.7559019744
 30
0.0
 10
75.4785870467
 20
122.9717457796
 30
0.0
 10
75.2568804607
 20
123.3249681959
 30
0.0
 10
75.0984032049
 20
123.8372507635
 30
0.0
 10
75.0629997865
 20
124.2109249544
 30
0.0
 10
75.0600020114
 20
124.4075075079
 30
0.0
  0
SPLINE
  5
2DB
100
AcDbEntity
  8
0
100
AcDbSpline
 62
7
  6
CONTINUOUS
 70
0
 71
3
 72
12
 73
8
 74
0
 42
0.0000001
 43
0.0000001
 44
0.0000000001
 40
0.0
 40
0.0
 40
0.0
 40
0.0
 40
0.2885795145
 40
0.5472746317
 40
0.780692284
 40
0.891326788
 40
1.0
 40
1.0
 40
1.0
 40
1.0
 10
76.9691982693
 20
123.3052574707
 30
0.0
 10
76.9721960445
 20
123.108674912
 30
0.0
 10
77.0075994706
 20
122.7350007113
 30
0.0
 10
77.1660767253
 20
122.2227181346
 30
0.0
 10
77.3877833256
 20
121.869495732
 30
0.0
 10
77.6097512633
 20
121.6536519276
 30
0.0
 10
77.73310285
 20
121.5678905768
 30
0.0
 10
77.7972202421
 20
121.5308699075
 30
0.0
  0
SPLINE
  5
2DC
100
AcDbEntity
  8
0
100
AcDbSpline
 62
7
  6
CONTINUOUS
 70
0
 71
3
 72
11
 73
7
 74
0
 42
0.0000001
 43
0.0000001
 44
0.0000000001
 40
0.0
 40
0.0
 40
0.0
 40
0.0
 40
0.22364517
 40
0.4615142525
 40
0.719615073
 40
1.0
 40
1.0
 40
1.0
 40
1.0
 10
21.8999232231
 20
97.8889909856
 30
0.0
 10
21.7857837524
 20
97.9548886429
 30
0.0
 10
21.5703751483
 20
98.128270998
 30
0.0
 10
21.322274532
 20
98.4774904112
 30
0.0
 10
21.1488960581
 20
98.9045748892
 30
0.0
 10
21.0888673219
 20
99.2182185581
 30
0.0
 10
21.0708935428
 20
99.3824719351
 30
0.0
  0
SPLINE
  5
2DD
100
AcDbEntity
  8
0
100
AcDbSpline
 62
7
  6
CONTINUOUS
 70
0
 71
3
 72
11
 73
7
 74
0
 42
0.0000001
 43
0.0000001
 44
0.0000000001
 40
0.0
 40
0.0
 40
0.0
 40
0.0
 40
0.2368169205
 40
0.4825917025
 40
0.7371052518
 40
1.0
 40
1.0
 40
1.0
 40
1.0
 10
21.3679245951
 20
167.1439859619
 30
0.0
 10
20.647707592
 20
161.8311851075
 30
0.0
 10
19.5666605015
 20
150.9492554981
 30
0.0
 10
18.9980386777
 20
134.2610018439
 30
0.0
 10
19.4535729304
 20
116.9793828434
 30
0.0
 10
20.4234716161
 20
105.2989371137
 30
0.0
 10
21.0708935428
 20
99.3824719351
 30
0.0
  0
SPLINE
  5
2DE
100
AcDbEntity
  8
0
100
AcDbSpline
 62
7
  6
CONTINUOUS
 70
0
 71
3
 72
9
 73
5
 74
0
 42
0.0000001
 43
0.0000001
 44
0.0000000001
 40
0.0
 40
0.0
 40
0.0
 40
0.0
 40
0.2603782916
 40
1.0
 40
1.0
 40
1.0
 40
1.0
 10
24.6430352902
 20
96.5518966376
 30
0.0
 10
24.6586686078
 20
96.5189254317
 30
0.0
 10
24.7234407094
 20
96.3946530919
 30
0.0
 10
24.8086447726
 20
96.2805843346
 30
0.0
 10
24.8821007999
 20
96.2074553563
 30
0.0
  0
SPLINE
  5
2DF
100
AcDbEntity
  8
0
100
AcDbSpline
 62
7
  6
CONTINUOUS
 70
0
 71
3
 72
9
 73
5
 74
0
 42
0.0000001
 43
0.0000001
 44
0.0000000001
 40
0.0
 40
0.0
 40
0.0
 40
0.0
 40
0.2527452273
 40
1.0
 40
1.0
 40
1.0
 40
1.0
 10
24.8821007999
 20
96.2074553563
 30
0.0
 10
24.8979217822
 20
96.1917048139
 30
0.0
 10
24.9624421754
 20
96.1313527319
 30
0.0
 10
25.0347963842
 20
96.0793513059
 30
0.0
 10
25.0919574676
 20
96.0463500826
 30
0.0
  0
SPLINE
  5
2E0
100
AcDbEntity
  8
0
100
AcDbSpline
 62
7
  6
CONTINUOUS
 70
0
 71
3
 72
16
 73
12
 74
0
 42
0.0000001
 43
0.0000001
 44
0.0000000001
 40
0.0
 40
0.0
 40
0.0
 40
0.0
 40
0.1224252174
 40
0.2563260922
 40
0.3965970427
 40
0.5371977261
 40
0.6720670738
 40
0.7357166604
 40
0.7960796142
 40
0.9054743241
 40
1.0
 40
1.0
 40
1.0
 40
1.0
 10
66.6847438887
 20
189.7249715718
 30
0.0
 10
66.4922321906
 20
189.6138255545
 30
0.0
 10
66.0617073316
 20
189.4276159369
 30
0.0
 10
65.3584247264
 20
189.2603139222
 30
0.0
 10
64.6049028654
 20
189.1991929492
 30
0.0
 10
63.8490332744
 20
189.2483350471
 30
0.0
 10
63.244708908
 20
189.3810881627
 30
0.0
 10
62.8022246508
 20
189.5416601694
 30
0.0
 10
62.4191749116
 20
189.7241902973
 30
0.0
 10
62.0188160788
 20
189.9963946128
 30
0.0
 10
61.7775539443
 20
190.287886839
 30
0.0
 10
61.696682469
 20
190.4392745144
 30
0.0
  0
SPLINE
  5
2E1
100
AcDbEntity
  8
0
100
AcDbSpline
 62
7
  6
CONTINUOUS
 70
0
 71
3
 72
9
 73
5
 74
0
 42
0.0000001
 43
0.0000001
 44
0.0000000001
 40
0.0
 40
0.0
 40
0.0
 40
0.0
 40
0.5104125976
 40
1.0
 40
1.0
 40
1.0
 40
1.0
 10
61.696682469
 20
190.4392745144
 30
0.0
 10
61.6540671803
 20
190.5190483711
 30
0.0
 10
61.5869702721
 20
190.6850398691
 30
0.0
 10
61.5634479652
 20
190.8629409995
 30
0.0
 10
61.563432623
 20
190.9496938321
 30
0.0
  0
SPLINE
  5
2E2
100
AcDbEntity
  8
0
100
AcDbSpline
 62
7
  6
CONTINUOUS
 70
0
 71
3
 72
11
 73
7
 74
0
 42
0.0000001
 43
0.0000001
 44
0.0000000001
 40
0.0
 40
0.0
 40
0.0
 40
0.0
 40
0.2897781767
 40
0.5490726313
 40
0.7822276909
 40
1.0
 40
1.0
 40
1.0
 40
1.0
 10
104.1615769853
 20
165.638756857
 30
0.0
 10
104.0299046243
 20
165.7147762102
 30
0.0
 10
103.7910491076
 20
165.8792213101
 30
0.0
 10
103.5056777495
 20
166.1792528889
 30
0.0
 10
103.3251082356
 20
166.5110440818
 30
0.0
 10
103.2829105507
 20
166.7492281885
 30
0.0
 10
103.2829105493
 20
166.8634893186
 30
0.0
  0
SPLINE
  5
2E3
100
AcDbEntity
  8
0
100
AcDbSpline
 62
7
  6
CONTINUOUS
 70
0
 71
3
 72
11
 73
7
 74
0
 42
0.0000001
 43
0.0000001
 44
0.0000000001
 40
0.0
 40
0.0
 40
0.0
 40
0.0
 40
0.2214765155
 40
0.4601293302
 40
0.7194266925
 40
1.0
 40
1.0
 40
1.0
 40
1.0
 10
67.4964351455
 20
190.1704624669
 30
0.0
 10
67.4653966157
 20
190.2538392202
 30
0.0
 10
67.3802556851
 20
190.4198141979
 30
0.0
 10
67.1987206693
 20
190.6466448151
 30
0.0
 10
66.9639728506
 20
190.8551573264
 30
0.0
 10
66.7823328347
 20
190.9749709853
 30
0.0
 10
66.6847262249
 20
191.0313229129
 30
0.0
  0
SPLINE
  5
2E4
100
AcDbEntity
  8
0
100
AcDbSpline
 62
7
  6
CONTINUOUS
 70
0
 71
3
 72
11
 73
7
 74
0
 42
0.0000001
 43
0.0000001
 44
0.0000000001
 40
0.0
 40
0.0
 40
0.0
 40
0.0
 40
0.2897733512
 40
0.5490657165
 40
0.7822241652
 40
1.0
 40
1.0
 40
1.0
 40
1.0
 10
26.9454729097
 20
170.5374561905
 30
0.0
 10
26.813804551
 20
170.461437882
 30
0.0
 10
26.5749539356
 20
170.2969971129
 30
0.0
 10
26.2895868224
 20
169.9969698724
 30
0.0
 10
26.1090142419
 20
169.6651815225
 30
0.0
 10
26.0668160987
 20
169.4269958124
 30
0.0
 10
26.0668161002
 20
169.312733927
 30
0.0
  0
SPLINE
  5
2E5
100
AcDbEntity
  8
0
100
AcDbSpline
 62
7
  6
CONTINUOUS
 70
0
 71
3
 72
11
 73
7
 74
0
 42
0.0000001
 43
0.0000001
 44
0.0000000001
 40
0.0
 40
0.0
 40
0.0
 40
0.0
 40
0.2228964003
 40
0.4583021121
 40
0.7156030448
 40
1.0
 40
1.0
 40
1.0
 40
1.0
 10
109.9899732257
 20
164.4139837669
 30
0.0
 10
109.9899732244
 20
164.5146887196
 30
0.0
 10
109.9577086586
 20
164.7229058989
 30
0.0
 10
109.8176536424
 20
165.0183850574
 30
0.0
 10
109.5933385832
 20
165.2921319001
 30
0.0
 10
109.4025338245
 20
165.4478207831
 30
0.0
 10
109.2970092242
 20
165.5211317405
 30
0.0
  0
SPLINE
  5
2E6
100
AcDbEntity
  8
0
100
AcDbSpline
 62
7
  6
CONTINUOUS
 70
0
 71
3
 72
11
 73
7
 74
0
 42
0.0000001
 43
0.0000001
 44
0.0000000001
 40
0.0
 40
0.0
 40
0.0
 40
0.0
 40
0.2897733512
 40
0.5490657165
 40
0.7822241652
 40
1.0
 40
1.0
 40
1.0
 40
1.0
 10
68.6649466933
 20
146.4512516738
 30
0.0
 10
68.5332783346
 20
146.3752333653
 30
0.0
 10
68.2944277193
 20
146.2107925962
 30
0.0
 10
68.0090606061
 20
145.9107653557
 30
0.0
 10
67.8284880256
 20
145.5789770058
 30
0.0
 10
67.7862898824
 20
145.3407912957
 30
0.0
 10
67.7862898838
 20
145.2265294103
 30
0.0
  0
SPLINE
  5
2E7
100
AcDbEntity
  8
0
100
AcDbSpline
 62
7
  6
CONTINUOUS
 70
0
 71
3
 72
11
 73
7
 74
0
 42
0.0000001
 43
0.0000001
 44
0.0000000001
 40
0.0
 40
0.0
 40
0.0
 40
0.0
 40
0.2177727701
 40
0.4509280213
 40
0.7102223029
 40
1.0
 40
1.0
 40
1.0
 40
1.0
 10
109.9899732257
 20
161.9644765155
 30
0.0
 10
109.9899732272
 20
161.8502166154
 30
0.0
 10
109.947776506
 20
161.6120352569
 30
0.0
 10
109.7672108983
 20
161.2802472765
 30
0.0
 10
109.4818453359
 20
160.9802179217
 30
0.0
 10
109.2429943522
 20
160.8157734496
 30
0.0
 10
109.1113244535
 20
160.739754252
 30
0.0
  0
SPLINE
  5
2E8
100
AcDbEntity
  8
0
100
AcDbSpline
 62
7
  6
CONTINUOUS
 70
0
 71
3
 72
15
 73
11
 74
0
 42
0.0000001
 43
0.0000001
 44
0.0000000001
 40
0.0
 40
0.0
 40
0.0
 40
0.0
 40
0.1141447985
 40
0.2373324971
 40
0.3669747555
 40
0.5000005214
 40
0.6330262147
 40
0.7626682613
 40
0.8858556261
 40
1.0
 40
1.0
 40
1.0
 40
1.0
 10
108.4042000085
 20
166.9451183962
 30
0.0
 10
108.258991047
 20
167.0289529327
 30
0.0
 10
107.9414244974
 20
167.1768115402
 30
0.0
 10
107.4243195539
 20
167.3340125927
 30
0.0
 10
106.8644394961
 20
167.430719983
 30
0.0
 10
106.2828760875
 20
167.4633862032
 30
0.0
 10
105.7013131439
 20
167.4307172228
 30
0.0
 10
105.1414344595
 20
167.3340071741
 30
0.0
 10
104.6243317423
 20
167.1768036635
 30
0.0
 10
104.3067671382
 20
167.0289434698
 30
0.0
 10
104.1615593215
 20
166.9451081982
 30
0.0
  0
SPLINE
  5
2E9
100
AcDbEntity
  8
0
100
AcDbSpline
 62
7
  6
CONTINUOUS
 70
0
 71
3
 72
15
 73
11
 74
0
 42
0.0000001
 43
0.0000001
 44
0.0000000001
 40
0.0
 40
0.0
 40
0.0
 40
0.0
 40
0.1141464977
 40
0.2373352781
 40
0.3669759338
 40
0.4999994786
 40
0.633023096
 40
0.7626639634
 40
0.8858530776
 40
1.0
 40
1.0
 40
1.0
 40
1.0
 10
72.9076079882
 20
139.8376535737
 30
0.0
 10
72.7623975633
 20
139.7538167963
 30
0.0
 10
72.4448270708
 20
139.6059571788
 30
0.0
 10
71.927721195
 20
139.4487546397
 30
0.0
 10
71.3678453542
 20
139.3520487275
 30
0.0
 10
70.7862912221
 20
139.3193804723
 30
0.0
 10
70.204736625
 20
139.3520459674
 30
0.0
 10
69.6448594108
 20
139.4487492211
 30
0.0
 10
69.1277513087
 20
139.6059493021
 30
0.0
 10
68.8101788708
 20
139.7538073334
 30
0.0
 10
68.6649673011
 20
139.8376433757
 30
0.0
  0
SPLINE
  5
2EA
100
AcDbEntity
  8
0
100
AcDbSpline
 62
7
  6
CONTINUOUS
 70
0
 71
3
 72
11
 73
7
 74
0
 42
0.0000001
 43
0.0000001
 44
0.0000000001
 40
0.0
 40
0.0
 40
0.0
 40
0.0
 40
0.2177753738
 40
0.4509336309
 40
0.7102261693
 40
1.0
 40
1.0
 40
1.0
 40
1.0
 10
109.2828744818
 20
165.7203859346
 30
0.0
 10
109.2828744804
 20
165.8346490501
 30
0.0
 10
109.2406753736
 20
166.0728375085
 30
0.0
 10
109.0600988867
 20
166.4046290708
 30
0.0
 10
108.7747259777
 20
166.7046585352
 30
0.0
 10
108.5358708295
 20
166.8690999321
 30
0.0
 10
108.4042000085
 20
166.9451183962
 30
0.0
  0
SPLINE
  5
2EB
100
AcDbEntity
  8
0
100
AcDbSpline
 62
7
  6
CONTINUOUS
 70
0
 71
3
 72
11
 73
7
 74
0
 42
0.0000001
 43
0.0000001
 44
0.0000000001
 40
0.0
 40
0.0
 40
0.0
 40
0.0
 40
0.2177753738
 40
0.4509336309
 40
0.7102261693
 40
1.0
 40
1.0
 40
1.0
 40
1.0
 10
73.7862618537
 20
145.2265294103
 30
0.0
 10
73.7862618522
 20
145.3407925258
 30
0.0
 10
73.7440627455
 20
145.5789809841
 30
0.0
 10
73.5634862586
 20
145.9107725465
 30
0.0
 10
73.2781133496
 20
146.2108020109
 30
0.0
 10
73.0392582013
 20
146.3752434078
 30
0.0
 10
72.9075873804
 20
146.4512618719
 30
0.0
  0
SPLINE
  5
2EC
100
AcDbEntity
  8
0
100
AcDbSpline
 62
7
  6
CONTINUOUS
 70
0
 71
3
 72
11
 73
7
 74
0
 42
0.0000001
 43
0.0000001
 44
0.0000000001
 40
0.0
 40
0.0
 40
0.0
 40
0.0
 40
0.2177796924
 40
0.4509239527
 40
0.7102593987
 40
1.0
 40
1.0
 40
1.0
 40
1.0
 10
32.0667841753
 20
170.4558373142
 30
0.0
 10
32.0668043828
 20
170.3415742132
 30
0.0
 10
32.0245489912
 20
170.1034024576
 30
0.0
 10
31.844019349
 20
169.7715840321
 30
0.0
 10
31.5586193579
 20
169.4715851863
 30
0.0
 10
31.3197838088
 20
169.3071242279
 30
0.0
 10
31.1881312605
 20
169.2311150474
 30
0.0
  0
SPLINE
  5
2ED
100
AcDbEntity
  8
0
100
AcDbSpline
 62
7
  6
CONTINUOUS
 70
0
 71
3
 72
15
 73
11
 74
0
 42
0.0000001
 43
0.0000001
 44
0.0000000001
 40
0.0
 40
0.0
 40
0.0
 40
0.0
 40
0.1141447985
 40
0.2373324971
 40
0.3669747555
 40
0.5000005214
 40
0.6330262147
 40
0.7626682613
 40
0.8858556261
 40
1.0
 40
1.0
 40
1.0
 40
1.0
 10
66.6847262249
 20
191.0313229129
 30
0.0
 10
66.5395172633
 20
191.1151574494
 30
0.0
 10
66.2219507137
 20
191.2630160569
 30
0.0
 10
65.7048457702
 20
191.4202171094
 30
0.0
 10
65.1449657124
 20
191.5169244997
 30
0.0
 10
64.5634023038
 20
191.5495907199
 30
0.0
 10
63.9818393602
 20
191.5169217395
 30
0.0
 10
63.4219606759
 20
191.4202116908
 30
0.0
 10
62.9048579587
 20
191.2630081802
 30
0.0
 10
62.5872933545
 20
191.1151479865
 30
0.0
 10
62.4420855378
 20
191.0313127149
 30
0.0
  0
SPLINE
  5
2EE
100
AcDbEntity
  8
0
100
AcDbSpline
 62
7
  6
CONTINUOUS
 70
0
 71
3
 72
12
 73
8
 74
0
 42
0.0000001
 43
0.0000001
 44
0.0000000001
 40
0.0
 40
0.0
 40
0.0
 40
0.0
 40
0.2895533423
 40
0.5486488412
 40
0.7816302656
 40
0.8918380601
 40
1.0
 40
1.0
 40
1.0
 40
1.0
 10
95.53484246
 20
172.9055130862
 30
0.0
 10
95.3592846484
 20
172.8041553415
 30
0.0
 10
95.0408289381
 20
172.5847885108
 30
0.0
 10
94.6602926502
 20
172.1851991786
 30
0.0
 10
94.4560913514
 20
171.8085659646
 30
0.0
 10
94.3764309008
 20
171.5014774976
 30
0.0
 10
94.3633000464
 20
171.3482742804
 30
0.0
 10
94.3633000474
 20
171.2725500681
 30
0.0
  0
SPLINE
  5
2EF
100
AcDbEntity
  8
0
100
AcDbSpline
 62
7
  6
CONTINUOUS
 70
0
 71
3
 72
15
 73
11
 74
0
 42
0.0000001
 43
0.0000001
 44
0.0000000001
 40
0.0
 40
0.0
 40
0.0
 40
0.0
 40
0.1141447985
 40
0.2373324971
 40
0.3669747555
 40
0.5000005214
 40
0.6330262147
 40
0.7626682613
 40
0.8858556261
 40
1.0
 40
1.0
 40
1.0
 40
1.0
 10
101.1916967095
 20
172.9055266836
 30
0.0
 10
100.9980847608
 20
173.0173060655
 30
0.0
 10
100.5746626946
 20
173.2144508756
 30
0.0
 10
99.8851894366
 20
173.4240522789
 30
0.0
 10
99.1386826928
 20
173.552995466
 30
0.0
 10
98.3632648148
 20
173.5965504262
 30
0.0
 10
97.5878475566
 20
173.5529917857
 30
0.0
 10
96.8413426441
 20
173.4240450541
 30
0.0
 10
96.1518723545
 20
173.2144403733
 30
0.0
 10
95.7284528823
 20
173.0172934484
 30
0.0
 10
95.53484246
 20
172.9055130862
 30
0.0
  0
SPLINE
  5
2F0
100
AcDbEntity
  8
0
100
AcDbSpline
 62
7
  6
CONTINUOUS
 70
0
 71
3
 72
12
 73
8
 74
0
 42
0.0000001
 43
0.0000001
 44
0.0000000001
 40
0.0
 40
0.0
 40
0.0
 40
0.0
 40
0.1081616963
 40
0.2183692845
 40
0.4513505142
 40
0.7104461826
 40
1.0
 40
1.0
 40
1.0
 40
1.0
 10
102.3632626738
 20
171.2725500681
 30
0.0
 10
102.3632626729
 20
171.3482750864
 30
0.0
 10
102.3501315341
 20
171.5014799693
 30
0.0
 10
102.2704693515
 20
171.8085717742
 30
0.0
 10
102.0662635754
 20
172.1852087781
 30
0.0
 10
101.6857195577
 20
172.5848010595
 30
0.0
 10
101.367257804
 20
172.8041687314
 30
0.0
 10
101.1916967095
 20
172.9055266836
 30
0.0
  0
SPLINE
  5
2F1
100
AcDbEntity
  8
0
100
AcDbSpline
 62
7
  6
CONTINUOUS
 70
0
 71
3
 72
17
 73
13
 74
0
 42
0.0000001
 43
0.0000001
 44
0.0000000001
 40
0.0
 40
0.0
 40
0.0
 40
0.0
 40
0.1286923651
 40
0.2702770074
 40
0.417433908
 40
0.5617794078
 40
0.6954504941
 40
0.8127129393
 40
0.8646788001
 40
0.9125109544
 40
0.9571403961
 40
1.0
 40
1.0
 40
1.0
 40
1.0
 10
26.9454729097
 20
171.6805595745
 30
0.0
 10
27.1675504908
 20
171.8087753604
 30
0.0
 10
27.6703528966
 20
172.0162380275
 30
0.0
 10
28.4898298274
 20
172.1801599491
 30
0.0
 10
29.3565683911
 20
172.2041740339
 30
0.0
 10
30.1998452822
 20
172.0856862229
 30
0.0
 10
30.9513002391
 20
171.8347054557
 30
0.0
 10
31.4738774471
 20
171.5165348297
 30
0.0
 10
31.7806437967
 20
171.2087751353
 30
0.0
 10
31.9435061534
 20
170.9690782767
 30
0.0
 10
32.0439703218
 20
170.7163187005
 30
0.0
 10
32.066769072
 20
170.5412394637
 30
0.0
 10
32.0667841753
 20
170.4558373142
 30
0.0
  0
SPLINE
  5
2F2
100
AcDbEntity
  8
0
100
AcDbSpline
 62
7
  6
CONTINUOUS
 70
0
 71
3
 72
15
 73
11
 74
0
 42
0.0000001
 43
0.0000001
 44
0.0000000001
 40
0.0
 40
0.0
 40
0.0
 40
0.0
 40
0.1141447985
 40
0.2373324971
 40
0.3669747555
 40
0.5000005214
 40
0.6330262147
 40
0.7626682613
 40
0.8858556261
 40
1.0
 40
1.0
 40
1.0
 40
1.0
 10
72.9075873804
 20
146.4512618719
 30
0.0
 10
72.7623784189
 20
146.5350964083
 30
0.0
 10
72.4448118692
 20
146.6829550159
 30
0.0
 10
71.9277069258
 20
146.8401560683
 30
0.0
 10
71.3678268679
 20
146.9368634587
 30
0.0
 10
70.7862634594
 20
146.9695296788
 30
0.0
 10
70.2047005158
 20
146.9368606985
 30
0.0
 10
69.6448218314
 20
146.8401506497
 30
0.0
 10
69.1277191142
 20
146.6829471391
 30
0.0
 10
68.8101545101
 20
146.5350869455
 30
0.0
 10
68.6649466933
 20
146.4512516738
 30
0.0
  0
SPLINE
  5
2F3
100
AcDbEntity
  8
0
100
AcDbSpline
 62
7
  6
CONTINUOUS
 70
0
 71
3
 72
11
 73
7
 74
0
 42
0.0000001
 43
0.0000001
 44
0.0000000001
 40
0.0
 40
0.0
 40
0.0
 40
0.0
 40
0.2897733512
 40
0.5490657165
 40
0.7822241652
 40
1.0
 40
1.0
 40
1.0
 40
1.0
 10
72.9076050442
 20
144.0018071467
 30
0.0
 10
73.0392734029
 20
144.0778254553
 30
0.0
 10
73.2781240182
 20
144.2422662244
 30
0.0
 10
73.5634911314
 20
144.5422934649
 30
0.0
 10
73.7440637119
 20
144.8740818147
 30
0.0
 10
73.7862618552
 20
145.1122675249
 30
0.0
 10
73.7862618537
 20
145.2265294103
 30
0.0
  0
SPLINE
  5
2F4
100
AcDbEntity
  8
0
100
AcDbSpline
 62
7
  6
CONTINUOUS
 70
0
 71
3
 72
15
 73
11
 74
0
 42
0.0000001
 43
0.0000001
 44
0.0000000001
 40
0.0
 40
0.0
 40
0.0
 40
0.0
 40
0.1141447985
 40
0.2373324971
 40
0.3669747555
 40
0.5000005214
 40
0.6330262147
 40
0.7626682613
 40
0.8858556261
 40
1.0
 40
1.0
 40
1.0
 40
1.0
 10
68.6649643571
 20
144.0017969487
 30
0.0
 10
68.8101733187
 20
143.9179624122
 30
0.0
 10
69.1277398683
 20
143.7701038047
 30
0.0
 10
69.6448448118
 20
143.6129027522
 30
0.0
 10
70.2047248696
 20
143.5161953619
 30
0.0
 10
70.7862882782
 20
143.4835291417
 30
0.0
 10
71.3678512218
 20
143.5161981221
 30
0.0
 10
71.9277299061
 20
143.6129081708
 30
0.0
 10
72.4448326233
 20
143.7701116815
 30
0.0
 10
72.7623972275
 20
143.9179718751
 30
0.0
 10
72.9076050442
 20
144.0018071467
 30
0.0
  0
SPLINE
  5
2F5
100
AcDbEntity
  8
0
100
AcDbSpline
 62
7
  6
CONTINUOUS
 70
0
 71
3
 72
11
 73
7
 74
0
 42
0.0000001
 43
0.0000001
 44
0.0000000001
 40
0.0
 40
0.0
 40
0.0
 40
0.0
 40
0.2177796924
 40
0.4509239527
 40
0.7102593987
 40
1.0
 40
1.0
 40
1.0
 40
1.0
 10
61.563432623
 20
190.9496938321
 30
0.0
 10
61.5634124156
 20
191.0639569331
 30
0.0
 10
61.6056678071
 20
191.3021286886
 30
0.0
 10
61.7861974493
 20
191.6339471142
 30
0.0
 10
62.0715974404
 20
191.93394596
 30
0.0
 10
62.3104329895
 20
192.0984069184
 30
0.0
 10
62.4420855378
 20
192.1744160989
 30
0.0
  0
SPLINE
  5
2F6
100
AcDbEntity
  8
0
100
AcDbSpline
 62
7
  6
CONTINUOUS
 70
0
 71
3
 72
18
 73
14
 74
0
 42
0.0000001
 43
0.0000001
 44
0.0000000001
 40
0.0
 40
0.0
 40
0.0
 40
0.0
 40
0.1286561824
 40
0.2702032851
 40
0.4173188593
 40
0.5616277968
 40
0.6952644486
 40
0.7562715092
 40
0.8127642905
 40
0.8647138308
 40
0.9125352083
 40
0.9571529336
 40
1.0
 40
1.0
 40
1.0
 40
1.0
 10
101.1917202612
 20
166.7818285901
 30
0.0
 10
100.8956213969
 20
166.6108768515
 30
0.0
 10
100.2252117204
 20
166.3342718879
 30
0.0
 10
99.1326387294
 20
166.115670532
 30
0.0
 10
97.9768097663
 20
166.083702968
 30
0.0
 10
96.8530760705
 20
166.2414891934
 30
0.0
 10
95.9918801784
 20
166.5291436133
 30
0.0
 10
95.4041341006
 20
166.8486412148
 30
0.0
 10
95.0392757992
 20
167.1152509581
 30
0.0
 10
94.7448715964
 20
167.4109380632
 30
0.0
 10
94.5276203577
 20
167.7304433444
 30
0.0
 10
94.3937346627
 20
168.0674946034
 30
0.0
 10
94.3633135768
 20
168.3009251321
 30
0.0
 10
94.3633108927
 20
168.4147916117
 30
0.0
  0
SPLINE
  5
2F7
100
AcDbEntity
  8
0
100
AcDbSpline
 62
7
  6
CONTINUOUS
 70
0
 71
3
 72
11
 73
7
 74
0
 42
0.0000001
 43
0.0000001
 44
0.0000000001
 40
0.0
 40
0.0
 40
0.0
 40
0.0
 40
0.2897776971
 40
0.5490719787
 40
0.7822272299
 40
1.0
 40
1.0
 40
1.0
 40
1.0
 10
109.1113244535
 20
163.1892615033
 30
0.0
 10
109.2429943522
 20
163.265280701
 30
0.0
 10
109.4818453359
 20
163.4297251731
 30
0.0
 10
109.7672108983
 20
163.7297545279
 30
0.0
 10
109.947776506
 20
164.0615425083
 30
0.0
 10
109.9899732272
 20
164.2997238668
 30
0.0
 10
109.9899732257
 20
164.4139837669
 30
0.0
  0
SPLINE
  5
2F8
100
AcDbEntity
  8
0
100
AcDbSpline
 62
7
  6
CONTINUOUS
 70
0
 71
3
 72
9
 73
5
 74
0
 42
0.0000001
 43
0.0000001
 44
0.0000000001
 40
0.0
 40
0.0
 40
0.0
 40
0.0
 40
0.4750938762
 40
1.0
 40
1.0
 40
1.0
 40
1.0
 10
108.4042176723
 20
163.1892598037
 30
0.0
 10
108.1509501658
 20
163.0430366134
 30
0.0
 10
107.5709984173
 20
162.8154788313
 30
0.0
 10
106.9593320846
 20
162.7162003124
 30
0.0
 10
106.6369809632
 20
162.6940682583
 30
0.0
  0
SPLINE
  5
2F9
100
AcDbEntity
  8
0
100
AcDbSpline
 62
7
  6
CONTINUOUS
 70
0
 71
3
 72
11
 73
7
 74
0
 42
0.0000001
 43
0.0000001
 44
0.0000000001
 40
0.0
 40
0.0
 40
0.0
 40
0.0
 40
0.2897733512
 40
0.5490657165
 40
0.7822241652
 40
1.0
 40
1.0
 40
1.0
 40
1.0
 10
108.4042176723
 20
164.4956636711
 30
0.0
 10
108.535886031
 20
164.5716819796
 30
0.0
 10
108.7747366464
 20
164.7361227487
 30
0.0
 10
109.0601037595
 20
165.0361499893
 30
0.0
 10
109.2406763401
 20
165.3679383391
 30
0.0
 10
109.2828744833
 20
165.6061240492
 30
0.0
 10
109.2828744818
 20
165.7203859346
 30
0.0
  0
SPLINE
  5
2FA
100
AcDbEntity
  8
0
100
AcDbSpline
 62
7
  6
CONTINUOUS
 70
0
 71
3
 72
9
 73
5
 74
0
 42
0.0000001
 43
0.0000001
 44
0.0000000001
 40
0.0
 40
0.0
 40
0.0
 40
0.0
 40
0.5247613351
 40
1.0
 40
1.0
 40
1.0
 40
1.0
 10
106.6783784837
 20
164.0034788702
 30
0.0
 10
106.9932500721
 20
164.0276734503
 30
0.0
 10
107.5904896074
 20
164.1285236327
 30
0.0
 10
108.1565364808
 20
164.352665722
 30
0.0
 10
108.4042176723
 20
164.4956636711
 30
0.0
  0
SPLINE
  5
2FB
100
AcDbEntity
  8
0
100
AcDbSpline
 62
7
  6
CONTINUOUS
 70
0
 71
3
 72
9
 73
5
 74
0
 42
0.0000001
 43
0.0000001
 44
0.0000000001
 40
0.0
 40
0.0
 40
0.0
 40
0.0
 40
0.2744293402
 40
1.0
 40
1.0
 40
1.0
 40
1.0
 10
104.1615593215
 20
166.9451081982
 30
0.0
 10
104.0859965492
 20
166.9014822717
 30
0.0
 10
103.8186861018
 20
166.7303442343
 30
0.0
 10
103.5817543793
 20
166.5022286729
 30
0.0
 10
103.459816416
 20
166.3064015163
 30
0.0
  0
SPLINE
  5
2FC
100
AcDbEntity
  8
0
100
AcDbSpline
 62
7
  6
CONTINUOUS
 70
0
 71
3
 72
11
 73
7
 74
0
 42
0.0000001
 43
0.0000001
 44
0.0000000001
 40
0.0
 40
0.0
 40
0.0
 40
0.0
 40
0.2177727701
 40
0.4509280213
 40
0.7102223029
 40
1.0
 40
1.0
 40
1.0
 40
1.0
 10
103.2829105493
 20
166.8634893186
 30
0.0
 10
103.2829105478
 20
166.9777492187
 30
0.0
 10
103.325107269
 20
167.2159305772
 30
0.0
 10
103.5056728767
 20
167.5477185576
 30
0.0
 10
103.791038439
 20
167.8477479124
 30
0.0
 10
104.0298894228
 20
168.0121923845
 30
0.0
 10
104.1615593215
 20
168.0882115822
 30
0.0
  0
SPLINE
  5
2FD
100
AcDbEntity
  8
0
100
AcDbSpline
 62
7
  6
CONTINUOUS
 70
0
 71
3
 72
11
 73
7
 74
0
 42
0.0000001
 43
0.0000001
 44
0.0000000001
 40
0.0
 40
0.0
 40
0.0
 40
0.0
 40
0.2177796924
 40
0.4509239527
 40
0.7102593987
 40
1.0
 40
1.0
 40
1.0
 40
1.0
 10
109.2828705871
 20
164.4139820704
 30
0.0
 10
109.2828907946
 20
164.2997189694
 30
0.0
 10
109.240635403
 20
164.0615472139
 30
0.0
 10
109.0601057608
 20
163.7297287883
 30
0.0
 10
108.7747057697
 20
163.4297299425
 30
0.0
 10
108.5358702206
 20
163.2652689841
 30
0.0
 10
108.4042176723
 20
163.1892598037
 30
0.0
  0
SPLINE
  5
2FE
100
AcDbEntity
  8
0
100
AcDbSpline
 62
7
  6
CONTINUOUS
 70
0
 71
3
 72
14
 73
10
 74
0
 42
0.0000001
 43
0.0000001
 44
0.0000000001
 40
0.0
 40
0.0
 40
0.0
 40
0.0
 40
0.3072080201
 40
0.4497478615
 40
0.5815297174
 40
0.701315719
 40
0.8092838373
 40
0.9074709308
 40
1.0
 40
1.0
 40
1.0
 40
1.0
 10
28.7087029235
 20
166.2866991498
 30
0.0
 10
28.3594809681
 20
166.3109210192
 30
0.0
 10
27.84862036
 20
166.398116947
 30
0.0
 10
27.2252619084
 20
166.6271342839
 30
0.0
 10
26.8276174737
 20
166.8395762395
 30
0.0
 10
26.5010470253
 20
167.0906102101
 30
0.0
 10
26.2560424642
 20
167.3739577374
 30
0.0
 10
26.102341747
 20
167.682262412
 30
0.0
 10
26.0668386412
 20
167.9008939615
 30
0.0
 10
26.0668199949
 20
168.0063300564
 30
0.0
  0
SPLINE
  5
2FF
100
AcDbEntity
  8
0
100
AcDbSpline
 62
7
  6
CONTINUOUS
 70
0
 71
3
 72
15
 73
11
 74
0
 42
0.0000001
 43
0.0000001
 44
0.0000000001
 40
0.0
 40
0.0
 40
0.0
 40
0.0
 40
0.1141464977
 40
0.2373352781
 40
0.3669759338
 40
0.4999994786
 40
0.633023096
 40
0.7626639634
 40
0.8858530776
 40
1.0
 40
1.0
 40
1.0
 40
1.0
 10
68.6649466933
 20
147.5943550578
 30
0.0
 10
68.8101571182
 20
147.6781918353
 30
0.0
 10
69.1277276107
 20
147.8260514528
 30
0.0
 10
69.6448334865
 20
147.9832539919
 30
0.0
 10
70.2047093273
 20
148.079959904
 30
0.0
 10
70.7862634594
 20
148.1126281593
 30
0.0
 10
71.3678180565
 20
148.0799626642
 30
0.0
 10
71.9276952707
 20
147.9832594104
 30
0.0
 10
72.4448033728
 20
147.8260593295
 30
0.0
 10
72.7623758107
 20
147.6782012981
 30
0.0
 10
72.9075873804
 20
147.5943652559
 30
0.0
  0
SPLINE
  5
300
100
AcDbEntity
  8
0
100
AcDbSpline
 62
7
  6
CONTINUOUS
 70
0
 71
3
 72
11
 73
7
 74
0
 42
0.0000001
 43
0.0000001
 44
0.0000000001
 40
0.0
 40
0.0
 40
0.0
 40
0.0
 40
0.2177753738
 40
0.4509336309
 40
0.7102261693
 40
1.0
 40
1.0
 40
1.0
 40
1.0
 10
67.7862898838
 20
145.2265294103
 30
0.0
 10
67.7862898853
 20
145.1122662948
 30
0.0
 10
67.828488992
 20
144.8740778364
 30
0.0
 10
68.0090654789
 20
144.5422862741
 30
0.0
 10
68.2944383879
 20
144.2422568097
 30
0.0
 10
68.5332935362
 20
144.0778154128
 30
0.0
 10
68.6649643571
 20
144.0017969487
 30
0.0
  0
SPLINE
  5
301
100
AcDbEntity
  8
0
100
AcDbSpline
 62
7
  6
CONTINUOUS
 70
0
 71
3
 72
11
 73
7
 74
0
 42
0.0000001
 43
0.0000001
 44
0.0000000001
 40
0.0
 40
0.0
 40
0.0
 40
0.0
 40
0.2177727701
 40
0.4509280213
 40
0.7102223029
 40
1.0
 40
1.0
 40
1.0
 40
1.0
 10
73.7862538164
 20
143.9201255429
 30
0.0
 10
73.7862538179
 20
143.8058656428
 30
0.0
 10
73.7440570966
 20
143.5676842843
 30
0.0
 10
73.563491489
 20
143.2358963038
 30
0.0
 10
73.2781259266
 20
142.9358669491
 30
0.0
 10
73.0392749428
 20
142.771422477
 30
0.0
 10
72.9076050442
 20
142.6954032793
 30
0.0
  0
SPLINE
  5
302
100
AcDbEntity
  8
0
100
AcDbSpline
 62
7
  6
CONTINUOUS
 70
0
 71
3
 72
15
 73
11
 74
0
 42
0.0000001
 43
0.0000001
 44
0.0000000001
 40
0.0
 40
0.0
 40
0.0
 40
0.0
 40
0.1141447985
 40
0.2373324971
 40
0.3669747555
 40
0.5000005214
 40
0.6330262147
 40
0.7626682613
 40
0.8858556261
 40
1.0
 40
1.0
 40
1.0
 40
1.0
 10
31.1881135967
 20
170.5374663886
 30
0.0
 10
31.0429046352
 20
170.621300925
 30
0.0
 10
30.7253380856
 20
170.7691595326
 30
0.0
 10
30.2082331421
 20
170.926360585
 30
0.0
 10
29.6483530843
 20
171.0230679754
 30
0.0
 10
29.0667896757
 20
171.0557341955
 30
0.0
 10
28.4852267321
 20
171.0230652152
 30
0.0
 10
27.9253480477
 20
170.9263551664
 30
0.0
 10
27.4082453305
 20
170.7691516558
 30
0.0
 10
27.0906807264
 20
170.6212914622
 30
0.0
 10
26.9454729097
 20
170.5374561905
 30
0.0
  0
SPLINE
  5
303
100
AcDbEntity
  8
0
100
AcDbSpline
 62
7
  6
CONTINUOUS
 70
0
 71
3
 72
9
 73
5
 74
0
 42
0.0000001
 43
0.0000001
 44
0.0000000001
 40
0.0
 40
0.0
 40
0.0
 40
0.0
 40
0.4752390475
 40
1.0
 40
1.0
 40
1.0
 40
1.0
 10
26.9454905735
 20
168.0880014654
 30
0.0
 10
27.1931755986
 20
167.9450036845
 30
0.0
 10
27.7592299843
 20
167.7208632134
 30
0.0
 10
28.3564765452
 20
167.6200162283
 30
0.0
 10
28.6713514001
 20
167.5958238443
 30
0.0
  0
SPLINE
  5
304
100
AcDbEntity
  8
0
100
AcDbSpline
 62
7
  6
CONTINUOUS
 70
0
 71
3
 72
9
 73
5
 74
0
 42
0.0000001
 43
0.0000001
 44
0.0000000001
 40
0.0
 40
0.0
 40
0.0
 40
0.0
 40
0.2270441754
 40
1.0
 40
1.0
 40
1.0
 40
1.0
 10
31.9085944844
 20
169.8677636084
 30
0.0
 10
31.8707196223
 20
169.9324233792
 30
0.0
 10
31.6794732156
 20
170.2030279025
 30
0.0
 10
31.409050063
 20
170.409911546
 30
0.0
 10
31.1881135967
 20
170.5374663886
 30
0.0
  0
SPLINE
  5
305
100
AcDbEntity
  8
0
100
AcDbSpline
 62
7
  6
CONTINUOUS
 70
0
 71
3
 72
9
 73
5
 74
0
 42
0.0000001
 43
0.0000001
 44
0.0000000001
 40
0.0
 40
0.0
 40
0.0
 40
0.0
 40
0.2709897213
 40
1.0
 40
1.0
 40
1.0
 40
1.0
 10
62.4420855378
 20
191.0313127149
 30
0.0
 10
62.3756916754
 20
190.9929804294
 30
0.0
 10
62.1368685849
 20
190.8418474826
 30
0.0
 10
61.9220065522
 20
190.6473809397
 30
0.0
 10
61.8001618175
 20
190.4809787255
 30
0.0
  0
SPLINE
  5
306
100
AcDbEntity
  8
0
100
AcDbSpline
 62
7
  6
CONTINUOUS
 70
0
 71
3
 72
12
 73
8
 74
0
 42
0.0000001
 43
0.0000001
 44
0.0000000001
 40
0.0
 40
0.0
 40
0.0
 40
0.0
 40
0.2895533423
 40
0.5486488412
 40
0.7816302656
 40
0.8918380601
 40
1.0
 40
1.0
 40
1.0
 40
1.0
 10
101.1917202612
 20
169.6395870501
 30
0.0
 10
101.3672780728
 20
169.7409447948
 30
0.0
 10
101.6857337831
 20
169.9603116255
 30
0.0
 10
102.066270071
 20
170.3599009577
 30
0.0
 10
102.2704713698
 20
170.7365341717
 30
0.0
 10
102.3501318204
 20
171.0436226387
 30
0.0
 10
102.3632626748
 20
171.1968258559
 30
0.0
 10
102.3632626738
 20
171.2725500681
 30
0.0
  0
SPLINE
  5
307
100
AcDbEntity
  8
0
100
AcDbSpline
 62
7
  6
CONTINUOUS
 70
0
 71
3
 72
15
 73
11
 74
0
 42
0.0000001
 43
0.0000001
 44
0.0000000001
 40
0.0
 40
0.0
 40
0.0
 40
0.0
 40
0.1141447985
 40
0.2373324971
 40
0.3669747555
 40
0.5000005214
 40
0.6330262147
 40
0.7626682613
 40
0.8858556261
 40
1.0
 40
1.0
 40
1.0
 40
1.0
 10
95.5348660118
 20
169.6395734527
 30
0.0
 10
95.7284779605
 20
169.5277940707
 30
0.0
 10
96.1519000266
 20
169.3306492607
 30
0.0
 10
96.8413732846
 20
169.1210478574
 30
0.0
 10
97.5878800284
 20
168.9921046703
 30
0.0
 10
98.3632979065
 20
168.9485497101
 30
0.0
 10
99.1387151646
 20
168.9921083506
 30
0.0
 10
99.8852200771
 20
169.1210550822
 30
0.0
 10
100.5746903667
 20
169.330659763
 30
0.0
 10
100.9981098389
 20
169.5278066879
 30
0.0
 10
101.1917202612
 20
169.6395870501
 30
0.0
  0
SPLINE
  5
308
100
AcDbEntity
  8
0
100
AcDbSpline
 62
7
  6
CONTINUOUS
 70
0
 71
3
 72
15
 73
11
 74
0
 42
0.0000001
 43
0.0000001
 44
0.0000000001
 40
0.0
 40
0.0
 40
0.0
 40
0.0
 40
0.1141469224
 40
0.2373360366
 40
0.366976904
 40
0.5000005214
 40
0.6330240662
 40
0.7626647219
 40
0.8858535023
 40
1.0
 40
1.0
 40
1.0
 40
1.0
 10
68.6649673011
 20
142.2871506271
 30
0.0
 10
68.8101788708
 20
142.2033145848
 30
0.0
 10
69.1277513087
 20
142.0554565535
 30
0.0
 10
69.6448594108
 20
141.8982564725
 30
0.0
 10
70.204736625
 20
141.8015532187
 30
0.0
 10
70.7862912221
 20
141.7688877237
 30
0.0
 10
71.3678453542
 20
141.8015559789
 30
0.0
 10
71.927721195
 20
141.8982618911
 30
0.0
 10
72.4448270708
 20
142.0554644302
 30
0.0
 10
72.7623975633
 20
142.2033240476
 30
0.0
 10
72.9076079882
 20
142.2871608251
 30
0.0
  0
SPLINE
  5
309
100
AcDbEntity
  8
0
100
AcDbSpline
 62
7
  6
CONTINUOUS
 70
0
 71
3
 72
12
 73
8
 74
0
 42
0.0000001
 43
0.0000001
 44
0.0000000001
 40
0.0
 40
0.0
 40
0.0
 40
0.0
 40
0.1081593899
 40
0.218366722
 40
0.4513484619
 40
0.7104480105
 40
1.0
 40
1.0
 40
1.0
 40
1.0
 10
102.3632518285
 20
168.4147916046
 30
0.0
 10
102.3632536135
 20
168.3390693571
 30
0.0
 10
102.3501257919
 20
168.185868168
 30
0.0
 10
102.2704656542
 20
167.8787823774
 30
0.0
 10
102.0662696717
 20
167.5021445768
 30
0.0
 10
101.6857321814
 20
167.1025543321
 30
0.0
 10
101.3672768364
 20
166.8831856211
 30
0.0
 10
101.1917202612
 20
166.7818285901
 30
0.0
  0
SPLINE
  5
30A
100
AcDbEntity
  8
0
100
AcDbSpline
 62
7
  6
CONTINUOUS
 70
0
 71
3
 72
17
 73
13
 74
0
 42
0.0000001
 43
0.0000001
 44
0.0000000001
 40
0.0
 40
0.0
 40
0.0
 40
0.0
 40
0.1286923651
 40
0.2702770074
 40
0.417433908
 40
0.5617794078
 40
0.6954504941
 40
0.8127129393
 40
0.8646788001
 40
0.9125109544
 40
0.9571403961
 40
1.0
 40
1.0
 40
1.0
 40
1.0
 10
72.9076050442
 20
142.6954032793
 30
0.0
 10
72.6855274631
 20
142.5671874934
 30
0.0
 10
72.1827250573
 20
142.3597248264
 30
0.0
 10
71.3632481265
 20
142.1958029047
 30
0.0
 10
70.4965095628
 20
142.17178882
 30
0.0
 10
69.6532326716
 20
142.2902766309
 30
0.0
 10
68.9017777147
 20
142.5412573982
 30
0.0
 10
68.3792005068
 20
142.8594280241
 30
0.0
 10
68.0724341572
 20
143.1671877185
 30
0.0
 10
67.9095718004
 20
143.4068845771
 30
0.0
 10
67.809107632
 20
143.6596441533
 30
0.0
 10
67.7863088819
 20
143.8347233901
 30
0.0
 10
67.7862937785
 20
143.9201255397
 30
0.0
  0
SPLINE
  5
30B
100
AcDbEntity
  8
0
100
AcDbSpline
 62
7
  6
CONTINUOUS
 70
0
 71
3
 72
12
 73
8
 74
0
 42
0.0000001
 43
0.0000001
 44
0.0000000001
 40
0.0
 40
0.0
 40
0.0
 40
0.0
 40
0.1081616963
 40
0.2183692845
 40
0.4513505142
 40
0.7104461826
 40
1.0
 40
1.0
 40
1.0
 40
1.0
 10
94.3633000474
 20
171.2725500681
 30
0.0
 10
94.3633000483
 20
171.1968250499
 30
0.0
 10
94.3764311871
 20
171.043620167
 30
0.0
 10
94.4560933697
 20
170.7365283621
 30
0.0
 10
94.6602991458
 20
170.3598913582
 30
0.0
 10
95.0408431635
 20
169.9602990768
 30
0.0
 10
95.3593049172
 20
169.7409314048
 30
0.0
 10
95.5348660118
 20
169.6395734527
 30
0.0
  0
SPLINE
  5
30C
100
AcDbEntity
  8
0
100
AcDbSpline
 62
7
  6
CONTINUOUS
 70
0
 71
3
 72
11
 73
7
 74
0
 42
0.0000001
 43
0.0000001
 44
0.0000000001
 40
0.0
 40
0.0
 40
0.0
 40
0.0
 40
0.2177753738
 40
0.4509336309
 40
0.7102261693
 40
1.0
 40
1.0
 40
1.0
 40
1.0
 10
26.0668161002
 20
169.312733927
 30
0.0
 10
26.0668161016
 20
169.1984708115
 30
0.0
 10
26.1090152084
 20
168.9602823531
 30
0.0
 10
26.2895916953
 20
168.6284907908
 30
0.0
 10
26.5749646043
 20
168.3284613264
 30
0.0
 10
26.8138197525
 20
168.1640199295
 30
0.0
 10
26.9454905735
 20
168.0880014654
 30
0.0
  0
SPLINE
  5
30D
100
AcDbEntity
  8
0
100
AcDbSpline
 62
7
  6
CONTINUOUS
 70
0
 71
3
 72
9
 73
5
 74
0
 42
0.0000001
 43
0.0000001
 44
0.0000000001
 40
0.0
 40
0.0
 40
0.0
 40
0.0
 40
0.2532012083
 40
1.0
 40
1.0
 40
1.0
 40
1.0
 10
35.8397594401
 20
120.161657637
 30
0.0
 10
35.8992750934
 20
120.2507550968
 30
0.0
 10
36.1404992372
 20
120.5984643344
 30
0.0
 10
36.4065261151
 20
120.9290703684
 30
0.0
 10
36.6184385206
 20
121.1635126865
 30
0.0
  0
SPLINE
  5
30E
100
AcDbEntity
  8
0
100
AcDbSpline
 62
7
  6
CONTINUOUS
 70
0
 71
3
 72
10
 73
6
 74
0
 42
0.0000001
 43
0.0000001
 44
0.0000000001
 40
0.0
 40
0.0
 40
0.0
 40
0.0
 40
0.2385719129
 40
0.4821289796
 40
1.0
 40
1.0
 40
1.0
 40
1.0
 10
59.5803252197
 20
73.5608432138
 30
0.0
 10
59.6717985021
 20
73.5080142774
 30
0.0
 10
59.8668154445
 20
73.4178074992
 30
0.0
 10
60.2967151458
 20
73.3048134521
 30
0.0
 10
60.6408195794
 20
73.3040847182
 30
0.0
 10
60.8682991746
 20
73.3329059181
 30
0.0
  0
SPLINE
  5
30F
100
AcDbEntity
  8
0
100
AcDbSpline
 62
7
  6
CONTINUOUS
 70
0
 71
3
 72
10
 73
6
 74
0
 42
0.0000001
 43
0.0000001
 44
0.0000000001
 40
0.0
 40
0.0
 40
0.0
 40
0.0
 40
0.2384866312
 40
0.4820298574
 40
1.0
 40
1.0
 40
1.0
 40
1.0
 10
67.8534400539
 20
68.7842215848
 30
0.0
 10
67.9456866231
 20
68.7309823535
 30
0.0
 10
68.1424275013
 20
68.640135637
 30
0.0
 10
68.5763262144
 20
68.5271488515
 30
0.0
 10
68.9235230589
 20
68.5276257637
 30
0.0
 10
69.1528790566
 20
68.5577364622
 30
0.0
  0
SPLINE
  5
310
100
AcDbEntity
  8
0
100
AcDbSpline
 62
7
  6
CONTINUOUS
 70
0
 71
3
 72
11
 73
7
 74
0
 42
0.0000001
 43
0.0000001
 44
0.0000000001
 40
0.0
 40
0.0
 40
0.0
 40
0.0
 40
0.2453141499
 40
0.4999989983
 40
0.7546843623
 40
1.0
 40
1.0
 40
1.0
 40
1.0
 10
73.4254107058
 20
105.6618412185
 30
0.0
 10
73.6284140423
 20
105.8543947205
 30
0.0
 10
74.0107498835
 20
106.2808955912
 30
0.0
 10
74.4917341019
 20
106.997788294
 30
0.0
 10
74.8720861941
 20
107.7727825972
 30
0.0
 10
75.0502774604
 20
108.3171483902
 30
0.0
 10
75.1155317541
 20
108.5892329955
 30
0.0
  0
SPLINE
  5
311
100
AcDbEntity
  8
0
100
AcDbSpline
 62
7
  6
CONTINUOUS
 70
0
 71
3
 72
11
 73
7
 74
0
 42
0.0000001
 43
0.0000001
 44
0.0000000001
 40
0.0
 40
0.0
 40
0.0
 40
0.0
 40
0.2536823963
 40
0.5159684669
 40
0.7698313377
 40
1.0
 40
1.0
 40
1.0
 40
1.0
 10
76.1279518269
 20
112.8106244174
 30
0.0
 10
76.2529332972
 20
113.3317477346
 30
0.0
 10
76.6218934098
 20
114.3659747231
 30
0.0
 10
77.437811186
 20
115.782206986
 30
0.0
 10
78.4611332782
 20
116.9924974221
 30
0.0
 10
79.2747179476
 20
117.6305576568
 30
0.0
 10
79.6958048254
 20
117.8736708279
 30
0.0
  0
SPLINE
  5
312
100
AcDbEntity
  8
0
100
AcDbSpline
 62
7
  6
CONTINUOUS
 70
0
 71
3
 72
12
 73
8
 74
0
 42
0.0000001
 43
0.0000001
 44
0.0000000001
 40
0.0
 40
0.0
 40
0.0
 40
0.0
 40
0.2895685126
 40
0.5486375083
 40
0.7816298502
 40
0.8918359262
 40
1.0
 40
1.0
 40
1.0
 40
1.0
 10
102.3231276163
 20
130.9374837518
 30
0.0
 10
102.5557532678
 20
131.0717894326
 30
0.0
 10
103.0184361278
 20
131.2919030108
 30
0.0
 10
103.7290635715
 20
131.4637505584
 30
0.0
 10
104.2965270508
 20
131.4486648021
 30
0.0
 10
104.7016582028
 20
131.3365053093
 30
0.0
 10
104.8861642947
 20
131.2501070173
 30
0.0
 10
104.9730659619
 20
131.1999525497
 30
0.0
  0
SPLINE
  5
313
100
AcDbEntity
  8
0
100
AcDbSpline
 62
7
  6
CONTINUOUS
 70
0
 71
3
 72
9
 73
5
 74
0
 42
0.0000001
 43
0.0000001
 44
0.0000000001
 40
0.0
 40
0.0
 40
0.0
 40
0.0
 40
0.4911856761
 40
1.0
 40
1.0
 40
1.0
 40
1.0
 10
35.8336714266
 20
118.3508111758
 30
0.0
 10
35.8336714288
 20
113.1033736413
 30
0.0
 10
36.111824922
 20
102.4188095906
 30
0.0
 10
36.9028783078
 20
91.7605284863
 30
0.0
 10
37.4293599619
 20
86.3503167665
 30
0.0
  0
SPLINE
  5
314
100
AcDbEntity
  8
0
100
AcDbSpline
 62
7
  6
CONTINUOUS
 70
0
 71
3
 72
8
 73
4
 74
0
 42
0.0000001
 43
0.0000001
 44
0.0000000001
 40
0.0
 40
0.0
 40
0.0
 40
0.0
 40
1.0
 40
1.0
 40
1.0
 40
1.0
 10
36.6184385206
 20
121.1635126865
 30
0.0
 10
36.7610472236
 20
121.3212831334
 30
0.0
 10
36.9251178048
 20
121.4605102507
 30
0.0
 10
37.0981787357
 20
121.5841171692
 30
0.0
  0
SPLINE
  5
315
100
AcDbEntity
  8
0
100
AcDbSpline
 62
7
  6
CONTINUOUS
 70
0
 71
3
 72
9
 73
5
 74
0
 42
0.0000001
 43
0.0000001
 44
0.0000000001
 40
0.0
 40
0.0
 40
0.0
 40
0.0
 40
0.4919174537
 40
1.0
 40
1.0
 40
1.0
 40
1.0
 10
37.7514605297
 20
86.1634192784
 30
0.0
 10
40.33910553
 20
84.6694449832
 30
0.0
 10
45.7582414663
 20
81.9045738191
 30
0.0
 10
51.36411906
 20
79.556275224
 30
0.0
 10
54.239954815
 20
78.4365253835
 30
0.0
  0
SPLINE
  5
316
100
AcDbEntity
  8
0
100
AcDbSpline
 62
7
  6
CONTINUOUS
 70
0
 71
3
 72
10
 73
6
 74
0
 42
0.0000001
 43
0.0000001
 44
0.0000000001
 40
0.0
 40
0.0
 40
0.0
 40
0.0
 40
0.2355377209
 40
0.4775238205
 40
1.0
 40
1.0
 40
1.0
 40
1.0
 10
104.9730659619
 20
131.1999525497
 30
0.0
 10
105.078130375
 20
131.1393156268
 30
0.0
 10
105.2789101181
 20
130.9936766511
 30
0.0
 10
105.6286609605
 20
130.6120113295
 30
0.0
 10
105.8062670989
 20
130.2496182373
 30
0.0
 10
105.8909806148
 20
129.9942145278
 30
0.0
  0
SPLINE
  5
317
100
AcDbEntity
  8
0
100
AcDbSpline
 62
7
  6
CONTINUOUS
 70
0
 71
3
 72
10
 73
6
 74
0
 42
0.0000001
 43
0.0000001
 44
0.0000000001
 40
0.0
 40
0.0
 40
0.0
 40
0.0
 40
0.5096141816
 40
0.7577375205
 40
1.0
 40
1.0
 40
1.0
 40
1.0
 10
54.239954815
 20
104.5646027316
 30
0.0
 10
50.9850869568
 20
107.0555836932
 30
0.0
 10
46.2529778171
 20
110.9017387943
 30
0.0
 10
40.1932347915
 20
116.1902282711
 30
0.0
 10
37.2723106384
 20
118.8408422453
 30
0.0
 10
35.8391345401
 20
120.1608600926
 30
0.0
  0
SPLINE
  5
318
100
AcDbEntity
  8
0
100
AcDbSpline
 62
7
  6
CONTINUOUS
 70
0
 71
3
 72
10
 73
6
 74
0
 42
0.0000001
 43
0.0000001
 44
0.0000000001
 40
0.0
 40
0.0
 40
0.0
 40
0.0
 40
0.5178814655
 40
0.7614348971
 40
1.0
 40
1.0
 40
1.0
 40
1.0
 10
67.0118412519
 20
69.7861136342
 30
0.0
 10
67.1006210178
 20
69.5746022187
 30
0.0
 10
67.2733283711
 20
69.2768216205
 30
0.0
 10
67.586228965
 20
68.9608739351
 30
0.0
 10
67.7619197167
 20
68.8370416783
 30
0.0
 10
67.8534400539
 20
68.7842215848
 30
0.0
  0
SPLINE
  5
319
100
AcDbEntity
  8
0
100
AcDbSpline
 62
7
  6
CONTINUOUS
 70
0
 71
3
 72
12
 73
8
 74
0
 42
0.0000001
 43
0.0000001
 44
0.0000000001
 40
0.0
 40
0.0
 40
0.0
 40
0.0
 40
0.2895699721
 40
0.5486394915
 40
0.7816312347
 40
0.8918366767
 40
1.0
 40
1.0
 40
1.0
 40
1.0
 10
58.4826131659
 20
75.9870808564
 30
0.0
 10
58.4826131659
 20
75.7184562854
 30
0.0
 10
58.5233313093
 20
75.2076821422
 30
0.0
 10
58.7298290936
 20
74.5063077132
 30
0.0
 10
59.0266392008
 20
74.0223950797
 30
0.0
 10
59.3263517959
 20
73.7276139437
 30
0.0
 10
59.4934355196
 20
73.6110249755
 30
0.0
 10
59.5803252197
 20
73.5608432138
 30
0.0
  0
SPLINE
  5
31A
100
AcDbEntity
  8
0
100
AcDbSpline
 62
7
  6
CONTINUOUS
 70
0
 71
3
 72
11
 73
7
 74
0
 42
0.0000001
 43
0.0000001
 44
0.0000000001
 40
0.0
 40
0.0
 40
0.0
 40
0.0
 40
0.2518813141
 40
0.5126360082
 40
0.7667546296
 40
1.0
 40
1.0
 40
1.0
 40
1.0
 10
61.0833947089
 20
107.736559544
 30
0.0
 10
60.7116789233
 20
107.3839782638
 30
0.0
 10
60.0280871751
 20
106.5871649761
 30
0.0
 10
59.2280525055
 20
105.2400191563
 30
0.0
 10
58.6825527896
 20
103.8115917342
 30
0.0
 10
58.5097758009
 20
102.825923935
 30
0.0
 10
58.4881038615
 20
102.3519911883
 30
0.0
  0
SPLINE
  5
31B
100
AcDbEntity
  8
0
100
AcDbSpline
 62
7
  6
CONTINUOUS
 70
0
 71
3
 72
11
 73
7
 74
0
 42
0.0000001
 43
0.0000001
 44
0.0000000001
 40
0.0
 40
0.0
 40
0.0
 40
0.0
 40
0.2309175839
 40
0.4763593903
 40
0.73375245
 40
1.0
 40
1.0
 40
1.0
 40
1.0
 10
127.0720622033
 20
60.0657199763
 30
0.0
 10
127.7815700891
 20
60.4753521
 30
0.0
 10
129.191358015
 20
61.415857439
 30
0.0
 10
131.1897804353
 20
63.0908786218
 30
0.0
 10
133.102038211
 20
65.0428359087
 30
0.0
 10
134.2787096031
 20
66.4841283385
 30
0.0
 10
134.8444859107
 20
67.2405630918
 30
0.0
  0
SPLINE
  5
31C
100
AcDbEntity
  8
0
100
AcDbSpline
 62
7
  6
CONTINUOUS
 70
0
 71
3
 72
17
 73
13
 74
0
 42
0.0000001
 43
0.0000001
 44
0.0000000001
 40
0.0
 40
0.0
 40
0.0
 40
0.0
 40
0.156973146
 40
0.3073966957
 40
0.4488408604
 40
0.5795358116
 40
0.6986555179
 40
0.806663218
 40
0.8571875438
 40
0.9058777399
 40
0.9532739884
 40
1.0
 40
1.0
 40
1.0
 40
1.0
 10
138.8922307054
 20
74.2547643808
 30
0.0
 10
139.3276383258
 20
75.2715574027
 30
0.0
 10
140.081977236
 20
77.3068696363
 30
0.0
 10
140.8586708671
 20
80.3793395661
 30
0.0
 10
141.2419219119
 20
83.3401722117
 30
0.0
 10
141.2193765801
 20
86.1073385071
 30
0.0
 10
140.789194853
 20
88.6045522997
 30
0.0
 10
140.0766344169
 20
90.4458020186
 30
0.0
 10
139.3061234104
 20
91.6903627178
 30
0.0
 10
138.6499004368
 20
92.4924983201
 30
0.0
 10
137.9075166247
 20
93.1767286174
 30
0.0
 10
137.3570260903
 20
93.5517393619
 30
0.0
 10
137.0718747941
 20
93.7163432775
 30
0.0
  0
SPLINE
  5
31D
100
AcDbEntity
  8
0
100
AcDbSpline
 62
7
  6
CONTINUOUS
 70
0
 71
3
 72
12
 73
8
 74
0
 42
0.0000001
 43
0.0000001
 44
0.0000000001
 40
0.0
 40
0.0
 40
0.0
 40
0.0
 40
0.2895821567
 40
0.5486359363
 40
0.7816376878
 40
0.8918387163
 40
1.0
 40
1.0
 40
1.0
 40
1.0
 10
148.6387174625
 20
111.464296949
 30
0.0
 10
148.6387174625
 20
111.8089628247
 30
0.0
 10
148.586496544
 20
112.4643004491
 30
0.0
 10
148.3215095957
 20
113.3641630888
 30
0.0
 10
147.9407497896
 20
113.9850666192
 30
0.0
 10
147.5561632288
 20
114.3632255968
 30
0.0
 10
147.341836722
 20
114.5128660452
 30
0.0
 10
147.2303478771
 20
114.5772327004
 30
0.0
  0
SPLINE
  5
31E
100
AcDbEntity
  8
0
100
AcDbSpline
 62
7
  6
CONTINUOUS
 70
0
 71
3
 72
15
 73
11
 74
0
 42
0.0000001
 43
0.0000001
 44
0.0000000001
 40
0.0
 40
0.0
 40
0.0
 40
0.0
 40
0.1141543519
 40
0.237325601
 40
0.366974755
 40
0.4999984147
 40
0.6330222943
 40
0.7626720931
 40
0.8858443543
 40
1.0
 40
1.0
 40
1.0
 40
1.0
 10
143.8304113694
 20
61.1677960257
 30
0.0
 10
144.1595786661
 20
61.3578397186
 30
0.0
 10
144.8097430118
 20
61.8136003283
 30
0.0
 10
145.7043336509
 20
62.6505624656
 30
0.0
 10
146.5287472692
 20
63.6399141634
 30
0.0
 10
147.2519318894
 20
64.7445416725
 30
0.0
 10
147.8469702162
 20
65.9231565192
 30
0.0
 10
148.2915641987
 20
67.1318031822
 30
0.0
 10
148.5690985324
 20
68.3250326746
 30
0.0
 10
148.6387174625
 20
69.1159793132
 30
0.0
 10
148.6387174625
 20
69.4960727085
 30
0.0
  0
SPLINE
  5
31F
100
AcDbEntity
  8
0
100
AcDbSpline
 62
7
  6
CONTINUOUS
 70
0
 71
3
 72
11
 73
7
 74
0
 42
0.0000001
 43
0.0000001
 44
0.0000000001
 40
0.0
 40
0.0
 40
0.0
 40
0.0
 40
0.2177651606
 40
0.4508956102
 40
0.7103690052
 40
1.0
 40
1.0
 40
1.0
 40
1.0
 10
106.1731848312
 20
85.9217378651
 30
0.0
 10
106.1006368882
 20
85.9636609271
 30
0.0
 10
105.9647868545
 20
86.0776952389
 30
0.0
 10
105.8202560223
 20
86.3141163852
 30
0.0
 10
105.7344543675
 20
86.6053916063
 30
0.0
 10
105.7175145436
 20
86.8173856869
 30
0.0
 10
105.7175145436
 20
86.9288275341
 30
0.0
  0
SPLINE
  5
320
100
AcDbEntity
  8
0
100
AcDbSpline
 62
7
  6
CONTINUOUS
 70
0
 71
3
 72
17
 73
13
 74
0
 42
0.0000001
 43
0.0000001
 44
0.0000000001
 40
0.0
 40
0.0
 40
0.0
 40
0.0
 40
0.1286891333
 40
0.2702803493
 40
0.4174326844
 40
0.5617743804
 40
0.6954465661
 40
0.8127104963
 40
0.8646756522
 40
0.91250911
 40
0.9571392634
 40
1.0
 40
1.0
 40
1.0
 40
1.0
 10
142.4869140787
 20
108.1575235354
 30
0.0
 10
142.4869140787
 20
108.3455680722
 30
0.0
 10
142.5395220683
 20
108.7409602848
 30
0.0
 10
142.7358630013
 20
109.3215066464
 30
0.0
 10
143.038424218
 20
109.8807528084
 30
0.0
 10
143.4228705136
 20
110.3728470732
 30
0.0
 10
143.8577941203
 20
110.758041901
 30
0.0
 10
144.2514608255
 20
110.9733041239
 30
0.0
 10
144.5594067297
 20
111.0552188079
 30
0.0
 10
144.7713494765
 20
111.0708273058
 30
0.0
 10
144.9687034335
 20
111.0419053809
 30
0.0
 10
145.0882741327
 20
110.9922232106
 30
0.0
 10
145.1425006749
 20
110.9608874814
 30
0.0
  0
SPLINE
  5
321
100
AcDbEntity
  8
0
100
AcDbSpline
 62
7
  6
CONTINUOUS
 70
0
 71
3
 72
17
 73
13
 74
0
 42
0.0000001
 43
0.0000001
 44
0.0000000001
 40
0.0
 40
0.0
 40
0.0
 40
0.0
 40
0.1286891333
 40
0.2702803493
 40
0.4174326844
 40
0.5617743804
 40
0.6954465661
 40
0.8127104963
 40
0.8646756522
 40
0.91250911
 40
0.9571392634
 40
1.0
 40
1.0
 40
1.0
 40
1.0
 10
105.7175145436
 20
86.9288275341
 30
0.0
 10
105.7175145436
 20
87.1168720709
 30
0.0
 10
105.7701225332
 20
87.5122642834
 30
0.0
 10
105.9664634661
 20
88.0928106451
 30
0.0
 10
106.2690246829
 20
88.6520568071
 30
0.0
 10
106.6534709785
 20
89.1441510719
 30
0.0
 10
107.0883945852
 20
89.5293458997
 30
0.0
 10
107.4820612904
 20
89.7446081226
 30
0.0
 10
107.7900071946
 20
89.8265228066
 30
0.0
 10
108.0019499414
 20
89.8421313045
 30
0.0
 10
108.1993038983
 20
89.8132093796
 30
0.0
 10
108.3188745976
 20
89.7635272093
 30
0.0
 10
108.3731011398
 20
89.7321914801
 30
0.0
  0
SPLINE
  5
322
100
AcDbEntity
  8
0
100
AcDbSpline
 62
7
  6
CONTINUOUS
 70
0
 71
3
 72
17
 73
13
 74
0
 42
0.0000001
 43
0.0000001
 44
0.0000000001
 40
0.0
 40
0.0
 40
0.0
 40
0.0
 40
0.1286891333
 40
0.2702803493
 40
0.4174326844
 40
0.5617743804
 40
0.6954465661
 40
0.8127104963
 40
0.8646756522
 40
0.91250911
 40
0.9571392634
 40
1.0
 40
1.0
 40
1.0
 40
1.0
 10
105.7175145436
 20
44.4707018434
 30
0.0
 10
105.7175145436
 20
44.6587463802
 30
0.0
 10
105.7701225332
 20
45.0541385927
 30
0.0
 10
105.9664634661
 20
45.6346849544
 30
0.0
 10
106.2690246829
 20
46.1939311163
 30
0.0
 10
106.6534709785
 20
46.6860253812
 30
0.0
 10
107.0883945852
 20
47.071220209
 30
0.0
 10
107.4820612904
 20
47.2864824319
 30
0.0
 10
107.7900071946
 20
47.3683971158
 30
0.0
 10
108.0019499414
 20
47.3840056138
 30
0.0
 10
108.1993038983
 20
47.3550836888
 30
0.0
 10
108.3188745976
 20
47.3054015185
 30
0.0
 10
108.3731011398
 20
47.2740657894
 30
0.0
  0
SPLINE
  5
323
100
AcDbEntity
  8
0
100
AcDbSpline
 62
7
  6
CONTINUOUS
 70
0
 71
3
 72
15
 73
11
 74
0
 42
0.0000001
 43
0.0000001
 44
0.0000000001
 40
0.0
 40
0.0
 40
0.0
 40
0.0
 40
0.114155658
 40
0.2373279333
 40
0.3669777387
 40
0.5000016213
 40
0.633025278
 40
0.7626744253
 40
0.8858456604
 40
1.0
 40
1.0
 40
1.0
 40
1.0
 10
98.4343096927
 20
87.3778714745
 30
0.0
 10
98.4343096927
 20
87.7579649107
 30
0.0
 10
98.5039286457
 20
88.5489116364
 30
0.0
 10
98.7814630197
 20
89.7421412327
 30
0.0
 10
99.2260570701
 20
90.9507879557
 30
0.0
 10
99.8210954367
 20
92.1294028065
 30
0.0
 10
100.5442800734
 20
93.2340302791
 30
0.0
 10
101.3686936736
 20
94.2233818881
 30
0.0
 10
102.2632842429
 20
95.0603439384
 30
0.0
 10
102.9134485246
 20
95.5161044848
 30
0.0
 10
103.2426157858
 20
95.7061481573
 30
0.0
  0
SPLINE
  5
324
100
AcDbEntity
  8
0
100
AcDbSpline
 62
7
  6
CONTINUOUS
 70
0
 71
3
 72
11
 73
7
 74
0
 42
0.0000001
 43
0.0000001
 44
0.0000000001
 40
0.0
 40
0.0
 40
0.0
 40
0.0
 40
0.2177651606
 40
0.4508956102
 40
0.7103690052
 40
1.0
 40
1.0
 40
1.0
 40
1.0
 10
106.1731848312
 20
43.4636121744
 30
0.0
 10
106.1006368882
 20
43.5055352364
 30
0.0
 10
105.9647868545
 20
43.6195695481
 30
0.0
 10
105.8202560223
 20
43.8559906945
 30
0.0
 10
105.7344543675
 20
44.1472659155
 30
0.0
 10
105.7175145436
 20
44.3592599962
 30
0.0
 10
105.7175145436
 20
44.4707018434
 30
0.0
  0
SPLINE
  5
325
100
AcDbEntity
  8
0
100
AcDbSpline
 62
7
  6
CONTINUOUS
 70
0
 71
3
 72
12
 73
8
 74
0
 42
0.0000001
 43
0.0000001
 44
0.0000000001
 40
0.0
 40
0.0
 40
0.0
 40
0.0
 40
0.2347423595
 40
0.3603248882
 40
0.4891146462
 40
0.7489472303
 40
1.0
 40
1.0
 40
1.0
 40
1.0
 10
89.6802259473
 20
84.8688244079
 30
0.0
 10
89.7106189032
 20
85.2879670786
 30
0.0
 10
89.8333918017
 20
85.9273823863
 30
0.0
 10
90.116008892
 20
86.7567291434
 30
0.0
 10
90.4876738347
 20
87.6001625291
 30
0.0
 10
91.0804893022
 20
88.5861652467
 30
0.0
 10
91.6798071923
 20
89.2846677067
 30
0.0
 10
92.0048093601
 20
89.5951064456
 30
0.0
  0
SPLINE
  5
326
100
AcDbEntity
  8
0
100
AcDbSpline
 62
7
  6
CONTINUOUS
 70
0
 71
3
 72
11
 73
7
 74
0
 42
0.0000001
 43
0.0000001
 44
0.0000000001
 40
0.0
 40
0.0
 40
0.0
 40
0.0
 40
0.2177651606
 40
0.4508956102
 40
0.7103690052
 40
1.0
 40
1.0
 40
1.0
 40
1.0
 10
142.9425843663
 20
107.1504338665
 30
0.0
 10
142.8700364233
 20
107.1923569284
 30
0.0
 10
142.7341863896
 20
107.3063912402
 30
0.0
 10
142.5896555574
 20
107.5428123865
 30
0.0
 10
142.5038539026
 20
107.8340876076
 30
0.0
 10
142.4869140787
 20
108.0460816882
 30
0.0
 10
142.4869140787
 20
108.1575235354
 30
0.0
  0
SPLINE
  5
327
100
AcDbEntity
  8
0
100
AcDbSpline
 62
7
  6
CONTINUOUS
 70
0
 71
3
 72
12
 73
8
 74
0
 42
0.0000001
 43
0.0000001
 44
0.0000000001
 40
0.0
 40
0.0
 40
0.0
 40
0.0
 40
0.2508254577
 40
0.5106657404
 40
0.6395094366
 40
0.7651492373
 40
1.0
 40
1.0
 40
1.0
 40
1.0
 10
98.1020993219
 20
100.1429012832
 30
0.0
 10
98.2072670094
 20
100.5814089599
 30
0.0
 10
98.511380347
 20
101.4538916747
 30
0.0
 10
99.0692670545
 20
102.465350166
 30
0.0
 10
99.6152531128
 20
103.2130597391
 30
0.0
 10
100.1942933853
 20
103.8760939424
 30
0.0
 10
100.6885378633
 20
104.3047148779
 30
0.0
 10
101.0379680778
 20
104.5417181891
 30
0.0
  0
SPLINE
  5
328
100
AcDbEntity
  8
0
100
AcDbSpline
 62
7
  6
CONTINUOUS
 70
0
 71
3
 72
11
 73
7
 74
0
 42
0.0000001
 43
0.0000001
 44
0.0000000001
 40
0.0
 40
0.0
 40
0.0
 40
0.0
 40
0.2457253786
 40
0.5003661518
 40
0.7548643693
 40
1.0
 40
1.0
 40
1.0
 40
1.0
 10
95.1923441254
 20
92.6160835563
 30
0.0
 10
95.4205046435
 20
92.8345860682
 30
0.0
 10
95.8478742127
 20
93.3190983557
 30
0.0
 10
96.3889398951
 20
94.1279310571
 30
0.0
 10
96.8158148945
 20
95.00185715
 30
0.0
 10
97.0161798139
 20
95.6150462758
 30
0.0
 10
97.0896792492
 20
95.9215098612
 30
0.0
  0
SPLINE
  5
329
100
AcDbEntity
  8
0
100
AcDbSpline
 62
7
  6
CONTINUOUS
 70
0
 71
3
 72
11
 73
7
 74
0
 42
0.0000001
 43
0.0000001
 44
0.0000000001
 40
0.0
 40
0.0
 40
0.0
 40
0.0
 40
0.2177765917
 40
0.4509448302
 40
0.7102106369
 40
1.0
 40
1.0
 40
1.0
 40
1.0
 10
59.8303193984
 20
73.993855636
 30
0.0
 10
59.6719993339
 20
74.0852908583
 30
0.0
 10
59.3756422468
 20
74.3342527011
 30
0.0
 10
59.0604201709
 20
74.8499558834
 30
0.0
 10
58.8729203916
 20
75.48538933
 30
0.0
 10
58.8361650845
 20
75.9479202894
 30
0.0
 10
58.8361650845
 20
76.1912029333
 30
0.0
  0
SPLINE
  5
32A
100
AcDbEntity
  8
0
100
AcDbSpline
 62
7
  6
CONTINUOUS
 70
0
 71
3
 72
12
 73
8
 74
0
 42
0.0000001
 43
0.0000001
 44
0.0000000001
 40
0.0
 40
0.0
 40
0.0
 40
0.0
 40
0.1081612896
 40
0.2183623225
 40
0.4513640816
 40
0.710417852
 40
1.0
 40
1.0
 40
1.0
 40
1.0
 10
99.8426792781
 20
42.2967114826
 30
0.0
 10
99.7311904212
 20
42.3610781312
 30
0.0
 10
99.5168639129
 20
42.5107186019
 30
0.0
 10
99.1322773314
 20
42.8888775872
 30
0.0
 10
98.7515175467
 20
43.5097811386
 30
0.0
 10
98.4865305982
 20
44.4096437627
 30
0.0
 10
98.4343096927
 20
45.0649813683
 30
0.0
 10
98.4343096927
 20
45.409647234
 30
0.0
  0
SPLINE
  5
32B
100
AcDbEntity
  8
0
100
AcDbSpline
 62
7
  6
CONTINUOUS
 70
0
 71
3
 72
12
 73
8
 74
0
 42
0.0000001
 43
0.0000001
 44
0.0000000001
 40
0.0
 40
0.0
 40
0.0
 40
0.0
 40
0.1081620389
 40
0.2183637051
 40
0.4513660653
 40
0.7104193096
 40
1.0
 40
1.0
 40
1.0
 40
1.0
 10
104.085337629
 20
39.8472669555
 30
0.0
 10
104.1968228311
 20
39.7829024033
 30
0.0
 10
104.4335724017
 20
39.6721181148
 30
0.0
 10
104.9533441649
 20
39.5281469192
 30
0.0
 10
105.6814138189
 20
39.5088549567
 30
0.0
 10
106.5931733091
 20
39.7292914114
 30
0.0
 10
107.186797635
 20
40.0117220568
 30
0.0
 10
107.4852741367
 20
40.1840465167
 30
0.0
  0
SPLINE
  5
32C
100
AcDbEntity
  8
0
100
AcDbSpline
 62
7
  6
CONTINUOUS
 70
0
 71
3
 72
11
 73
7
 74
0
 42
0.0000001
 43
0.0000001
 44
0.0000000001
 40
0.0
 40
0.0
 40
0.0
 40
0.0
 40
0.2177562901
 40
0.451348561
 40
0.7107488034
 40
1.0
 40
1.0
 40
1.0
 40
1.0
 10
90.6225027526
 20
56.2170875513
 30
0.0
 10
90.4694574337
 20
56.3111717867
 30
0.0
 10
90.184258211
 20
56.5627116407
 30
0.0
 10
89.8816982262
 20
57.0737781048
 30
0.0
 10
89.7015702257
 20
57.69914793
 30
0.0
 10
89.6661638317
 20
58.1532788753
 30
0.0
 10
89.6661638317
 20
58.3919147044
 30
0.0
  0
SPLINE
  5
32D
100
AcDbEntity
  8
0
100
AcDbSpline
 62
7
  6
CONTINUOUS
 70
0
 71
3
 72
14
 73
10
 74
0
 42
0.0000001
 43
0.0000001
 44
0.0000000001
 40
0.0
 40
0.0
 40
0.0
 40
0.0
 40
0.1080482358
 40
0.2181310152
 40
0.3321036305
 40
0.4515037909
 40
0.5774547497
 40
0.7107171139
 40
1.0
 40
1.0
 40
1.0
 40
1.0
 10
117.0722496126
 20
59.0751933603
 30
0.0
 10
117.4001642916
 20
58.8859042325
 30
0.0
 10
118.0963244488
 20
58.559840408
 30
0.0
 10
119.2228005367
 20
58.2484169927
 30
0.0
 10
120.4236399502
 20
58.1144023512
 30
0.0
 10
121.6860132085
 20
58.1584238905
 30
0.0
 10
122.9979772857
 20
58.3784121352
 30
0.0
 10
124.846353185
 20
58.9173752721
 30
0.0
 10
126.1941563795
 20
59.5588638381
 30
0.0
 10
127.0720622033
 20
60.0657199763
 30
0.0
  0
SPLINE
  5
32E
100
AcDbEntity
  8
0
100
AcDbSpline
 62
7
  6
CONTINUOUS
 70
0
 71
3
 72
11
 73
7
 74
0
 42
0.0000001
 43
0.0000001
 44
0.0000000001
 40
0.0
 40
0.0
 40
0.0
 40
0.0
 40
0.217781332
 40
0.4509261302
 40
0.7102612678
 40
1.0
 40
1.0
 40
1.0
 40
1.0
 10
141.3356316936
 20
63.5421303444
 30
0.0
 10
141.4675593499
 20
63.4659326238
 30
0.0
 10
141.7707475849
 20
63.3559455415
 30
0.0
 10
142.2742513184
 20
63.3431881096
 30
0.0
 10
142.8109249262
 20
63.4727374833
 30
0.0
 10
143.1600507283
 20
63.6388766333
 30
0.0
 10
143.3355858817
 20
63.7402212964
 30
0.0
  0
SPLINE
  5
32F
100
AcDbEntity
  8
0
100
AcDbSpline
 62
7
  6
CONTINUOUS
 70
0
 71
3
 72
17
 73
13
 74
0
 42
0.0000001
 43
0.0000001
 44
0.0000000001
 40
0.0
 40
0.0
 40
0.0
 40
0.0
 40
0.1286923789
 40
0.270276527
 40
0.4174326654
 40
0.5617773345
 40
0.6954483281
 40
0.8127111608
 40
0.8646773724
 40
0.9125099429
 40
0.9571398521
 40
1.0
 40
1.0
 40
1.0
 40
1.0
 10
143.3355858817
 20
63.7402212964
 30
0.0
 10
143.6316915084
 20
63.9111769392
 30
0.0
 10
144.2064547639
 20
64.3534561687
 30
0.0
 10
144.9420538758
 20
65.1904316503
 30
0.0
 10
145.5476040811
 20
66.1752521275
 30
0.0
 10
145.9729618957
 20
67.2279841194
 30
0.0
 10
146.1841123889
 20
68.2630191085
 30
0.0
 10
146.1650923464
 20
69.0785605788
 30
0.0
 10
146.0142218504
 20
69.6379615245
 30
0.0
 10
145.8460102555
 20
69.9858194429
 30
0.0
 10
145.6211162054
 20
70.2703331703
 30
0.0
 10
145.4341464796
 20
70.413379284
 30
0.0
 10
145.3355400699
 20
70.4703315855
 30
0.0
  0
SPLINE
  5
330
100
AcDbEntity
  8
0
100
AcDbSpline
 62
7
  6
CONTINUOUS
 70
0
 71
3
 72
12
 73
8
 74
0
 42
0.0000001
 43
0.0000001
 44
0.0000000001
 40
0.0
 40
0.0
 40
0.0
 40
0.0
 40
0.2895806991
 40
0.5486339526
 40
0.7816363052
 40
0.891837967
 40
1.0
 40
1.0
 40
1.0
 40
1.0
 10
139.5877530186
 20
116.6898976663
 30
0.0
 10
139.886229529
 20
116.8622221313
 30
0.0
 10
140.4798538776
 20
117.1446527747
 30
0.0
 10
141.3916133812
 20
117.3650892374
 30
0.0
 10
142.1196830277
 20
117.3457972459
 30
0.0
 10
142.6394547739
 20
117.2018260643
 30
0.0
 10
142.8762043245
 20
117.0910417659
 30
0.0
 10
142.9876895263
 20
117.0266772275
 30
0.0
  0
SPLINE
  5
331
100
AcDbEntity
  8
0
100
AcDbSpline
 62
7
  6
CONTINUOUS
 70
0
 71
3
 72
11
 73
7
 74
0
 42
0.0000001
 43
0.0000001
 44
0.0000000001
 40
0.0
 40
0.0
 40
0.0
 40
0.0
 40
0.2301704937
 40
0.4840340961
 40
0.7463195391
 40
1.0
 40
1.0
 40
1.0
 40
1.0
 10
58.8361650845
 20
102.3192802814
 30
0.0
 10
58.8361650845
 20
102.7596427467
 30
0.0
 10
58.968195681
 20
103.6866972482
 30
0.0
 10
59.454061868
 20
105.0373790927
 30
0.0
 10
60.1953690804
 20
106.3186403708
 30
0.0
 10
60.8394579192
 20
107.0763551859
 30
0.0
 10
61.1915898782
 20
107.4103607399
 30
0.0
  0
SPLINE
  5
332
100
AcDbEntity
  8
0
100
AcDbSpline
 62
7
  6
CONTINUOUS
 70
0
 71
3
 72
11
 73
7
 74
0
 42
0.0000001
 43
0.0000001
 44
0.0000000001
 40
0.0
 40
0.0
 40
0.0
 40
0.0
 40
0.2892497195
 40
0.548649414
 40
0.7822422826
 40
1.0
 40
1.0
 40
1.0
 40
1.0
 10
123.9606850632
 20
117.7920976376
 30
0.0
 10
124.1673406353
 20
117.9114095756
 30
0.0
 10
124.5783149677
 20
118.1078026591
 30
0.0
 10
125.2099382483
 20
118.2644854711
 30
0.0
 10
125.8037916304
 20
118.2579970402
 30
0.0
 10
126.1642193517
 20
118.1367866939
 30
0.0
 10
126.3222176824
 20
118.0512937181
 30
0.0
  0
SPLINE
  5
333
100
AcDbEntity
  8
0
100
AcDbSpline
 62
7
  6
CONTINUOUS
 70
0
 71
3
 72
15
 73
11
 74
0
 42
0.0000001
 43
0.0000001
 44
0.0000000001
 40
0.0
 40
0.0
 40
0.0
 40
0.0
 40
0.1141543519
 40
0.237325601
 40
0.366974755
 40
0.4999984147
 40
0.6330222943
 40
0.7626720931
 40
0.8858443543
 40
1.0
 40
1.0
 40
1.0
 40
1.0
 10
107.4852741367
 20
93.2567036301
 30
0.0
 10
107.15610684
 20
93.0666599372
 30
0.0
 10
106.5059424943
 20
92.6108993275
 30
0.0
 10
105.6113518552
 20
91.7739371902
 30
0.0
 10
104.7869382369
 20
90.7845854925
 30
0.0
 10
104.0637536167
 20
89.6799579834
 30
0.0
 10
103.4687152899
 20
88.5013431366
 30
0.0
 10
103.0241213074
 20
87.2926964736
 30
0.0
 10
102.7465869737
 20
86.0994669812
 30
0.0
 10
102.6769680436
 20
85.3085203426
 30
0.0
 10
102.6769680436
 20
84.9284269473
 30
0.0
  0
SPLINE
  5
334
100
AcDbEntity
  8
0
100
AcDbSpline
 62
7
  6
CONTINUOUS
 70
0
 71
3
 72
11
 73
7
 74
0
 42
0.0000001
 43
0.0000001
 44
0.0000000001
 40
0.0
 40
0.0
 40
0.0
 40
0.0
 40
0.2177651606
 40
0.4508956102
 40
0.7103690052
 40
1.0
 40
1.0
 40
1.0
 40
1.0
 10
145.1425006749
 20
110.9608874814
 30
0.0
 10
145.2150486179
 20
110.9189644195
 30
0.0
 10
145.3508986516
 20
110.8049301077
 30
0.0
 10
145.4954294838
 20
110.5685089614
 30
0.0
 10
145.5812311386
 20
110.2772337403
 30
0.0
 10
145.5981709625
 20
110.0652396597
 30
0.0
 10
145.5981709625
 20
109.9537978125
 30
0.0
  0
SPLINE
  5
335
100
AcDbEntity
  8
0
100
AcDbSpline
 62
7
  6
CONTINUOUS
 70
0
 71
3
 72
11
 73
7
 74
0
 42
0.0000001
 43
0.0000001
 44
0.0000000001
 40
0.0
 40
0.0
 40
0.0
 40
0.0
 40
0.2177668457
 40
0.4510458507
 40
0.7103480807
 40
1.0
 40
1.0
 40
1.0
 40
1.0
 10
113.6226862116
 20
125.3838614581
 30
0.0
 10
113.4644178905
 20
125.4736981849
 30
0.0
 10
113.1014882918
 20
125.6029699125
 30
0.0
 10
112.4999813237
 20
125.6158111759
 30
0.0
 10
111.859188212
 20
125.4601125349
 30
0.0
 10
111.4423421224
 20
125.2614616527
 30
0.0
 10
111.2327100108
 20
125.1404312191
 30
0.0
  0
SPLINE
  5
336
100
AcDbEntity
  8
0
100
AcDbSpline
 62
7
  6
CONTINUOUS
 70
0
 71
3
 72
12
 73
8
 74
0
 42
0.0000001
 43
0.0000001
 44
0.0000000001
 40
0.0
 40
0.0
 40
0.0
 40
0.0
 40
0.1081620389
 40
0.2183637051
 40
0.4513660653
 40
0.7104193096
 40
1.0
 40
1.0
 40
1.0
 40
1.0
 10
147.2303478771
 20
114.5772327004
 30
0.0
 10
147.118862675
 20
114.6415972525
 30
0.0
 10
146.8821131044
 20
114.752381541
 30
0.0
 10
146.3623413412
 20
114.8963527367
 30
0.0
 10
145.6342716872
 20
114.9156446992
 30
0.0
 10
144.722512197
 20
114.6952082445
 30
0.0
 10
144.1288878711
 20
114.4127775991
 30
0.0
 10
143.8304113694
 20
114.2404531391
 30
0.0
  0
SPLINE
  5
337
100
AcDbEntity
  8
0
100
AcDbSpline
 62
7
  6
CONTINUOUS
 70
0
 71
3
 72
11
 73
7
 74
0
 42
0.0000001
 43
0.0000001
 44
0.0000000001
 40
0.0
 40
0.0
 40
0.0
 40
0.0
 40
0.2177651606
 40
0.4508956102
 40
0.7103690052
 40
1.0
 40
1.0
 40
1.0
 40
1.0
 10
108.3731011398
 20
89.7321914801
 30
0.0
 10
108.4456490828
 20
89.6902684182
 30
0.0
 10
108.5814991165
 20
89.5762341064
 30
0.0
 10
108.7260299487
 20
89.3398129601
 30
0.0
 10
108.8118316035
 20
89.048537739
 30
0.0
 10
108.8287714274
 20
88.8365436584
 30
0.0
 10
108.8287714274
 20
88.7251018112
 30
0.0
  0
SPLINE
  5
338
100
AcDbEntity
  8
0
100
AcDbSpline
 62
7
  6
CONTINUOUS
 70
0
 71
3
 72
23
 73
19
 74
0
 42
0.0000001
 43
0.0000001
 44
0.0000000001
 40
0.0
 40
0.0
 40
0.0
 40
0.0
 40
0.0623904624
 40
0.1287434758
 40
0.1983452962
 40
0.2703333573
 40
0.3437220139
 40
0.4174667047
 40
0.4905036785
 40
0.5618024304
 40
0.6304111827
 40
0.695509363
 40
0.7564666522
 40
0.8129128354
 40
0.8648215783
 40
0.9126040254
 40
0.957185669
 40
1.0
 40
1.0
 40
1.0
 40
1.0
 10
127.0720622033
 20
92.7258166615
 30
0.0
 10
126.3535271577
 20
92.3109727358
 30
0.0
 10
124.9260525431
 20
91.3569937839
 30
0.0
 10
122.9045335887
 20
89.6558222766
 30
0.0
 10
120.972207151
 20
87.6717580803
 30
0.0
 10
119.1703076927
 20
85.4474494829
 30
0.0
 10
117.5370425386
 20
83.0299477591
 30
0.0
 10
116.1072086648
 20
80.470910634
 30
0.0
 10
114.9113450081
 20
77.8248868141
 30
0.0
 10
113.9749383304
 20
75.1482879881
 30
0.0
 10
113.3179438238
 20
72.4979432681
 30
0.0
 10
112.9544387432
 20
69.9297784215
 30
0.0
 10
112.8925533169
 20
67.4974600788
 30
0.0
 10
113.1348855284
 20
65.2511677203
 30
0.0
 10
113.6791336722
 20
63.2370701508
 30
0.0
 10
114.5196516724
 20
61.4976155374
 30
0.0
 10
115.6444827478
 20
60.075299767
 30
0.0
 10
116.5791474546
 20
59.3598371514
 30
0.0
 10
117.0722496126
 20
59.0751933603
 30
0.0
  0
SPLINE
  5
339
100
AcDbEntity
  8
0
100
AcDbSpline
 62
7
  6
CONTINUOUS
 70
0
 71
3
 72
12
 73
8
 74
0
 42
0.0000001
 43
0.0000001
 44
0.0000000001
 40
0.0
 40
0.0
 40
0.0
 40
0.0
 40
0.2895821567
 40
0.5486359363
 40
0.7816376878
 40
0.8918387163
 40
1.0
 40
1.0
 40
1.0
 40
1.0
 10
102.6769680436
 20
42.9602027069
 30
0.0
 10
102.6769680436
 20
42.6155368311
 30
0.0
 10
102.7291889621
 20
41.9601992067
 30
0.0
 10
102.9941759104
 20
41.0603365671
 30
0.0
 10
103.3749357165
 20
40.4394330366
 30
0.0
 10
103.7595222773
 20
40.061274059
 30
0.0
 10
103.9738487841
 20
39.9116336106
 30
0.0
 10
104.085337629
 20
39.8472669555
 30
0.0
  0
SPLINE
  5
33A
100
AcDbEntity
  8
0
100
AcDbSpline
 62
7
  6
CONTINUOUS
 70
0
 71
3
 72
11
 73
7
 74
0
 42
0.0000001
 43
0.0000001
 44
0.0000000001
 40
0.0
 40
0.0
 40
0.0
 40
0.0
 40
0.2180076697
 40
0.4512740044
 40
0.7104522442
 40
1.0
 40
1.0
 40
1.0
 40
1.0
 10
77.9323237473
 20
63.559214384
 30
0.0
 10
77.7748556378
 20
63.6501562339
 30
0.0
 10
77.480013387
 20
63.8973490926
 30
0.0
 10
77.1654671285
 20
64.4090705115
 30
0.0
 10
76.9772047271
 20
65.0395992121
 30
0.0
 10
76.9390620617
 20
65.4987352763
 30
0.0
 10
76.9381887791
 20
65.740248286
 30
0.0
  0
SPLINE
  5
33B
100
AcDbEntity
  8
0
100
AcDbSpline
 62
7
  6
CONTINUOUS
 70
0
 71
3
 72
14
 73
10
 74
0
 42
0.0000001
 43
0.0000001
 44
0.0000000001
 40
0.0
 40
0.0
 40
0.0
 40
0.0
 40
0.1080482358
 40
0.2181310152
 40
0.3321036305
 40
0.4515037909
 40
0.5774547497
 40
0.7107171139
 40
1.0
 40
1.0
 40
1.0
 40
1.0
 10
137.0718747941
 20
93.7163432775
 30
0.0
 10
136.743960115
 20
93.9056324053
 30
0.0
 10
136.0477999579
 20
94.2316962298
 30
0.0
 10
134.92132387
 20
94.5431196451
 30
0.0
 10
133.7204844564
 20
94.6771342866
 30
0.0
 10
132.4581111981
 20
94.6331127472
 30
0.0
 10
131.146147121
 20
94.4131245026
 30
0.0
 10
129.2977712217
 20
93.8741613657
 30
0.0
 10
127.9499680272
 20
93.2326727997
 30
0.0
 10
127.0720622033
 20
92.7258166615
 30
0.0
  0
SPLINE
  5
33C
100
AcDbEntity
  8
0
100
AcDbSpline
 62
7
  6
CONTINUOUS
 70
0
 71
3
 72
11
 73
7
 74
0
 42
0.0000001
 43
0.0000001
 44
0.0000000001
 40
0.0
 40
0.0
 40
0.0
 40
0.0
 40
0.2351796562
 40
0.4893842602
 40
0.749140315
 40
1.0
 40
1.0
 40
1.0
 40
1.0
 10
76.9522509378
 20
92.2171582644
 30
0.0
 10
76.9840480758
 20
92.6364683082
 30
0.0
 10
77.1550043513
 20
93.5021690535
 30
0.0
 10
77.6509913888
 20
94.752939079
 30
0.0
 10
78.3603599647
 20
95.9290212079
 30
0.0
 10
78.9598790915
 20
96.6253759207
 30
0.0
 10
79.2847506724
 20
96.9346592283
 30
0.0
  0
SPLINE
  5
33D
100
AcDbEntity
  8
0
100
AcDbSpline
 62
7
  6
CONTINUOUS
 70
0
 71
3
 72
23
 73
19
 74
0
 42
0.0000001
 43
0.0000001
 44
0.0000000001
 40
0.0
 40
0.0
 40
0.0
 40
0.0
 40
0.0428149924
 40
0.0873973996
 40
0.1351806374
 40
0.1870900809
 40
0.2435367621
 40
0.3044942612
 40
0.3695922671
 40
0.4382003807
 40
0.5094981263
 40
0.582533939
 40
0.6562775548
 40
0.7296654245
 40
0.8016531544
 40
0.8712549535
 40
0.9376087937
 40
1.0
 40
1.0
 40
1.0
 40
1.0
 10
115.6580303459
 20
59.8916752185
 30
0.0
 10
115.1649203531
 20
60.1763229956
 30
0.0
 10
114.2302431242
 20
60.8918017547
 30
0.0
 10
113.1054014911
 20
62.3141470364
 30
0.0
 10
112.2648829386
 20
64.053635106
 30
0.0
 10
111.7206433539
 20
66.0677624538
 30
0.0
 10
111.4783265677
 20
68.3140752997
 30
0.0
 10
111.5402297434
 20
70.7464001756
 30
0.0
 10
111.9037504212
 20
73.3145545039
 30
0.0
 10
112.5607512788
 20
75.9648724013
 30
0.0
 10
113.4971527757
 20
78.641433206
 30
0.0
 10
114.6930018932
 20
81.2874160187
 30
0.0
 10
116.1228165598
 20
83.8464175529
 30
0.0
 10
117.7560633769
 20
86.2638963144
 30
0.0
 10
119.5579510204
 20
88.4881946427
 30
0.0
 10
121.4902757269
 20
90.4722693173
 30
0.0
 10
123.5118095323
 20
92.173455133
 30
0.0
 10
124.9392991609
 20
93.1274493105
 30
0.0
 10
125.6578427531
 20
93.5422981705
 30
0.0
  0
SPLINE
  5
33E
100
AcDbEntity
  8
0
100
AcDbSpline
 62
7
  6
CONTINUOUS
 70
0
 71
3
 72
12
 73
8
 74
0
 42
0.0000001
 43
0.0000001
 44
0.0000000001
 40
0.0
 40
0.0
 40
0.0
 40
0.0
 40
0.2508312197
 40
0.5106785501
 40
0.6395243087
 40
0.7651711837
 40
1.0
 40
1.0
 40
1.0
 40
1.0
 10
79.2935988419
 20
96.9593974242
 30
0.0
 10
78.9664020449
 20
96.6490434655
 30
0.0
 10
78.3628375333
 20
95.9493725981
 30
0.0
 10
77.765789336
 20
94.9604235025
 30
0.0
 10
77.3912921046
 20
94.1136389289
 30
0.0
 10
77.106499528
 20
93.2806645485
 30
0.0
 10
76.9827856165
 20
92.6382554026
 30
0.0
 10
76.9522509378
 20
92.2171582644
 30
0.0
  0
SPLINE
  5
33F
100
AcDbEntity
  8
0
100
AcDbSpline
 62
7
  6
CONTINUOUS
 70
0
 71
3
 72
11
 73
7
 74
0
 42
0.0000001
 43
0.0000001
 44
0.0000000001
 40
0.0
 40
0.0
 40
0.0
 40
0.0
 40
0.217781332
 40
0.4509261302
 40
0.7102612678
 40
1.0
 40
1.0
 40
1.0
 40
1.0
 10
145.3355400699
 20
70.4703315855
 30
0.0
 10
145.2036124136
 20
70.5465293061
 30
0.0
 10
144.9004241786
 20
70.6565163883
 30
0.0
 10
144.3969204451
 20
70.6692738203
 30
0.0
 10
143.8602468372
 20
70.5397244465
 30
0.0
 10
143.5111210351
 20
70.3735852966
 30
0.0
 10
143.3355858817
 20
70.2722406334
 30
0.0
  0
SPLINE
  5
340
100
AcDbEntity
  8
0
100
AcDbSpline
 62
7
  6
CONTINUOUS
 70
0
 71
3
 72
11
 73
7
 74
0
 42
0.0000001
 43
0.0000001
 44
0.0000000001
 40
0.0
 40
0.0
 40
0.0
 40
0.0
 40
0.2451356307
 40
0.4996338481
 40
0.7542746217
 40
1.0
 40
1.0
 40
1.0
 40
1.0
 10
84.3617041965
 20
103.2698434426
 30
0.0
 10
84.2882047613
 20
102.9633798572
 30
0.0
 10
84.0878400184
 20
102.3501905472
 30
0.0
 10
83.6609641988
 20
101.4762653095
 30
0.0
 10
83.1199015116
 20
100.6674294819
 30
0.0
 10
82.6925247167
 20
100.1829247385
 30
0.0
 10
82.4643690727
 20
99.9644171377
 30
0.0
  0
SPLINE
  5
341
100
AcDbEntity
  8
0
100
AcDbSpline
 62
7
  6
CONTINUOUS
 70
0
 71
3
 72
17
 73
13
 74
0
 42
0.0000001
 43
0.0000001
 44
0.0000000001
 40
0.0
 40
0.0
 40
0.0
 40
0.0
 40
0.0428580528
 40
0.0874868444
 40
0.1353185356
 40
0.1872839888
 40
0.3045447935
 40
0.4382126403
 40
0.5825566886
 40
0.7297173777
 40
0.8713064245
 40
1.0
 40
1.0
 40
1.0
 40
1.0
 10
125.0721076691
 20
72.9316670902
 30
0.0
 10
124.973505695
 20
72.9886159677
 30
0.0
 10
124.7865377654
 20
73.1316503389
 30
0.0
 10
124.5616519995
 20
73.4161576206
 30
0.0
 10
124.3934394953
 20
73.7640059799
 30
0.0
 10
124.242556801
 20
74.3233938019
 30
0.0
 10
124.2235299948
 20
75.1389204265
 30
0.0
 10
124.4346684686
 20
76.1739414832
 30
0.0
 10
124.8600130284
 20
77.2266811456
 30
0.0
 10
125.4655649559
 20
78.2115287863
 30
0.0
 10
126.2011781739
 20
79.0485303939
 30
0.0
 10
126.7759537903
 20
79.4908207359
 30
0.0
 10
127.0720622033
 20
79.6617779874
 30
0.0
  0
SPLINE
  5
342
100
AcDbEntity
  8
0
100
AcDbSpline
 62
7
  6
CONTINUOUS
 70
0
 71
3
 72
12
 73
8
 74
0
 42
0.0000001
 43
0.0000001
 44
0.0000000001
 40
0.0
 40
0.0
 40
0.0
 40
0.0
 40
0.2348507415
 40
0.36049053
 40
0.4893342207
 40
0.7491745097
 40
1.0
 40
1.0
 40
1.0
 40
1.0
 10
88.3099930123
 20
111.890051935
 30
0.0
 10
87.9605628232
 20
111.6530486411
 30
0.0
 10
87.4663185098
 20
111.224427593
 30
0.0
 10
86.887278198
 20
110.5613935058
 30
0.0
 10
86.3412921237
 20
109.813683945
 30
0.0
 10
85.7834053497
 20
108.802225401
 30
0.0
 10
85.4792919723
 20
107.9297426059
 30
0.0
 10
85.3741242693
 20
107.4912348645
 30
0.0
  0
SPLINE
  5
343
100
AcDbEntity
  8
0
100
AcDbSpline
 62
7
  6
CONTINUOUS
 70
0
 71
3
 72
11
 73
7
 74
0
 42
0.0000001
 43
0.0000001
 44
0.0000000001
 40
0.0
 40
0.0
 40
0.0
 40
0.0
 40
0.2507401376
 40
0.5104979762
 40
0.7647543484
 40
1.0
 40
1.0
 40
1.0
 40
1.0
 10
85.388266346
 20
107.4993997476
 30
0.0
 10
85.4930583761
 20
107.9363410811
 30
0.0
 10
85.7957487046
 20
108.80590027
 30
0.0
 10
86.4597753194
 20
110.0115608647
 30
0.0
 10
87.2964350941
 20
111.0693998985
 30
0.0
 10
87.9618900414
 20
111.6522669732
 30
0.0
 10
88.3099930123
 20
111.890051935
 30
0.0
  0
SPLINE
  5
344
100
AcDbEntity
  8
0
100
AcDbSpline
 62
7
  6
CONTINUOUS
 70
0
 71
3
 72
17
 73
13
 74
0
 42
0.0000001
 43
0.0000001
 44
0.0000000001
 40
0.0
 40
0.0
 40
0.0
 40
0.0
 40
0.1286923789
 40
0.270276527
 40
0.4174326654
 40
0.5617773345
 40
0.6954483281
 40
0.8127111608
 40
0.8646773724
 40
0.9125099429
 40
0.9571398521
 40
1.0
 40
1.0
 40
1.0
 40
1.0
 10
143.3355858817
 20
70.2722406334
 30
0.0
 10
143.039480255
 20
70.1012849906
 30
0.0
 10
142.4647169996
 20
69.6590057611
 30
0.0
 10
141.7291178877
 20
68.8220302795
 30
0.0
 10
141.1235676823
 20
67.8372098023
 30
0.0
 10
140.6982098677
 20
66.7844778104
 30
0.0
 10
140.4870593746
 20
65.7494428213
 30
0.0
 10
140.5060794171
 20
64.933901351
 30
0.0
 10
140.656949913
 20
64.3745004053
 30
0.0
 10
140.825161508
 20
64.0266424869
 30
0.0
 10
141.050055558
 20
63.7421287595
 30
0.0
 10
141.2370252838
 20
63.5990826459
 30
0.0
 10
141.3356316936
 20
63.5421303444
 30
0.0
  0
SPLINE
  5
345
100
AcDbEntity
  8
0
100
AcDbSpline
 62
7
  6
CONTINUOUS
 70
0
 71
3
 72
11
 73
7
 74
0
 42
0.0000001
 43
0.0000001
 44
0.0000000001
 40
0.0
 40
0.0
 40
0.0
 40
0.0
 40
0.2452831959
 40
0.5000160026
 40
0.7546926633
 40
1.0
 40
1.0
 40
1.0
 40
1.0
 10
82.4643690727
 20
99.9644171377
 30
0.0
 10
82.6936823867
 20
100.1827273391
 30
0.0
 10
83.1277354819
 20
100.6641754475
 30
0.0
 10
83.6703846141
 20
101.4768219994
 30
0.0
 10
84.1005485502
 20
102.3539676044
 30
0.0
 10
84.3019992713
 20
102.9700955242
 30
0.0
 10
84.3758462733
 20
103.2780083257
 30
0.0
  0
SPLINE
  5
346
100
AcDbEntity
  8
0
100
AcDbSpline
 62
7
  6
CONTINUOUS
 70
0
 71
3
 72
14
 73
10
 74
0
 42
0.0000001
 43
0.0000001
 44
0.0000000001
 40
0.0
 40
0.0
 40
0.0
 40
0.0
 40
0.2892793691
 40
0.4225409029
 40
0.5484922172
 40
0.66789294
 40
0.7818663667
 40
0.8919503142
 40
1.0
 40
1.0
 40
1.0
 40
1.0
 10
125.6578427531
 20
93.5422981705
 30
0.0
 10
126.5357379379
 20
94.0491481663
 30
0.0
 10
127.8835266635
 20
94.6906302801
 30
0.0
 10
129.7318868423
 20
95.2295976279
 30
0.0
 10
131.0438505466
 20
95.4495896406
 30
0.0
 10
132.3062296629
 20
95.4936197343
 30
0.0
 10
133.5070784738
 20
95.3596068057
 30
0.0
 10
134.6335670828
 20
95.048183169
 30
0.0
 10
135.329735913
 20
94.7221158451
 30
0.0
 10
135.6576551602
 20
94.5328244373
 30
0.0
  0
SPLINE
  5
347
100
AcDbEntity
  8
0
100
AcDbSpline
 62
7
  6
CONTINUOUS
 70
0
 71
3
 72
11
 73
7
 74
0
 42
0.0000001
 43
0.0000001
 44
0.0000000001
 40
0.0
 40
0.0
 40
0.0
 40
0.0
 40
0.2177651606
 40
0.4508956102
 40
0.7103690052
 40
1.0
 40
1.0
 40
1.0
 40
1.0
 10
108.3731011398
 20
47.2740657894
 30
0.0
 10
108.4456490828
 20
47.2321427274
 30
0.0
 10
108.5814991165
 20
47.1181084157
 30
0.0
 10
108.7260299487
 20
46.8816872693
 30
0.0
 10
108.8118316035
 20
46.5904120482
 30
0.0
 10
108.8287714274
 20
46.3784179676
 30
0.0
 10
108.8287714274
 20
46.2669761204
 30
0.0
  0
SPLINE
  5
348
100
AcDbEntity
  8
0
100
AcDbSpline
 62
7
  6
CONTINUOUS
 70
0
 71
3
 72
17
 73
13
 74
0
 42
0.0000001
 43
0.0000001
 44
0.0000000001
 40
0.0
 40
0.0
 40
0.0
 40
0.0
 40
0.1286891333
 40
0.2702803493
 40
0.4174326844
 40
0.5617743804
 40
0.6954465661
 40
0.8127104963
 40
0.8646756522
 40
0.91250911
 40
0.9571392634
 40
1.0
 40
1.0
 40
1.0
 40
1.0
 10
145.5981709625
 20
109.9537978125
 30
0.0
 10
145.5981709625
 20
109.7657532757
 30
0.0
 10
145.5455629729
 20
109.3703610631
 30
0.0
 10
145.34922204
 20
108.7898147015
 30
0.0
 10
145.0466608232
 20
108.2305685395
 30
0.0
 10
144.6622145276
 20
107.7384742747
 30
0.0
 10
144.2272909209
 20
107.3532794469
 30
0.0
 10
143.8336242157
 20
107.138017224
 30
0.0
 10
143.5256783115
 20
107.05610254
 30
0.0
 10
143.3137355647
 20
107.0404940421
 30
0.0
 10
143.1163816078
 20
107.069415967
 30
0.0
 10
142.9968109085
 20
107.1190981373
 30
0.0
 10
142.9425843663
 20
107.1504338665
 30
0.0
  0
SPLINE
  5
349
100
AcDbEntity
  8
0
100
AcDbSpline
 62
7
  6
CONTINUOUS
 70
0
 71
3
 72
11
 73
7
 74
0
 42
0.0000001
 43
0.0000001
 44
0.0000000001
 40
0.0
 40
0.0
 40
0.0
 40
0.0
 40
0.2897457798
 40
0.5490781132
 40
0.7822210945
 40
1.0
 40
1.0
 40
1.0
 40
1.0
 10
127.0720622033
 20
79.6617779874
 30
0.0
 10
127.2476017579
 20
79.7631251915
 30
0.0
 10
127.5967306066
 20
79.9292662993
 30
0.0
 10
128.1334066049
 20
80.058812914
 30
0.0
 10
128.6369064527
 20
80.0460565323
 30
0.0
 10
128.9400899529
 20
79.9360656113
 30
0.0
 10
129.0720167376
 20
79.8598695476
 30
0.0
  0
SPLINE
  5
34A
100
AcDbEntity
  8
0
100
AcDbSpline
 62
7
  6
CONTINUOUS
 70
0
 71
3
 72
11
 73
7
 74
0
 42
0.0000001
 43
0.0000001
 44
0.0000000001
 40
0.0
 40
0.0
 40
0.0
 40
0.0
 40
0.2896533683
 40
0.5489561116
 40
0.7822345489
 40
1.0
 40
1.0
 40
1.0
 40
1.0
 10
76.9381887791
 20
65.740248286
 30
0.0
 10
76.9381887791
 20
65.4981755123
 30
0.0
 10
76.9745756716
 20
65.0378307163
 30
0.0
 10
77.1601408574
 20
64.4050118637
 30
0.0
 10
77.4720292342
 20
63.8904937457
 30
0.0
 10
77.7654607785
 20
63.6408181521
 30
0.0
 10
77.9224028357
 20
63.5486720957
 30
0.0
  0
SPLINE
  5
34B
100
AcDbEntity
  8
0
100
AcDbSpline
 62
7
  6
CONTINUOUS
 70
0
 71
3
 72
11
 73
7
 74
0
 42
0.0000001
 43
0.0000001
 44
0.0000000001
 40
0.0
 40
0.0
 40
0.0
 40
0.0
 40
0.2895458204
 40
0.5487241837
 40
0.7819907529
 40
1.0
 40
1.0
 40
1.0
 40
1.0
 10
111.2327100108
 20
125.1404312191
 30
0.0
 10
111.4422936016
 20
125.2604252822
 30
0.0
 10
111.8589709289
 20
125.4569508681
 30
0.0
 10
112.4991289555
 20
125.6091695794
 30
0.0
 10
113.09954304
 20
125.5926271629
 30
0.0
 10
113.4610280123
 20
125.4608930619
 30
0.0
 10
113.6185164247
 20
125.3699982751
 30
0.0
  0
SPLINE
  5
34C
100
AcDbEntity
  8
0
100
AcDbSpline
 62
7
  6
CONTINUOUS
 70
0
 71
3
 72
17
 73
13
 74
0
 42
0.0000001
 43
0.0000001
 44
0.0000000001
 40
0.0
 40
0.0
 40
0.0
 40
0.0
 40
0.1286891333
 40
0.2702803493
 40
0.4174326844
 40
0.5617743804
 40
0.6954465661
 40
0.8127104963
 40
0.8646756522
 40
0.91250911
 40
0.9571392634
 40
1.0
 40
1.0
 40
1.0
 40
1.0
 10
108.8287714274
 20
88.7251018112
 30
0.0
 10
108.8287714274
 20
88.5370572743
 30
0.0
 10
108.7761634378
 20
88.1416650618
 30
0.0
 10
108.5798225048
 20
87.5611187001
 30
0.0
 10
108.2772612881
 20
87.0018725382
 30
0.0
 10
107.8928149925
 20
86.5097782734
 30
0.0
 10
107.4578913858
 20
86.1245834456
 30
0.0
 10
107.0642246806
 20
85.9093212227
 30
0.0
 10
106.7562787764
 20
85.8274065387
 30
0.0
 10
106.5443360296
 20
85.8117980408
 30
0.0
 10
106.3469820726
 20
85.8407199657
 30
0.0
 10
106.2274113734
 20
85.890402136
 30
0.0
 10
106.1731848312
 20
85.9217378651
 30
0.0
  0
SPLINE
  5
34D
100
AcDbEntity
  8
0
100
AcDbSpline
 62
7
  6
CONTINUOUS
 70
0
 71
3
 72
17
 73
13
 74
0
 42
0.0000001
 43
0.0000001
 44
0.0000000001
 40
0.0
 40
0.0
 40
0.0
 40
0.0
 40
0.1286891333
 40
0.2702803493
 40
0.4174326844
 40
0.5617743804
 40
0.6954465661
 40
0.8127104963
 40
0.8646756522
 40
0.91250911
 40
0.9571392634
 40
1.0
 40
1.0
 40
1.0
 40
1.0
 10
108.8287714274
 20
46.2669761204
 30
0.0
 10
108.8287714274
 20
46.0789315836
 30
0.0
 10
108.7761634378
 20
45.6835393711
 30
0.0
 10
108.5798225048
 20
45.1029930094
 30
0.0
 10
108.2772612881
 20
44.5437468474
 30
0.0
 10
107.8928149925
 20
44.0516525826
 30
0.0
 10
107.4578913858
 20
43.6664577548
 30
0.0
 10
107.0642246806
 20
43.4511955319
 30
0.0
 10
106.7562787764
 20
43.369280848
 30
0.0
 10
106.5443360296
 20
43.35367235
 30
0.0
 10
106.3469820726
 20
43.382594275
 30
0.0
 10
106.2274113734
 20
43.4322764453
 30
0.0
 10
106.1731848312
 20
43.4636121744
 30
0.0
  0
SPLINE
  5
34E
100
AcDbEntity
  8
0
100
AcDbSpline
 62
7
  6
CONTINUOUS
 70
0
 71
3
 72
11
 73
7
 74
0
 42
0.0000001
 43
0.0000001
 44
0.0000000001
 40
0.0
 40
0.0
 40
0.0
 40
0.0
 40
0.2177825102
 40
0.4509091639
 40
0.7102957096
 40
1.0
 40
1.0
 40
1.0
 40
1.0
 10
25.0919539263
 20
96.0463439487
 30
0.0
 10
24.9929940023
 20
96.1034772064
 30
0.0
 10
24.8078437958
 20
96.2591311663
 30
0.0
 10
24.6107297189
 20
96.5814210018
 30
0.0
 10
24.4936556158
 20
96.9786030599
 30
0.0
 10
24.4706094794
 20
97.2676843087
 30
0.0
 10
24.4706094794
 20
97.419689428
 30
0.0
  0
SPLINE
  5
34F
100
AcDbEntity
  8
0
100
AcDbSpline
 62
7
  6
CONTINUOUS
 70
0
 71
3
 72
13
 73
9
 74
0
 42
0.0000001
 43
0.0000001
 44
0.0000000001
 40
0.0
 40
0.0
 40
0.0
 40
0.0
 40
0.1142249338
 40
0.2375584468
 40
0.4999994088
 40
0.7624406902
 40
0.885774603
 40
1.0
 40
1.0
 40
1.0
 40
1.0
 10
72.9076079882
 20
116.730635169
 30
0.0
 10
72.7624275636
 20
116.6468157121
 30
0.0
 10
72.4448112034
 20
116.4989547612
 30
0.0
 10
71.7410078075
 20
116.2851199411
 30
0.0
 10
70.7862912288
 20
116.1813129328
 30
0.0
 10
69.8315736097
 20
116.285115418
 30
0.0
 10
69.127767386
 20
116.4989468391
 30
0.0
 10
68.8101489188
 20
116.6468062211
 30
0.0
 10
68.6649673011
 20
116.7306249709
 30
0.0
  0
SPLINE
  5
350
100
AcDbEntity
  8
0
100
AcDbSpline
 62
7
  6
CONTINUOUS
 70
0
 71
3
 72
11
 73
7
 74
0
 42
0.0000001
 43
0.0000001
 44
0.0000000001
 40
0.0
 40
0.0
 40
0.0
 40
0.0
 40
0.2177821605
 40
0.4509085882
 40
0.7102951949
 40
1.0
 40
1.0
 40
1.0
 40
1.0
 10
109.9899803085
 20
138.8574581108
 30
0.0
 10
109.9899802765
 20
138.7431941002
 30
0.0
 10
109.9477546027
 20
138.5050319143
 30
0.0
 10
109.7672048001
 20
138.1731951749
 30
0.0
 10
109.4817808845
 20
137.8732276956
 30
0.0
 10
109.2429602907
 20
137.7087353796
 30
0.0
 10
109.1113244535
 20
137.6327358472
 30
0.0
  0
SPLINE
  5
351
100
AcDbEntity
  8
0
100
AcDbSpline
 62
7
  6
CONTINUOUS
 70
0
 71
3
 72
9
 73
5
 74
0
 42
0.0000001
 43
0.0000001
 44
0.0000000001
 40
0.0
 40
0.0
 40
0.0
 40
0.0
 40
0.2465708886
 40
1.0
 40
1.0
 40
1.0
 40
1.0
 10
69.6750427878
 20
139.4535605781
 30
0.0
 10
69.7181065451
 20
139.4436464725
 30
0.0
 10
69.8933412372
 20
139.4060069772
 30
0.0
 10
70.0707304209
 20
139.3784998917
 30
0.0
 10
70.2048911674
 20
139.3632122785
 30
0.0
  0
SPLINE
  5
352
100
AcDbEntity
  8
0
100
AcDbSpline
 62
7
  6
CONTINUOUS
 70
0
 71
3
 72
9
 73
5
 74
0
 42
0.0000001
 43
0.0000001
 44
0.0000000001
 40
0.0
 40
0.0
 40
0.0
 40
0.0
 40
0.2532154778
 40
1.0
 40
1.0
 40
1.0
 40
1.0
 10
71.3676370036
 20
139.3632089219
 30
0.0
 10
71.4127223055
 20
139.3683461193
 30
0.0
 10
71.590487114
 20
139.391049074
 30
0.0
 10
71.7670265424
 20
139.4235219524
 30
0.0
 10
71.8974418175
 20
139.4535437717
 30
0.0
  0
SPLINE
  5
353
100
AcDbEntity
  8
0
100
AcDbSpline
 62
7
  6
CONTINUOUS
 70
0
 71
3
 72
9
 73
5
 74
0
 42
0.0000001
 43
0.0000001
 44
0.0000000001
 40
0.0
 40
0.0
 40
0.0
 40
0.0
 40
0.2604112263
 40
1.0
 40
1.0
 40
1.0
 40
1.0
 10
109.7765848837
 20
161.3229132692
 30
0.0
 10
109.7973265607
 20
161.3529441848
 30
0.0
 10
109.8725935621
 20
161.4711695114
 30
0.0
 10
109.9287672085
 20
161.6020190302
 30
0.0
 10
109.95534237
 20
161.7022105281
 30
0.0
  0
SPLINE
  5
354
100
AcDbEntity
  8
0
100
AcDbSpline
 62
7
  6
CONTINUOUS
 70
0
 71
3
 72
9
 73
5
 74
0
 42
0.0000001
 43
0.0000001
 44
0.0000000001
 40
0.0
 40
0.0
 40
0.0
 40
0.0
 40
0.2527278947
 40
1.0
 40
1.0
 40
1.0
 40
1.0
 10
109.95534237
 20
161.7022105281
 30
0.0
 10
109.9610649624
 20
161.7237853775
 30
0.0
 10
109.9810524155
 20
161.8098318452
 30
0.0
 10
109.9899803207
 20
161.8984775504
 30
0.0
 10
109.9899803085
 20
161.9644765155
 30
0.0
  0
ELLIPSE
  5
355
100
AcDbEntity
  8
0
100
AcDbEllipse
 62
7
  6
CONTINUOUS
 10
36.8655488314
 20
120.8936310293
 30
0.0
 11
1.1250924179
 21
1.0230995198
 31
0.0
 40
0.2565808008
 41
0.3809969543
 42
1.1388330116
  0
ENDSEC
  0
SECTION
  2
OBJECTS
  0
DICTIONARY
  5
C
100
AcDbDictionary
280
0
281
1
  3
ACAD_GROUP
350
D
  3
ACAD_MLINESTYLE
350
17
  3
ACAD_LAYOUT
350
1A
  3
ACAD_PLOTSETTINGS
350
19
  3
ACAD_PLOTSTYLENAME
350
E
  0
DICTIONARY
  5
D
102
{ACAD_REACTORS
330
C
102
}
100
AcDbDictionary
280
0
281
1
  0
ACDBDICTIONARYWDFLT
  5
E
102
{ACAD_REACTORS
330
C
102
}
100
AcDbDictionary
281
1
  3
Normal
350
F
100
AcDbDictionaryWithDefault
340
F
  0
DICTIONARY
  5
17
102
{ACAD_REACTORS
330
C
102
}
100
AcDbDictionary
280
0
281
1
  3
Standard
350
18
  0
DICTIONARY
  5
19
102
{ACAD_REACTORS
330
C
102
}
100
AcDbDictionary
281
1
  0
DICTIONARY
  5
1A
102
{ACAD_REACTORS
330
C
102
}
100
AcDbDictionary
281
1
  3
Model
350
356
  3
Layout1
350
357
  0
ACDBPLACEHOLDER
  5
F
102
{ACAD_REACTORS
330
E
102
}
  0
MLINESTYLE
  5
18
102
{ACAD_REACTORS
330
17
102
}
100
AcDbMlineStyle
  2
STANDARD
 70
0
  3

 62
256
 51
90.0
 52
90.0
 71
2
 49
0.5
 62
256
  6
BYLAYER
 49
-0.5
 62
256
  6
BYLAYER
  0
LAYOUT
  5
356
102
{ACAD_REACTORS
330
1A
102
}
100
AcDbPlotSettings
  1

  2
none_device
  4

  6

 40
0.0
 41
0.0
 42
0.0
 43
0.0
 44
210.0
 45
297.0
 46
0.0
 47
0.0
 48
0.0
 49
0.0
140
0.0
141
0.0
142
1.0
143
1.0
 70
1024
 72
1
 73
0
 74
0
  7

 75
0
147
1.0
148
0.0
149
0.0
100
AcDbLayout
  1
Model
 70
0
 71
0
 10
0.0
 20
0.0
 11
210.0
 21
297.0
 12
0.0
 22
0.0
 32
0.0
 14
0.0
 24
0.0
 34
0.0
 15
0.0
 25
0.0
 35
0.0
146
0.0
 13
0.0
 23
0.0
 33
0.0
 16
1.0
 26
0.0
 36
0.0
 17
0.0
 27
1.0
 37
0.0
 76
0
330
210
345
0
346
0
  0
LAYOUT
  5
357
102
{ACAD_REACTORS
330
1A
102
}
100
AcDbPlotSettings
  1

  2
none_device
  4

  6

 40
0.0
 41
0.0
 42
0.0
 43
0.0
 44
210.0
 45
297.0
 46
0.0
 47
0.0
 48
0.0
 49
0.0
140
0.0
141
0.0
142
1.0
143
1.0
 70
0
 72
1
 73
0
 74
0
  7

 75
0
147
1.0
148
0.0
149
0.0
100
AcDbLayout
  1
Layout1
 70
0
 71
1
 10
0.0
 20
0.0
 11
210.0
 21
297.0
 12
0.0
 22
0.0
 32
0.0
 14
0.0
 24
0.0
 34
0.0
 15
0.0
 25
0.0
 35
0.0
146
0.0
 13
0.0
 23
0.0
 33
0.0
 16
1.0
 26
0.0
 36
0.0
 17
0.0
 27
1.0
 37
0.0
 76
0
330
211
345
0
346
0
  0
ENDSEC
  0
EOF
