999
DXF file: C:\Users\sesa63760\Dev\_Creo\CAD\MCADID0000545_3D-CAD\drw0001_1.dxf
999
Pro/ENGINEER 2019471 by Parametric Technology Corporation
  0
SECTION
  2
HEADER
  9
$ACADVER
  1
AC1024
  9
$DWGCODEPAGE
  3
ANSI_1252
  9
$EXTMAX
 10
229.6800160678
 20
324.8331655817
 30
0.0
  9
$EXTMIN
 10
0.0
 20
0.0
 30
0.0
  9
$LIMMIN
 10
0.0
 20
0.0
  9
$LIMMAX
 10
229.6800160678
 20
324.8331655817
  9
$VIEWCTR
 10
114.8400080339
 20
162.4165827908
  9
$VIEWSIZE
 40
324.8331655817
  9
$CLAYER
  8
0
  9
$LTSCALE
 40
21.1743100527
  9
$CELTYPE
  6
BYLAYER
  9
$DIMSCALE
 40
1.0
  9
$DIMASZ
 40
2.7342859056
  9
$DIMEXO
 40
1.0
  9
$DIMDLI
 40
14.6295233092
  9
$DIMEXE
 40
1.0
  9
$DIMCEN
 40
3.4648870995
  9
$DIMLFAC
 40
1.0
  9
$DIMBLK
  1
_FILLED
  9
$DIMALT
 70
0
  9
$DIMALTF
 40
0.0393700787
  9
$DIMTXT
 40
3.8280002678
  9
$DIMTOL
 70
1
  9
$DIMLIM
 70
0
  9
$DIMTFAC
 40
1.0
  9
$DIMTP
 40
0.01
  9
$DIMTM
 40
0.01
  9
$DIMGAP
 40
0.625
  9
$DIMDSEP
 70
46
  9
$AUNITS
 70
0
  9
$PDMODE
 70
3
  9
$PDSIZE
 40
0.3125
  9
$HANDSEED
  5
32B
  9
$TILEMODE
 70
1
  9
$MEASUREMENT
 70
1
  9
$INSUNITS
 70
4
  0
ENDSEC
  0
SECTION
  2
CLASSES
  0
CLASS
  1
ACDBDICTIONARYWDFLT
  2
AcDbDictionaryWithDefault
  3
AutoCAD 2000
 90
0
 91
1
280
0
281
0
  0
CLASS
  1
ACDBPLACEHOLDER
  2
AcDbPlaceHolder
  3
AutoCAD 2000
 90
0
 91
1
280
0
281
0
  0
CLASS
  1
LAYOUT
  2
AcDbLayout
  3
AutoCAD 2000
 90
0
 91
0
280
0
281
0
  0
ENDSEC
  0
SECTION
  2
TABLES
  0
TABLE
  2
VPORT
  5
8
100
AcDbSymbolTable
 70
2
  0
VPORT
  5
1F4
100
AcDbSymbolTableRecord
100
AcDbViewportTableRecord
  2
*ACTIVE
 70
0
 10
0.0
 20
0.0
 11
1.0
 21
1.0
 12
114.8400080339
 22
162.4165827908
 13
0.0
 23
0.0
 14
1.0
 24
1.0
 15
0.0
 25
0.0
 16
0.0
 26
0.0
 36
1.0
 17
0.0
 27
0.0
 37
0.0
 40
324.8331655817
 41
0.7070707071
 42
50.0
 43
0.0
 44
0.0
 50
0.0
 51
0.0
 71
0
 72
100
 73
1
 74
1
 75
0
 76
0
 77
0
 78
0
  0
ENDTAB
  0
TABLE
  2
LTYPE
  5
5
100
AcDbSymbolTable
 70
6
  0
LTYPE
  5
14
100
AcDbSymbolTableRecord
100
AcDbLinetypeTableRecord
  2
BYBLOCK
 70
0
  3

 72
65
 73
0
 40
0.0
  0
LTYPE
  5
15
100
AcDbSymbolTableRecord
100
AcDbLinetypeTableRecord
  2
BYLAYER
 70
0
  3

 72
65
 73
0
 40
0.0
  0
LTYPE
  5
16
100
AcDbSymbolTableRecord
100
AcDbLinetypeTableRecord
  2
CONTINUOUS
 70
64
  3
Solid line
 72
65
 73
0
 40
0.0
  0
LTYPE
  5
1F5
100
AcDbSymbolTableRecord
100
AcDbLinetypeTableRecord
  2
CENTER
 70
64
  3
____ _ ____ _ ____ _ ____ _ ____ _ ____ _ ____
 72
65
 73
4
 40
0.6
 49
0.375
 74
0
 49
-0.075
 74
0
 49
0.075
 74
0
 49
-0.075
 74
0
  0
LTYPE
  5
1F6
100
AcDbSymbolTableRecord
100
AcDbLinetypeTableRecord
  2
HIDDEN
 70
64
  3
- - - - - - - - - - - - - - - - - - - -
 72
65
 73
2
 40
0.2
 49
0.1
 74
0
 49
-0.1
 74
0
  0
LTYPE
  5
1F7
100
AcDbSymbolTableRecord
100
AcDbLinetypeTableRecord
  2
PHANTOM
 70
64
  3
_____ _ _ _____ _ _ _____ _ _ _____
 72
65
 73
6
 40
0.8
 49
0.45
 74
0
 49
-0.05
 74
0
 49
0.1
 74
0
 49
-0.05
 74
0
 49
0.1
 74
0
 49
-0.05
 74
0
  0
LTYPE
  5
1F8
100
AcDbSymbolTableRecord
100
AcDbLinetypeTableRecord
  2
DOT
 70
64
  3
. . . . . . . . . . . . . . . . . . . .
 72
65
 73
2
 40
0.2
 49
0.1
 74
0
 49
-0.1
 74
0
  0
LTYPE
  5
1F9
100
AcDbSymbolTableRecord
100
AcDbLinetypeTableRecord
  2
DASHED
 70
64
  3
- - - - - - - - - - - - - - - - - - - -
 72
65
 73
2
 40
0.2
 49
0.1
 74
0
 49
-0.1
 74
0
  0
ENDTAB
  0
TABLE
  2
LAYER
  5
2
100
AcDbSymbolTable
 70
36
  0
LAYER
  5
10
100
AcDbSymbolTableRecord
100
AcDbLayerTableRecord
  2
0
 70
0
 62
7
  6
CONTINUOUS
370
-3
390
F
  0
LAYER
  5
1FA
100
AcDbSymbolTableRecord
100
AcDbLayerTableRecord
  2
DEFAULT_1
 70
0
 62
7
  6
CENTER
370
-3
390
F
  0
LAYER
  5
1FB
100
AcDbSymbolTableRecord
100
AcDbLayerTableRecord
  2
DEFAULT_2
 70
0
 62
8
  6
HIDDEN
370
-3
390
F
  0
LAYER
  5
1FC
100
AcDbSymbolTableRecord
100
AcDbLayerTableRecord
  2
DEFAULT_3
 70
0
 62
7
  6
PHANTOM
370
-3
390
F
  0
LAYER
  5
1FD
100
AcDbSymbolTableRecord
100
AcDbLayerTableRecord
  2
00_COMPONENTS
 70
0
 62
7
  6
CONTINUOUS
370
-3
390
F
  0
LAYER
  5
1FE
100
AcDbSymbolTableRecord
100
AcDbLayerTableRecord
  2
01_1_DEFAULT_DATUMS
 70
0
 62
7
  6
CONTINUOUS
370
-3
390
F
  0
LAYER
  5
1FF
100
AcDbSymbolTableRecord
100
AcDbLayerTableRecord
  2
01_PLANES
 70
0
 62
7
  6
CONTINUOUS
370
-3
390
F
  0
LAYER
  5
200
100
AcDbSymbolTableRecord
100
AcDbLayerTableRecord
  2
02_COORD_SYS
 70
0
 62
7
  6
CONTINUOUS
370
-3
390
F
  0
LAYER
  5
201
100
AcDbSymbolTableRecord
100
AcDbLayerTableRecord
  2
03_AXES
 70
0
 62
7
  6
CONTINUOUS
370
-3
390
F
  0
LAYER
  5
202
100
AcDbSymbolTableRecord
100
AcDbLayerTableRecord
  2
04_POINTS
 70
0
 62
7
  6
CONTINUOUS
370
-3
390
F
  0
LAYER
  5
203
100
AcDbSymbolTableRecord
100
AcDbLayerTableRecord
  2
05_CURVES
 70
0
 62
7
  6
CONTINUOUS
370
-3
390
F
  0
LAYER
  5
204
100
AcDbSymbolTableRecord
100
AcDbLayerTableRecord
  2
06_SURFS
 70
0
 62
7
  6
CONTINUOUS
370
-3
390
F
  0
LAYER
  5
205
100
AcDbSymbolTableRecord
100
AcDbLayerTableRecord
  2
07_COSMETICS
 70
0
 62
7
  6
CONTINUOUS
370
-3
390
F
  0
LAYER
  5
206
100
AcDbSymbolTableRecord
100
AcDbLayerTableRecord
  2
10_NOTES
 70
0
 62
7
  6
CONTINUOUS
370
-3
390
F
  0
LAYER
  5
207
100
AcDbSymbolTableRecord
100
AcDbLayerTableRecord
  2
11_NOTES_PUB
 70
0
 62
7
  6
CONTINUOUS
370
-3
390
F
  0
LAYER
  5
208
100
AcDbSymbolTableRecord
100
AcDbLayerTableRecord
  2
13_REF_GTOL
 70
0
 62
7
  6
CONTINUOUS
370
-3
390
F
  0
LAYER
  5
209
100
AcDbSymbolTableRecord
100
AcDbLayerTableRecord
  2
16_MISC
 70
0
 62
7
  6
CONTINUOUS
370
-3
390
F
  0
LAYER
  5
20A
100
AcDbSymbolTableRecord
100
AcDbLayerTableRecord
  2
17_NO_PRINT
 70
0
 62
7
  6
CONTINUOUS
370
-3
390
F
  0
LAYER
  5
20B
100
AcDbSymbolTableRecord
100
AcDbLayerTableRecord
  2
18_DATUM_CAMS_JOINTS
 70
0
 62
7
  6
CONTINUOUS
370
-3
390
F
  0
LAYER
  5
20C
100
AcDbSymbolTableRecord
100
AcDbLayerTableRecord
  2
19_DATUM_FUNCTIONAL
 70
0
 62
7
  6
CONTINUOUS
370
-3
390
F
  0
LAYER
  5
20D
100
AcDbSymbolTableRecord
100
AcDbLayerTableRecord
  2
20_DATUM_KINEMATIC_SCHEME
 70
0
 62
7
  6
CONTINUOUS
370
-3
390
F
  0
ENDTAB
  0
TABLE
  2
STYLE
  5
3
100
AcDbSymbolTable
 70
1
  0
STYLE
  5
11
100
AcDbSymbolTableRecord
100
AcDbTextStyleTableRecord
  2
STANDARD
 70
0
 40
0.0
 41
0.8
 50
0.0
 71
0
 42
0.2
  3
txt
  4

  0
STYLE
  5
20E
100
AcDbSymbolTableRecord
100
AcDbTextStyleTableRecord
  2
TEXTSTYLE_1
 70
0
 40
0.0
 41
0.8
 50
0.0
 71
0
 42
0.2
  3
gdt
  4

  0
ENDTAB
  0
TABLE
  2
VIEW
  5
6
100
AcDbSymbolTable
 70
0
  0
ENDTAB
  0
TABLE
  2
UCS
  5
7
100
AcDbSymbolTable
 70
0
  0
ENDTAB
  0
TABLE
  2
APPID
  5
9
100
AcDbSymbolTable
 70
1
  0
APPID
  5
20F
100
AcDbSymbolTableRecord
100
AcDbRegAppTableRecord
  2
ACAD
 70
0
  0
ENDTAB
  0
TABLE
  2
BLOCK_RECORD
  5
1
100
AcDbSymbolTable
 70
0
  0
BLOCK_RECORD
  5
210
100
AcDbSymbolTableRecord
100
AcDbBlockTableRecord
  2
*Model_Space
  0
BLOCK_RECORD
  5
211
100
AcDbSymbolTableRecord
100
AcDbBlockTableRecord
  2
*Paper_Space
  0
BLOCK_RECORD
  5
212
100
AcDbSymbolTableRecord
100
AcDbBlockTableRecord
  2
_FILLED
  0
ENDTAB
  0
TABLE
  2
DIMSTYLE
  5
A
100
AcDbSymbolTable
 70
1
100
AcDbDimStyleTable
 71
0
  0
DIMSTYLE
105
213
100
AcDbSymbolTableRecord
100
AcDbDimStyleTableRecord
  2
STANDARD
 70
0
  3

  4

 40
1.0
 41
2.7342859056
 42
1.0
 43
0.38
 44
1.0
 45
0.0
 46
0.0
 47
0.01
 48
0.01
140
3.8280002678
141
0.09
142
0.0
143
25.4
144
1.0
145
0.0
146
1.0
147
0.625
 71
1
 72
0
 73
0
 74
0
 75
0
 76
0
 77
1
 78
8
 79
2
170
0
171
1
172
0
173
0
174
0
175
0
176
0
177
0
178
0
270
2
179
2
271
2
272
2
273
2
274
2
275
0
280
0
281
0
282
0
283
1
284
8
285
0
286
0
287
3
288
0
340
11
278
46
341
212
342
212
343
212
344
212
  0
ENDTAB
  0
ENDSEC
  0
SECTION
  2
BLOCKS
  0
BLOCK
  5
20
100
AcDbEntity
  8
0
100
AcDbBlockBegin
  2
*Model_Space
 70
0
 10
0.0
 20
0.0
 30
0.0
  3
*Model_Space
  1

  0
ENDBLK
  5
21
100
AcDbEntity
  8
0
100
AcDbBlockEnd
  0
BLOCK
  5
1C
100
AcDbEntity
  8
0
100
AcDbBlockBegin
  2
*Paper_Space
 70
0
 10
0.0
 20
0.0
 30
0.0
  3
*Paper_Space
  1

  0
ENDBLK
  5
1D
100
AcDbEntity
  8
0
100
AcDbBlockEnd
  0
BLOCK
  5
214
100
AcDbEntity
  8
0
100
AcDbBlockBegin
  2
_FILLED
 70
64
 10
0.0
 20
0.0
  3
_FILLED
  1

  0
SOLID
  5
215
100
AcDbEntity
  8
0
  6
BYBLOCK
 62
0
100
AcDbTrace
 10
0.0
 20
0.0
 11
-1.0
 21
0.25
 12
-1.0
 22
-0.25
 13
-1.0
 23
-0.25
  0
ENDBLK
  5
216
100
AcDbEntity
  8
0
  6
BYBLOCK
 62
0
100
AcDbBlockEnd
  0
ENDSEC
  0
SECTION
  2
ENTITIES
  0
LINE
  5
217
100
AcDbEntity
  8
0
100
AcDbLine
 62
7
  6
CONTINUOUS
 10
30.0018087522
 20
227.2959038939
 11
29.3298376838
 21
222.7848432916
  0
LINE
  5
218
100
AcDbEntity
  8
0
100
AcDbLine
 62
7
  6
CONTINUOUS
 10
30.0018087522
 20
227.2959038939
 11
70.4481482408
 21
250.6474694953
  0
LINE
  5
219
100
AcDbEntity
  8
0
100
AcDbLine
 62
7
  6
CONTINUOUS
 10
31.9461436668
 20
226.1733670027
 11
34.4210070971
 21
227.6022215412
  0
LINE
  5
21A
100
AcDbEntity
  8
0
100
AcDbLine
 62
7
  6
CONTINUOUS
 10
69.9176197252
 20
248.0960780656
 11
72.3924831554
 21
249.5249326041
  0
LINE
  5
21B
100
AcDbEntity
  8
0
100
AcDbLine
 62
7
  6
CONTINUOUS
 10
28.8434587825
 20
223.0656479286
 11
29.4213679169
 21
223.3993019313
  0
LINE
  5
21C
100
AcDbEntity
  8
0
100
AcDbLine
 62
7
  6
CONTINUOUS
 10
31.9461436668
 20
223.7238597513
 11
33.5423362725
 21
224.6454164809
  0
LINE
  5
21D
100
AcDbEntity
  8
0
100
AcDbLine
 62
7
  6
CONTINUOUS
 10
76.6351415063
 20
247.075488077
 11
74.1602780761
 21
245.6466335385
  0
LINE
  5
21E
100
AcDbEntity
  8
0
100
AcDbLine
 62
7
  6
CONTINUOUS
 10
38.6636654479
 20
225.1527770141
 11
36.1888020177
 21
223.7239224756
  0
LINE
  5
21F
100
AcDbEntity
  8
0
100
AcDbLine
 62
7
  6
CONTINUOUS
 10
31.9461436668
 20
226.1733670027
 11
31.9461436668
 21
223.7238597513
  0
LINE
  5
220
100
AcDbEntity
  8
0
100
AcDbLine
 62
7
  6
CONTINUOUS
 10
31.9461436668
 20
221.2743524999
 11
31.9461436668
 21
153.3413513947
  0
LINE
  5
221
100
AcDbEntity
  8
0
100
AcDbLine
 62
7
  6
CONTINUOUS
 10
33.5423362725
 20
225.2343958937
 11
33.5423362725
 21
223.9279920263
  0
LINE
  5
222
100
AcDbEntity
  8
0
100
AcDbLine
 62
7
  6
CONTINUOUS
 10
36.9666386128
 20
217.926814087
 11
38.8758189733
 21
219.0290733024
  0
LINE
  5
223
100
AcDbEntity
  8
0
100
AcDbLine
 62
7
  6
CONTINUOUS
 10
36.9666386128
 20
217.926814087
 11
37.245209787
 21
199.3376804694
  0
LINE
  5
224
100
AcDbEntity
  8
0
100
AcDbLine
 62
7
  6
CONTINUOUS
 10
34.4210070971
 20
227.6022215412
 11
34.4210070971
 21
226.4591181572
  0
LINE
  5
225
100
AcDbEntity
  8
0
100
AcDbLine
 62
7
  6
CONTINUOUS
 10
36.1888020177
 20
223.7239224756
 11
36.1888020177
 21
221.2744152242
  0
LINE
  5
226
100
AcDbEntity
  8
0
100
AcDbLine
 62
7
  6
CONTINUOUS
 10
132.4333027027
 20
102.6010084825
 11
121.6782175126
 21
101.5356236815
  0
LINE
  5
227
100
AcDbEntity
  8
0
100
AcDbLine
 62
7
  6
CONTINUOUS
 10
64.8267458861
 20
179.1841390099
 11
64.8267458861
 21
134.3581563095
  0
LINE
  5
228
100
AcDbEntity
  8
0
100
AcDbLine
 62
7
  6
CONTINUOUS
 10
64.8267458861
 20
176.1630800666
 11
66.1349047339
 21
178.428890233
  0
LINE
  5
229
100
AcDbEntity
  8
0
100
AcDbLine
 62
7
  6
CONTINUOUS
 10
73.6656174505
 20
202.087162486
 11
76.1404808807
 21
203.5160170245
  0
LINE
  5
22A
100
AcDbEntity
  8
0
100
AcDbLine
 62
7
  6
CONTINUOUS
 10
111.6370935089
 20
224.0098735489
 11
114.1119569391
 21
225.4387280874
  0
LINE
  5
22B
100
AcDbEntity
  8
0
100
AcDbLine
 62
7
  6
CONTINUOUS
 10
69.422974997
 20
199.1885634545
 11
71.3321553575
 21
200.2908226699
  0
LINE
  5
22C
100
AcDbEntity
  8
0
100
AcDbLine
 62
7
  6
CONTINUOUS
 10
73.6656174505
 20
199.6376552346
 11
75.2618100562
 21
200.5592119642
  0
LINE
  5
22D
100
AcDbEntity
  8
0
100
AcDbLine
 62
7
  6
CONTINUOUS
 10
82.8580056058
 20
202.0871845818
 11
114.1119952107
 21
220.1315761829
  0
LINE
  5
22E
100
AcDbEntity
  8
0
100
AcDbLine
 62
7
  6
CONTINUOUS
 10
29.375537788
 20
153.8108203194
 11
65.4480828483
 21
132.9847978661
  0
LINE
  5
22F
100
AcDbEntity
  8
0
100
AcDbLine
 62
7
  6
CONTINUOUS
 10
167.1911311033
 20
75.2013302819
 11
163.0898946975
 21
77.5691266582
  0
LINE
  5
230
100
AcDbEntity
  8
0
100
AcDbLine
 62
7
  6
CONTINUOUS
 10
28.5464277303
 20
155.3041339018
 11
121.6782175126
 21
101.5356236815
  0
LINE
  5
231
100
AcDbEntity
  8
0
100
AcDbLine
 62
7
  6
CONTINUOUS
 10
69.9176197252
 20
246.9529746816
 11
69.9176197252
 21
248.0960780656
  0
LINE
  5
232
100
AcDbEntity
  8
0
100
AcDbLine
 62
7
  6
CONTINUOUS
 10
72.3924831554
 20
249.5249326041
 11
72.3924831554
 21
247.4458223835
  0
LINE
  5
233
100
AcDbEntity
  8
0
100
AcDbLine
 62
7
  6
CONTINUOUS
 10
73.6656174505
 20
202.087162486
 11
73.6656174505
 21
199.6376552346
  0
LINE
  5
234
100
AcDbEntity
  8
0
100
AcDbLine
 62
7
  6
CONTINUOUS
 10
75.2618100562
 20
201.148191377
 11
75.2618100562
 21
199.8417875096
  0
LINE
  5
235
100
AcDbEntity
  8
0
100
AcDbLine
 62
7
  6
CONTINUOUS
 10
69.1444038228
 20
180.9210888449
 11
69.422974997
 21
199.1885634545
  0
LINE
  5
236
100
AcDbEntity
  8
0
100
AcDbLine
 62
7
  6
CONTINUOUS
 10
71.3321553575
 20
200.2908226699
 11
71.0535841833
 21
182.0233480603
  0
LINE
  5
237
100
AcDbEntity
  8
0
100
AcDbLine
 62
7
  6
CONTINUOUS
 10
80.3831421756
 20
198.2088227918
 11
82.8580056058
 21
199.6376773304
  0
LINE
  5
238
100
AcDbEntity
  8
0
100
AcDbLine
 62
7
  6
CONTINUOUS
 10
114.1119952107
 20
217.6820689315
 11
116.5868586409
 21
219.11092347
  0
LINE
  5
239
100
AcDbEntity
  8
0
100
AcDbLine
 62
7
  6
CONTINUOUS
 10
82.2569673442
 20
198.596642745
 11
114.7130334723
 21
217.3350494077
  0
LINE
  5
23A
100
AcDbEntity
  8
0
100
AcDbLine
 62
7
  6
CONTINUOUS
 10
116.5868586409
 20
216.6614162187
 11
116.2333456527
 21
216.4573166181
  0
LINE
  5
23B
100
AcDbEntity
  8
0
100
AcDbLine
 62
7
  6
CONTINUOUS
 10
82.2835038125
 20
196.8564832938
 11
80.3831421756
 21
195.7593155404
  0
LINE
  5
23C
100
AcDbEntity
  8
0
100
AcDbLine
 62
7
  6
CONTINUOUS
 10
116.6222297302
 20
216.2327993705
 11
84.1661636021
 21
197.4943927078
  0
LINE
  5
23D
100
AcDbEntity
  8
0
100
AcDbLine
 62
7
  6
CONTINUOUS
 10
166.1555694997
 20
77.490261021
 11
162.0543330939
 21
79.8580573972
  0
LINE
  5
23E
100
AcDbEntity
  8
0
100
AcDbLine
 62
7
  6
CONTINUOUS
 10
132.4333027027
 20
102.6010084825
 11
124.011829881
 21
107.4632871003
  0
LINE
  5
23F
100
AcDbEntity
  8
0
100
AcDbLine
 62
7
  6
CONTINUOUS
 10
124.8402791639
 20
107.0121861865
 11
162.0543330939
 21
85.5271281893
  0
LINE
  5
240
100
AcDbEntity
  8
0
100
AcDbLine
 62
7
  6
CONTINUOUS
 10
162.0543330939
 20
86.8799781846
 11
124.011829881
 21
108.8433307777
  0
LINE
  5
241
100
AcDbEntity
  8
0
100
AcDbLine
 62
7
  6
CONTINUOUS
 10
82.5355361988
 20
180.3291694746
 11
82.2569673442
 21
198.596642745
  0
LINE
  5
242
100
AcDbEntity
  8
0
100
AcDbLine
 62
7
  6
CONTINUOUS
 10
76.1404808807
 20
203.5160170245
 11
76.1404808807
 21
202.3729136405
  0
LINE
  5
243
100
AcDbEntity
  8
0
100
AcDbLine
 62
7
  6
CONTINUOUS
 10
76.1405014885
 20
198.2088125938
 11
76.1405014885
 21
172.6522869376
  0
LINE
  5
244
100
AcDbEntity
  8
0
100
AcDbLine
 62
7
  6
CONTINUOUS
 10
80.3831215678
 20
202.3729238386
 11
80.3831215678
 21
203.5160272226
  0
LINE
  5
245
100
AcDbEntity
  8
0
100
AcDbLine
 62
7
  6
CONTINUOUS
 10
80.3831421756
 20
172.6522971357
 11
80.3831421756
 21
198.2088227918
  0
LINE
  5
246
100
AcDbEntity
  8
0
100
AcDbLine
 62
7
  6
CONTINUOUS
 10
81.2618100562
 20
201.148191377
 11
81.2618100562
 21
199.8417875096
  0
LINE
  5
247
100
AcDbEntity
  8
0
100
AcDbLine
 62
7
  6
CONTINUOUS
 10
82.8580056058
 20
202.0871845818
 11
82.8580056058
 21
199.6376773304
  0
LINE
  5
248
100
AcDbEntity
  8
0
100
AcDbLine
 62
7
  6
CONTINUOUS
 10
71.0535841833
 20
182.0233480603
 11
69.1444038228
 21
180.9210888449
  0
LINE
  5
249
100
AcDbEntity
  8
0
100
AcDbLine
 62
7
  6
CONTINUOUS
 10
70.2255671139
 20
180.2489553138
 11
68.3163867534
 21
179.1466960984
  0
LINE
  5
24A
100
AcDbEntity
  8
0
100
AcDbLine
 62
7
  6
CONTINUOUS
 10
173.8789513319
 20
86.7847433238
 11
175.0103268921
 21
86.1315581166
  0
LINE
  5
24B
100
AcDbEntity
  8
0
100
AcDbLine
 62
7
  6
CONTINUOUS
 10
84.1661636021
 20
197.4943927078
 11
84.4447324567
 21
179.2269194374
  0
LINE
  5
24C
100
AcDbEntity
  8
0
100
AcDbLine
 62
7
  6
CONTINUOUS
 10
88.5149216786
 20
162.4870147901
 11
88.5149216786
 21
120.6820910331
  0
LINE
  5
24D
100
AcDbEntity
  8
0
100
AcDbLine
 62
7
  6
CONTINUOUS
 10
90.6362331902
 20
166.1612545031
 11
88.5149216786
 21
162.4870147901
  0
LINE
  5
24E
100
AcDbEntity
  8
0
100
AcDbLine
 62
7
  6
CONTINUOUS
 10
87.2727170242
 20
177.6506374023
 11
113.5156763081
 21
192.8019265682
  0
LINE
  5
24F
100
AcDbEntity
  8
0
100
AcDbLine
 62
7
  6
CONTINUOUS
 10
116.5868586409
 20
193.5543978139
 11
80.3831421756
 21
172.6522971357
  0
LINE
  5
250
100
AcDbEntity
  8
0
100
AcDbLine
 62
7
  6
CONTINUOUS
 10
95.58601893
 20
158.4046072449
 11
95.58601893
 21
116.5996834879
  0
LINE
  5
251
100
AcDbEntity
  8
0
100
AcDbLine
 62
7
  6
CONTINUOUS
 10
97.7073304417
 20
162.0788469579
 11
95.58601893
 21
158.4046072449
  0
LINE
  5
252
100
AcDbEntity
  8
0
100
AcDbLine
 62
7
  6
CONTINUOUS
 10
126.8399496556
 20
187.0633551814
 11
90.6362331902
 21
166.1612545031
  0
LINE
  5
253
100
AcDbEntity
  8
0
100
AcDbLine
 62
7
  6
CONTINUOUS
 10
124.011829881
 20
133.3384032916
 11
162.0543330939
 21
111.3750506984
  0
LINE
  5
254
100
AcDbEntity
  8
0
100
AcDbLine
 62
7
  6
CONTINUOUS
 10
185.2601529801
 20
103.8851793012
 11
198.2709719228
 21
96.373549418
  0
LINE
  5
255
100
AcDbEntity
  8
0
100
AcDbLine
 62
7
  6
CONTINUOUS
 10
162.0543330939
 20
117.9069864032
 11
126.8402452298
 21
138.2373895756
  0
LINE
  5
256
100
AcDbEntity
  8
0
100
AcDbLine
 62
7
  6
CONTINUOUS
 10
162.0543330939
 20
118.3969714858
 11
166.1555694997
 21
116.0291751095
  0
LINE
  5
257
100
AcDbEntity
  8
0
100
AcDbLine
 62
7
  6
CONTINUOUS
 10
101.838815548
 20
227.1942120348
 11
101.838815548
 21
224.3364535749
  0
LINE
  5
258
100
AcDbEntity
  8
0
100
AcDbLine
 62
7
  6
CONTINUOUS
 10
133.911046907
 20
182.9809476361
 11
97.7073304417
 21
162.0788469579
  0
LINE
  5
259
100
AcDbEntity
  8
0
100
AcDbLine
 62
7
  6
CONTINUOUS
 10
121.6782175126
 20
148.2395619413
 11
132.4333027027
 21
149.3049467423
  0
LINE
  5
25A
100
AcDbEntity
  8
0
100
AcDbLine
 62
7
  6
CONTINUOUS
 10
127.547349067
 20
138.6456337295
 11
162.1012894252
 21
118.6963582751
  0
LINE
  5
25B
100
AcDbEntity
  8
0
100
AcDbLine
 62
7
  6
CONTINUOUS
 10
64.8267458861
 20
176.1630800666
 11
119.5569060009
 21
144.5653222283
  0
LINE
  5
25C
100
AcDbEntity
  8
0
100
AcDbLine
 62
7
  6
CONTINUOUS
 10
76.1405014885
 20
172.6522869376
 11
64.8267458861
 21
179.1841390099
  0
LINE
  5
25D
100
AcDbEntity
  8
0
100
AcDbLine
 62
7
  6
CONTINUOUS
 10
40.0732179026
 20
194.4959562192
 11
66.3163957072
 21
179.3447932144
  0
LINE
  5
25E
100
AcDbEntity
  8
0
100
AcDbLine
 62
7
  6
CONTINUOUS
 10
79.7553683818
 20
172.4431826131
 11
121.6782175126
 21
148.2395619413
  0
LINE
  5
25F
100
AcDbEntity
  8
0
100
AcDbLine
 62
7
  6
CONTINUOUS
 10
165.3539061648
 20
124.3302276682
 11
130.8000267182
 21
144.2794679561
  0
LINE
  5
260
100
AcDbEntity
  8
0
100
AcDbLine
 62
7
  6
CONTINUOUS
 10
169.6910886858
 20
122.1529079645
 11
165.5898522799
 21
124.5207043408
  0
LINE
  5
261
100
AcDbEntity
  8
0
100
AcDbLine
 62
7
  6
CONTINUOUS
 10
130.8000267182
 20
145.0959703732
 11
166.0140421536
 21
124.7656090166
  0
LINE
  5
262
100
AcDbEntity
  8
0
100
AcDbLine
 62
7
  6
CONTINUOUS
 10
189.7600766285
 20
111.6794520164
 11
202.7708955712
 21
104.1678221332
  0
LINE
  5
263
100
AcDbEntity
  8
0
100
AcDbLine
 62
7
  6
CONTINUOUS
 10
109.838815548
 20
227.1942120348
 11
109.838815548
 21
224.3364535749
  0
LINE
  5
264
100
AcDbEntity
  8
0
100
AcDbLine
 62
7
  6
CONTINUOUS
 10
111.6370935089
 20
222.8667701649
 11
111.6370935089
 21
224.0098735489
  0
LINE
  5
265
100
AcDbEntity
  8
0
100
AcDbLine
 62
7
  6
CONTINUOUS
 10
111.8495426084
 20
149.015069891
 11
111.8495426084
 21
107.2101461339
  0
LINE
  5
266
100
AcDbEntity
  8
0
100
AcDbLine
 62
7
  6
CONTINUOUS
 10
114.1119569391
 20
225.4387280874
 11
114.1119569391
 21
223.3596178668
  0
LINE
  5
267
100
AcDbEntity
  8
0
100
AcDbLine
 62
7
  6
CONTINUOUS
 10
114.1119952107
 20
220.1315761829
 11
114.1119952107
 21
217.6820689315
  0
LINE
  5
268
100
AcDbEntity
  8
0
100
AcDbLine
 62
7
  6
CONTINUOUS
 10
116.5868586409
 20
219.11092347
 11
116.5868586409
 21
216.2532204164
  0
LINE
  5
269
100
AcDbEntity
  8
0
100
AcDbLine
 62
7
  6
CONTINUOUS
 10
116.5868586409
 20
213.8724567072
 11
116.5868586409
 21
193.5543978139
  0
LINE
  5
26A
100
AcDbEntity
  8
0
100
AcDbLine
 62
7
  6
CONTINUOUS
 10
116.7584226843
 20
221.6420479013
 11
116.7584226843
 21
220.3356440339
  0
LINE
  5
26B
100
AcDbEntity
  8
0
100
AcDbLine
 62
7
  6
CONTINUOUS
 10
117.4655294655
 20
194.7791200774
 11
117.4655294655
 21
220.3356457336
  0
LINE
  5
26C
100
AcDbEntity
  8
0
100
AcDbLine
 62
7
  6
CONTINUOUS
 10
116.3436608756
 20
197.6436644138
 11
116.6222297302
 21
216.2327993705
  0
LINE
  5
26D
100
AcDbEntity
  8
0
100
AcDbLine
 62
7
  6
CONTINUOUS
 10
83.3635547004
 20
178.5547759013
 11
85.2727509582
 21
177.452525864
  0
LINE
  5
26E
100
AcDbEntity
  8
0
100
AcDbLine
 62
7
  6
CONTINUOUS
 10
171.67094528
 20
128.0316040641
 11
133.6284420671
 21
149.9949566572
  0
LINE
  5
26F
100
AcDbEntity
  8
0
100
AcDbLine
 62
7
  6
CONTINUOUS
 10
84.4447324567
 20
179.2269194374
 11
82.5355361988
 21
180.3291694746
  0
LINE
  5
270
100
AcDbEntity
  8
0
100
AcDbLine
 62
7
  6
CONTINUOUS
 10
119.5569060009
 20
144.5653222283
 11
124.011829881
 21
134.7184469691
  0
LINE
  5
271
100
AcDbEntity
  8
0
100
AcDbLine
 62
7
  6
CONTINUOUS
 10
124.011829881
 20
134.7184469691
 11
124.011829881
 21
107.4632871003
  0
LINE
  5
272
100
AcDbEntity
  8
0
100
AcDbLine
 62
7
  6
CONTINUOUS
 10
113.9708541201
 20
152.689309604
 11
111.8495426084
 21
149.015069891
  0
LINE
  5
273
100
AcDbEntity
  8
0
100
AcDbLine
 62
7
  6
CONTINUOUS
 10
150.1745705854
 20
173.5914102822
 11
113.9708541201
 21
152.689309604
  0
LINE
  5
274
100
AcDbEntity
  8
0
100
AcDbLine
 62
7
  6
CONTINUOUS
 10
69.422974997
 20
199.1885634545
 11
36.9666386128
 21
217.926814087
  0
LINE
  5
275
100
AcDbEntity
  8
0
100
AcDbLine
 62
7
  6
CONTINUOUS
 10
76.1405014885
 20
195.7593053424
 11
71.3056186682
 21
198.5506630912
  0
LINE
  5
276
100
AcDbEntity
  8
0
100
AcDbLine
 62
7
  6
CONTINUOUS
 10
37.3555067928
 20
218.1513258953
 11
28.8434587825
 21
223.0656479286
  0
LINE
  5
277
100
AcDbEntity
  8
0
100
AcDbLine
 62
7
  6
CONTINUOUS
 10
130.8000267182
 20
144.2794679561
 11
130.8000267182
 21
145.0959703732
  0
LINE
  5
278
100
AcDbEntity
  8
0
100
AcDbLine
 62
7
  6
CONTINUOUS
 10
121.6782175126
 20
148.2395619413
 11
119.5569060009
 21
144.5653222283
  0
LINE
  5
279
100
AcDbEntity
  8
0
100
AcDbLine
 62
7
  6
CONTINUOUS
 10
38.8758189733
 20
219.0290733024
 11
71.3321553575
 21
200.2908226699
  0
LINE
  5
27A
100
AcDbEntity
  8
0
100
AcDbLine
 62
7
  6
CONTINUOUS
 10
31.9461436668
 20
223.7238597513
 11
36.1888020177
 21
221.2744152242
  0
LINE
  5
27B
100
AcDbEntity
  8
0
100
AcDbLine
 62
7
  6
CONTINUOUS
 10
73.6656174505
 20
199.6376552346
 11
76.1405014885
 21
198.2088125938
  0
LINE
  5
27C
100
AcDbEntity
  8
0
100
AcDbLine
 62
7
  6
CONTINUOUS
 10
30.0018087522
 20
227.2959038939
 11
31.9461436668
 21
226.1733670027
  0
LINE
  5
27D
100
AcDbEntity
  8
0
100
AcDbLine
 62
7
  6
CONTINUOUS
 10
36.1888020177
 20
223.7239224756
 11
73.6656174505
 21
202.087162486
  0
LINE
  5
27E
100
AcDbEntity
  8
0
100
AcDbLine
 62
7
  6
CONTINUOUS
 10
198.8785271562
 20
130.0862584082
 11
200.0099027164
 21
129.433073201
  0
LINE
  5
27F
100
AcDbEntity
  8
0
100
AcDbLine
 62
7
  6
CONTINUOUS
 10
84.1661636021
 20
197.4943927078
 11
82.2569673442
 21
198.596642745
  0
LINE
  5
280
100
AcDbEntity
  8
0
100
AcDbLine
 62
7
  6
CONTINUOUS
 10
81.2618100562
 20
200.5592204126
 11
82.8580056058
 21
199.6376773304
  0
LINE
  5
281
100
AcDbEntity
  8
0
100
AcDbLine
 62
7
  6
CONTINUOUS
 10
80.3831215678
 20
203.5160272226
 11
82.8580056058
 21
202.0871845818
  0
LINE
  5
282
100
AcDbEntity
  8
0
100
AcDbLine
 62
7
  6
CONTINUOUS
 10
124.011829881
 20
134.7184469691
 11
132.4333027027
 21
149.3049467423
  0
LINE
  5
283
100
AcDbEntity
  8
0
100
AcDbLine
 62
7
  6
CONTINUOUS
 10
156.0366965479
 20
162.9322911883
 11
132.4333027027
 21
149.3049467423
  0
LINE
  5
284
100
AcDbEntity
  8
0
100
AcDbLine
 62
7
  6
CONTINUOUS
 10
154.8415571835
 20
162.2422812734
 11
192.8840603964
 21
140.2789286802
  0
LINE
  5
285
100
AcDbEntity
  8
0
100
AcDbLine
 62
7
  6
CONTINUOUS
 10
156.8415232494
 20
162.4403928116
 11
194.0556071804
 21
140.9553174938
  0
LINE
  5
286
100
AcDbEntity
  8
0
100
AcDbLine
 62
7
  6
CONTINUOUS
 10
156.0366965479
 20
162.9322911883
 11
164.4581693696
 21
158.0700125705
  0
LINE
  5
287
100
AcDbEntity
  8
0
100
AcDbLine
 62
7
  6
CONTINUOUS
 10
198.9651533964
 20
143.7898284035
 11
203.0663898023
 21
141.4220320273
  0
LINE
  5
288
100
AcDbEntity
  8
0
100
AcDbLine
 62
7
  6
CONTINUOUS
 10
160.0032454896
 20
167.9168878297
 11
116.0918732799
 21
193.2686195883
  0
LINE
  5
289
100
AcDbEntity
  8
0
100
AcDbLine
 62
7
  6
CONTINUOUS
 10
205.5663473847
 20
141.6696714501
 11
201.4651109789
 21
144.0374678263
  0
LINE
  5
28A
100
AcDbEntity
  8
0
100
AcDbLine
 62
7
  6
CONTINUOUS
 10
126.8402452298
 20
138.2373895756
 11
127.547349067
 21
138.6456337295
  0
LINE
  5
28B
100
AcDbEntity
  8
0
100
AcDbLine
 62
7
  6
CONTINUOUS
 10
153.003328612
 20
116.6005323563
 11
153.003328612
 21
92.1054598424
  0
LINE
  5
28C
100
AcDbEntity
  8
0
100
AcDbLine
 62
7
  6
CONTINUOUS
 10
157.8819339779
 20
169.1416626195
 11
156.0366965479
 21
162.9322911883
  0
LINE
  5
28D
100
AcDbEntity
  8
0
100
AcDbLine
 62
7
  6
CONTINUOUS
 10
160.0032454896
 20
167.9168878297
 11
164.4581693696
 21
158.0700125705
  0
LINE
  5
28E
100
AcDbEntity
  8
0
100
AcDbLine
 62
7
  6
CONTINUOUS
 10
159.7915254492
 20
128.3580994379
 11
159.7915254492
 21
127.5415970208
  0
LINE
  5
28F
100
AcDbEntity
  8
0
100
AcDbLine
 62
7
  6
CONTINUOUS
 10
162.0543330939
 20
79.8580573972
 11
162.0543330939
 21
86.8799781846
  0
LINE
  5
290
100
AcDbEntity
  8
0
100
AcDbLine
 62
7
  6
CONTINUOUS
 10
162.0543330939
 20
111.3750506984
 11
162.0543330939
 21
118.3969714858
  0
LINE
  5
291
100
AcDbEntity
  8
0
100
AcDbLine
 62
7
  6
CONTINUOUS
 10
164.4581693696
 20
158.0430196057
 11
164.4581693696
 21
158.0700125705
  0
LINE
  5
292
100
AcDbEntity
  8
0
100
AcDbLine
 62
7
  6
CONTINUOUS
 10
166.1555694997
 20
116.0291751095
 11
166.1555694997
 21
77.490261021
  0
LINE
  5
293
100
AcDbEntity
  8
0
100
AcDbLine
 62
7
  6
CONTINUOUS
 10
124.011829881
 20
107.4632871003
 11
119.5569060009
 21
102.7603984712
  0
LINE
  5
294
100
AcDbEntity
  8
0
100
AcDbLine
 62
7
  6
CONTINUOUS
 10
183.8330559145
 20
145.5044103381
 11
162.6199407981
 21
133.2570857219
  0
LINE
  5
295
100
AcDbEntity
  8
0
100
AcDbLine
 62
7
  6
CONTINUOUS
 10
116.6222297302
 20
216.2327993705
 11
114.7130334723
 21
217.3350494077
  0
LINE
  5
296
100
AcDbEntity
  8
0
100
AcDbLine
 62
7
  6
CONTINUOUS
 10
114.1119952107
 20
220.1315761829
 11
111.6371111727
 21
221.5604188237
  0
LINE
  5
297
100
AcDbEntity
  8
0
100
AcDbLine
 62
7
  6
CONTINUOUS
 10
156.538847798
 20
121.9077627942
 11
155.8317439608
 21
121.4995186403
  0
LINE
  5
298
100
AcDbEntity
  8
0
100
AcDbLine
 62
7
  6
CONTINUOUS
 10
165.5898522799
 20
124.5207043408
 11
171.67094528
 21
128.0316040641
  0
LINE
  5
299
100
AcDbEntity
  8
0
100
AcDbLine
 62
7
  6
CONTINUOUS
 10
192.8840603964
 20
140.2789286802
 11
198.9651533964
 21
143.7898284035
  0
LINE
  5
29A
100
AcDbEntity
  8
0
100
AcDbLine
 62
7
  6
CONTINUOUS
 10
114.1119569391
 20
225.4387280874
 11
109.3777971377
 21
228.1719346898
  0
LINE
  5
29B
100
AcDbEntity
  8
0
100
AcDbLine
 62
7
  6
CONTINUOUS
 10
107.5322756036
 20
229.2374229397
 11
76.6351415063
 21
247.075488077
  0
LINE
  5
29C
100
AcDbEntity
  8
0
100
AcDbLine
 62
7
  6
CONTINUOUS
 10
72.3924831554
 20
249.5249326041
 11
70.4481482408
 21
250.6474694953
  0
LINE
  5
29D
100
AcDbEntity
  8
0
100
AcDbLine
 62
7
  6
CONTINUOUS
 10
132.4333027027
 20
102.6010084825
 11
132.4568952831
 21
102.6146295838
  0
LINE
  5
29E
100
AcDbEntity
  8
0
100
AcDbLine
 62
7
  6
CONTINUOUS
 10
203.0663898023
 20
141.4220320273
 11
169.6910886858
 21
122.1529079645
  0
LINE
  5
29F
100
AcDbEntity
  8
0
100
AcDbLine
 62
7
  6
CONTINUOUS
 10
206.6019089883
 20
100.8418266225
 11
206.6019089883
 21
139.380740711
  0
LINE
  5
2A0
100
AcDbEntity
  8
0
100
AcDbLine
 62
7
  6
CONTINUOUS
 10
200.520933747
 20
102.434417181
 11
201.1814006531
 21
102.6768701289
  0
LINE
  5
2A1
100
AcDbEntity
  8
0
100
AcDbLine
 62
7
  6
CONTINUOUS
 10
169.6910886858
 20
75.4489697047
 11
203.0663898023
 21
94.7180937675
  0
ARC
  5
2A2
100
AcDbEntity
  8
0
100
AcDbCircle
 62
7
  6
CONTINUOUS
 10
151.9292122319
 20
128.3249882036
 40
7.9785220501
100
AcDbArc
 50
328.9517320484
 51
331.0489209581
  0
ARC
  5
2A3
100
AcDbEntity
  8
0
100
AcDbCircle
 62
7
  6
CONTINUOUS
 10
152.0425968541
 20
128.2549992459
 40
7.8452843253
100
AcDbArc
 50
322.5615793381
 51
328.9625598262
  0
ARC
  5
2A4
100
AcDbEntity
  8
0
100
AcDbCircle
 62
7
  6
CONTINUOUS
 10
152.0982353987
 20
128.2368330227
 40
7.7879499186
100
AcDbArc
 50
331.0144970452
 51
337.4617376817
  0
ARC
  5
2A5
100
AcDbEntity
  8
0
100
AcDbCircle
 62
7
  6
CONTINUOUS
 10
78.261813063
 20
200.4082169268
 40
5.1562245781
100
AcDbArc
 50
263.5258730156
 51
276.4737961813
  0
ARC
  5
2A6
100
AcDbEntity
  8
0
100
AcDbCircle
 62
7
  6
CONTINUOUS
 10
36.5380417856
 20
228.6092836655
 40
5.1068004005
100
AcDbArc
 50
266.0731906648
 51
266.2771437934
  0
ARC
  5
2A7
100
AcDbEntity
  8
0
100
AcDbCircle
 62
7
  6
CONTINUOUS
 10
113.7627180178
 20
225.0169245128
 40
5.1067892092
100
AcDbArc
 50
273.7231339532
 51
273.9272435415
  0
ARC
  5
2A8
100
AcDbEntity
  8
0
100
AcDbCircle
 62
7
  6
CONTINUOUS
 10
36.5375810223
 20
228.6026555404
 40
5.1001562819
100
AcDbArc
 50
265.6065755675
 51
266.0732555266
  0
ARC
  5
2A9
100
AcDbEntity
  8
0
100
AcDbCircle
 62
7
  6
CONTINUOUS
 10
113.7631790341
 20
225.0102934366
 40
5.1001421291
100
AcDbArc
 50
273.9271786805
 51
274.3938670826
  0
ARC
  5
2AA
100
AcDbEntity
  8
0
100
AcDbCircle
 62
7
  6
CONTINUOUS
 10
70.4233077552
 20
245.5613760419
 40
1.4229332174
100
AcDbArc
 50
143.756465207
 51
147.9787180415
  0
SPLINE
  5
2AB
100
AcDbEntity
  8
0
100
AcDbSpline
 62
7
  6
CONTINUOUS
 70
0
 71
3
 72
14
 73
10
 74
0
 42
0.0000001
 43
0.0000001
 44
0.0000000001
 40
0.0
 40
0.0
 40
0.0
 40
0.0
 40
0.2892788785
 40
0.4225377813
 40
0.5484922121
 40
0.6678919699
 40
0.7818652625
 40
0.8919497476
 40
1.0
 40
1.0
 40
1.0
 40
1.0
 10
187.5101148043
 20
111.4565765359
 30
0.0
 10
187.7076409358
 20
111.5706176203
 30
0.0
 10
188.0108916869
 20
111.714949357
 30
0.0
 10
188.4267721269
 20
111.8362179953
 30
0.0
 10
188.7219636252
 20
111.885719922
 30
0.0
 10
189.005999851
 20
111.8956207029
 30
0.0
 10
189.2761933983
 20
111.8654813297
 30
0.0
 10
189.52964628
 20
111.7953880259
 30
0.0
 10
189.6862960009
 20
111.7220456034
 30
0.0
 10
189.760075587
 20
111.6794502123
 30
0.0
  0
SPLINE
  5
2AC
100
AcDbEntity
  8
0
100
AcDbSpline
 62
7
  6
CONTINUOUS
 70
0
 71
3
 72
23
 73
19
 74
0
 42
0.0000001
 43
0.0000001
 44
0.0000000001
 40
0.0
 40
0.0
 40
0.0
 40
0.0
 40
0.0623916983
 40
0.1287423442
 40
0.1983450203
 40
0.2703325552
 40
0.3437219147
 40
0.4174665113
 40
0.4905033157
 40
0.5618018359
 40
0.6304104097
 40
0.6955086082
 40
0.75646609
 40
0.812912539
 40
0.8648215158
 40
0.912604092
 40
0.957185771
 40
1.0
 40
1.0
 40
1.0
 40
1.0
 10
200.520933747
 20
96.5964248985
 30
0.0
 10
200.6826074376
 20
96.6897666902
 30
0.0
 10
201.0037888209
 20
96.9044072336
 30
0.0
 10
201.4586259965
 20
97.2871753924
 30
0.0
 10
201.8934015357
 20
97.7335797118
 30
0.0
 10
202.2988280335
 20
98.2340546242
 30
0.0
 10
202.6663147715
 20
98.7779917796
 30
0.0
 10
202.9880259823
 20
99.3537780431
 30
0.0
 10
203.2570933498
 20
99.9491330633
 30
0.0
 10
203.4677826779
 20
100.5513671578
 30
0.0
 10
203.6156055693
 20
101.1476940579
 30
0.0
 10
203.6973959048
 20
101.7255312983
 30
0.0
 10
203.7113230197
 20
102.2728046275
 30
0.0
 10
203.6568010613
 20
102.7782230178
 30
0.0
 10
203.5343472018
 20
103.2313981387
 30
0.0
 10
203.3452305738
 20
103.6227761791
 30
0.0
 10
203.0921450088
 20
103.942801687
 30
0.0
 10
202.8818383
 20
104.103768622
 30
0.0
 10
202.7708945847
 20
104.1678204243
 30
0.0
  0
SPLINE
  5
2AD
100
AcDbEntity
  8
0
100
AcDbSpline
 62
7
  6
CONTINUOUS
 70
0
 71
3
 72
23
 73
19
 74
0
 42
0.0000001
 43
0.0000001
 44
0.0000000001
 40
0.0
 40
0.0
 40
0.0
 40
0.0
 40
0.0428149581
 40
0.0873974424
 40
0.1351808469
 40
0.1870905525
 40
0.243537527
 40
0.3044952463
 40
0.3695933208
 40
0.4382013601
 40
0.509498991
 40
0.5825347113
 40
0.656278212
 40
0.7296666734
 40
0.8016536994
 40
0.8712562238
 40
0.9376075212
 40
1.0
 40
1.0
 40
1.0
 40
1.0
 10
185.2601540215
 20
103.8851811052
 30
0.0
 10
185.1492082807
 20
103.9492337446
 30
0.0
 10
184.9388985498
 20
104.1102046615
 30
0.0
 10
184.6858106692
 20
104.4302374031
 30
0.0
 10
184.4966944262
 20
104.8216235707
 30
0.0
 10
184.3742430008
 20
105.2748057759
 30
0.0
 10
184.3197247342
 20
105.780229014
 30
0.0
 10
184.3336557852
 20
106.3275040936
 30
0.0
 10
184.4154493349
 20
106.9053395371
 30
0.0
 10
184.5632738327
 20
107.5016611898
 30
0.0
 10
184.773962702
 20
108.1038874125
 30
0.0
 10
185.0430275756
 20
108.6992333951
 30
0.0
 10
185.3647348591
 20
109.2750112083
 30
0.0
 10
185.7322173043
 20
109.8189421476
 30
0.0
 10
186.1376404674
 20
110.3194136485
 30
0.0
 10
186.5724148143
 20
110.7658190392
 30
0.0
 10
187.0272546019
 20
111.1485899917
 30
0.0
 10
187.3484391023
 20
111.363233583
 30
0.0
 10
187.5101148043
 20
111.4565765359
 30
0.0
  0
SPLINE
  5
2AE
100
AcDbEntity
  8
0
100
AcDbSpline
 62
7
  6
CONTINUOUS
 70
0
 71
3
 72
14
 73
10
 74
0
 42
0.0000001
 43
0.0000001
 44
0.0000000001
 40
0.0
 40
0.0
 40
0.0
 40
0.0
 40
0.1080488667
 40
0.2181321678
 40
0.3321045072
 40
0.4515036959
 40
0.5774576959
 40
0.710717211
 40
1.0
 40
1.0
 40
1.0
 40
1.0
 10
198.2709729092
 20
96.3735511269
 30
0.0
 10
198.344751453
 20
96.3309561165
 30
0.0
 10
198.5013992858
 20
96.2576144285
 30
0.0
 10
198.7548493325
 20
96.1875215229
 30
0.0
 10
199.0250405816
 20
96.1573810276
 30
0.0
 10
199.309075312
 20
96.1672807499
 30
0.0
 10
199.6042667123
 20
96.2167812884
 30
0.0
 10
200.0201507922
 20
96.3380490809
 30
0.0
 10
200.3234049465
 20
96.4823822732
 30
0.0
 10
200.520933747
 20
96.5964248985
 30
0.0
  0
SPLINE
  5
2AF
100
AcDbEntity
  8
0
100
AcDbSpline
 62
7
  6
CONTINUOUS
 70
0
 71
3
 72
16
 73
12
 74
0
 42
0.0000001
 43
0.0000001
 44
0.0000000001
 40
0.0
 40
0.0
 40
0.0
 40
0.0
 40
0.0994019373
 40
0.1544800457
 40
0.2129740543
 40
0.3388344208
 40
0.4734917711
 40
0.6121085057
 40
0.7493638734
 40
0.8800999342
 40
1.0
 40
1.0
 40
1.0
 40
1.0
 10
198.7673843809
 20
98.495577297
 30
0.0
 10
198.7105684871
 20
98.6369346718
 30
0.0
 10
198.6584765526
 20
98.8717963298
 30
0.0
 10
198.6426123876
 20
99.198001208
 30
0.0
 10
198.6628485808
 20
99.5650858693
 30
0.0
 10
198.7586694772
 20
100.0471339094
 30
0.0
 10
198.969071898
 20
100.6237295979
 30
0.0
 10
199.2660657709
 20
101.1806945638
 30
0.0
 10
199.6331526857
 20
101.6868934758
 30
0.0
 10
200.0496460742
 20
102.1140662729
 30
0.0
 10
200.3617887519
 20
102.3425353237
 30
0.0
 10
200.520933747
 20
102.434417181
 30
0.0
  0
SPLINE
  5
2B0
100
AcDbEntity
  8
0
100
AcDbSpline
 62
7
  6
CONTINUOUS
 70
0
 71
3
 72
11
 73
7
 74
0
 42
0.0000001
 43
0.0000001
 44
0.0000000001
 40
0.0
 40
0.0
 40
0.0
 40
0.0
 40
0.2413210729
 40
0.5005937448
 40
0.7595557827
 40
1.0
 40
1.0
 40
1.0
 40
1.0
 10
198.8270635175
 20
100.1199278901
 30
0.0
 10
198.9584056869
 20
100.215293012
 30
0.0
 10
199.2051212027
 20
100.4493578937
 30
0.0
 10
199.5007099695
 20
100.8694784304
 30
0.0
 10
199.7136512219
 20
101.3363050305
 30
0.0
 10
199.7905005703
 20
101.666811046
 30
0.0
 10
199.8060230386
 20
101.8277868774
 30
0.0
  0
SPLINE
  5
2B1
100
AcDbEntity
  8
0
100
AcDbSpline
 62
7
  6
CONTINUOUS
 70
0
 71
3
 72
23
 73
19
 74
0
 42
0.0000001
 43
0.0000001
 44
0.0000000001
 40
0.0
 40
0.0
 40
0.0
 40
0.0
 40
0.0623916983
 40
0.1287423442
 40
0.1983450203
 40
0.2703325552
 40
0.3437219147
 40
0.4174665113
 40
0.4905033157
 40
0.5618018359
 40
0.6304104097
 40
0.6955086082
 40
0.75646609
 40
0.812912539
 40
0.8648215158
 40
0.912604092
 40
0.957185771
 40
1.0
 40
1.0
 40
1.0
 40
1.0
 10
200.520933747
 20
103.9449466527
 30
0.0
 10
200.3592600563
 20
103.851604861
 30
0.0
 10
200.038078673
 20
103.6369643176
 30
0.0
 10
199.5832414974
 20
103.2541961588
 30
0.0
 10
199.1484659582
 20
102.8077918394
 30
0.0
 10
198.7430394604
 20
102.307316927
 30
0.0
 10
198.3755527224
 20
101.7633797716
 30
0.0
 10
198.0538415116
 20
101.1875935081
 30
0.0
 10
197.7847741442
 20
100.5922384879
 30
0.0
 10
197.574084816
 20
99.9900043934
 30
0.0
 10
197.4262619246
 20
99.3936774933
 30
0.0
 10
197.3444715891
 20
98.8158402529
 30
0.0
 10
197.3305444743
 20
98.2685669237
 30
0.0
 10
197.3850664327
 20
97.7631485334
 30
0.0
 10
197.5075202921
 20
97.3099734125
 30
0.0
 10
197.6966369201
 20
96.9185953721
 30
0.0
 10
197.9497224852
 20
96.5985698642
 30
0.0
 10
198.1600291939
 20
96.4376029292
 30
0.0
 10
198.2709729092
 20
96.3735511269
 30
0.0
  0
SPLINE
  5
2B2
100
AcDbEntity
  8
0
100
AcDbSpline
 62
7
  6
CONTINUOUS
 70
0
 71
3
 72
15
 73
11
 74
0
 42
0.0000001
 43
0.0000001
 44
0.0000000001
 40
0.0
 40
0.0
 40
0.0
 40
0.0
 40
0.2002179243
 40
0.2604127387
 40
0.3240209674
 40
0.4591968942
 40
0.6005416587
 40
0.7417999937
 40
0.8767185635
 40
1.0
 40
1.0
 40
1.0
 40
1.0
 10
200.2332374525
 20
102.21672114
 30
0.0
 10
200.3432147279
 20
102.0553498246
 30
0.0
 10
200.3917156377
 20
101.7839812591
 30
0.0
 10
200.3714025613
 20
101.470214185
 30
0.0
 10
200.3305548151
 20
101.2201650428
 30
0.0
 10
200.2326789117
 20
100.9016352183
 30
0.0
 10
200.0541778747
 20
100.5336669463
 30
0.0
 10
199.8234951573
 20
100.196159614
 30
0.0
 10
199.5558039886
 20
99.9109517443
 30
0.0
 10
199.3522700825
 20
99.7592366085
 30
0.0
 10
199.2481362417
 20
99.6991152663
 30
0.0
  0
SPLINE
  5
2B3
100
AcDbEntity
  8
0
100
AcDbSpline
 62
7
  6
CONTINUOUS
 70
0
 71
3
 72
15
 73
11
 74
0
 42
0.0000001
 43
0.0000001
 44
0.0000000001
 40
0.0
 40
0.0
 40
0.0
 40
0.0
 40
0.1514262642
 40
0.2905956316
 40
0.4182190328
 40
0.5364945931
 40
0.6490587531
 40
0.7606659999
 40
0.876265557
 40
1.0
 40
1.0
 40
1.0
 40
1.0
 10
200.520933747
 20
98.1069543702
 30
0.0
 10
200.4301427372
 20
98.0545364692
 30
0.0
 10
200.2492868766
 20
97.964662017
 30
0.0
 10
199.972188094
 20
97.8763339355
 30
0.0
 10
199.7059729116
 20
97.8425200042
 30
0.0
 10
199.456559834
 20
97.8651156312
 30
0.0
 10
199.2304998284
 20
97.9450380269
 30
0.0
 10
199.0349465632
 20
98.0807325814
 30
0.0
 10
198.8758356292
 20
98.2674852731
 30
0.0
 10
198.7993316453
 20
98.416092823
 30
0.0
 10
198.7673843809
 20
98.495577297
 30
0.0
  0
SPLINE
  5
2B4
100
AcDbEntity
  8
0
100
AcDbSpline
 62
7
  6
CONTINUOUS
 70
0
 71
3
 72
14
 73
10
 74
0
 42
0.0000001
 43
0.0000001
 44
0.0000000001
 40
0.0
 40
0.0
 40
0.0
 40
0.0
 40
0.1080488667
 40
0.2181321678
 40
0.3321045072
 40
0.4515036959
 40
0.5774576959
 40
0.710717211
 40
1.0
 40
1.0
 40
1.0
 40
1.0
 10
202.7708945847
 20
104.1678204243
 30
0.0
 10
202.6971160409
 20
104.2104154347
 30
0.0
 10
202.5404682081
 20
104.2837571227
 30
0.0
 10
202.2870181614
 20
104.3538500283
 30
0.0
 10
202.0168269124
 20
104.3839905236
 30
0.0
 10
201.7327921819
 20
104.3740908013
 30
0.0
 10
201.4376007817
 20
104.3245902628
 30
0.0
 10
201.0217167018
 20
104.2033224703
 30
0.0
 10
200.7184625474
 20
104.058989278
 30
0.0
 10
200.520933747
 20
103.9449466527
 30
0.0
  0
SPLINE
  5
2B5
100
AcDbEntity
  8
0
100
AcDbSpline
 62
7
  6
CONTINUOUS
 70
0
 71
3
 72
11
 73
7
 74
0
 42
0.0000001
 43
0.0000001
 44
0.0000000001
 40
0.0
 40
0.0
 40
0.0
 40
0.0
 40
0.278937078
 40
0.5378689226
 40
0.7773049567
 40
1.0
 40
1.0
 40
1.0
 40
1.0
 10
199.2481362417
 20
99.6991152663
 30
0.0
 10
199.1989054069
 20
99.6706920003
 30
0.0
 10
199.1007511518
 20
99.6211593609
 30
0.0
 10
198.95053201
 20
99.5691668482
 30
0.0
 10
198.8052045838
 20
99.5432921689
 30
0.0
 10
198.7102942226
 20
99.5440638461
 30
0.0
 10
198.6652154475
 20
99.5493252324
 30
0.0
  0
SPLINE
  5
2B6
100
AcDbEntity
  8
0
100
AcDbSpline
 62
7
  6
CONTINUOUS
 70
0
 71
3
 72
23
 73
19
 74
0
 42
0.0000001
 43
0.0000001
 44
0.0000000001
 40
0.0
 40
0.0
 40
0.0
 40
0.0
 40
0.0491585562
 40
0.0948360355
 40
0.1393418639
 40
0.1852978286
 40
0.2349400869
 40
0.2896740522
 40
0.3500289584
 40
0.4158140311
 40
0.486303281
 40
0.5603923499
 40
0.6367256574
 40
0.7138037319
 40
0.7900804643
 40
0.864062465
 40
0.9344005313
 40
1.0
 40
1.0
 40
1.0
 40
1.0
 10
201.1814013792
 20
102.6768727738
 30
0.0
 10
201.2782351975
 20
102.6906585474
 30
0.0
 10
201.4690404016
 20
102.6973731435
 30
0.0
 10
201.7423122375
 20
102.6317140923
 30
0.0
 10
201.9783033208
 20
102.4901395483
 30
0.0
 10
202.1662917104
 20
102.2791513099
 30
0.0
 10
202.3009284154
 20
102.0087961184
 30
0.0
 10
202.3803912221
 20
101.6886389256
 30
0.0
 10
202.4039364825
 20
101.3279662612
 30
0.0
 10
202.3715899015
 20
100.9368677228
 30
0.0
 10
202.2845404241
 20
100.5264587926
 30
0.0
 10
202.1454014362
 20
100.1086224272
 30
0.0
 10
201.9582762006
 20
99.6956027366
 30
0.0
 10
201.72868442
 20
99.2995760326
 30
0.0
 10
201.4634143867
 20
98.9322426184
 30
0.0
 10
201.1702489998
 20
98.6044113026
 30
0.0
 10
200.8578789637
 20
98.3257837416
 30
0.0
 10
200.6339697117
 20
98.1722153253
 30
0.0
 10
200.520933747
 20
98.1069543702
 30
0.0
  0
SPLINE
  5
2B7
100
AcDbEntity
  8
0
100
AcDbSpline
 62
7
  6
CONTINUOUS
 70
0
 71
3
 72
12
 73
8
 74
0
 42
0.0000001
 43
0.0000001
 44
0.0000000001
 40
0.0
 40
0.0
 40
0.0
 40
0.0
 40
0.2895815875
 40
0.5486326666
 40
0.7816361232
 40
0.8918379233
 40
1.0
 40
1.0
 40
1.0
 40
1.0
 10
66.3163957072
 20
179.3447932144
 30
0.0
 10
66.4919734608
 20
179.2434256444
 30
0.0
 10
66.8411685203
 20
179.0772897948
 30
0.0
 10
67.3775053725
 20
178.9476274322
 30
0.0
 10
67.8057861327
 20
178.9589772841
 30
0.0
 10
68.1115375473
 20
179.0436702331
 30
0.0
 10
68.2508046968
 20
179.1088371349
 30
0.0
 10
68.3163832827
 20
179.1467021075
 30
0.0
  0
SPLINE
  5
2B8
100
AcDbEntity
  8
0
100
AcDbSpline
 62
7
  6
CONTINUOUS
 70
0
 71
3
 72
15
 73
11
 74
0
 42
0.0000001
 43
0.0000001
 44
0.0000000001
 40
0.0
 40
0.0
 40
0.0
 40
0.0
 40
0.1148263591
 40
0.2383901443
 40
0.3681607991
 40
0.501083093
 40
0.6338551732
 40
0.7631866601
 40
0.8860576628
 40
1.0
 40
1.0
 40
1.0
 40
1.0
 10
37.245209787
 20
199.3376804694
 30
0.0
 10
37.248546921
 20
199.1149925696
 30
0.0
 10
37.2950268039
 20
198.6528422106
 30
0.0
 10
37.4636931895
 20
197.957129634
 30
0.0
 10
37.7279860971
 20
197.2542509088
 30
0.0
 10
38.0782356744
 20
196.5700782136
 30
0.0
 10
38.5015989386
 20
195.9295869795
 30
0.0
 10
38.9826568228
 20
195.3562009803
 30
0.0
 10
39.50368273
 20
194.8709669754
 30
0.0
 10
39.8818266892
 20
194.606453488
 30
0.0
 10
40.0732179026
 20
194.4959562192
 30
0.0
  0
SPLINE
  5
2B9
100
AcDbEntity
  8
0
100
AcDbSpline
 62
7
  6
CONTINUOUS
 70
0
 71
3
 72
11
 73
7
 74
0
 42
0.0000001
 43
0.0000001
 44
0.0000000001
 40
0.0
 40
0.0
 40
0.0
 40
0.0
 40
0.2887885927
 40
0.5476717144
 40
0.7812596444
 40
1.0
 40
1.0
 40
1.0
 40
1.0
 10
71.0535841833
 20
182.0233480603
 30
0.0
 10
71.050586397
 20
181.8267663933
 30
0.0
 10
71.0152746821
 20
181.4531397603
 30
0.0
 10
70.8564320008
 20
180.9406741442
 30
0.0
 10
70.5961804593
 20
180.5247778298
 30
0.0
 10
70.3545262907
 20
180.3234241662
 30
0.0
 10
70.2255636424
 20
180.2489613243
 30
0.0
  0
SPLINE
  5
2BA
100
AcDbEntity
  8
0
100
AcDbSpline
 62
7
  6
CONTINUOUS
 70
0
 71
3
 72
11
 73
7
 74
0
 42
0.0000001
 43
0.0000001
 44
0.0000000001
 40
0.0
 40
0.0
 40
0.0
 40
0.0
 40
0.2187403653
 40
0.4523283028
 40
0.7112114152
 40
1.0
 40
1.0
 40
1.0
 40
1.0
 10
68.3163832827
 20
179.1467021075
 30
0.0
 10
68.4453459416
 20
179.2211649444
 30
0.0
 10
68.6870001148
 20
179.4225186272
 30
0.0
 10
68.9472516487
 20
179.8384149503
 30
0.0
 10
69.1060943289
 20
180.3508805606
 30
0.0
 10
69.1414060366
 20
180.724507183
 30
0.0
 10
69.1444038228
 20
180.9210888449
 30
0.0
  0
SPLINE
  5
2BB
100
AcDbEntity
  8
0
100
AcDbSpline
 62
7
  6
CONTINUOUS
 70
0
 71
3
 72
15
 73
11
 74
0
 42
0.0000001
 43
0.0000001
 44
0.0000000001
 40
0.0
 40
0.0
 40
0.0
 40
0.0
 40
0.113942031
 40
0.2368128637
 40
0.3661442943
 40
0.4989164145
 40
0.6318388157
 40
0.7616096149
 40
0.8851735401
 40
1.0
 40
1.0
 40
1.0
 40
1.0
 10
113.5156763081
 20
192.8019265682
 30
0.0
 10
113.7070660947
 20
192.9124248534
 30
0.0
 10
114.0852071376
 20
193.1769403934
 30
0.0
 10
114.6062286528
 20
193.6621769362
 30
0.0
 10
115.0872824623
 20
194.2355652624
 30
0.0
 10
115.5106421257
 20
194.8760585016
 30
0.0
 10
115.8608887095
 20
195.5602328128
 30
0.0
 10
116.1251793357
 20
196.2631126881
 30
0.0
 10
116.2938442678
 20
196.958825905
 30
0.0
 10
116.3403237687
 20
197.4209764528
 30
0.0
 10
116.3436608756
 20
197.6436644138
 30
0.0
  0
SPLINE
  5
2BC
100
AcDbEntity
  8
0
100
AcDbSpline
 62
7
  6
CONTINUOUS
 70
0
 71
3
 72
12
 73
8
 74
0
 42
0.0000001
 43
0.0000001
 44
0.0000000001
 40
0.0
 40
0.0
 40
0.0
 40
0.0
 40
0.1081618764
 40
0.2183635
 40
0.4513667606
 40
0.7104179405
 40
1.0
 40
1.0
 40
1.0
 40
1.0
 10
85.2727544295
 20
177.4525318742
 30
0.0
 10
85.338332399
 20
177.4146678838
 30
0.0
 10
85.4775981749
 20
177.3495028976
 30
0.0
 10
85.7833463118
 20
177.2648134796
 30
0.0
 10
86.2116219865
 20
177.2534674215
 30
0.0
 10
86.7479517236
 20
177.3831328203
 30
0.0
 10
87.0971417665
 20
177.5492695851
 30
0.0
 10
87.2727170242
 20
177.6506374023
 30
0.0
  0
SPLINE
  5
2BD
100
AcDbEntity
  8
0
100
AcDbSpline
 62
7
  6
CONTINUOUS
 70
0
 71
3
 72
11
 73
7
 74
0
 42
0.0000001
 43
0.0000001
 44
0.0000000001
 40
0.0
 40
0.0
 40
0.0
 40
0.0
 40
0.2187395274
 40
0.4523270716
 40
0.7112104613
 40
1.0
 40
1.0
 40
1.0
 40
1.0
 10
83.3635581709
 20
178.5547819101
 30
0.0
 10
83.2345953091
 20
178.6292436215
 30
0.0
 10
82.9929404218
 20
178.8305959884
 30
0.0
 10
82.7326884658
 20
179.2464921132
 30
0.0
 10
82.5738456327
 20
179.7589589922
 30
0.0
 10
82.5385339739
 20
180.1325869211
 30
0.0
 10
82.5355361988
 20
180.3291694746
 30
0.0
  0
SPLINE
  5
2BE
100
AcDbEntity
  8
0
100
AcDbSpline
 62
7
  6
CONTINUOUS
 70
0
 71
3
 72
11
 73
7
 74
0
 42
0.0000001
 43
0.0000001
 44
0.0000000001
 40
0.0
 40
0.0
 40
0.0
 40
0.0
 40
0.2887895466
 40
0.5476729455
 40
0.7812604823
 40
1.0
 40
1.0
 40
1.0
 40
1.0
 10
84.4447324567
 20
179.2269194374
 30
0.0
 10
84.4477302319
 20
179.0303368787
 30
0.0
 10
84.4830418979
 20
178.6567089392
 30
0.0
 10
84.641884732
 20
178.1442420543
 30
0.0
 10
84.9021366956
 20
177.7283459384
 30
0.0
 10
85.1437915784
 20
177.5269935906
 30
0.0
 10
85.2727544295
 20
177.4525318742
 30
0.0
  0
SPLINE
  5
2BF
100
AcDbEntity
  8
0
100
AcDbSpline
 62
7
  6
CONTINUOUS
 70
0
 71
3
 72
11
 73
7
 74
0
 42
0.0000001
 43
0.0000001
 44
0.0000000001
 40
0.0
 40
0.0
 40
0.0
 40
0.0
 40
0.22364517
 40
0.4615142525
 40
0.719615073
 40
1.0
 40
1.0
 40
1.0
 40
1.0
 10
29.3754574105
 20
153.8106529523
 30
0.0
 10
29.2613179398
 20
153.8765506096
 30
0.0
 10
29.0459093357
 20
154.0499329647
 30
0.0
 10
28.7978087194
 20
154.3991523779
 30
0.0
 10
28.6244302455
 20
154.8262368559
 30
0.0
 10
28.5644015093
 20
155.1398805248
 30
0.0
 10
28.5464277303
 20
155.3041339018
 30
0.0
  0
SPLINE
  5
2C0
100
AcDbEntity
  8
0
100
AcDbSpline
 62
7
  6
CONTINUOUS
 70
0
 71
3
 72
11
 73
7
 74
0
 42
0.0000001
 43
0.0000001
 44
0.0000000001
 40
0.0
 40
0.0
 40
0.0
 40
0.0
 40
0.2368169205
 40
0.4825917025
 40
0.7371052518
 40
1.0
 40
1.0
 40
1.0
 40
1.0
 10
28.8434587825
 20
223.0656479286
 30
0.0
 10
28.1232417794
 20
217.7528470742
 30
0.0
 10
27.0421946889
 20
206.8709174648
 30
0.0
 10
26.4735728651
 20
190.1826638106
 30
0.0
 10
26.9291071178
 20
172.9010448101
 30
0.0
 10
27.8990058035
 20
161.2205990804
 30
0.0
 10
28.5464277303
 20
155.3041339018
 30
0.0
  0
SPLINE
  5
2C1
100
AcDbEntity
  8
0
100
AcDbSpline
 62
7
  6
CONTINUOUS
 70
0
 71
3
 72
9
 73
5
 74
0
 42
0.0000001
 43
0.0000001
 44
0.0000000001
 40
0.0
 40
0.0
 40
0.0
 40
0.0
 40
0.2603782916
 40
1.0
 40
1.0
 40
1.0
 40
1.0
 10
32.1185694776
 20
152.4735586043
 30
0.0
 10
32.1342027952
 20
152.4405873984
 30
0.0
 10
32.1989748968
 20
152.3163150586
 30
0.0
 10
32.28417896
 20
152.2022463013
 30
0.0
 10
32.3576349873
 20
152.129117323
 30
0.0
  0
SPLINE
  5
2C2
100
AcDbEntity
  8
0
100
AcDbSpline
 62
7
  6
CONTINUOUS
 70
0
 71
3
 72
9
 73
5
 74
0
 42
0.0000001
 43
0.0000001
 44
0.0000000001
 40
0.0
 40
0.0
 40
0.0
 40
0.0
 40
0.2527452273
 40
1.0
 40
1.0
 40
1.0
 40
1.0
 10
32.3576349873
 20
152.129117323
 30
0.0
 10
32.3734559697
 20
152.1133667806
 30
0.0
 10
32.4379763628
 20
152.0530146986
 30
0.0
 10
32.5103305716
 20
152.0010132726
 30
0.0
 10
32.567491655
 20
151.9680120493
 30
0.0
  0
SPLINE
  5
2C3
100
AcDbEntity
  8
0
100
AcDbSpline
 62
7
  6
CONTINUOUS
 70
0
 71
3
 72
11
 73
7
 74
0
 42
0.0000001
 43
0.0000001
 44
0.0000000001
 40
0.0
 40
0.0
 40
0.0
 40
0.0
 40
0.2177798312
 40
0.4509239181
 40
0.7102597115
 40
1.0
 40
1.0
 40
1.0
 40
1.0
 10
168.412331578
 20
77.3165587659
 30
0.0
 10
168.3265583725
 20
77.3660587234
 30
0.0
 10
168.1661011082
 20
77.5009853325
 30
0.0
 10
167.9952731431
 20
77.7802795046
 30
0.0
 10
167.8937757119
 20
78.1244999378
 30
0.0
 10
167.8738318241
 20
78.3750348111
 30
0.0
 10
167.8738318241
 20
78.5067893874
 30
0.0
  0
SPLINE
  5
2C4
100
AcDbEntity
  8
0
100
AcDbSpline
 62
7
  6
CONTINUOUS
 70
0
 71
3
 72
11
 73
7
 74
0
 42
0.0000001
 43
0.0000001
 44
0.0000000001
 40
0.0
 40
0.0
 40
0.0
 40
0.0
 40
0.2177798312
 40
0.4509239181
 40
0.7102597115
 40
1.0
 40
1.0
 40
1.0
 40
1.0
 10
201.7452064643
 20
135.0511121229
 30
0.0
 10
201.6594332588
 20
135.1006120804
 30
0.0
 10
201.4989759945
 20
135.2355386894
 30
0.0
 10
201.3281480294
 20
135.5148328616
 30
0.0
 10
201.2266505982
 20
135.8590532948
 30
0.0
 10
201.2067067104
 20
136.1095881681
 30
0.0
 10
201.2067067104
 20
136.2413427444
 30
0.0
  0
SPLINE
  5
2C5
100
AcDbEntity
  8
0
100
AcDbSpline
 62
7
  6
CONTINUOUS
 70
0
 71
3
 72
11
 73
7
 74
0
 42
0.0000001
 43
0.0000001
 44
0.0000000001
 40
0.0
 40
0.0
 40
0.0
 40
0.0
 40
0.2177798312
 40
0.4509239181
 40
0.7102597115
 40
1.0
 40
1.0
 40
1.0
 40
1.0
 10
168.412331578
 20
115.8064827094
 30
0.0
 10
168.3265583725
 20
115.8559826669
 30
0.0
 10
168.1661011082
 20
115.9909092759
 30
0.0
 10
167.9952731431
 20
116.2702034481
 30
0.0
 10
167.8937757119
 20
116.6144238813
 30
0.0
 10
167.8738318241
 20
116.8649587546
 30
0.0
 10
167.8738318241
 20
116.9967133309
 30
0.0
  0
SPLINE
  5
2C6
100
AcDbEntity
  8
0
100
AcDbSpline
 62
7
  6
CONTINUOUS
 70
0
 71
3
 72
14
 73
10
 74
0
 42
0.0000001
 43
0.0000001
 44
0.0000000001
 40
0.0
 40
0.0
 40
0.0
 40
0.0
 40
0.1080475137
 40
0.2181321489
 40
0.3321060709
 40
0.4515035024
 40
0.5774632158
 40
0.7107208695
 40
1.0
 40
1.0
 40
1.0
 40
1.0
 10
175.0103443016
 20
86.1315882639
 30
0.0
 10
175.420219324
 20
85.8949507946
 30
0.0
 10
176.290450752
 20
85.4874237622
 30
0.0
 10
177.6985345578
 20
85.0980569755
 30
0.0
 10
179.1996007726
 20
84.9306640891
 30
0.0
 10
180.7776017046
 20
84.9855576565
 30
0.0
 10
182.4175516511
 20
85.2606590764
 30
0.0
 10
184.7280225467
 20
85.9343414263
 30
0.0
 10
186.4127460281
 20
86.7361928541
 30
0.0
 10
187.5101148043
 20
87.3697552305
 30
0.0
  0
SPLINE
  5
2C7
100
AcDbEntity
  8
0
100
AcDbSpline
 62
7
  6
CONTINUOUS
 70
0
 71
3
 72
11
 73
7
 74
0
 42
0.0000001
 43
0.0000001
 44
0.0000000001
 40
0.0
 40
0.0
 40
0.0
 40
0.0
 40
0.2177709505
 40
0.4509489942
 40
0.7101987597
 40
1.0
 40
1.0
 40
1.0
 40
1.0
 10
163.0898989654
 20
77.5691340506
 30
0.0
 10
162.9249718021
 20
77.6643526139
 30
0.0
 10
162.6162860428
 20
77.923732876
 30
0.0
 10
162.2879428709
 20
78.460910112
 30
0.0
 10
162.0926068285
 20
79.1228235854
 30
0.0
 10
162.0543330939
 20
79.6046266137
 30
0.0
 10
162.0543330939
 20
79.8580573972
 30
0.0
  0
SPLINE
  5
2C8
100
AcDbEntity
  8
0
100
AcDbSpline
 62
7
  6
CONTINUOUS
 70
0
 71
3
 72
11
 73
7
 74
0
 42
0.0000001
 43
0.0000001
 44
0.0000000001
 40
0.0
 40
0.0
 40
0.0
 40
0.0
 40
0.2177723674
 40
0.4509510027
 40
0.7102002307
 40
1.0
 40
1.0
 40
1.0
 40
1.0
 10
167.1911353713
 20
75.2013376744
 30
0.0
 10
167.3560570656
 20
75.1061222486
 30
0.0
 10
167.7350178373
 20
74.9684927989
 30
0.0
 10
168.3643746084
 20
74.9527311439
 30
0.0
 10
169.0352486142
 20
75.1145150114
 30
0.0
 10
169.4716206698
 20
75.322260543
 30
0.0
 10
169.6910886858
 20
75.4489697047
 30
0.0
  0
SPLINE
  5
2C9
100
AcDbEntity
  8
0
100
AcDbSpline
 62
7
  6
CONTINUOUS
 70
0
 71
3
 72
9
 73
5
 74
0
 42
0.0000001
 43
0.0000001
 44
0.0000000001
 40
0.0
 40
0.0
 40
0.0
 40
0.0
 40
0.4754156759
 40
1.0
 40
1.0
 40
1.0
 40
1.0
 10
201.7452064643
 20
96.5611881794
 30
0.0
 10
201.6387416796
 20
96.6226293053
 30
0.0
 10
201.4421601264
 20
96.8033450865
 30
0.0
 10
201.3297787355
 20
97.0422108752
 30
0.0
 10
201.2888020829
 20
97.1715077051
 30
0.0
  0
SPLINE
  5
2CA
100
AcDbEntity
  8
0
100
AcDbSpline
 62
7
  6
CONTINUOUS
 70
0
 71
3
 72
15
 73
11
 74
0
 42
0.0000001
 43
0.0000001
 44
0.0000000001
 40
0.0
 40
0.0
 40
0.0
 40
0.0
 40
0.1141543519
 40
0.237325601
 40
0.366974755
 40
0.4999984147
 40
0.6330222943
 40
0.7626720931
 40
0.8858443543
 40
1.0
 40
1.0
 40
1.0
 40
1.0
 10
156.538847798
 20
121.9077627942
 30
0.0
 10
156.7615197928
 20
122.0363217629
 30
0.0
 10
157.2013368502
 20
122.3446304107
 30
0.0
 10
157.8065011061
 20
122.91081068
 30
0.0
 10
158.3641926714
 20
123.580078005
 30
0.0
 10
158.8534057968
 20
124.3273260258
 30
0.0
 10
159.2559317238
 20
125.1246243045
 30
0.0
 10
159.5566864767
 20
125.9422382236
 30
0.0
 10
159.7444302906
 20
126.7494228802
 30
0.0
 10
159.7915254492
 20
127.2844750181
 30
0.0
 10
159.7915254492
 20
127.5415970208
 30
0.0
  0
SPLINE
  5
2CB
100
AcDbEntity
  8
0
100
AcDbSpline
 62
7
  6
CONTINUOUS
 70
0
 71
3
 72
15
 73
11
 74
0
 42
0.0000001
 43
0.0000001
 44
0.0000000001
 40
0.0
 40
0.0
 40
0.0
 40
0.0
 40
0.114155658
 40
0.2373279333
 40
0.3669777387
 40
0.5000016213
 40
0.633025278
 40
0.7626744253
 40
0.8858456604
 40
1.0
 40
1.0
 40
1.0
 40
1.0
 10
162.0543330939
 20
118.3969714858
 30
0.0
 10
162.0543330939
 20
118.6764519536
 30
0.0
 10
162.1055235004
 20
119.2580304283
 30
0.0
 10
162.3095928931
 20
120.1354051316
 30
0.0
 10
162.6365002831
 20
121.0241159573
 30
0.0
 10
163.0740284939
 20
121.890744524
 30
0.0
 10
163.6057819031
 20
122.7029706068
 30
0.0
 10
164.2119683739
 20
123.4304350252
 30
0.0
 10
164.8697555572
 20
124.0458482975
 30
0.0
 10
165.3478175291
 20
124.3809663463
 30
0.0
 10
165.5898522799
 20
124.5207043408
 30
0.0
  0
SPLINE
  5
2CC
100
AcDbEntity
  8
0
100
AcDbSpline
 62
7
  6
CONTINUOUS
 70
0
 71
3
 72
11
 73
7
 74
0
 42
0.0000001
 43
0.0000001
 44
0.0000000001
 40
0.0
 40
0.0
 40
0.0
 40
0.0
 40
0.2305508528
 40
0.4760044413
 40
0.7336255892
 40
1.0
 40
1.0
 40
1.0
 40
1.0
 10
187.5101148043
 20
87.3697552305
 30
0.0
 10
188.4313486182
 20
87.9016266461
 30
0.0
 10
190.2607468004
 20
89.1285372427
 30
0.0
 10
192.8463256427
 20
91.3222800417
 30
0.0
 10
195.3120004287
 20
93.8841019962
 30
0.0
 10
196.8216588255
 20
95.7774733486
 30
0.0
 10
197.545024561
 20
96.7710878625
 30
0.0
  0
SPLINE
  5
2CD
100
AcDbEntity
  8
0
100
AcDbSpline
 62
7
  6
CONTINUOUS
 70
0
 71
3
 72
18
 73
14
 74
0
 42
0.0000001
 43
0.0000001
 44
0.0000000001
 40
0.0
 40
0.0
 40
0.0
 40
0.0
 40
0.156861925
 40
0.3074024484
 40
0.44907166
 40
0.5799832602
 40
0.6992101801
 40
0.7545790853
 40
0.8073123282
 40
0.8577280829
 40
0.9062661171
 40
0.953477232
 40
1.0
 40
1.0
 40
1.0
 40
1.0
 10
202.0739429842
 20
104.6209650029
 30
0.0
 10
202.6451897628
 20
105.9095175595
 30
0.0
 10
203.6386078414
 20
108.4932547421
 30
0.0
 10
204.6745002272
 20
112.4016556857
 30
0.0
 10
205.2053029179
 20
116.1771123589
 30
0.0
 10
205.2143815063
 20
119.7098392183
 30
0.0
 10
204.7721794297
 20
122.4364954282
 30
0.0
 10
204.1396673645
 20
124.3824954426
 30
0.0
 10
203.5507820449
 20
125.6830317338
 30
0.0
 10
202.8395707242
 20
126.8500663752
 30
0.0
 10
202.0107511383
 20
127.8743431026
 30
0.0
 10
201.0705833862
 20
128.746967079
 30
0.0
 10
200.3719161582
 20
129.2240279643
 30
0.0
 10
200.0098853069
 20
129.4330430536
 30
0.0
  0
SPLINE
  5
2CE
100
AcDbEntity
  8
0
100
AcDbSpline
 62
7
  6
CONTINUOUS
 70
0
 71
3
 72
11
 73
7
 74
0
 42
0.0000001
 43
0.0000001
 44
0.0000000001
 40
0.0
 40
0.0
 40
0.0
 40
0.0
 40
0.289799778
 40
0.5490490151
 40
0.7822276429
 40
1.0
 40
1.0
 40
1.0
 40
1.0
 10
198.9651533964
 20
143.7898284035
 30
0.0
 10
199.1846214188
 20
143.9165375689
 30
0.0
 10
199.6209934917
 20
144.1242831003
 30
0.0
 10
200.291867505
 20
144.2860669691
 30
0.0
 10
200.9212242725
 20
144.2703053034
 30
0.0
 10
201.3001850158
 20
144.13267584
 30
0.0
 10
201.4651067109
 20
144.0374604338
 30
0.0
  0
SPLINE
  5
2CF
100
AcDbEntity
  8
0
100
AcDbSpline
 62
7
  6
CONTINUOUS
 70
0
 71
3
 72
10
 73
6
 74
0
 42
0.0000001
 43
0.0000001
 44
0.0000000001
 40
0.0
 40
0.0
 40
0.0
 40
0.0
 40
0.5232856774
 40
0.7649792103
 40
1.0
 40
1.0
 40
1.0
 40
1.0
 10
203.5892678298
 20
101.1547725056
 30
0.0
 10
203.7215903632
 20
101.183846921
 30
0.0
 10
203.9241057414
 20
101.2000139314
 30
0.0
 10
204.178610236
 20
101.1454011267
 30
0.0
 10
204.2924461647
 20
101.0949327706
 30
0.0
 10
204.34514691
 20
101.0645190227
 30
0.0
  0
SPLINE
  5
2D0
100
AcDbEntity
  8
0
100
AcDbSpline
 62
7
  6
CONTINUOUS
 70
0
 71
3
 72
17
 73
13
 74
0
 42
0.0000001
 43
0.0000001
 44
0.0000000001
 40
0.0
 40
0.0
 40
0.0
 40
0.0
 40
0.1286938287
 40
0.2702786484
 40
0.4174347437
 40
0.5617788623
 40
0.6954492664
 40
0.8127116048
 40
0.8646776308
 40
0.9125100673
 40
0.9571398924
 40
1.0
 40
1.0
 40
1.0
 40
1.0
 10
167.8738318241
 20
78.5067893874
 30
0.0
 10
167.8738318241
 20
78.7290329027
 30
0.0
 10
167.935998768
 20
79.196316042
 30
0.0
 10
168.1680704465
 20
79.8824116734
 30
0.0
 10
168.5256282946
 20
80.5433491004
 30
0.0
 10
168.97997481
 20
81.124925199
 30
0.0
 10
169.4939763294
 20
81.580171068
 30
0.0
 10
169.9592296931
 20
81.8345172503
 30
0.0
 10
170.3231522156
 20
81.9313983422
 30
0.0
 10
170.5736323693
 20
81.9497662898
 30
0.0
 10
170.8068779993
 20
81.9156406358
 30
0.0
 10
170.9481655636
 20
81.8568856272
 30
0.0
 10
171.0122720238
 20
81.8198896092
 30
0.0
  0
SPLINE
  5
2D1
100
AcDbEntity
  8
0
100
AcDbSpline
 62
7
  6
CONTINUOUS
 70
0
 71
3
 72
17
 73
13
 74
0
 42
0.0000001
 43
0.0000001
 44
0.0000000001
 40
0.0
 40
0.0
 40
0.0
 40
0.0
 40
0.1286938287
 40
0.2702786484
 40
0.4174347437
 40
0.5617788623
 40
0.6954492664
 40
0.8127116048
 40
0.8646776308
 40
0.9125100673
 40
0.9571398924
 40
1.0
 40
1.0
 40
1.0
 40
1.0
 10
201.2067067104
 20
136.2413427444
 30
0.0
 10
201.2067067104
 20
136.4635862597
 30
0.0
 10
201.2688736542
 20
136.930869399
 30
0.0
 10
201.5009453327
 20
137.6169650304
 30
0.0
 10
201.8585031809
 20
138.2779024573
 30
0.0
 10
202.3128496962
 20
138.859478556
 30
0.0
 10
202.8268512157
 20
139.314724425
 30
0.0
 10
203.2921045794
 20
139.5690706073
 30
0.0
 10
203.6560271019
 20
139.6659516992
 30
0.0
 10
203.9065072556
 20
139.6843196468
 30
0.0
 10
204.1397528855
 20
139.6501939927
 30
0.0
 10
204.2810404499
 20
139.5914389842
 30
0.0
 10
204.34514691
 20
139.5544429661
 30
0.0
  0
SPLINE
  5
2D2
100
AcDbEntity
  8
0
100
AcDbSpline
 62
7
  6
CONTINUOUS
 70
0
 71
3
 72
17
 73
13
 74
0
 42
0.0000001
 43
0.0000001
 44
0.0000000001
 40
0.0
 40
0.0
 40
0.0
 40
0.0
 40
0.1286938287
 40
0.2702786484
 40
0.4174347437
 40
0.5617788623
 40
0.6954492664
 40
0.8127116048
 40
0.8646776308
 40
0.9125100673
 40
0.9571398924
 40
1.0
 40
1.0
 40
1.0
 40
1.0
 10
167.8738318241
 20
116.9967133309
 30
0.0
 10
167.8738318241
 20
117.2189568462
 30
0.0
 10
167.935998768
 20
117.6862399855
 30
0.0
 10
168.1680704465
 20
118.3723356169
 30
0.0
 10
168.5256282946
 20
119.0332730438
 30
0.0
 10
168.97997481
 20
119.6148491425
 30
0.0
 10
169.4939763294
 20
120.0700950115
 30
0.0
 10
169.9592296931
 20
120.3244411938
 30
0.0
 10
170.3231522156
 20
120.4213222857
 30
0.0
 10
170.5736323693
 20
120.4396902333
 30
0.0
 10
170.8068779993
 20
120.4055645792
 30
0.0
 10
170.9481655636
 20
120.3468095707
 30
0.0
 10
171.0122720238
 20
120.3098135526
 30
0.0
  0
SPLINE
  5
2D3
100
AcDbEntity
  8
0
100
AcDbSpline
 62
7
  6
CONTINUOUS
 70
0
 71
3
 72
11
 73
7
 74
0
 42
0.0000001
 43
0.0000001
 44
0.0000000001
 40
0.0
 40
0.0
 40
0.0
 40
0.0
 40
0.2898012489
 40
0.5490510236
 40
0.7822290598
 40
1.0
 40
1.0
 40
1.0
 40
1.0
 10
206.6019089883
 20
139.380740711
 30
0.0
 10
206.6019089883
 20
139.634171502
 30
0.0
 10
206.5636352449
 20
140.1159745451
 30
0.0
 10
206.3682991998
 20
140.7778880256
 30
0.0
 10
206.0399560204
 20
141.3150652531
 30
0.0
 10
205.7312702635
 20
141.5744454839
 30
0.0
 10
205.5663431168
 20
141.6696640576
 30
0.0
  0
SPLINE
  5
2D4
100
AcDbEntity
  8
0
100
AcDbSpline
 62
7
  6
CONTINUOUS
 70
0
 71
3
 72
15
 73
11
 74
0
 42
0.0000001
 43
0.0000001
 44
0.0000000001
 40
0.0
 40
0.0
 40
0.0
 40
0.0
 40
0.1141543519
 40
0.237325601
 40
0.366974755
 40
0.4999984147
 40
0.6330222943
 40
0.7626720931
 40
0.8858443543
 40
1.0
 40
1.0
 40
1.0
 40
1.0
 10
203.0663898023
 20
94.7180937675
 30
0.0
 10
203.3084245792
 20
94.857831777
 30
0.0
 10
203.7864865981
 20
95.1929498723
 30
0.0
 10
204.4442738327
 20
95.8083632086
 30
0.0
 10
205.0504603168
 20
96.5358276922
 30
0.0
 10
205.582213714
 20
97.3480538018
 30
0.0
 10
206.0197418954
 20
98.2146823656
 30
0.0
 10
206.3466492356
 20
99.1033931472
 30
0.0
 10
206.5507185986
 20
99.980767774
 30
0.0
 10
206.6019089883
 20
100.5623461848
 30
0.0
 10
206.6019089883
 20
100.8418266225
 30
0.0
  0
SPLINE
  5
2D5
100
AcDbEntity
  8
0
100
AcDbSpline
 62
7
  6
CONTINUOUS
 70
0
 71
3
 72
25
 73
21
 74
0
 42
0.0000001
 43
0.0000001
 44
0.0000000001
 40
0.0
 40
0.0
 40
0.0
 40
0.0
 40
0.0213320791
 40
0.0428926617
 40
0.0648979477
 40
0.0875428516
 40
0.1353180106
 40
0.1872190276
 40
0.2436567825
 40
0.304604725
 40
0.3696925383
 40
0.4382898856
 40
0.5095763441
 40
0.5826005951
 40
0.656332067
 40
0.7297091863
 40
0.8016853277
 40
0.8712781831
 40
0.9376162149
 40
1.0
 40
1.0
 40
1.0
 40
1.0
 10
173.8789686111
 20
86.7847732477
 30
0.0
 10
173.5718228468
 20
86.9621004744
 30
0.0
 10
172.9763853944
 20
87.3586663224
 30
0.0
 10
172.1592583027
 20
88.0673459777
 30
0.0
 10
171.4202328052
 20
88.8868536074
 30
0.0
 10
170.5292617811
 20
90.1424799682
 30
0.0
 10
169.6372482445
 20
91.9874664859
 30
0.0
 10
168.9573308716
 20
94.5046935102
 30
0.0
 10
168.6543153633
 20
97.3127211031
 30
0.0
 10
168.7317285145
 20
100.3531013751
 30
0.0
 10
169.1861148402
 20
103.5633215294
 30
0.0
 10
170.0073598115
 20
106.8762321573
 30
0.0
 10
171.1778494059
 20
110.2219519959
 30
0.0
 10
172.6726575314
 20
113.5294351389
 30
0.0
 10
174.4599131323
 20
116.7282165188
 30
0.0
 10
176.5015069308
 20
119.7500571529
 30
0.0
 10
178.7538602032
 20
122.5305115523
 30
0.0
 10
181.1693064045
 20
125.0104998923
 30
0.0
 10
183.6961668597
 20
127.1370434436
 30
0.0
 10
185.4805215725
 20
128.3294781753
 30
0.0
 10
186.378739244
 20
128.8480612942
 30
0.0
  0
SPLINE
  5
2D6
100
AcDbEntity
  8
0
100
AcDbSpline
 62
7
  6
CONTINUOUS
 70
0
 71
3
 72
25
 73
21
 74
0
 42
0.0000001
 43
0.0000001
 44
0.0000000001
 40
0.0
 40
0.0
 40
0.0
 40
0.0
 40
0.0623836167
 40
0.1287213509
 40
0.1983140001
 40
0.2702900758
 40
0.3436673578
 40
0.4173990717
 40
0.4904234985
 40
0.5617100966
 40
0.6303076041
 40
0.6953955537
 40
0.7563435331
 40
0.8127812253
 40
0.8646821605
 40
0.9124572692
 40
0.9351021548
 40
0.9571074167
 40
0.9786679641
 40
1.0
 40
1.0
 40
1.0
 40
1.0
 10
187.5101148043
 20
128.194876087
 30
0.0
 10
186.6118995601
 20
127.6762943695
 30
0.0
 10
184.8275509152
 20
126.48386458
 30
0.0
 10
182.3006983832
 20
124.3573290862
 30
0.0
 10
179.8852564301
 20
121.8773499083
 30
0.0
 10
177.632902209
 20
119.0968986083
 30
0.0
 10
175.5913028619
 20
116.0750549179
 30
0.0
 10
173.8040409152
 20
112.8762659886
 30
0.0
 10
172.3092279854
 20
109.5687748289
 30
0.0
 10
171.1387354444
 20
106.2230476266
 30
0.0
 10
170.3174889948
 20
102.9101298695
 30
0.0
 10
169.8631029361
 20
99.6999040497
 30
0.0
 10
169.7856913996
 20
96.6595218714
 30
0.0
 10
170.0887087805
 20
93.8514962982
 30
0.0
 10
170.7686271156
 20
91.3342728931
 30
0.0
 10
171.6606409777
 20
89.4892894005
 30
0.0
 10
172.5516115201
 20
88.2336645852
 30
0.0
 10
173.2906367636
 20
87.4141584881
 30
0.0
 10
174.1077627404
 20
86.7054801283
 30
0.0
 10
174.7031993664
 20
86.3089154885
 30
0.0
 10
175.0103443016
 20
86.1315882639
 30
0.0
  0
SPLINE
  5
2D7
100
AcDbEntity
  8
0
100
AcDbSpline
 62
7
  6
CONTINUOUS
 70
0
 71
3
 72
11
 73
7
 74
0
 42
0.0000001
 43
0.0000001
 44
0.0000000001
 40
0.0
 40
0.0
 40
0.0
 40
0.0
 40
0.2177798312
 40
0.4509239181
 40
0.7102597115
 40
1.0
 40
1.0
 40
1.0
 40
1.0
 10
171.0122720238
 20
120.3098135526
 30
0.0
 10
171.0980452293
 20
120.2603135951
 30
0.0
 10
171.2585024936
 20
120.1253869861
 30
0.0
 10
171.4293304587
 20
119.8460928139
 30
0.0
 10
171.5308278899
 20
119.5018723807
 30
0.0
 10
171.5507717777
 20
119.2513375074
 30
0.0
 10
171.5507717777
 20
119.1195829311
 30
0.0
  0
SPLINE
  5
2D8
100
AcDbEntity
  8
0
100
AcDbSpline
 62
7
  6
CONTINUOUS
 70
0
 71
3
 72
11
 73
7
 74
0
 42
0.0000001
 43
0.0000001
 44
0.0000000001
 40
0.0
 40
0.0
 40
0.0
 40
0.0
 40
0.2177798312
 40
0.4509239181
 40
0.7102597115
 40
1.0
 40
1.0
 40
1.0
 40
1.0
 10
204.34514691
 20
139.5544429661
 30
0.0
 10
204.4309201155
 20
139.5049430086
 30
0.0
 10
204.5913773799
 20
139.3700163996
 30
0.0
 10
204.7622053449
 20
139.0907222274
 30
0.0
 10
204.8637027762
 20
138.7465017942
 30
0.0
 10
204.8836466639
 20
138.4959669209
 30
0.0
 10
204.8836466639
 20
138.3642123446
 30
0.0
  0
SPLINE
  5
2D9
100
AcDbEntity
  8
0
100
AcDbSpline
 62
7
  6
CONTINUOUS
 70
0
 71
3
 72
17
 73
13
 74
0
 42
0.0000001
 43
0.0000001
 44
0.0000000001
 40
0.0
 40
0.0
 40
0.0
 40
0.0
 40
0.1286938287
 40
0.2702786484
 40
0.4174347437
 40
0.5617788623
 40
0.6954492664
 40
0.8127116048
 40
0.8646776308
 40
0.9125100673
 40
0.9571398924
 40
1.0
 40
1.0
 40
1.0
 40
1.0
 10
204.8836466639
 20
99.8742884011
 30
0.0
 10
204.8836466639
 20
99.6520448859
 30
0.0
 10
204.8214797201
 20
99.1847617466
 30
0.0
 10
204.5894080416
 20
98.4986661151
 30
0.0
 10
204.2318501935
 20
97.8377286882
 30
0.0
 10
203.7775036781
 20
97.2561525895
 30
0.0
 10
203.2635021587
 20
96.8009067205
 30
0.0
 10
202.798248795
 20
96.5465605382
 30
0.0
 10
202.4343262724
 20
96.4496794463
 30
0.0
 10
202.1838461188
 20
96.4313114987
 30
0.0
 10
201.9506004888
 20
96.4654371528
 30
0.0
 10
201.8093129244
 20
96.5241921614
 30
0.0
 10
201.7452064643
 20
96.5611881794
 30
0.0
  0
SPLINE
  5
2DA
100
AcDbEntity
  8
0
100
AcDbSpline
 62
7
  6
CONTINUOUS
 70
0
 71
3
 72
11
 73
7
 74
0
 42
0.0000001
 43
0.0000001
 44
0.0000000001
 40
0.0
 40
0.0
 40
0.0
 40
0.0
 40
0.2177798312
 40
0.4509239181
 40
0.7102597115
 40
1.0
 40
1.0
 40
1.0
 40
1.0
 10
171.0122720238
 20
81.8198896092
 30
0.0
 10
171.0980452293
 20
81.7703896516
 30
0.0
 10
171.2585024936
 20
81.6354630426
 30
0.0
 10
171.4293304587
 20
81.3561688704
 30
0.0
 10
171.5308278899
 20
81.0119484372
 30
0.0
 10
171.5507717777
 20
80.7614135639
 30
0.0
 10
171.5507717777
 20
80.6296589876
 30
0.0
  0
SPLINE
  5
2DB
100
AcDbEntity
  8
0
100
AcDbSpline
 62
7
  6
CONTINUOUS
 70
0
 71
3
 72
14
 73
10
 74
0
 42
0.0000001
 43
0.0000001
 44
0.0000000001
 40
0.0
 40
0.0
 40
0.0
 40
0.0
 40
0.1080475137
 40
0.2181321489
 40
0.3321060709
 40
0.4515035024
 40
0.5774632158
 40
0.7107208695
 40
1.0
 40
1.0
 40
1.0
 40
1.0
 10
200.0098853069
 20
129.4330430536
 30
0.0
 10
199.6000102845
 20
129.6696805229
 30
0.0
 10
198.7297788565
 20
130.0772075554
 30
0.0
 10
197.3216950507
 20
130.466574342
 30
0.0
 10
195.8206288359
 20
130.6339672284
 30
0.0
 10
194.2426279039
 20
130.579073661
 30
0.0
 10
192.6026779575
 20
130.3039722412
 30
0.0
 10
190.2922070618
 20
129.6302898912
 30
0.0
 10
188.6074835804
 20
128.8284384635
 30
0.0
 10
187.5101148043
 20
128.194876087
 30
0.0
  0
SPLINE
  5
2DC
100
AcDbEntity
  8
0
100
AcDbSpline
 62
7
  6
CONTINUOUS
 70
0
 71
3
 72
17
 73
13
 74
0
 42
0.0000001
 43
0.0000001
 44
0.0000000001
 40
0.0
 40
0.0
 40
0.0
 40
0.0
 40
0.1286938287
 40
0.2702786484
 40
0.4174347437
 40
0.5617788623
 40
0.6954492664
 40
0.8127116048
 40
0.8646776308
 40
0.9125100673
 40
0.9571398924
 40
1.0
 40
1.0
 40
1.0
 40
1.0
 10
171.5507717777
 20
80.6296589876
 30
0.0
 10
171.5507717777
 20
80.4074154724
 30
0.0
 10
171.4886048338
 20
79.9401323331
 30
0.0
 10
171.2565331553
 20
79.2540367016
 30
0.0
 10
170.8989753072
 20
78.5930992747
 30
0.0
 10
170.4446287918
 20
78.011523176
 30
0.0
 10
169.9306272724
 20
77.556277307
 30
0.0
 10
169.4653739087
 20
77.3019311247
 30
0.0
 10
169.1014513862
 20
77.2050500328
 30
0.0
 10
168.8509712325
 20
77.1866820852
 30
0.0
 10
168.6177256025
 20
77.2208077393
 30
0.0
 10
168.4764380382
 20
77.2795627478
 30
0.0
 10
168.412331578
 20
77.3165587659
 30
0.0
  0
SPLINE
  5
2DD
100
AcDbEntity
  8
0
100
AcDbSpline
 62
7
  6
CONTINUOUS
 70
0
 71
3
 72
17
 73
13
 74
0
 42
0.0000001
 43
0.0000001
 44
0.0000000001
 40
0.0
 40
0.0
 40
0.0
 40
0.0
 40
0.1286938287
 40
0.2702786484
 40
0.4174347437
 40
0.5617788623
 40
0.6954492664
 40
0.8127116048
 40
0.8646776308
 40
0.9125100673
 40
0.9571398924
 40
1.0
 40
1.0
 40
1.0
 40
1.0
 10
204.8836466639
 20
138.3642123446
 30
0.0
 10
204.8836466639
 20
138.1419688293
 30
0.0
 10
204.8214797201
 20
137.67468569
 30
0.0
 10
204.5894080416
 20
136.9885900586
 30
0.0
 10
204.2318501935
 20
136.3276526317
 30
0.0
 10
203.7775036781
 20
135.746076533
 30
0.0
 10
203.2635021587
 20
135.290830664
 30
0.0
 10
202.798248795
 20
135.0364844817
 30
0.0
 10
202.4343262724
 20
134.9396033898
 30
0.0
 10
202.1838461188
 20
134.9212354422
 30
0.0
 10
201.9506004888
 20
134.9553610963
 30
0.0
 10
201.8093129244
 20
135.0141161048
 30
0.0
 10
201.7452064643
 20
135.0511121229
 30
0.0
  0
SPLINE
  5
2DE
100
AcDbEntity
  8
0
100
AcDbSpline
 62
7
  6
CONTINUOUS
 70
0
 71
3
 72
11
 73
7
 74
0
 42
0.0000001
 43
0.0000001
 44
0.0000000001
 40
0.0
 40
0.0
 40
0.0
 40
0.0
 40
0.2177723674
 40
0.4509510027
 40
0.7102002307
 40
1.0
 40
1.0
 40
1.0
 40
1.0
 10
205.5663431168
 20
141.6696640576
 30
0.0
 10
205.4014214224
 20
141.7648794834
 30
0.0
 10
205.0224606507
 20
141.9025089332
 30
0.0
 10
204.3931038797
 20
141.9182705882
 30
0.0
 10
203.7222298738
 20
141.7564867206
 30
0.0
 10
203.2858578182
 20
141.548741189
 30
0.0
 10
203.0663898023
 20
141.4220320273
 30
0.0
  0
SPLINE
  5
2DF
100
AcDbEntity
  8
0
100
AcDbSpline
 62
7
  6
CONTINUOUS
 70
0
 71
3
 72
15
 73
11
 74
0
 42
0.0000001
 43
0.0000001
 44
0.0000000001
 40
0.0
 40
0.0
 40
0.0
 40
0.0
 40
0.1141543519
 40
0.237325601
 40
0.366974755
 40
0.4999984147
 40
0.6330222943
 40
0.7626720931
 40
0.8858443543
 40
1.0
 40
1.0
 40
1.0
 40
1.0
 10
169.6910886858
 20
122.1529079645
 30
0.0
 10
169.4490539088
 20
122.013169955
 30
0.0
 10
168.9709918899
 20
121.6780518597
 30
0.0
 10
168.3132046553
 20
121.0626385234
 30
0.0
 10
167.7070181713
 20
120.3351740398
 30
0.0
 10
167.1752647741
 20
119.5229479302
 30
0.0
 10
166.7377365926
 20
118.6563193664
 30
0.0
 10
166.4108292525
 20
117.7676085848
 30
0.0
 10
166.2067598895
 20
116.890233958
 30
0.0
 10
166.1555694997
 20
116.3086555473
 30
0.0
 10
166.1555694997
 20
116.0291751095
 30
0.0
  0
SPLINE
  5
2E0
100
AcDbEntity
  8
0
100
AcDbSpline
 62
7
  6
CONTINUOUS
 70
0
 71
3
 72
11
 73
7
 74
0
 42
0.0000001
 43
0.0000001
 44
0.0000000001
 40
0.0
 40
0.0
 40
0.0
 40
0.0
 40
0.2177798312
 40
0.4509239181
 40
0.7102597115
 40
1.0
 40
1.0
 40
1.0
 40
1.0
 10
204.34514691
 20
101.0645190227
 30
0.0
 10
204.4309201155
 20
101.0150190651
 30
0.0
 10
204.5913773799
 20
100.8800924561
 30
0.0
 10
204.762205345
 20
100.6007982839
 30
0.0
 10
204.8637027762
 20
100.2565778507
 30
0.0
 10
204.8836466639
 20
100.0060429774
 30
0.0
 10
204.8836466639
 20
99.8742884011
 30
0.0
  0
SPLINE
  5
2E1
100
AcDbEntity
  8
0
100
AcDbSpline
 62
7
  6
CONTINUOUS
 70
0
 71
3
 72
11
 73
7
 74
0
 42
0.0000001
 43
0.0000001
 44
0.0000000001
 40
0.0
 40
0.0
 40
0.0
 40
0.0
 40
0.2898012489
 40
0.5490510236
 40
0.7822290598
 40
1.0
 40
1.0
 40
1.0
 40
1.0
 10
166.1555694997
 20
77.490261021
 30
0.0
 10
166.1555694997
 20
77.23683023
 30
0.0
 10
166.1938432432
 20
76.7550271869
 30
0.0
 10
166.3891792882
 20
76.0931137064
 30
0.0
 10
166.7175224677
 20
75.5559364789
 30
0.0
 10
167.0262082245
 20
75.2965562481
 30
0.0
 10
167.1911353713
 20
75.2013376744
 30
0.0
  0
SPLINE
  5
2E2
100
AcDbEntity
  8
0
100
AcDbSpline
 62
7
  6
CONTINUOUS
 70
0
 71
3
 72
17
 73
13
 74
0
 42
0.0000001
 43
0.0000001
 44
0.0000000001
 40
0.0
 40
0.0
 40
0.0
 40
0.0
 40
0.1286938287
 40
0.2702786484
 40
0.4174347437
 40
0.5617788623
 40
0.6954492664
 40
0.8127116048
 40
0.8646776308
 40
0.9125100673
 40
0.9571398924
 40
1.0
 40
1.0
 40
1.0
 40
1.0
 10
171.5507717777
 20
119.1195829311
 30
0.0
 10
171.5507717777
 20
118.8973394158
 30
0.0
 10
171.4886048338
 20
118.4300562765
 30
0.0
 10
171.2565331553
 20
117.7439606451
 30
0.0
 10
170.8989753072
 20
117.0830232181
 30
0.0
 10
170.4446287918
 20
116.5014471195
 30
0.0
 10
169.9306272724
 20
116.0462012505
 30
0.0
 10
169.4653739087
 20
115.7918550682
 30
0.0
 10
169.1014513862
 20
115.6949739763
 30
0.0
 10
168.8509712325
 20
115.6766060287
 30
0.0
 10
168.6177256025
 20
115.7107316828
 30
0.0
 10
168.4764380382
 20
115.7694866913
 30
0.0
 10
168.412331578
 20
115.8064827094
 30
0.0
  0
SPLINE
  5
2E3
100
AcDbEntity
  8
0
100
AcDbSpline
 62
7
  6
CONTINUOUS
 70
0
 71
3
 72
14
 73
10
 74
0
 42
0.0000001
 43
0.0000001
 44
0.0000000001
 40
0.0
 40
0.0
 40
0.0
 40
0.0
 40
0.2892785655
 40
0.4225359229
 40
0.548495559
 40
0.6678929073
 40
0.7818669841
 40
0.891952011
 40
1.0
 40
1.0
 40
1.0
 40
1.0
 10
186.378739244
 20
128.8480612942
 30
0.0
 10
187.4761059152
 20
129.4816224554
 30
0.0
 10
189.1608256942
 20
130.2834731084
 30
0.0
 10
191.4712925705
 20
130.9571543408
 30
0.0
 10
193.1112399212
 20
131.2322593651
 30
0.0
 10
194.6892410346
 20
131.2871533032
 30
0.0
 10
196.1903091542
 20
131.1197610111
 30
0.0
 10
197.5983987465
 20
130.7303972383
 30
0.0
 10
198.4686327617
 20
130.3228665257
 30
0.0
 10
198.8785098769
 20
130.0862284843
 30
0.0
  0
SPLINE
  5
2E4
100
AcDbEntity
  8
0
100
AcDbSpline
 62
7
  6
CONTINUOUS
 70
0
 71
3
 72
13
 73
9
 74
0
 42
0.0000001
 43
0.0000001
 44
0.0000000001
 40
0.0
 40
0.0
 40
0.0
 40
0.0
 40
0.1142466307
 40
0.237544229
 40
0.5000005226
 40
0.7624565301
 40
0.8857537943
 40
1.0
 40
1.0
 40
1.0
 40
1.0
 10
115.879734196
 20
222.8667803629
 30
0.0
 10
115.7345252344
 20
222.9506148994
 30
0.0
 10
115.4169447317
 20
223.0985085408
 30
0.0
 10
114.713113639
 20
223.3122700476
 30
0.0
 10
113.7584105292
 20
223.4161115302
 30
0.0
 10
112.8037083374
 20
223.3122656334
 30
0.0
 10
112.0998798823
 20
223.0985006644
 30
0.0
 10
111.7823013256
 20
222.9506054365
 30
0.0
 10
111.6370935089
 20
222.8667701649
 30
0.0
  0
SPLINE
  5
2E5
100
AcDbEntity
  8
0
100
AcDbSpline
 62
7
  6
CONTINUOUS
 70
0
 71
3
 72
11
 73
7
 74
0
 42
0.0000001
 43
0.0000001
 44
0.0000000001
 40
0.0
 40
0.0
 40
0.0
 40
0.0
 40
0.2177753738
 40
0.4509336309
 40
0.7102261693
 40
1.0
 40
1.0
 40
1.0
 40
1.0
 10
109.8387968613
 20
227.1942120348
 30
0.0
 10
109.8387968593
 20
227.3465628555
 30
0.0
 10
109.7825313837
 20
227.6641474666
 30
0.0
 10
109.5417627345
 20
228.1065362164
 30
0.0
 10
109.1612655224
 20
228.5065755023
 30
0.0
 10
108.8427919914
 20
228.7258306981
 30
0.0
 10
108.6672308969
 20
228.8271886503
 30
0.0
  0
SPLINE
  5
2E6
100
AcDbEntity
  8
0
100
AcDbSpline
 62
7
  6
CONTINUOUS
 70
0
 71
3
 72
13
 73
9
 74
0
 42
0.0000001
 43
0.0000001
 44
0.0000000001
 40
0.0
 40
0.0
 40
0.0
 40
0.0
 40
0.1142483233
 40
0.2375469957
 40
0.4999994774
 40
0.7624522452
 40
0.8857512516
 40
1.0
 40
1.0
 40
1.0
 40
1.0
 10
80.3831421756
 20
195.7593155404
 30
0.0
 10
80.2379317507
 20
195.675478763
 30
0.0
 10
79.9203473204
 20
195.5275840645
 30
0.0
 10
79.2165185371
 20
195.313821962
 30
0.0
 10
78.2618251553
 20
195.2099810206
 30
0.0
 10
77.3071308554
 20
195.3138175478
 30
0.0
 10
76.6032994345
 20
195.5275761881
 30
0.0
 10
76.2857130582
 20
195.6754693001
 30
0.0
 10
76.1405014885
 20
195.7593053424
 30
0.0
  0
SPLINE
  5
2E7
100
AcDbEntity
  8
0
100
AcDbSpline
 62
7
  6
CONTINUOUS
 70
0
 71
3
 72
11
 73
7
 74
0
 42
0.0000001
 43
0.0000001
 44
0.0000000001
 40
0.0
 40
0.0
 40
0.0
 40
0.0
 40
0.2177796924
 40
0.4509239527
 40
0.7102593987
 40
1.0
 40
1.0
 40
1.0
 40
1.0
 10
39.5423183627
 20
226.3774992809
 30
0.0
 10
39.5423385702
 20
226.2632361799
 30
0.0
 10
39.5000831786
 20
226.0250644243
 30
0.0
 10
39.3195535364
 20
225.6932459988
 30
0.0
 10
39.0341535453
 20
225.393247153
 30
0.0
 10
38.7953179962
 20
225.2287861946
 30
0.0
 10
38.6636654479
 20
225.1527770141
 30
0.0
  0
SPLINE
  5
2E8
100
AcDbEntity
  8
0
100
AcDbSpline
 62
7
  6
CONTINUOUS
 70
0
 71
3
 72
15
 73
11
 74
0
 42
0.0000001
 43
0.0000001
 44
0.0000000001
 40
0.0
 40
0.0
 40
0.0
 40
0.0
 40
0.122681148
 40
0.2568619433
 40
0.397426131
 40
0.5383207409
 40
0.6734720337
 40
0.7372546802
 40
0.797743823
 40
1.0
 40
1.0
 40
1.0
 40
1.0
 10
74.1602780761
 20
245.6466335385
 30
0.0
 10
73.967766378
 20
245.5354875212
 30
0.0
 10
73.5372429218
 20
245.3492768597
 30
0.0
 10
72.8339533983
 20
245.1819799933
 30
0.0
 10
72.0804585797
 20
245.1208388964
 30
0.0
 10
71.3244884674
 20
245.1700557989
 30
0.0
 10
70.7204619467
 20
245.3025872674
 30
0.0
 10
70.2774099925
 20
245.4635817357
 30
0.0
 10
69.7454925981
 20
245.7162907047
 30
0.0
 10
69.3448960127
 20
246.0376886829
 30
0.0
 10
69.1722166564
 20
246.3609364811
 30
0.0
  0
SPLINE
  5
2E9
100
AcDbEntity
  8
0
100
AcDbSpline
 62
7
  6
CONTINUOUS
 70
0
 71
3
 72
9
 73
5
 74
0
 42
0.0000001
 43
0.0000001
 44
0.0000000001
 40
0.0
 40
0.0
 40
0.0
 40
0.0
 40
0.5104125976
 40
1.0
 40
1.0
 40
1.0
 40
1.0
 10
69.1722166564
 20
246.3609364811
 30
0.0
 10
69.1296013677
 20
246.4407103378
 30
0.0
 10
69.0625044595
 20
246.6067018358
 30
0.0
 10
69.0389821526
 20
246.7846029662
 30
0.0
 10
69.0389668104
 20
246.8713557988
 30
0.0
  0
SPLINE
  5
2EA
100
AcDbEntity
  8
0
100
AcDbSpline
 62
7
  6
CONTINUOUS
 70
0
 71
3
 72
11
 73
7
 74
0
 42
0.0000001
 43
0.0000001
 44
0.0000000001
 40
0.0
 40
0.0
 40
0.0
 40
0.0
 40
0.2897781767
 40
0.5490726313
 40
0.7822276909
 40
1.0
 40
1.0
 40
1.0
 40
1.0
 10
111.6371111727
 20
221.5604188237
 30
0.0
 10
111.5054388117
 20
221.6364381769
 30
0.0
 10
111.266583295
 20
221.8008832768
 30
0.0
 10
110.9812119369
 20
222.1009148556
 30
0.0
 10
110.800642423
 20
222.4327060485
 30
0.0
 10
110.7584447381
 20
222.6708901552
 30
0.0
 10
110.7584447367
 20
222.7851512853
 30
0.0
  0
SPLINE
  5
2EB
100
AcDbEntity
  8
0
100
AcDbSpline
 62
7
  6
CONTINUOUS
 70
0
 71
3
 72
10
 73
6
 74
0
 42
0.0000001
 43
0.0000001
 44
0.0000000001
 40
0.0
 40
0.0
 40
0.0
 40
0.0
 40
0.4588857921
 40
0.7187804199
 40
1.0
 40
1.0
 40
1.0
 40
1.0
 10
74.9719693329
 20
246.0921244336
 30
0.0
 10
74.9078071889
 20
246.2644789647
 30
0.0
 10
74.7398188346
 20
246.5106439436
 30
0.0
 10
74.4396301158
 20
246.7765754111
 30
0.0
 10
74.2578670221
 20
246.896632952
 30
0.0
 10
74.1602604123
 20
246.9529848796
 30
0.0
  0
SPLINE
  5
2EC
100
AcDbEntity
  8
0
100
AcDbSpline
 62
7
  6
CONTINUOUS
 70
0
 71
3
 72
11
 73
7
 74
0
 42
0.0000001
 43
0.0000001
 44
0.0000000001
 40
0.0
 40
0.0
 40
0.0
 40
0.0
 40
0.2228964003
 40
0.4583021121
 40
0.7156030448
 40
1.0
 40
1.0
 40
1.0
 40
1.0
 10
117.4655074131
 20
220.3356457336
 30
0.0
 10
117.4655074118
 20
220.4363506863
 30
0.0
 10
117.433242846
 20
220.6445678656
 30
0.0
 10
117.2931878298
 20
220.9400470241
 30
0.0
 10
117.0688727706
 20
221.2137938668
 30
0.0
 10
116.8780680119
 20
221.3694827498
 30
0.0
 10
116.7725434116
 20
221.4427937072
 30
0.0
  0
SPLINE
  5
2ED
100
AcDbEntity
  8
0
100
AcDbSpline
 62
7
  6
CONTINUOUS
 70
0
 71
3
 72
11
 73
7
 74
0
 42
0.0000001
 43
0.0000001
 44
0.0000000001
 40
0.0
 40
0.0
 40
0.0
 40
0.0
 40
0.2177727701
 40
0.4509280213
 40
0.7102223029
 40
1.0
 40
1.0
 40
1.0
 40
1.0
 10
117.4655074131
 20
217.8861384822
 30
0.0
 10
117.4655074146
 20
217.7718785821
 30
0.0
 10
117.4233106934
 20
217.5336972236
 30
0.0
 10
117.2427450857
 20
217.2019092432
 30
0.0
 10
116.9573795234
 20
216.9018798884
 30
0.0
 10
116.7185285396
 20
216.7374354163
 30
0.0
 10
116.5868586409
 20
216.6614162187
 30
0.0
  0
SPLINE
  5
2EE
100
AcDbEntity
  8
0
100
AcDbSpline
 62
7
  6
CONTINUOUS
 70
0
 71
3
 72
13
 73
9
 74
0
 42
0.0000001
 43
0.0000001
 44
0.0000000001
 40
0.0
 40
0.0
 40
0.0
 40
0.0
 40
0.1142466307
 40
0.237544229
 40
0.5000005226
 40
0.7624565301
 40
0.8857537943
 40
1.0
 40
1.0
 40
1.0
 40
1.0
 10
74.1602604123
 20
246.9529848796
 30
0.0
 10
74.0150514508
 20
247.0368194161
 30
0.0
 10
73.697470948
 20
247.1847130575
 30
0.0
 10
72.9936398553
 20
247.3984745643
 30
0.0
 10
72.0389367455
 20
247.5023160469
 30
0.0
 10
71.0842345537
 20
247.3984701501
 30
0.0
 10
70.3804060986
 20
247.1847051811
 30
0.0
 10
70.0628275419
 20
247.0368099532
 30
0.0
 10
69.9176197252
 20
246.9529746816
 30
0.0
  0
SPLINE
  5
2EF
100
AcDbEntity
  8
0
100
AcDbSpline
 62
7
  6
CONTINUOUS
 70
0
 71
3
 72
11
 73
7
 74
0
 42
0.0000001
 43
0.0000001
 44
0.0000000001
 40
0.0
 40
0.0
 40
0.0
 40
0.0
 40
0.2897733512
 40
0.5490657165
 40
0.7822241652
 40
1.0
 40
1.0
 40
1.0
 40
1.0
 10
76.1404808807
 20
202.3729136405
 30
0.0
 10
76.008812522
 20
202.296895332
 30
0.0
 10
75.7699619067
 20
202.1324545629
 30
0.0
 10
75.4845947935
 20
201.8324273224
 30
0.0
 10
75.304022213
 20
201.5006389725
 30
0.0
 10
75.2618240698
 20
201.2624532624
 30
0.0
 10
75.2618240712
 20
201.148191377
 30
0.0
  0
SPLINE
  5
2F0
100
AcDbEntity
  8
0
100
AcDbSpline
 62
7
  6
CONTINUOUS
 70
0
 71
3
 72
11
 73
7
 74
0
 42
0.0000001
 43
0.0000001
 44
0.0000000001
 40
0.0
 40
0.0
 40
0.0
 40
0.0
 40
0.2897733512
 40
0.5490657165
 40
0.7822241652
 40
1.0
 40
1.0
 40
1.0
 40
1.0
 10
34.4210070971
 20
226.4591181572
 30
0.0
 10
34.2893387384
 20
226.3830998487
 30
0.0
 10
34.050488123
 20
226.2186590796
 30
0.0
 10
33.7651210099
 20
225.9186318391
 30
0.0
 10
33.5845484293
 20
225.5868434892
 30
0.0
 10
33.5423502861
 20
225.3486577791
 30
0.0
 10
33.5423502876
 20
225.2343958937
 30
0.0
  0
SPLINE
  5
2F1
100
AcDbEntity
  8
0
100
AcDbSpline
 62
7
  6
CONTINUOUS
 70
0
 71
3
 72
11
 73
7
 74
0
 42
0.0000001
 43
0.0000001
 44
0.0000000001
 40
0.0
 40
0.0
 40
0.0
 40
0.0
 40
0.2897733512
 40
0.5490657165
 40
0.7822241652
 40
1.0
 40
1.0
 40
1.0
 40
1.0
 10
103.0103766474
 20
228.8271750529
 30
0.0
 10
102.8348188358
 20
228.7258173082
 30
0.0
 10
102.5163513487
 20
228.5065629494
 30
0.0
 10
102.1358618645
 20
228.1065266287
 30
0.0
 10
101.8950984238
 20
227.6641421622
 30
0.0
 10
101.8388342328
 20
227.3465612154
 30
0.0
 10
101.8388342348
 20
227.1942120348
 30
0.0
  0
SPLINE
  5
2F2
100
AcDbEntity
  8
0
100
AcDbSpline
 62
7
  6
CONTINUOUS
 70
0
 71
3
 72
13
 73
9
 74
0
 42
0.0000001
 43
0.0000001
 44
0.0000000001
 40
0.0
 40
0.0
 40
0.0
 40
0.0
 40
0.1142466307
 40
0.237544229
 40
0.5000005226
 40
0.7624565301
 40
0.8857537943
 40
1.0
 40
1.0
 40
1.0
 40
1.0
 10
108.6672308969
 20
228.8271886503
 30
0.0
 10
108.4736189482
 20
228.9389680322
 30
0.0
 10
108.0501782779
 20
229.1361595542
 30
0.0
 10
107.1117368209
 20
229.4211748965
 30
0.0
 10
105.8387993412
 20
229.5596302066
 30
0.0
 10
104.5658630855
 20
229.4211690109
 30
0.0
 10
103.6274251454
 20
229.1361490523
 30
0.0
 10
103.2039870697
 20
228.9389554151
 30
0.0
 10
103.0103766474
 20
228.8271750529
 30
0.0
  0
SPLINE
  5
2F3
100
AcDbEntity
  8
0
100
AcDbSpline
 62
7
  6
CONTINUOUS
 70
0
 71
3
 72
11
 73
7
 74
0
 42
0.0000001
 43
0.0000001
 44
0.0000000001
 40
0.0
 40
0.0
 40
0.0
 40
0.0
 40
0.2177753738
 40
0.4509336309
 40
0.7102261693
 40
1.0
 40
1.0
 40
1.0
 40
1.0
 10
116.7584086692
 20
221.6420479013
 30
0.0
 10
116.7584086678
 20
221.7563110168
 30
0.0
 10
116.716209561
 20
221.9944994752
 30
0.0
 10
116.5356330741
 20
222.3262910375
 30
0.0
 10
116.2502601651
 20
222.6263205019
 30
0.0
 10
116.0114050169
 20
222.7907618988
 30
0.0
 10
115.879734196
 20
222.8667803629
 30
0.0
  0
SPLINE
  5
2F4
100
AcDbEntity
  8
0
100
AcDbSpline
 62
7
  6
CONTINUOUS
 70
0
 71
3
 72
11
 73
7
 74
0
 42
0.0000001
 43
0.0000001
 44
0.0000000001
 40
0.0
 40
0.0
 40
0.0
 40
0.0
 40
0.2177753738
 40
0.4509336309
 40
0.7102261693
 40
1.0
 40
1.0
 40
1.0
 40
1.0
 10
81.2617960411
 20
201.148191377
 30
0.0
 10
81.2617960396
 20
201.2624544925
 30
0.0
 10
81.2195969329
 20
201.5006429508
 30
0.0
 10
81.039020446
 20
201.8324345132
 30
0.0
 10
80.753647537
 20
202.1324639776
 30
0.0
 10
80.5147923887
 20
202.2969053745
 30
0.0
 10
80.3831215678
 20
202.3729238386
 30
0.0
  0
SPLINE
  5
2F5
100
AcDbEntity
  8
0
100
AcDbSpline
 62
7
  6
CONTINUOUS
 70
0
 71
3
 72
13
 73
9
 74
0
 42
0.0000001
 43
0.0000001
 44
0.0000000001
 40
0.0
 40
0.0
 40
0.0
 40
0.0
 40
0.1142487484
 40
0.2375477548
 40
0.5000005226
 40
0.7624530043
 40
0.8857516767
 40
1.0
 40
1.0
 40
1.0
 40
1.0
 10
76.1405014885
 20
198.2088125938
 30
0.0
 10
76.2857130582
 20
198.1249765515
 30
0.0
 10
76.6032994345
 20
197.9770834395
 30
0.0
 10
77.3071308554
 20
197.7633247992
 30
0.0
 10
78.2618251553
 20
197.659488272
 30
0.0
 10
79.2165185371
 20
197.7633292133
 30
0.0
 10
79.9203473204
 20
197.9770913159
 30
0.0
 10
80.2379317507
 20
198.1249860143
 30
0.0
 10
80.3831421756
 20
198.2088227918
 30
0.0
  0
SPLINE
  5
2F6
100
AcDbEntity
  8
0
100
AcDbSpline
 62
7
  6
CONTINUOUS
 70
0
 71
3
 72
17
 73
13
 74
0
 42
0.0000001
 43
0.0000001
 44
0.0000000001
 40
0.0
 40
0.0
 40
0.0
 40
0.0
 40
0.1286923651
 40
0.2702770074
 40
0.417433908
 40
0.5617794078
 40
0.6954504941
 40
0.8127129393
 40
0.8646788001
 40
0.9125109544
 40
0.9571403961
 40
1.0
 40
1.0
 40
1.0
 40
1.0
 10
80.3831392316
 20
198.617065246
 30
0.0
 10
80.1610616505
 20
198.4888494601
 30
0.0
 10
79.6582592447
 20
198.2813867931
 30
0.0
 10
78.8387823139
 20
198.1174648714
 30
0.0
 10
77.9720437502
 20
198.0934507867
 30
0.0
 10
77.128766859
 20
198.2119385976
 30
0.0
 10
76.3773119021
 20
198.4629193649
 30
0.0
 10
75.8547346942
 20
198.7810899908
 30
0.0
 10
75.5479683446
 20
199.0888496852
 30
0.0
 10
75.3851059878
 20
199.3285465438
 30
0.0
 10
75.2846418195
 20
199.58130612
 30
0.0
 10
75.2618430693
 20
199.7563853568
 30
0.0
 10
75.2618279659
 20
199.8417875064
 30
0.0
  0
SPLINE
  5
2F7
100
AcDbEntity
  8
0
100
AcDbSpline
 62
7
  6
CONTINUOUS
 70
0
 71
3
 72
13
 73
9
 74
0
 42
0.0000001
 43
0.0000001
 44
0.0000000001
 40
0.0
 40
0.0
 40
0.0
 40
0.0
 40
0.1142483233
 40
0.2375469957
 40
0.4999994774
 40
0.7624522452
 40
0.8857512516
 40
1.0
 40
1.0
 40
1.0
 40
1.0
 10
76.1404808807
 20
203.5160170245
 30
0.0
 10
76.2856913057
 20
203.599853802
 30
0.0
 10
76.6032757359
 20
203.7477485005
 30
0.0
 10
77.3071045192
 20
203.961510603
 30
0.0
 10
78.2617979011
 20
204.0653515444
 30
0.0
 10
79.2164922009
 20
203.9615150171
 30
0.0
 10
79.9203236219
 20
203.7477563768
 30
0.0
 10
80.2379099981
 20
203.5998632648
 30
0.0
 10
80.3831215678
 20
203.5160272226
 30
0.0
  0
SPLINE
  5
2F8
100
AcDbEntity
  8
0
100
AcDbSpline
 62
7
  6
CONTINUOUS
 70
0
 71
3
 72
17
 73
13
 74
0
 42
0.0000001
 43
0.0000001
 44
0.0000000001
 40
0.0
 40
0.0
 40
0.0
 40
0.0
 40
0.1286923651
 40
0.2702770074
 40
0.417433908
 40
0.5617794078
 40
0.6954504941
 40
0.8127129393
 40
0.8646788001
 40
0.9125109544
 40
0.9571403961
 40
1.0
 40
1.0
 40
1.0
 40
1.0
 10
34.4210070971
 20
227.6022215412
 30
0.0
 10
34.6430846782
 20
227.7304373271
 30
0.0
 10
35.145887084
 20
227.9378999942
 30
0.0
 10
35.9653640148
 20
228.1018219158
 30
0.0
 10
36.8321025785
 20
228.1258360006
 30
0.0
 10
37.6753794697
 20
228.0073481896
 30
0.0
 10
38.4268344266
 20
227.7563674224
 30
0.0
 10
38.9494116345
 20
227.4381967964
 30
0.0
 10
39.2561779841
 20
227.130437102
 30
0.0
 10
39.4190403408
 20
226.8907402434
 30
0.0
 10
39.5195045092
 20
226.6379806672
 30
0.0
 10
39.5423032594
 20
226.4629014304
 30
0.0
 10
39.5423183627
 20
226.3774992809
 30
0.0
  0
SPLINE
  5
2F9
100
AcDbEntity
  8
0
100
AcDbSpline
 62
7
  6
CONTINUOUS
 70
0
 71
3
 72
11
 73
7
 74
0
 42
0.0000001
 43
0.0000001
 44
0.0000000001
 40
0.0
 40
0.0
 40
0.0
 40
0.0
 40
0.2177796924
 40
0.4509239527
 40
0.7102593987
 40
1.0
 40
1.0
 40
1.0
 40
1.0
 10
69.0389668104
 20
246.8713557988
 30
0.0
 10
69.038946603
 20
246.9856188998
 30
0.0
 10
69.0812019945
 20
247.2237906553
 30
0.0
 10
69.2617316367
 20
247.5556090809
 30
0.0
 10
69.5471316278
 20
247.8556079267
 30
0.0
 10
69.7859671769
 20
248.0200688851
 30
0.0
 10
69.9176197252
 20
248.0960780656
 30
0.0
  0
SPLINE
  5
2FA
100
AcDbEntity
  8
0
100
AcDbSpline
 62
7
  6
CONTINUOUS
 70
0
 71
3
 72
17
 73
13
 74
0
 42
0.0000001
 43
0.0000001
 44
0.0000000001
 40
0.0
 40
0.0
 40
0.0
 40
0.0
 40
0.1286902347
 40
0.2702748016
 40
0.4174293138
 40
0.5617764465
 40
0.6954484688
 40
0.8127147336
 40
0.8646780237
 40
0.9125120584
 40
0.9571415929
 40
1.0
 40
1.0
 40
1.0
 40
1.0
 10
108.6672544486
 20
222.7034905568
 30
0.0
 10
108.3711555843
 20
222.5325388182
 30
0.0
 10
107.7007553034
 20
222.2559308104
 30
0.0
 10
106.608135871
 20
222.0373445014
 30
0.0
 10
105.4524859521
 20
222.0053189274
 30
0.0
 10
104.3281086618
 20
222.1633136765
 30
0.0
 10
103.3261831836
 20
222.497995593
 30
0.0
 10
102.6293280977
 20
222.9221388912
 30
0.0
 10
102.2203933359
 20
223.3325737395
 30
0.0
 10
102.0031575423
 20
223.6521116413
 30
0.0
 10
101.8692680547
 20
223.9891548901
 30
0.0
 10
101.8388477642
 20
224.2225870988
 30
0.0
 10
101.8388450801
 20
224.3364535784
 30
0.0
  0
SPLINE
  5
2FB
100
AcDbEntity
  8
0
100
AcDbSpline
 62
7
  6
CONTINUOUS
 70
0
 71
3
 72
11
 73
7
 74
0
 42
0.0000001
 43
0.0000001
 44
0.0000000001
 40
0.0
 40
0.0
 40
0.0
 40
0.0
 40
0.2177753738
 40
0.4509336309
 40
0.7102261693
 40
1.0
 40
1.0
 40
1.0
 40
1.0
 10
101.8388342348
 20
227.1942120348
 30
0.0
 10
101.8388342367
 20
227.0418612142
 30
0.0
 10
101.8950997124
 20
226.7242766031
 30
0.0
 10
102.1358683616
 20
226.2818878533
 30
0.0
 10
102.5163655736
 20
225.8818485674
 30
0.0
 10
102.8348391046
 20
225.6625933715
 30
0.0
 10
103.0104001992
 20
225.5612354194
 30
0.0
  0
SPLINE
  5
2FC
100
AcDbEntity
  8
0
100
AcDbSpline
 62
7
  6
CONTINUOUS
 70
0
 71
3
 72
11
 73
7
 74
0
 42
0.0000001
 43
0.0000001
 44
0.0000000001
 40
0.0
 40
0.0
 40
0.0
 40
0.0
 40
0.2897776971
 40
0.5490719787
 40
0.7822272299
 40
1.0
 40
1.0
 40
1.0
 40
1.0
 10
116.5868586409
 20
219.11092347
 30
0.0
 10
116.7185285396
 20
219.1869426677
 30
0.0
 10
116.9573795234
 20
219.3513871398
 30
0.0
 10
117.2427450857
 20
219.6514164946
 30
0.0
 10
117.4233106934
 20
219.983204475
 30
0.0
 10
117.4655074146
 20
220.2213858335
 30
0.0
 10
117.4655074131
 20
220.3356457336
 30
0.0
  0
SPLINE
  5
2FD
100
AcDbEntity
  8
0
100
AcDbSpline
 62
7
  6
CONTINUOUS
 70
0
 71
3
 72
9
 73
5
 74
0
 42
0.0000001
 43
0.0000001
 44
0.0000000001
 40
0.0
 40
0.0
 40
0.0
 40
0.0
 40
0.2709897213
 40
1.0
 40
1.0
 40
1.0
 40
1.0
 10
69.9176197252
 20
246.9529746816
 30
0.0
 10
69.8512258628
 20
246.9146423961
 30
0.0
 10
69.6124027723
 20
246.7635094493
 30
0.0
 10
69.3975407396
 20
246.5690429064
 30
0.0
 10
69.2756960049
 20
246.4026406922
 30
0.0
  0
SPLINE
  5
2FE
100
AcDbEntity
  8
0
100
AcDbSpline
 62
7
  6
CONTINUOUS
 70
0
 71
3
 72
9
 73
5
 74
0
 42
0.0000001
 43
0.0000001
 44
0.0000000001
 40
0.0
 40
0.0
 40
0.0
 40
0.0
 40
0.4750938762
 40
1.0
 40
1.0
 40
1.0
 40
1.0
 10
115.8797518598
 20
219.1109217704
 30
0.0
 10
115.6264843532
 20
218.9646985801
 30
0.0
 10
115.0465326047
 20
218.737140798
 30
0.0
 10
114.434866272
 20
218.6378622791
 30
0.0
 10
114.1125151506
 20
218.615730225
 30
0.0
  0
SPLINE
  5
2FF
100
AcDbEntity
  8
0
100
AcDbSpline
 62
7
  6
CONTINUOUS
 70
0
 71
3
 72
13
 73
9
 74
0
 42
0.0000001
 43
0.0000001
 44
0.0000000001
 40
0.0
 40
0.0
 40
0.0
 40
0.0
 40
0.1142466307
 40
0.237544229
 40
0.5000005226
 40
0.7624565301
 40
0.8857537943
 40
1.0
 40
1.0
 40
1.0
 40
1.0
 10
80.3831215678
 20
202.3729238386
 30
0.0
 10
80.2379126063
 20
202.456758375
 30
0.0
 10
79.9203321036
 20
202.6046520165
 30
0.0
 10
79.2165010109
 20
202.8184135232
 30
0.0
 10
78.261797901
 20
202.9222550058
 30
0.0
 10
77.3070957093
 20
202.8184091091
 30
0.0
 10
76.6032672542
 20
202.60464414
 30
0.0
 10
76.2856886975
 20
202.4567489122
 30
0.0
 10
76.1404808807
 20
202.3729136405
 30
0.0
  0
SPLINE
  5
300
100
AcDbEntity
  8
0
100
AcDbSpline
 62
7
  6
CONTINUOUS
 70
0
 71
3
 72
11
 73
7
 74
0
 42
0.0000001
 43
0.0000001
 44
0.0000000001
 40
0.0
 40
0.0
 40
0.0
 40
0.0
 40
0.2897733512
 40
0.5490657165
 40
0.7822241652
 40
1.0
 40
1.0
 40
1.0
 40
1.0
 10
80.3831392316
 20
199.9234691134
 30
0.0
 10
80.5148075903
 20
199.999487422
 30
0.0
 10
80.7536582056
 20
200.1639281911
 30
0.0
 10
81.0390253188
 20
200.4639554316
 30
0.0
 10
81.2195978993
 20
200.7957437814
 30
0.0
 10
81.2617960426
 20
201.0339294916
 30
0.0
 10
81.2617960411
 20
201.148191377
 30
0.0
  0
SPLINE
  5
301
100
AcDbEntity
  8
0
100
AcDbSpline
 62
7
  6
CONTINUOUS
 70
0
 71
3
 72
13
 73
9
 74
0
 42
0.0000001
 43
0.0000001
 44
0.0000000001
 40
0.0
 40
0.0
 40
0.0
 40
0.0
 40
0.1142466307
 40
0.237544229
 40
0.5000005226
 40
0.7624565301
 40
0.8857537943
 40
1.0
 40
1.0
 40
1.0
 40
1.0
 10
76.1404985445
 20
199.9234589154
 30
0.0
 10
76.2857075061
 20
199.8396243789
 30
0.0
 10
76.6032880088
 20
199.6917307375
 30
0.0
 10
77.3071191015
 20
199.4779692307
 30
0.0
 10
78.2618222113
 20
199.3741277481
 30
0.0
 10
79.2165244031
 20
199.4779736449
 30
0.0
 10
79.9203528582
 20
199.6917386139
 30
0.0
 10
80.2379314149
 20
199.8396338418
 30
0.0
 10
80.3831392316
 20
199.9234691134
 30
0.0
  0
SPLINE
  5
302
100
AcDbEntity
  8
0
100
AcDbSpline
 62
7
  6
CONTINUOUS
 70
0
 71
3
 72
11
 73
7
 74
0
 42
0.0000001
 43
0.0000001
 44
0.0000000001
 40
0.0
 40
0.0
 40
0.0
 40
0.0
 40
0.2897733512
 40
0.5490657165
 40
0.7822241652
 40
1.0
 40
1.0
 40
1.0
 40
1.0
 10
115.8797518598
 20
220.4173256378
 30
0.0
 10
116.0114202184
 20
220.4933439463
 30
0.0
 10
116.2502708338
 20
220.6577847154
 30
0.0
 10
116.535637947
 20
220.957811956
 30
0.0
 10
116.7162105275
 20
221.2896003058
 30
0.0
 10
116.7584086707
 20
221.5277860159
 30
0.0
 10
116.7584086692
 20
221.6420479013
 30
0.0
  0
SPLINE
  5
303
100
AcDbEntity
  8
0
100
AcDbSpline
 62
7
  6
CONTINUOUS
 70
0
 71
3
 72
14
 73
10
 74
0
 42
0.0000001
 43
0.0000001
 44
0.0000000001
 40
0.0
 40
0.0
 40
0.0
 40
0.0
 40
0.3072080201
 40
0.4497478615
 40
0.5815297174
 40
0.701315719
 40
0.8092838373
 40
0.9074709308
 40
1.0
 40
1.0
 40
1.0
 40
1.0
 10
36.1842371109
 20
222.2083611165
 30
0.0
 10
35.8350151555
 20
222.2325829859
 30
0.0
 10
35.3241545474
 20
222.3197789137
 30
0.0
 10
34.7007960958
 20
222.5487962506
 30
0.0
 10
34.3031516611
 20
222.7612382062
 30
0.0
 10
33.9765812127
 20
223.0122721768
 30
0.0
 10
33.7315766516
 20
223.2956197041
 30
0.0
 10
33.5778759344
 20
223.6039243787
 30
0.0
 10
33.5423728286
 20
223.8225559282
 30
0.0
 10
33.5423541823
 20
223.9279920231
 30
0.0
  0
SPLINE
  5
304
100
AcDbEntity
  8
0
100
AcDbSpline
 62
7
  6
CONTINUOUS
 70
0
 71
3
 72
9
 73
5
 74
0
 42
0.0000001
 43
0.0000001
 44
0.0000000001
 40
0.0
 40
0.0
 40
0.0
 40
0.0
 40
0.2270441754
 40
1.0
 40
1.0
 40
1.0
 40
1.0
 10
39.3841286718
 20
225.7894255751
 30
0.0
 10
39.3462538097
 20
225.8540853459
 30
0.0
 10
39.155007403
 20
226.1246898692
 30
0.0
 10
38.8845842504
 20
226.3315735127
 30
0.0
 10
38.6636477841
 20
226.4591283553
 30
0.0
  0
SPLINE
  5
305
100
AcDbEntity
  8
0
100
AcDbSpline
 62
7
  6
CONTINUOUS
 70
0
 71
3
 72
11
 73
7
 74
0
 42
0.0000001
 43
0.0000001
 44
0.0000000001
 40
0.0
 40
0.0
 40
0.0
 40
0.0
 40
0.2177753738
 40
0.4509336309
 40
0.7102261693
 40
1.0
 40
1.0
 40
1.0
 40
1.0
 10
75.2618240712
 20
201.148191377
 30
0.0
 10
75.2618240727
 20
201.0339282615
 30
0.0
 10
75.3040231794
 20
200.7957398031
 30
0.0
 10
75.4845996663
 20
200.4639482408
 30
0.0
 10
75.7699725754
 20
200.1639187764
 30
0.0
 10
76.0088277236
 20
199.9994773795
 30
0.0
 10
76.1404985445
 20
199.9234589154
 30
0.0
  0
SPLINE
  5
306
100
AcDbEntity
  8
0
100
AcDbSpline
 62
7
  6
CONTINUOUS
 70
0
 71
3
 72
13
 73
9
 74
0
 42
0.0000001
 43
0.0000001
 44
0.0000000001
 40
0.0
 40
0.0
 40
0.0
 40
0.0
 40
0.1142466307
 40
0.237544229
 40
0.5000005226
 40
0.7624565301
 40
0.8857537943
 40
1.0
 40
1.0
 40
1.0
 40
1.0
 10
38.6636477841
 20
226.4591283553
 30
0.0
 10
38.5184388226
 20
226.5429628917
 30
0.0
 10
38.2008583199
 20
226.6908565332
 30
0.0
 10
37.4970272272
 20
226.9046180399
 30
0.0
 10
36.5423241174
 20
227.0084595225
 30
0.0
 10
35.5876219256
 20
226.9046136257
 30
0.0
 10
34.8837934705
 20
226.6908486567
 30
0.0
 10
34.5662149138
 20
226.5429534289
 30
0.0
 10
34.4210070971
 20
226.4591181572
 30
0.0
  0
SPLINE
  5
307
100
AcDbEntity
  8
0
100
AcDbSpline
 62
7
  6
CONTINUOUS
 70
0
 71
3
 72
9
 73
5
 74
0
 42
0.0000001
 43
0.0000001
 44
0.0000000001
 40
0.0
 40
0.0
 40
0.0
 40
0.0
 40
0.4752390475
 40
1.0
 40
1.0
 40
1.0
 40
1.0
 10
34.4210247609
 20
224.0096634321
 30
0.0
 10
34.668709786
 20
223.8666656512
 30
0.0
 10
35.2347641718
 20
223.6425251801
 30
0.0
 10
35.8320107326
 20
223.541678195
 30
0.0
 10
36.1468855875
 20
223.517485811
 30
0.0
  0
SPLINE
  5
308
100
AcDbEntity
  8
0
100
AcDbSpline
 62
7
  6
CONTINUOUS
 70
0
 71
3
 72
11
 73
7
 74
0
 42
0.0000001
 43
0.0000001
 44
0.0000000001
 40
0.0
 40
0.0
 40
0.0
 40
0.0
 40
0.2177753738
 40
0.4509336309
 40
0.7102261693
 40
1.0
 40
1.0
 40
1.0
 40
1.0
 10
33.5423502876
 20
225.2343958937
 30
0.0
 10
33.542350289
 20
225.1201327782
 30
0.0
 10
33.5845493958
 20
224.8819443198
 30
0.0
 10
33.7651258827
 20
224.5501527575
 30
0.0
 10
34.0504987917
 20
224.2501232931
 30
0.0
 10
34.2893539399
 20
224.0856818962
 30
0.0
 10
34.4210247609
 20
224.0096634321
 30
0.0
  0
SPLINE
  5
309
100
AcDbEntity
  8
0
100
AcDbSpline
 62
7
  6
CONTINUOUS
 70
0
 71
3
 72
11
 73
7
 74
0
 42
0.0000001
 43
0.0000001
 44
0.0000000001
 40
0.0
 40
0.0
 40
0.0
 40
0.0
 40
0.2897733512
 40
0.5490657165
 40
0.7822241652
 40
1.0
 40
1.0
 40
1.0
 40
1.0
 10
108.6672544486
 20
225.5612490168
 30
0.0
 10
108.8428122602
 20
225.6626067615
 30
0.0
 10
109.1612797473
 20
225.8818611203
 30
0.0
 10
109.5417692315
 20
226.281897441
 30
0.0
 10
109.7825326722
 20
226.7242819075
 30
0.0
 10
109.8387968632
 20
227.0418628543
 30
0.0
 10
109.8387968613
 20
227.1942120348
 30
0.0
  0
SPLINE
  5
30A
100
AcDbEntity
  8
0
100
AcDbSpline
 62
7
  6
CONTINUOUS
 70
0
 71
3
 72
13
 73
9
 74
0
 42
0.0000001
 43
0.0000001
 44
0.0000000001
 40
0.0
 40
0.0
 40
0.0
 40
0.0
 40
0.1142466307
 40
0.237544229
 40
0.5000005226
 40
0.7624565301
 40
0.8857537943
 40
1.0
 40
1.0
 40
1.0
 40
1.0
 10
103.0104001992
 20
225.5612354194
 30
0.0
 10
103.2040121479
 20
225.4494560374
 30
0.0
 10
103.6274528182
 20
225.2522645155
 30
0.0
 10
104.5658942751
 20
224.9672491732
 30
0.0
 10
105.8388317549
 20
224.8287938631
 30
0.0
 10
107.1117680106
 20
224.9672550588
 30
0.0
 10
108.0502059507
 20
225.2522750174
 30
0.0
 10
108.4736440263
 20
225.4494686546
 30
0.0
 10
108.6672544486
 20
225.5612490168
 30
0.0
  0
SPLINE
  5
30B
100
AcDbEntity
  8
0
100
AcDbSpline
 62
7
  6
CONTINUOUS
 70
0
 71
3
 72
11
 73
7
 74
0
 42
0.0000001
 43
0.0000001
 44
0.0000000001
 40
0.0
 40
0.0
 40
0.0
 40
0.0
 40
0.2177727366
 40
0.450931526
 40
0.7102279717
 40
1.0
 40
1.0
 40
1.0
 40
1.0
 10
109.8387860159
 20
224.3364535713
 30
0.0
 10
109.8387896071
 20
224.1841069357
 30
0.0
 10
109.7825255831
 20
223.8665283686
 30
0.0
 10
109.5417686106
 20
223.4241412124
 30
0.0
 10
109.1612782199
 20
223.0241037774
 30
0.0
 10
108.8428110239
 20
222.8048475878
 30
0.0
 10
108.6672544486
 20
222.7034905568
 30
0.0
  0
SPLINE
  5
30C
100
AcDbEntity
  8
0
100
AcDbSpline
 62
7
  6
CONTINUOUS
 70
0
 71
3
 72
9
 73
5
 74
0
 42
0.0000001
 43
0.0000001
 44
0.0000000001
 40
0.0
 40
0.0
 40
0.0
 40
0.0
 40
0.5247613351
 40
1.0
 40
1.0
 40
1.0
 40
1.0
 10
114.1539126711
 20
219.9251408369
 30
0.0
 10
114.4687842595
 20
219.949335417
 30
0.0
 10
115.0660237948
 20
220.0501855994
 30
0.0
 10
115.6320706682
 20
220.2743276887
 30
0.0
 10
115.8797518598
 20
220.4173256378
 30
0.0
  0
SPLINE
  5
30D
100
AcDbEntity
  8
0
100
AcDbSpline
 62
7
  6
CONTINUOUS
 70
0
 71
3
 72
11
 73
7
 74
0
 42
0.0000001
 43
0.0000001
 44
0.0000000001
 40
0.0
 40
0.0
 40
0.0
 40
0.0
 40
0.2177796924
 40
0.4509239527
 40
0.7102593987
 40
1.0
 40
1.0
 40
1.0
 40
1.0
 10
116.7584047746
 20
220.3356440371
 30
0.0
 10
116.758424982
 20
220.2213809361
 30
0.0
 10
116.7161695904
 20
219.9832091806
 30
0.0
 10
116.5356399482
 20
219.651390755
 30
0.0
 10
116.2502399571
 20
219.3513919092
 30
0.0
 10
116.011404408
 20
219.1869309508
 30
0.0
 10
115.8797518598
 20
219.1109217704
 30
0.0
  0
SPLINE
  5
30E
100
AcDbEntity
  8
0
100
AcDbSpline
 62
7
  6
CONTINUOUS
 70
0
 71
3
 72
11
 73
7
 74
0
 42
0.0000001
 43
0.0000001
 44
0.0000000001
 40
0.0
 40
0.0
 40
0.0
 40
0.0
 40
0.2177727701
 40
0.4509280213
 40
0.7102223029
 40
1.0
 40
1.0
 40
1.0
 40
1.0
 10
81.2617880038
 20
199.8417875096
 30
0.0
 10
81.2617880053
 20
199.7275276095
 30
0.0
 10
81.2195912841
 20
199.489346251
 30
0.0
 10
81.0390256764
 20
199.1575582705
 30
0.0
 10
80.753660114
 20
198.8575289158
 30
0.0
 10
80.5148091303
 20
198.6930844437
 30
0.0
 10
80.3831392316
 20
198.617065246
 30
0.0
  0
SPLINE
  5
30F
100
AcDbEntity
  8
0
100
AcDbSpline
 62
7
  6
CONTINUOUS
 70
0
 71
3
 72
11
 73
7
 74
0
 42
0.0000001
 43
0.0000001
 44
0.0000000001
 40
0.0
 40
0.0
 40
0.0
 40
0.0
 40
0.2177727701
 40
0.4509280213
 40
0.7102223029
 40
1.0
 40
1.0
 40
1.0
 40
1.0
 10
110.7584447367
 20
222.7851512853
 30
0.0
 10
110.7584447352
 20
222.8994111854
 30
0.0
 10
110.8006414564
 20
223.1375925439
 30
0.0
 10
110.9812070641
 20
223.4693805243
 30
0.0
 10
111.2665726264
 20
223.7694098791
 30
0.0
 10
111.5054236102
 20
223.9338543512
 30
0.0
 10
111.6370935089
 20
224.0098735489
 30
0.0
  0
SPLINE
  5
310
100
AcDbEntity
  8
0
100
AcDbSpline
 62
7
  6
CONTINUOUS
 70
0
 71
3
 72
9
 73
5
 74
0
 42
0.0000001
 43
0.0000001
 44
0.0000000001
 40
0.0
 40
0.0
 40
0.0
 40
0.0
 40
0.2744293402
 40
1.0
 40
1.0
 40
1.0
 40
1.0
 10
111.6370935089
 20
222.8667701649
 30
0.0
 10
111.5615307366
 20
222.8231442384
 30
0.0
 10
111.2942202892
 20
222.652006201
 30
0.0
 10
111.0572885667
 20
222.4238906396
 30
0.0
 10
110.9353506034
 20
222.228063483
 30
0.0
  0
SPLINE
  5
311
100
AcDbEntity
  8
0
100
AcDbSpline
 62
7
  6
CONTINUOUS
 70
0
 71
3
 72
11
 73
7
 74
0
 42
0.0000001
 43
0.0000001
 44
0.0000000001
 40
0.0
 40
0.0
 40
0.0
 40
0.0
 40
0.2177731171
 40
0.4509285976
 40
0.710222822
 40
1.0
 40
1.0
 40
1.0
 40
1.0
 10
124.8402938652
 20
107.0122116505
 30
0.0
 10
124.7083520442
 20
107.08838658
 30
0.0
 10
124.4614436183
 20
107.2959044793
 30
0.0
 10
124.1986917173
 20
107.7256100427
 30
0.0
 10
124.042482557
 20
108.255159982
 30
0.0
 10
124.011829881
 20
108.6406048451
 30
0.0
 10
124.011829881
 20
108.8433307777
 30
0.0
  0
SPLINE
  5
312
100
AcDbEntity
  8
0
100
AcDbSpline
 62
7
  6
CONTINUOUS
 70
0
 71
3
 72
11
 73
7
 74
0
 42
0.0000001
 43
0.0000001
 44
0.0000000001
 40
0.0
 40
0.0
 40
0.0
 40
0.0
 40
0.2897757032
 40
0.5490693955
 40
0.7822254653
 40
1.0
 40
1.0
 40
1.0
 40
1.0
 10
154.8415571835
 20
162.2422812734
 30
0.0
 10
155.0171154046
 20
162.3436392546
 30
0.0
 10
155.3662320074
 20
162.5098077203
 30
0.0
 10
155.9029179708
 20
162.6392960825
 30
0.0
 10
156.4064106877
 20
162.6266016228
 30
0.0
 10
156.7095710951
 20
162.5165397553
 30
0.0
 10
156.8415085481
 20
162.4403673476
 30
0.0
  0
SPLINE
  5
313
100
AcDbEntity
  8
0
100
AcDbSpline
 62
7
  6
CONTINUOUS
 70
0
 71
3
 72
13
 73
9
 74
0
 42
0.0000001
 43
0.0000001
 44
0.0000000001
 40
0.0
 40
0.0
 40
0.0
 40
0.0
 40
0.1142494128
 40
0.2375488016
 40
0.500001607
 40
0.7624535328
 40
0.8857518943
 40
1.0
 40
1.0
 40
1.0
 40
1.0
 10
130.8000267182
 20
145.0959703732
 30
0.0
 10
130.8000267182
 20
145.3195385171
 30
0.0
 10
130.8409743509
 20
145.7848541186
 30
0.0
 10
131.0633603072
 20
146.740079658
 30
0.0
 10
131.579915604
 20
147.9116950881
 30
0.0
 10
132.3362802329
 20
148.9448553212
 30
0.0
 10
133.052330595
 20
149.6150575428
 30
0.0
 10
133.4348283012
 20
149.8831743647
 30
0.0
 10
133.6284420671
 20
149.9949566572
 30
0.0
  0
SPLINE
  5
314
100
AcDbEntity
  8
0
100
AcDbSpline
 62
7
  6
CONTINUOUS
 70
0
 71
3
 72
15
 73
11
 74
0
 42
0.0000001
 43
0.0000001
 44
0.0000000001
 40
0.0
 40
0.0
 40
0.0
 40
0.0
 40
0.1141452366
 40
0.2373326637
 40
0.3669736904
 40
0.49999842
 40
0.6330233684
 40
0.762665039
 40
0.8858534719
 40
1.0
 40
1.0
 40
1.0
 40
1.0
 10
127.547349067
 20
138.6456337295
 30
0.0
 10
127.7700029213
 20
138.7741822249
 30
0.0
 10
128.2098117149
 20
139.0825256543
 30
0.0
 10
128.8150137684
 20
139.6486610174
 30
0.0
 10
129.3726712121
 20
140.3179826985
 30
0.0
 10
129.8619086867
 20
141.065196064
 30
0.0
 10
130.2643924259
 20
141.8624981014
 30
0.0
 10
130.5652112868
 20
142.6801096377
 30
0.0
 10
130.7528973177
 20
143.4873045516
 30
0.0
 10
130.8000267182
 20
144.0223669053
 30
0.0
 10
130.8000267182
 20
144.2794679561
 30
0.0
  0
SPLINE
  5
315
100
AcDbEntity
  8
0
100
AcDbSpline
 62
7
  6
CONTINUOUS
 70
0
 71
3
 72
13
 73
9
 74
0
 42
0.0000001
 43
0.0000001
 44
0.0000000001
 40
0.0
 40
0.0
 40
0.0
 40
0.0
 40
0.1142494128
 40
0.2375488016
 40
0.500001607
 40
0.7624535328
 40
0.8857518943
 40
1.0
 40
1.0
 40
1.0
 40
1.0
 10
124.011829881
 20
133.3384032916
 30
0.0
 10
124.011829881
 20
133.5619714355
 30
0.0
 10
124.0527775137
 20
134.027287037
 30
0.0
 10
124.27516347
 20
134.9825125764
 30
0.0
 10
124.7917187668
 20
136.1541280065
 30
0.0
 10
125.5480833956
 20
137.1872882396
 30
0.0
 10
126.2641337578
 20
137.8574904612
 30
0.0
 10
126.646631464
 20
138.1256072831
 30
0.0
 10
126.8402452298
 20
138.2373895756
 30
0.0
  0
SPLINE
  5
316
100
AcDbEntity
  8
0
100
AcDbSpline
 62
7
  6
CONTINUOUS
 70
0
 71
3
 72
11
 73
7
 74
0
 42
0.0000001
 43
0.0000001
 44
0.0000000001
 40
0.0
 40
0.0
 40
0.0
 40
0.0
 40
0.289777178
 40
0.5490714024
 40
0.7822268829
 40
1.0
 40
1.0
 40
1.0
 40
1.0
 10
153.003328612
 20
92.1054598424
 30
0.0
 10
153.003328612
 20
91.9027339098
 30
0.0
 10
153.033981288
 20
91.5172890467
 30
0.0
 10
153.1901904483
 20
90.9877391073
 30
0.0
 10
153.4529423493
 20
90.5580335439
 30
0.0
 10
153.6998507753
 20
90.3505156446
 30
0.0
 10
153.8317925962
 20
90.2743407152
 30
0.0
  0
SPLINE
  5
317
100
AcDbEntity
  8
0
100
AcDbSpline
 62
7
  6
CONTINUOUS
 70
0
 71
3
 72
11
 73
7
 74
0
 42
0.0000001
 43
0.0000001
 44
0.0000000001
 40
0.0
 40
0.0
 40
0.0
 40
0.0
 40
0.2177745347
 40
0.4509306045
 40
0.7102242968
 40
1.0
 40
1.0
 40
1.0
 40
1.0
 10
185.8330072791
 20
145.7024964123
 30
0.0
 10
185.7010698261
 20
145.77866882
 30
0.0
 10
185.3979094187
 20
145.8887306875
 30
0.0
 10
184.8944167018
 20
145.9014251472
 30
0.0
 10
184.3577307384
 20
145.771936785
 30
0.0
 10
184.0086141356
 20
145.6057683192
 30
0.0
 10
183.8330559145
 20
145.5044103381
 30
0.0
  0
SPLINE
  5
318
100
AcDbEntity
  8
0
100
AcDbSpline
 62
7
  6
CONTINUOUS
 70
0
 71
3
 72
9
 73
5
 74
0
 42
0.0000001
 43
0.0000001
 44
0.0000000001
 40
0.0
 40
0.0
 40
0.0
 40
0.0
 40
0.2379869593
 40
1.0
 40
1.0
 40
1.0
 40
1.0
 10
159.7915254492
 20
127.5415970208
 30
0.0
 10
159.7915254492
 20
127.4462411403
 30
0.0
 10
159.7782010799
 20
127.0455958283
 30
0.0
 10
159.7156318671
 20
126.6472586424
 30
0.0
 10
159.6467214136
 20
126.3498157353
 30
0.0
  0
SPLINE
  5
319
100
AcDbEntity
  8
0
100
AcDbSpline
 62
7
  6
CONTINUOUS
 70
0
 71
3
 72
9
 73
5
 74
0
 42
0.0000001
 43
0.0000001
 44
0.0000000001
 40
0.0
 40
0.0
 40
0.0
 40
0.0
 40
0.2439847325
 40
1.0
 40
1.0
 40
1.0
 40
1.0
 10
159.6467214136
 20
126.3498157353
 30
0.0
 10
159.6255221098
 20
126.2583117293
 30
0.0
 10
159.5302557059
 20
125.8852404464
 30
0.0
 10
159.4028605337
 20
125.5205544247
 30
0.0
 10
159.291371057
 20
125.2517093507
 30
0.0
  0
SPLINE
  5
31A
100
AcDbEntity
  8
0
100
AcDbSpline
 62
7
  6
CONTINUOUS
 70
0
 71
3
 72
9
 73
5
 74
0
 42
0.0000001
 43
0.0000001
 44
0.0000000001
 40
0.0
 40
0.0
 40
0.0
 40
0.0
 40
0.2556064337
 40
1.0
 40
1.0
 40
1.0
 40
1.0
 10
158.2718087472
 20
123.4857849148
 30
0.0
 10
158.2119436405
 20
123.4077012575
 30
0.0
 10
157.9718461271
 20
123.1068091294
 30
0.0
 10
157.7079726218
 20
122.8246438141
 30
0.0
 10
157.4985598947
 20
122.6290608779
 30
0.0
  0
SPLINE
  5
31B
100
AcDbEntity
  8
0
100
AcDbSpline
 62
7
  6
CONTINUOUS
 70
0
 71
3
 72
9
 73
5
 74
0
 42
0.0000001
 43
0.0000001
 44
0.0000000001
 40
0.0
 40
0.0
 40
0.0
 40
0.0
 40
0.2616093359
 40
1.0
 40
1.0
 40
1.0
 40
1.0
 10
157.4985598947
 20
122.6290608779
 30
0.0
 10
157.4219592344
 20
122.5575189889
 30
0.0
 10
157.1224205361
 20
122.2914961932
 30
0.0
 10
156.7950495642
 20
122.0556800699
 30
0.0
 10
156.538847798
 20
121.9077627942
 30
0.0
  0
SPLINE
  5
31C
100
AcDbEntity
  8
0
100
AcDbSpline
 62
7
  6
CONTINUOUS
 70
0
 71
3
 72
13
 73
9
 74
0
 42
0.0000001
 43
0.0000001
 44
0.0000000001
 40
0.0
 40
0.0
 40
0.0
 40
0.0
 40
0.1142481057
 40
0.2375464672
 40
0.499998393
 40
0.7624511984
 40
0.8857505872
 40
1.0
 40
1.0
 40
1.0
 40
1.0
 10
162.6199407981
 20
133.2570857219
 30
0.0
 10
162.4263270323
 20
133.1453034293
 30
0.0
 10
162.0438293261
 20
132.8771866075
 30
0.0
 10
161.3277789639
 20
132.2069843859
 30
0.0
 10
160.5714143351
 20
131.1738241528
 30
0.0
 10
160.0548590382
 20
130.0022087227
 30
0.0
 10
159.8324730819
 20
129.0469831832
 30
0.0
 10
159.7915254492
 20
128.5816675818
 30
0.0
 10
159.7915254492
 20
128.3580994379
 30
0.0
  0
SPLINE
  5
31D
100
AcDbEntity
  8
0
100
AcDbSpline
 62
7
  6
CONTINUOUS
 70
0
 71
3
 72
13
 73
9
 74
0
 42
0.0000001
 43
0.0000001
 44
0.0000000001
 40
0.0
 40
0.0
 40
0.0
 40
0.0
 40
0.1142481057
 40
0.2375464672
 40
0.499998393
 40
0.7624511984
 40
0.8857505872
 40
1.0
 40
1.0
 40
1.0
 40
1.0
 10
155.8317439608
 20
121.4995186403
 30
0.0
 10
155.638130195
 20
121.3877363477
 30
0.0
 10
155.2556324888
 20
121.1196195259
 30
0.0
 10
154.5395821267
 20
120.4494173043
 30
0.0
 10
153.7832174978
 20
119.4162570712
 30
0.0
 10
153.266662201
 20
118.2446416411
 30
0.0
 10
153.0442762447
 20
117.2894161016
 30
0.0
 10
153.003328612
 20
116.8241005002
 30
0.0
 10
153.003328612
 20
116.6005323563
 30
0.0
  0
SPLINE
  5
31E
100
AcDbEntity
  8
0
100
AcDbSpline
 62
7
  6
CONTINUOUS
 70
0
 71
3
 72
11
 73
7
 74
0
 42
0.0000001
 43
0.0000001
 44
0.0000000001
 40
0.0
 40
0.0
 40
0.0
 40
0.0
 40
0.2177839237
 40
0.4509111717
 40
0.7102971901
 40
1.0
 40
1.0
 40
1.0
 40
1.0
 10
65.448090333
 20
132.9848108302
 30
0.0
 10
65.5470470058
 20
132.927679511
 30
0.0
 10
65.7744151705
 20
132.8451677438
 30
0.0
 10
66.1520690394
 20
132.8356088484
 30
0.0
 10
66.5545591017
 20
132.9328065907
 30
0.0
 10
66.8164227938
 20
133.0573826994
 30
0.0
 10
66.9480573978
 20
133.1333815197
 30
0.0
  0
SPLINE
  5
31F
100
AcDbEntity
  8
0
100
AcDbSpline
 62
7
  6
CONTINUOUS
 70
0
 71
3
 72
11
 73
7
 74
0
 42
0.0000001
 43
0.0000001
 44
0.0000000001
 40
0.0
 40
0.0
 40
0.0
 40
0.0
 40
0.2177825102
 40
0.4509091639
 40
0.7102957096
 40
1.0
 40
1.0
 40
1.0
 40
1.0
 10
32.5674881137
 20
151.9680059154
 30
0.0
 10
32.4685281897
 20
152.0251391731
 30
0.0
 10
32.2833779832
 20
152.180793133
 30
0.0
 10
32.0862639063
 20
152.5030829685
 30
0.0
 10
31.9691898032
 20
152.9002650266
 30
0.0
 10
31.9461436668
 20
153.1893462754
 30
0.0
 10
31.9461436668
 20
153.3413513947
 30
0.0
  0
SPLINE
  5
320
100
AcDbEntity
  8
0
100
AcDbSpline
 62
7
  6
CONTINUOUS
 70
0
 71
3
 72
11
 73
7
 74
0
 42
0.0000001
 43
0.0000001
 44
0.0000000001
 40
0.0
 40
0.0
 40
0.0
 40
0.0
 40
0.2372398078
 40
0.4999994051
 40
0.7627593222
 40
1.0
 40
1.0
 40
1.0
 40
1.0
 10
80.3831421756
 20
172.6522971357
 30
0.0
 10
80.0819749251
 20
172.4784191804
 30
0.0
 10
79.3816143611
 20
172.2246901326
 30
0.0
 10
78.2618254248
 20
172.1031256922
 30
0.0
 10
77.1420346363
 20
172.2246849266
 30
0.0
 10
76.4416710973
 20
172.4784105165
 30
0.0
 10
76.1405014885
 20
172.6522869376
 30
0.0
  0
SPLINE
  5
321
100
AcDbEntity
  8
0
100
AcDbSpline
 62
7
  6
CONTINUOUS
 70
0
 71
3
 72
11
 73
7
 74
0
 42
0.0000001
 43
0.0000001
 44
0.0000000001
 40
0.0
 40
0.0
 40
0.0
 40
0.0
 40
0.2177821605
 40
0.4509085882
 40
0.7102951949
 40
1.0
 40
1.0
 40
1.0
 40
1.0
 10
117.4655144959
 20
194.7791200775
 30
0.0
 10
117.4655144639
 20
194.6648560669
 30
0.0
 10
117.4232887901
 20
194.426693881
 30
0.0
 10
117.2427389875
 20
194.0948571416
 30
0.0
 10
116.9573150719
 20
193.7948896623
 30
0.0
 10
116.7184944781
 20
193.6303973463
 30
0.0
 10
116.5868586409
 20
193.5543978139
 30
0.0
  0
SPLINE
  5
322
100
AcDbEntity
  8
0
100
AcDbSpline
 62
7
  6
CONTINUOUS
 70
0
 71
3
 72
11
 73
7
 74
0
 42
0.0000001
 43
0.0000001
 44
0.0000000001
 40
0.0
 40
0.0
 40
0.0
 40
0.0
 40
0.2897042895
 40
0.5490907647
 40
0.7822174449
 40
1.0
 40
1.0
 40
1.0
 40
1.0
 10
64.8267458861
 20
134.3581563095
 30
0.0
 10
64.8267458861
 20
134.2061511902
 30
0.0
 10
64.8497919708
 20
133.9170699738
 30
0.0
 10
64.9668661035
 20
133.519887939
 30
0.0
 10
65.1639801738
 20
133.1975981227
 30
0.0
 10
65.3491303617
 20
133.0419440538
 30
0.0
 10
65.448090333
 20
132.9848108302
 30
0.0
  0
SPLINE
  5
323
100
AcDbEntity
  8
0
100
AcDbSpline
 62
7
  6
CONTINUOUS
 70
0
 71
3
 72
9
 73
5
 74
0
 42
0.0000001
 43
0.0000001
 44
0.0000000001
 40
0.0
 40
0.0
 40
0.0
 40
0.0
 40
0.2349022509
 40
1.0
 40
1.0
 40
1.0
 40
1.0
 10
76.1405014885
 20
195.7593053424
 30
0.0
 10
76.2139348232
 20
195.7169095459
 30
0.0
 10
76.5347040518
 20
195.5506350121
 30
0.0
 10
76.8814386551
 20
195.4371833654
 30
0.0
 10
77.1505769752
 20
195.3752225448
 30
0.0
  0
SPLINE
  5
324
100
AcDbEntity
  8
0
100
AcDbSpline
 62
7
  6
CONTINUOUS
 70
0
 71
3
 72
9
 73
5
 74
0
 42
0.0000001
 43
0.0000001
 44
0.0000000001
 40
0.0
 40
0.0
 40
0.0
 40
0.0
 40
0.2465708886
 40
1.0
 40
1.0
 40
1.0
 40
1.0
 10
77.1505769752
 20
195.3752225448
 30
0.0
 10
77.1936407325
 20
195.3653084392
 30
0.0
 10
77.3688754246
 20
195.3276689439
 30
0.0
 10
77.5462646083
 20
195.3001618584
 30
0.0
 10
77.6804253548
 20
195.2848742452
 30
0.0
  0
SPLINE
  5
325
100
AcDbEntity
  8
0
100
AcDbSpline
 62
7
  6
CONTINUOUS
 70
0
 71
3
 72
9
 73
5
 74
0
 42
0.0000001
 43
0.0000001
 44
0.0000000001
 40
0.0
 40
0.0
 40
0.0
 40
0.0
 40
0.2532154778
 40
1.0
 40
1.0
 40
1.0
 40
1.0
 10
78.843171191
 20
195.2848708886
 30
0.0
 10
78.8882564929
 20
195.290008086
 30
0.0
 10
79.0660213015
 20
195.3127110407
 30
0.0
 10
79.2425607298
 20
195.3451839191
 30
0.0
 10
79.3729760049
 20
195.3752057384
 30
0.0
  0
SPLINE
  5
326
100
AcDbEntity
  8
0
100
AcDbSpline
 62
7
  6
CONTINUOUS
 70
0
 71
3
 72
9
 73
5
 74
0
 42
0.0000001
 43
0.0000001
 44
0.0000000001
 40
0.0
 40
0.0
 40
0.0
 40
0.0
 40
0.2642673046
 40
1.0
 40
1.0
 40
1.0
 40
1.0
 10
79.3729760049
 20
195.3752057384
 30
0.0
 10
79.4659318574
 20
195.3966043347
 30
0.0
 10
79.8148303664
 20
195.4886977317
 30
0.0
 10
80.1531583225
 20
195.6265350936
 30
0.0
 10
80.3831421756
 20
195.7593155404
 30
0.0
  0
SPLINE
  5
327
100
AcDbEntity
  8
0
100
AcDbSpline
 62
7
  6
CONTINUOUS
 70
0
 71
3
 72
9
 73
5
 74
0
 42
0.0000001
 43
0.0000001
 44
0.0000000001
 40
0.0
 40
0.0
 40
0.0
 40
0.0
 40
0.2604112263
 40
1.0
 40
1.0
 40
1.0
 40
1.0
 10
117.2521190711
 20
217.2445752359
 30
0.0
 10
117.2728607482
 20
217.2746061515
 30
0.0
 10
117.3481277495
 20
217.3928314781
 30
0.0
 10
117.4043013959
 20
217.5236809969
 30
0.0
 10
117.4308765574
 20
217.6238724948
 30
0.0
  0
SPLINE
  5
328
100
AcDbEntity
  8
0
100
AcDbSpline
 62
7
  6
CONTINUOUS
 70
0
 71
3
 72
9
 73
5
 74
0
 42
0.0000001
 43
0.0000001
 44
0.0000000001
 40
0.0
 40
0.0
 40
0.0
 40
0.0
 40
0.2527278947
 40
1.0
 40
1.0
 40
1.0
 40
1.0
 10
117.4308765574
 20
217.6238724948
 30
0.0
 10
117.4365991498
 20
217.6454473442
 30
0.0
 10
117.4565866029
 20
217.7314938119
 30
0.0
 10
117.4655145081
 20
217.8201395171
 30
0.0
 10
117.4655144959
 20
217.8861384822
 30
0.0
  0
ENDSEC
  0
SECTION
  2
OBJECTS
  0
DICTIONARY
  5
C
100
AcDbDictionary
280
0
281
1
  3
ACAD_GROUP
350
D
  3
ACAD_MLINESTYLE
350
17
  3
ACAD_LAYOUT
350
1A
  3
ACAD_PLOTSETTINGS
350
19
  3
ACAD_PLOTSTYLENAME
350
E
  0
DICTIONARY
  5
D
102
{ACAD_REACTORS
330
C
102
}
100
AcDbDictionary
280
0
281
1
  0
ACDBDICTIONARYWDFLT
  5
E
102
{ACAD_REACTORS
330
C
102
}
100
AcDbDictionary
281
1
  3
Normal
350
F
100
AcDbDictionaryWithDefault
340
F
  0
DICTIONARY
  5
17
102
{ACAD_REACTORS
330
C
102
}
100
AcDbDictionary
280
0
281
1
  3
Standard
350
18
  0
DICTIONARY
  5
19
102
{ACAD_REACTORS
330
C
102
}
100
AcDbDictionary
281
1
  0
DICTIONARY
  5
1A
102
{ACAD_REACTORS
330
C
102
}
100
AcDbDictionary
281
1
  3
Model
350
329
  3
Layout1
350
32A
  0
ACDBPLACEHOLDER
  5
F
102
{ACAD_REACTORS
330
E
102
}
  0
MLINESTYLE
  5
18
102
{ACAD_REACTORS
330
17
102
}
100
AcDbMlineStyle
  2
STANDARD
 70
0
  3

 62
256
 51
90.0
 52
90.0
 71
2
 49
0.5
 62
256
  6
BYLAYER
 49
-0.5
 62
256
  6
BYLAYER
  0
LAYOUT
  5
329
102
{ACAD_REACTORS
330
1A
102
}
100
AcDbPlotSettings
  1

  2
none_device
  4

  6

 40
0.0
 41
0.0
 42
0.0
 43
0.0
 44
210.0
 45
297.0
 46
0.0
 47
0.0
 48
0.0
 49
0.0
140
0.0
141
0.0
142
1.0
143
1.0
 70
1024
 72
1
 73
0
 74
0
  7

 75
0
147
1.0
148
0.0
149
0.0
100
AcDbLayout
  1
Model
 70
0
 71
0
 10
0.0
 20
0.0
 11
210.0
 21
297.0
 12
0.0
 22
0.0
 32
0.0
 14
0.0
 24
0.0
 34
0.0
 15
0.0
 25
0.0
 35
0.0
146
0.0
 13
0.0
 23
0.0
 33
0.0
 16
1.0
 26
0.0
 36
0.0
 17
0.0
 27
1.0
 37
0.0
 76
0
330
210
345
0
346
0
  0
LAYOUT
  5
32A
102
{ACAD_REACTORS
330
1A
102
}
100
AcDbPlotSettings
  1

  2
none_device
  4

  6

 40
0.0
 41
0.0
 42
0.0
 43
0.0
 44
210.0
 45
297.0
 46
0.0
 47
0.0
 48
0.0
 49
0.0
140
0.0
141
0.0
142
1.0
143
1.0
 70
0
 72
1
 73
0
 74
0
  7

 75
0
147
1.0
148
0.0
149
0.0
100
AcDbLayout
  1
Layout1
 70
0
 71
1
 10
0.0
 20
0.0
 11
210.0
 21
297.0
 12
0.0
 22
0.0
 32
0.0
 14
0.0
 24
0.0
 34
0.0
 15
0.0
 25
0.0
 35
0.0
146
0.0
 13
0.0
 23
0.0
 33
0.0
 16
1.0
 26
0.0
 36
0.0
 17
0.0
 27
1.0
 37
0.0
 76
0
330
211
345
0
346
0
  0
ENDSEC
  0
EOF
