999
DXF file: C:\Users\sesa63760\Dev\_Creo\CAD\MCADPD0004160_3D-CAD\drw0001_1.dxf
999
Pro/ENGINEER 2019471 by Parametric Technology Corporation
  0
SECTION
  2
HEADER
  9
$ACADVER
  1
AC1024
  9
$DWGCODEPAGE
  3
ANSI_1252
  9
$EXTMAX
 10
105.6062506784
 20
149.3574116737
 30
0.0
  9
$EXTMIN
 10
0.0
 20
0.0
 30
0.0
  9
$LIMMIN
 10
0.0
 20
0.0
  9
$LIMMAX
 10
105.6062506784
 20
149.3574116737
  9
$VIEWCTR
 10
52.8031253392
 20
74.6787058369
  9
$VIEWSIZE
 40
149.3574116737
  9
$CLAYER
  8
0
  9
$LTSCALE
 40
9.7358905387
  9
$CELTYPE
  6
BYLAYER
  9
$DIMSCALE
 40
1.0
  9
$DIMASZ
 40
1.25721727
  9
$DIMEXO
 40
1.0
  9
$DIMDLI
 40
6.7266152813
  9
$DIMEXE
 40
1.0
  9
$DIMCEN
 40
1.5931457245
  9
$DIMLFAC
 40
1.0
  9
$DIMBLK
  1
_FILLED
  9
$DIMALT
 70
0
  9
$DIMALTF
 40
0.0393700787
  9
$DIMTXT
 40
1.760104178
  9
$DIMTOL
 70
1
  9
$DIMLIM
 70
0
  9
$DIMTFAC
 40
1.0
  9
$DIMTP
 40
0.01
  9
$DIMTM
 40
0.01
  9
$DIMGAP
 40
0.625
  9
$DIMDSEP
 70
46
  9
$AUNITS
 70
0
  9
$PDMODE
 70
3
  9
$PDSIZE
 40
0.3125
  9
$HANDSEED
  5
2A7
  9
$TILEMODE
 70
1
  9
$MEASUREMENT
 70
1
  9
$INSUNITS
 70
4
  0
ENDSEC
  0
SECTION
  2
CLASSES
  0
CLASS
  1
ACDBDICTIONARYWDFLT
  2
AcDbDictionaryWithDefault
  3
AutoCAD 2000
 90
0
 91
1
280
0
281
0
  0
CLASS
  1
ACDBPLACEHOLDER
  2
AcDbPlaceHolder
  3
AutoCAD 2000
 90
0
 91
1
280
0
281
0
  0
CLASS
  1
LAYOUT
  2
AcDbLayout
  3
AutoCAD 2000
 90
0
 91
0
280
0
281
0
  0
ENDSEC
  0
SECTION
  2
TABLES
  0
TABLE
  2
VPORT
  5
8
100
AcDbSymbolTable
 70
2
  0
VPORT
  5
1F4
100
AcDbSymbolTableRecord
100
AcDbViewportTableRecord
  2
*ACTIVE
 70
0
 10
0.0
 20
0.0
 11
1.0
 21
1.0
 12
52.8031253392
 22
74.6787058369
 13
0.0
 23
0.0
 14
1.0
 24
1.0
 15
0.0
 25
0.0
 16
0.0
 26
0.0
 36
1.0
 17
0.0
 27
0.0
 37
0.0
 40
149.3574116737
 41
0.7070707071
 42
50.0
 43
0.0
 44
0.0
 50
0.0
 51
0.0
 71
0
 72
100
 73
1
 74
1
 75
0
 76
0
 77
0
 78
0
  0
ENDTAB
  0
TABLE
  2
LTYPE
  5
5
100
AcDbSymbolTable
 70
6
  0
LTYPE
  5
14
100
AcDbSymbolTableRecord
100
AcDbLinetypeTableRecord
  2
BYBLOCK
 70
0
  3

 72
65
 73
0
 40
0.0
  0
LTYPE
  5
15
100
AcDbSymbolTableRecord
100
AcDbLinetypeTableRecord
  2
BYLAYER
 70
0
  3

 72
65
 73
0
 40
0.0
  0
LTYPE
  5
16
100
AcDbSymbolTableRecord
100
AcDbLinetypeTableRecord
  2
CONTINUOUS
 70
64
  3
Solid line
 72
65
 73
0
 40
0.0
  0
LTYPE
  5
1F5
100
AcDbSymbolTableRecord
100
AcDbLinetypeTableRecord
  2
CENTER
 70
64
  3
____ _ ____ _ ____ _ ____ _ ____ _ ____ _ ____
 72
65
 73
4
 40
0.6
 49
0.375
 74
0
 49
-0.075
 74
0
 49
0.075
 74
0
 49
-0.075
 74
0
  0
LTYPE
  5
1F6
100
AcDbSymbolTableRecord
100
AcDbLinetypeTableRecord
  2
HIDDEN
 70
64
  3
- - - - - - - - - - - - - - - - - - - -
 72
65
 73
2
 40
0.2
 49
0.1
 74
0
 49
-0.1
 74
0
  0
LTYPE
  5
1F7
100
AcDbSymbolTableRecord
100
AcDbLinetypeTableRecord
  2
PHANTOM
 70
64
  3
_____ _ _ _____ _ _ _____ _ _ _____
 72
65
 73
6
 40
0.8
 49
0.45
 74
0
 49
-0.05
 74
0
 49
0.1
 74
0
 49
-0.05
 74
0
 49
0.1
 74
0
 49
-0.05
 74
0
  0
LTYPE
  5
1F8
100
AcDbSymbolTableRecord
100
AcDbLinetypeTableRecord
  2
DOT
 70
64
  3
. . . . . . . . . . . . . . . . . . . .
 72
65
 73
2
 40
0.2
 49
0.1
 74
0
 49
-0.1
 74
0
  0
LTYPE
  5
1F9
100
AcDbSymbolTableRecord
100
AcDbLinetypeTableRecord
  2
DASHED
 70
64
  3
- - - - - - - - - - - - - - - - - - - -
 72
65
 73
2
 40
0.2
 49
0.1
 74
0
 49
-0.1
 74
0
  0
ENDTAB
  0
TABLE
  2
LAYER
  5
2
100
AcDbSymbolTable
 70
36
  0
LAYER
  5
10
100
AcDbSymbolTableRecord
100
AcDbLayerTableRecord
  2
0
 70
0
 62
7
  6
CONTINUOUS
370
-3
390
F
  0
LAYER
  5
1FA
100
AcDbSymbolTableRecord
100
AcDbLayerTableRecord
  2
DEFAULT_1
 70
0
 62
7
  6
CENTER
370
-3
390
F
  0
LAYER
  5
1FB
100
AcDbSymbolTableRecord
100
AcDbLayerTableRecord
  2
DEFAULT_2
 70
0
 62
7
  6
HIDDEN
370
-3
390
F
  0
LAYER
  5
1FC
100
AcDbSymbolTableRecord
100
AcDbLayerTableRecord
  2
DEFAULT_3
 70
0
 62
7
  6
PHANTOM
370
-3
390
F
  0
LAYER
  5
1FD
100
AcDbSymbolTableRecord
100
AcDbLayerTableRecord
  2
00_COMPONENTS
 70
0
 62
7
  6
CONTINUOUS
370
-3
390
F
  0
LAYER
  5
1FE
100
AcDbSymbolTableRecord
100
AcDbLayerTableRecord
  2
01_1_DEFAULT_DATUMS
 70
0
 62
7
  6
CONTINUOUS
370
-3
390
F
  0
LAYER
  5
1FF
100
AcDbSymbolTableRecord
100
AcDbLayerTableRecord
  2
01_PLANES
 70
0
 62
7
  6
CONTINUOUS
370
-3
390
F
  0
LAYER
  5
200
100
AcDbSymbolTableRecord
100
AcDbLayerTableRecord
  2
02_COORD_SYS
 70
0
 62
7
  6
CONTINUOUS
370
-3
390
F
  0
LAYER
  5
201
100
AcDbSymbolTableRecord
100
AcDbLayerTableRecord
  2
03_AXES
 70
0
 62
7
  6
CONTINUOUS
370
-3
390
F
  0
LAYER
  5
202
100
AcDbSymbolTableRecord
100
AcDbLayerTableRecord
  2
04_POINTS
 70
0
 62
7
  6
CONTINUOUS
370
-3
390
F
  0
LAYER
  5
203
100
AcDbSymbolTableRecord
100
AcDbLayerTableRecord
  2
05_CURVES
 70
0
 62
7
  6
CONTINUOUS
370
-3
390
F
  0
LAYER
  5
204
100
AcDbSymbolTableRecord
100
AcDbLayerTableRecord
  2
06_SURFS
 70
0
 62
7
  6
CONTINUOUS
370
-3
390
F
  0
LAYER
  5
205
100
AcDbSymbolTableRecord
100
AcDbLayerTableRecord
  2
07_COSMETICS
 70
0
 62
7
  6
CONTINUOUS
370
-3
390
F
  0
LAYER
  5
206
100
AcDbSymbolTableRecord
100
AcDbLayerTableRecord
  2
10_NOTES
 70
0
 62
7
  6
CONTINUOUS
370
-3
390
F
  0
LAYER
  5
207
100
AcDbSymbolTableRecord
100
AcDbLayerTableRecord
  2
11_NOTES_PUB
 70
0
 62
7
  6
CONTINUOUS
370
-3
390
F
  0
LAYER
  5
208
100
AcDbSymbolTableRecord
100
AcDbLayerTableRecord
  2
13_REF_GTOL
 70
0
 62
7
  6
CONTINUOUS
370
-3
390
F
  0
LAYER
  5
209
100
AcDbSymbolTableRecord
100
AcDbLayerTableRecord
  2
16_MISC
 70
0
 62
7
  6
CONTINUOUS
370
-3
390
F
  0
LAYER
  5
20A
100
AcDbSymbolTableRecord
100
AcDbLayerTableRecord
  2
17_NO_PRINT
 70
0
 62
7
  6
CONTINUOUS
370
-3
390
F
  0
LAYER
  5
20B
100
AcDbSymbolTableRecord
100
AcDbLayerTableRecord
  2
18_DATUM_CAMS_JOINTS
 70
0
 62
7
  6
CONTINUOUS
370
-3
390
F
  0
LAYER
  5
20C
100
AcDbSymbolTableRecord
100
AcDbLayerTableRecord
  2
19_DATUM_FUNCTIONAL
 70
0
 62
7
  6
CONTINUOUS
370
-3
390
F
  0
LAYER
  5
20D
100
AcDbSymbolTableRecord
100
AcDbLayerTableRecord
  2
20_DATUM_KINEMATIC_SCHEME
 70
0
 62
7
  6
CONTINUOUS
370
-3
390
F
  0
ENDTAB
  0
TABLE
  2
STYLE
  5
3
100
AcDbSymbolTable
 70
1
  0
STYLE
  5
11
100
AcDbSymbolTableRecord
100
AcDbTextStyleTableRecord
  2
STANDARD
 70
0
 40
0.0
 41
1.0
 50
0.0
 71
0
 42
0.2
  3
ARIAL.TTF
  4

  0
STYLE
  5
20E
100
AcDbSymbolTableRecord
100
AcDbTextStyleTableRecord
  2
TEXTSTYLE_1
 70
0
 40
0.0
 41
0.8
 50
0.0
 71
0
 42
0.2
  3
gdt
  4

  0
ENDTAB
  0
TABLE
  2
VIEW
  5
6
100
AcDbSymbolTable
 70
0
  0
ENDTAB
  0
TABLE
  2
UCS
  5
7
100
AcDbSymbolTable
 70
0
  0
ENDTAB
  0
TABLE
  2
APPID
  5
9
100
AcDbSymbolTable
 70
1
  0
APPID
  5
20F
100
AcDbSymbolTableRecord
100
AcDbRegAppTableRecord
  2
ACAD
 70
0
  0
ENDTAB
  0
TABLE
  2
BLOCK_RECORD
  5
1
100
AcDbSymbolTable
 70
0
  0
BLOCK_RECORD
  5
210
100
AcDbSymbolTableRecord
100
AcDbBlockTableRecord
  2
*Model_Space
  0
BLOCK_RECORD
  5
211
100
AcDbSymbolTableRecord
100
AcDbBlockTableRecord
  2
*Paper_Space
  0
BLOCK_RECORD
  5
212
100
AcDbSymbolTableRecord
100
AcDbBlockTableRecord
  2
_FILLED
  0
ENDTAB
  0
TABLE
  2
DIMSTYLE
  5
A
100
AcDbSymbolTable
 70
1
100
AcDbDimStyleTable
 71
0
  0
DIMSTYLE
105
213
100
AcDbSymbolTableRecord
100
AcDbDimStyleTableRecord
  2
STANDARD
 70
0
  3

  4

 40
1.0
 41
1.25721727
 42
1.0
 43
0.38
 44
1.0
 45
0.0
 46
0.0
 47
0.01
 48
0.01
140
1.760104178
141
0.09
142
0.0
143
25.4
144
1.0
145
0.0
146
1.0
147
0.625
 71
1
 72
0
 73
0
 74
0
 75
0
 76
0
 77
1
 78
8
 79
2
170
0
171
1
172
0
173
0
174
0
175
0
176
0
177
0
178
0
270
2
179
2
271
2
272
2
273
2
274
2
275
0
280
0
281
0
282
0
283
1
284
8
285
0
286
0
287
3
288
0
340
11
278
46
341
212
342
212
343
212
344
212
  0
ENDTAB
  0
ENDSEC
  0
SECTION
  2
BLOCKS
  0
BLOCK
  5
20
100
AcDbEntity
  8
0
100
AcDbBlockBegin
  2
*Model_Space
 70
0
 10
0.0
 20
0.0
 30
0.0
  3
*Model_Space
  1

  0
ENDBLK
  5
21
100
AcDbEntity
  8
0
100
AcDbBlockEnd
  0
BLOCK
  5
1C
100
AcDbEntity
  8
0
100
AcDbBlockBegin
  2
*Paper_Space
 70
0
 10
0.0
 20
0.0
 30
0.0
  3
*Paper_Space
  1

  0
ENDBLK
  5
1D
100
AcDbEntity
  8
0
100
AcDbBlockEnd
  0
BLOCK
  5
214
100
AcDbEntity
  8
0
100
AcDbBlockBegin
  2
_FILLED
 70
64
 10
0.0
 20
0.0
  3
_FILLED
  1

  0
SOLID
  5
215
100
AcDbEntity
  8
0
  6
BYBLOCK
 62
0
100
AcDbTrace
 10
0.0
 20
0.0
 11
-1.0
 21
0.25
 12
-1.0
 22
-0.25
 13
-1.0
 23
-0.25
  0
ENDBLK
  5
216
100
AcDbEntity
  8
0
  6
BYBLOCK
 62
0
100
AcDbBlockEnd
  0
ENDSEC
  0
SECTION
  2
ENTITIES
  0
LINE
  5
217
100
AcDbEntity
  8
0
100
AcDbLine
 62
7
  6
BYLAYER
 10
47.5432071215
 20
31.7149346424
 11
54.2607495104
 21
27.8366474744
  0
LINE
  5
218
100
AcDbEntity
  8
0
100
AcDbLine
 62
7
  6
BYLAYER
 10
47.3360948008
 20
32.1727207902
 11
54.0536371897
 21
28.2944336222
  0
LINE
  5
219
100
AcDbEntity
  8
0
100
AcDbLine
 62
7
  6
BYLAYER
 10
36.4366580468
 20
42.6882952094
 11
49.1646330994
 21
35.3399616281
  0
LINE
  5
21A
100
AcDbEntity
  8
0
100
AcDbLine
 62
7
  6
BYLAYER
 10
36.0224334053
 20
43.6038675051
 11
48.750408458
 21
36.2555339237
  0
LINE
  5
21B
100
AcDbEntity
  8
0
100
AcDbLine
 62
7
  6
BYLAYER
 10
56.8113032244
 20
31.6420435428
 11
58.3316154048
 21
30.7643107532
  0
LINE
  5
21C
100
AcDbEntity
  8
0
100
AcDbLine
 62
7
  6
BYLAYER
 10
30.9016603735
 20
49.3352671229
 11
29.0723372019
 21
50.39108221
  0
LINE
  5
21D
100
AcDbEntity
  8
0
100
AcDbLine
 62
7
  6
BYLAYER
 10
54.2607495104
 20
37.63467648
 11
60.2711821741
 21
34.1646300665
  0
LINE
  5
21E
100
AcDbEntity
  8
0
100
AcDbLine
 62
7
  6
BYLAYER
 10
54.4070942983
 20
37.8883986875
 11
60.0640698534
 21
34.6224162144
  0
LINE
  5
21F
100
AcDbEntity
  8
0
100
AcDbLine
 62
7
  6
BYLAYER
 10
21.9990012811
 20
81.0830096664
 11
13.9314646181
 21
72.3625739151
  0
LINE
  5
220
100
AcDbEntity
  8
0
100
AcDbLine
 62
7
  6
BYLAYER
 10
48.043198638
 20
102.8296485544
 11
81.1124528594
 21
121.9220774147
  0
LINE
  5
221
100
AcDbEntity
  8
0
100
AcDbLine
 62
7
  6
BYLAYER
 10
52.0736946316
 20
104.5851007956
 11
57.7305253294
 21
107.8510540266
  0
LINE
  5
222
100
AcDbEntity
  8
0
100
AcDbLine
 62
7
  6
BYLAYER
 10
72.0515321021
 20
31.1679486645
 11
66.0410994384
 21
34.6379950779
  0
LINE
  5
223
100
AcDbEntity
  8
0
100
AcDbLine
 62
7
  6
BYLAYER
 10
65.8339871176
 20
35.0957812257
 11
71.8444197814
 21
31.6257348123
  0
LINE
  5
224
100
AcDbEntity
  8
0
100
AcDbLine
 62
7
  6
BYLAYER
 10
23.480079111
 20
61.7411736896
 11
25.2478534238
 21
60.7205718033
  0
LINE
  5
225
100
AcDbEntity
  8
0
100
AcDbLine
 62
7
  6
BYLAYER
 10
23.4945847373
 20
62.2741247722
 11
12.2515401075
 21
68.7651527691
  0
LINE
  5
226
100
AcDbEntity
  8
0
100
AcDbLine
 62
7
  6
BYLAYER
 10
31.7061578037
 20
52.923074446
 11
32.1351340301
 21
51.4847190023
  0
LINE
  5
227
100
AcDbEntity
  8
0
100
AcDbLine
 62
7
  6
BYLAYER
 10
63.458114103
 20
104.544303915
 11
57.8012834053
 21
101.278350684
  0
LINE
  5
228
100
AcDbEntity
  8
0
100
AcDbLine
 62
7
  6
BYLAYER
 10
13.9314646181
 20
72.3625739151
 11
26.9422835609
 21
64.850944032
  0
LINE
  5
229
100
AcDbEntity
  8
0
100
AcDbLine
 62
7
  6
BYLAYER
 10
36.0224334053
 20
43.6038675051
 11
36.0224334053
 21
58.7575855476
  0
LINE
  5
22A
100
AcDbEntity
  8
0
100
AcDbLine
 62
7
  6
BYLAYER
 10
36.0224334053
 20
75.0345180164
 11
36.0224334053
 21
77.1099423447
  0
LINE
  5
22B
100
AcDbEntity
  8
0
100
AcDbLine
 62
7
  6
BYLAYER
 10
54.7607410269
 20
98.9513613865
 11
66.5410909549
 21
105.75270899
  0
LINE
  5
22C
100
AcDbEntity
  8
0
100
AcDbLine
 62
7
  6
BYLAYER
 10
69.687707152
 20
106.9978560389
 11
75.3445378497
 21
110.2638092698
  0
LINE
  5
22D
100
AcDbEntity
  8
0
100
AcDbLine
 62
7
  6
BYLAYER
 10
38.4973174434
 20
58.9890540193
 11
36.5225199113
 21
59.298143642
  0
LINE
  5
22E
100
AcDbEntity
  8
0
100
AcDbLine
 62
7
  6
BYLAYER
 10
38.4973174433
 20
73.6652124699
 11
38.4973174434
 21
72.6525176067
  0
LINE
  5
22F
100
AcDbEntity
  8
0
100
AcDbLine
 62
7
  6
BYLAYER
 10
38.4973174433
 20
66.2349012569
 11
38.4973174434
 21
58.9890540193
  0
LINE
  5
230
100
AcDbEntity
  8
0
100
AcDbLine
 62
7
  6
BYLAYER
 10
57.7305253294
 20
107.8510540266
 11
55.9627657363
 21
104.7891875991
  0
LINE
  5
231
100
AcDbEntity
  8
0
100
AcDbLine
 62
7
  6
BYLAYER
 10
33.7589860888
 20
75.1507573897
 11
33.2420459109
 21
74.5919816695
  0
LINE
  5
232
100
AcDbEntity
  8
0
100
AcDbLine
 62
7
  6
BYLAYER
 10
26.9422835609
 20
64.850944032
 11
35.5267604017
 21
74.1301555034
  0
LINE
  5
233
100
AcDbEntity
  8
0
100
AcDbLine
 62
7
  6
BYLAYER
 10
80.3650168983
 20
107.3652999127
 11
74.7081862005
 21
104.0993466818
  0
LINE
  5
234
100
AcDbEntity
  8
0
100
AcDbLine
 62
7
  6
BYLAYER
 10
72.5515236186
 20
102.2826625766
 11
93.8404279121
 21
114.5737438333
  0
LINE
  5
235
100
AcDbEntity
  8
0
100
AcDbLine
 62
7
  6
BYLAYER
 10
37.4366410798
 20
79.5594354867
 11
47.3360948008
 21
85.2748536409
  0
LINE
  5
236
100
AcDbEntity
  8
0
100
AcDbLine
 62
7
  6
BYLAYER
 10
54.7607410269
 20
88.9197310394
 11
65.8339871176
 21
95.312834489
  0
LINE
  5
237
100
AcDbEntity
  8
0
100
AcDbLine
 62
7
  6
BYLAYER
 10
33.2420459109
 20
74.5919816696
 11
21.9990012811
 21
81.0830096664
  0
LINE
  5
238
100
AcDbEntity
  8
0
100
AcDbLine
 62
7
  6
BYLAYER
 10
35.5267604017
 20
74.1301555034
 11
33.7589860888
 21
75.1507573897
  0
LINE
  5
239
100
AcDbEntity
  8
0
100
AcDbLine
 62
7
  6
BYLAYER
 10
22.9919113498
 20
81.56728795
 11
34.2349559796
 21
75.0762599531
  0
LINE
  5
23A
100
AcDbEntity
  8
0
100
AcDbLine
 62
7
  6
BYLAYER
 10
30.8145979532
 20
77.4565135969
 11
23.9556336193
 21
81.4164489157
  0
LINE
  5
23B
100
AcDbEntity
  8
0
100
AcDbLine
 62
7
  6
BYLAYER
 10
36.5223808347
 20
74.7182388021
 11
32.1383005388
 21
77.2493314802
  0
LINE
  5
23C
100
AcDbEntity
  8
0
100
AcDbLine
 62
7
  6
BYLAYER
 10
36.5880643941
 20
74.7079582006
 11
32.2590162606
 21
77.2072787636
  0
LINE
  5
23D
100
AcDbEntity
  8
0
100
AcDbLine
 62
7
  6
BYLAYER
 10
36.7295431305
 20
74.6858143562
 11
38.4973174433
 21
73.6652124699
  0
LINE
  5
23E
100
AcDbEntity
  8
0
100
AcDbLine
 62
7
  6
BYLAYER
 10
47.3360948008
 20
32.1727207902
 11
47.3360948008
 21
36.3956448243
  0
LINE
  5
23F
100
AcDbEntity
  8
0
100
AcDbLine
 62
7
  6
BYLAYER
 10
47.3360948008
 20
85.2748536409
 11
47.3360948008
 21
101.6049019834
  0
LINE
  5
240
100
AcDbEntity
  8
0
100
AcDbLine
 62
7
  6
BYLAYER
 10
48.750408458
 20
36.2555339237
 11
48.750408458
 21
69.7616087633
  0
LINE
  5
241
100
AcDbEntity
  8
0
100
AcDbLine
 62
7
  6
BYLAYER
 10
32.1351340301
 20
51.4847190023
 11
30.9016603735
 21
49.3352671229
  0
LINE
  5
242
100
AcDbEntity
  8
0
100
AcDbLine
 62
7
  6
BYLAYER
 10
60.7711736906
 20
85.449684626
 11
71.8444197814
 21
91.8427880756
  0
LINE
  5
243
100
AcDbEntity
  8
0
100
AcDbLine
 62
7
  6
BYLAYER
 10
32.2590149624
 20
77.2072765144
 11
32.1383005388
 21
77.2493314802
  0
LINE
  5
244
100
AcDbEntity
  8
0
100
AcDbLine
 62
7
  6
BYLAYER
 10
48.750408458
 20
69.7616087633
 11
36.0224334053
 21
77.1099423447
  0
LINE
  5
245
100
AcDbEntity
  8
0
100
AcDbLine
 62
7
  6
BYLAYER
 10
37.4366410798
 20
79.5594354867
 11
50.1646161324
 21
72.2111019053
  0
LINE
  5
246
100
AcDbEntity
  8
0
100
AcDbLine
 62
7
  6
BYLAYER
 10
54.0536371897
 20
28.2944336222
 11
54.0536371897
 21
37.6843313488
  0
LINE
  5
247
100
AcDbEntity
  8
0
100
AcDbLine
 62
7
  6
BYLAYER
 10
54.0536371897
 20
87.6949844684
 11
54.0536371897
 21
97.7266148155
  0
LINE
  5
248
100
AcDbEntity
  8
0
100
AcDbLine
 62
7
  6
BYLAYER
 10
36.5225199113
 20
59.298143642
 11
32.299806902
 21
54.7336899516
  0
LINE
  5
249
100
AcDbEntity
  8
0
100
AcDbLine
 62
7
  6
BYLAYER
 10
35.5267604017
 20
74.1301555034
 11
38.4973174433
 21
73.6652124699
  0
LINE
  5
24A
100
AcDbEntity
  8
0
100
AcDbLine
 62
7
  6
BYLAYER
 10
33.7589860888
 20
75.1507573897
 11
34.2349559796
 21
75.0762599531
  0
LINE
  5
24B
100
AcDbEntity
  8
0
100
AcDbLine
 62
7
  6
BYLAYER
 10
36.5223808347
 20
74.7182388021
 11
36.7295431305
 21
74.6858143562
  0
LINE
  5
24C
100
AcDbEntity
  8
0
100
AcDbLine
 62
7
  6
BYLAYER
 10
30.8145979532
 20
77.4565135969
 11
32.1383005388
 21
77.2493314802
  0
LINE
  5
24D
100
AcDbEntity
  8
0
100
AcDbLine
 62
7
  6
BYLAYER
 10
55.0789377536
 20
28.8863876453
 11
55.0789377536
 21
30.6418678422
  0
LINE
  5
24E
100
AcDbEntity
  8
0
100
AcDbLine
 62
7
  6
BYLAYER
 10
55.9627657363
 20
104.7891875991
 11
55.9627657363
 21
102.3397953421
  0
LINE
  5
24F
100
AcDbEntity
  8
0
100
AcDbLine
 62
7
  6
BYLAYER
 10
58.3316154048
 20
32.51979095
 11
58.3316154048
 21
30.7643107532
  0
LINE
  5
250
100
AcDbEntity
  8
0
100
AcDbLine
 62
7
  6
BYLAYER
 10
75.3445378497
 20
110.2638092698
 11
73.5767782567
 21
107.2019428423
  0
LINE
  5
251
100
AcDbEntity
  8
0
100
AcDbLine
 62
7
  6
BYLAYER
 10
50.1646161324
 20
72.2111019053
 11
60.0640698534
 21
77.9265200595
  0
LINE
  5
252
100
AcDbEntity
  8
0
100
AcDbLine
 62
7
  6
BYLAYER
 10
94.9949994118
 20
95.6294953156
 11
90.8230867722
 21
93.2208548078
  0
LINE
  5
253
100
AcDbEntity
  8
0
100
AcDbLine
 62
7
  6
BYLAYER
 10
22.9919113498
 20
81.56728795
 11
23.9556336193
 21
81.4164489157
  0
LINE
  5
254
100
AcDbEntity
  8
0
100
AcDbLine
 62
7
  6
BYLAYER
 10
60.0640698534
 20
34.6224162144
 11
60.0640698534
 21
41.1544355514
  0
LINE
  5
255
100
AcDbEntity
  8
0
100
AcDbLine
 62
7
  6
BYLAYER
 10
60.0640698534
 20
77.9265200595
 11
60.0640698534
 21
84.224938055
  0
LINE
  5
256
100
AcDbEntity
  8
0
100
AcDbLine
 62
7
  6
BYLAYER
 10
60.0640698534
 20
77.9265200595
 11
47.3360948008
 21
85.2748536409
  0
LINE
  5
257
100
AcDbEntity
  8
0
100
AcDbLine
 62
7
  6
BYLAYER
 10
65.8339871176
 20
35.0957812257
 11
65.8339871176
 21
37.1371571981
  0
LINE
  5
258
100
AcDbEntity
  8
0
100
AcDbLine
 62
7
  6
BYLAYER
 10
65.8339871176
 20
95.312834489
 11
65.8339871176
 21
104.527962419
  0
LINE
  5
259
100
AcDbEntity
  8
0
100
AcDbLine
 62
7
  6
BYLAYER
 10
90.8230867722
 20
65.9757206115
 11
94.9949994118
 21
63.5670783998
  0
LINE
  5
25A
100
AcDbEntity
  8
0
100
AcDbLine
 62
7
  6
BYLAYER
 10
60.0640698534
 20
84.224938055
 11
54.0536371897
 21
87.6949844684
  0
LINE
  5
25B
100
AcDbEntity
  8
0
100
AcDbLine
 62
7
  6
BYLAYER
 10
54.7607410269
 20
88.9197310394
 11
60.7711736906
 21
85.449684626
  0
LINE
  5
25C
100
AcDbEntity
  8
0
100
AcDbLine
 62
7
  6
BYLAYER
 10
71.8444197814
 20
101.0579160056
 11
71.8444197814
 21
91.8427880756
  0
LINE
  5
25D
100
AcDbEntity
  8
0
100
AcDbLine
 62
7
  6
BYLAYER
 10
71.8444197814
 20
31.6257348123
 11
71.8444197814
 21
40.6072614007
  0
LINE
  5
25E
100
AcDbEntity
  8
0
100
AcDbLine
 62
7
  6
BYLAYER
 10
73.5767782567
 20
107.2019428423
 11
73.5767782567
 21
104.7525505853
  0
LINE
  5
25F
100
AcDbEntity
  8
0
100
AcDbLine
 62
7
  6
BYLAYER
 10
54.0536371897
 20
97.7266148155
 11
47.3360948008
 21
101.6049019834
  0
LINE
  5
260
100
AcDbEntity
  8
0
100
AcDbLine
 62
7
  6
BYLAYER
 10
48.043198638
 20
102.8296485544
 11
54.7607410269
 21
98.9513613865
  0
LINE
  5
261
100
AcDbEntity
  8
0
100
AcDbLine
 62
7
  6
BYLAYER
 10
71.8444197814
 20
91.8427880756
 11
65.8339871176
 21
95.312834489
  0
LINE
  5
262
100
AcDbEntity
  8
0
100
AcDbLine
 62
7
  6
BYLAYER
 10
57.8012834053
 20
101.278350684
 11
52.0736946316
 21
104.5851007956
  0
LINE
  5
263
100
AcDbEntity
  8
0
100
AcDbLine
 62
7
  6
BYLAYER
 10
90.8230867722
 20
62.7914427262
 11
93.5807917373
 21
64.3835949263
  0
LINE
  5
264
100
AcDbEntity
  8
0
100
AcDbLine
 62
7
  6
BYLAYER
 10
55.9627657363
 20
104.7891875991
 11
59.922549649
 21
102.5030570103
  0
LINE
  5
265
100
AcDbEntity
  8
0
100
AcDbLine
 62
7
  6
BYLAYER
 10
60.0640698534
 20
41.1544355514
 11
50.1646161324
 21
35.4390173972
  0
LINE
  5
266
100
AcDbEntity
  8
0
100
AcDbLine
 62
7
  6
BYLAYER
 10
57.7305253294
 20
107.8510540266
 11
63.458114103
 21
104.544303915
  0
LINE
  5
267
100
AcDbEntity
  8
0
100
AcDbLine
 62
7
  6
BYLAYER
 10
71.8444197814
 20
101.0579160056
 11
65.8339871176
 21
104.527962419
  0
LINE
  5
268
100
AcDbEntity
  8
0
100
AcDbLine
 62
7
  6
BYLAYER
 10
66.5410909549
 20
105.75270899
 11
72.5515236186
 21
102.2826625766
  0
LINE
  5
269
100
AcDbEntity
  8
0
100
AcDbLine
 62
7
  6
BYLAYER
 10
90.8230867722
 20
93.2208548078
 11
90.8230867722
 21
62.7914427262
  0
LINE
  5
26A
100
AcDbEntity
  8
0
100
AcDbLine
 62
7
  6
BYLAYER
 10
74.7081862005
 20
104.0993466818
 11
69.687707152
 21
106.9978560389
  0
LINE
  5
26B
100
AcDbEntity
  8
0
100
AcDbLine
 62
7
  6
BYLAYER
 10
73.5767782567
 20
107.2019428423
 11
76.8294524443
 21
105.3240530081
  0
LINE
  5
26C
100
AcDbEntity
  8
0
100
AcDbLine
 62
7
  6
BYLAYER
 10
94.9949994118
 20
105.754125288
 11
94.9949994118
 21
95.6294953156
  0
LINE
  5
26D
100
AcDbEntity
  8
0
100
AcDbLine
 62
7
  6
BYLAYER
 10
94.9949994118
 20
63.5670783998
 11
94.9949994118
 21
44.1751459929
  0
LINE
  5
26E
100
AcDbEntity
  8
0
100
AcDbLine
 62
7
  6
BYLAYER
 10
71.8444197814
 20
40.6072614007
 11
60.7711736906
 21
34.2141579511
  0
LINE
  5
26F
100
AcDbEntity
  8
0
100
AcDbLine
 62
7
  6
BYLAYER
 10
55.0789377536
 20
30.6418678422
 11
58.3316154048
 21
32.51979095
  0
LINE
  5
270
100
AcDbEntity
  8
0
100
AcDbLine
 62
7
  6
BYLAYER
 10
58.3316154048
 20
30.7643107532
 11
55.0789377536
 21
28.8863876453
  0
LINE
  5
271
100
AcDbEntity
  8
0
100
AcDbLine
 62
7
  6
BYLAYER
 10
66.2482042589
 20
34.5184257591
 11
54.7607410269
 21
27.886175359
  0
LINE
  5
272
100
AcDbEntity
  8
0
100
AcDbLine
 62
7
  6
BYLAYER
 10
75.3445378497
 20
110.2638092698
 11
80.3650168983
 21
107.3652999127
  0
LINE
  5
273
100
AcDbEntity
  8
0
100
AcDbLine
 62
7
  6
BYLAYER
 10
93.8404279121
 20
114.5737438333
 11
94.9949994118
 21
105.754125288
  0
LINE
  5
274
100
AcDbEntity
  8
0
100
AcDbLine
 62
7
  6
BYLAYER
 10
94.9949994118
 20
44.1751459929
 11
72.5515236186
 21
31.217476549
  0
LINE
  5
275
100
AcDbEntity
  8
0
100
AcDbLine
 62
7
  6
BYLAYER
 10
93.8404279121
 20
114.5737438333
 11
81.1124528594
 21
121.9220774147
  0
ARC
  5
276
100
AcDbEntity
  8
0
100
AcDbCircle
 62
7
  6
BYLAYER
 10
53.5836172634
 20
37.9026388252
 40
5.2598469378
100
AcDbArc
 50
208.3195770901
 51
210.1110583049
  0
ARC
  5
277
100
AcDbEntity
  8
0
100
AcDbCircle
 62
7
  6
BYLAYER
 10
57.7160333468
 20
99.9348980535
 40
1.4536584625
100
AcDbArc
 50
84.8236871305
 51
86.7741825549
  0
SPLINE
  5
278
100
AcDbEntity
  8
0
100
AcDbSpline
 62
7
  6
BYLAYER
 70
0
 71
3
 72
11
 73
7
 74
0
 42
0.0000001
 43
0.0000001
 44
0.0000000001
 40
0.0
 40
0.0
 40
0.0
 40
0.0
 40
0.289702809
 40
0.549088757
 40
0.7822160314
 40
1.0
 40
1.0
 40
1.0
 40
1.0
 10
50.1646161324
 20
35.4390173972
 30
0.0
 10
50.0768597297
 20
35.3883515169
 30
0.0
 10
49.9022839709
 20
35.3053007587
 30
0.0
 10
49.6339572663
 20
35.2405022888
 30
0.0
 10
49.3821880337
 20
35.2468748882
 30
0.0
 10
49.2306092005
 20
35.301882686
 30
0.0
 10
49.1646380892
 20
35.3399702708
 30
0.0
  0
SPLINE
  5
279
100
AcDbEntity
  8
0
100
AcDbSpline
 62
7
  6
BYLAYER
 70
0
 71
3
 72
11
 73
7
 74
0
 42
0.0000001
 43
0.0000001
 44
0.0000000001
 40
0.0
 40
0.0
 40
0.0
 40
0.0
 40
0.2895396729
 40
0.5491163863
 40
0.7822545095
 40
1.0
 40
1.0
 40
1.0
 40
1.0
 10
72.5515236186
 20
31.217476549
 30
0.0
 10
72.5076709834
 20
31.1921583694
 30
0.0
 10
72.4203611758
 20
31.1506780818
 30
0.0
 10
72.2862187677
 20
31.1182082539
 30
0.0
 10
72.1602888835
 20
31.1213705967
 30
0.0
 10
72.0845391553
 20
31.1489570554
 30
0.0
 10
72.0515600785
 20
31.1679971212
 30
0.0
  0
SPLINE
  5
27A
100
AcDbEntity
  8
0
100
AcDbSpline
 62
7
  6
BYLAYER
 70
0
 71
3
 72
11
 73
7
 74
0
 42
0.0000001
 43
0.0000001
 44
0.0000000001
 40
0.0
 40
0.0
 40
0.0
 40
0.0
 40
0.2895396729
 40
0.5491163863
 40
0.7822545095
 40
1.0
 40
1.0
 40
1.0
 40
1.0
 10
60.7711736906
 20
34.2141579511
 30
0.0
 10
60.7273210554
 20
34.1888397715
 30
0.0
 10
60.6400112478
 20
34.1473594838
 30
0.0
 10
60.5058688398
 20
34.114889656
 30
0.0
 10
60.3799389555
 20
34.1180519988
 30
0.0
 10
60.3041892273
 20
34.1456384575
 30
0.0
 10
60.2712101505
 20
34.1646785233
 30
0.0
  0
SPLINE
  5
27B
100
AcDbEntity
  8
0
100
AcDbSpline
 62
7
  6
BYLAYER
 70
0
 71
3
 72
14
 73
10
 74
0
 42
0.0000001
 43
0.0000001
 44
0.0000000001
 40
0.0
 40
0.0
 40
0.0
 40
0.0
 40
0.093303874
 40
0.1919692955
 40
0.2999899271
 40
0.419454817
 40
0.5506915304
 40
0.6926987836
 40
1.0
 40
1.0
 40
1.0
 40
1.0
 10
70.1520585107
 20
36.6798501127
 30
0.0
 10
70.2418534702
 20
36.7316838792
 30
0.0
 10
70.4107903703
 20
36.8681539507
 30
0.0
 10
70.6009575143
 20
37.146615955
 30
0.0
 10
70.7275000508
 20
37.4894537754
 30
0.0
 10
70.788602989
 20
37.8855148367
 30
0.0
 10
70.7840550433
 20
38.3235536102
 30
0.0
 10
70.6887424708
 20
38.9630124986
 30
0.0
 10
70.5252472065
 20
39.4405420671
 30
0.0
 10
70.3838782565
 20
39.7513860115
 30
0.0
  0
SPLINE
  5
27C
100
AcDbEntity
  8
0
100
AcDbSpline
 62
7
  6
BYLAYER
 70
0
 71
3
 72
9
 73
5
 74
0
 42
0.0000001
 43
0.0000001
 44
0.0000000001
 40
0.0
 40
0.0
 40
0.0
 40
0.0
 40
0.4753890896
 40
1.0
 40
1.0
 40
1.0
 40
1.0
 10
52.7101287119
 20
34.9080833383
 30
0.0
 10
52.7101287119
 20
35.193805874
 30
0.0
 10
52.6228119657
 20
35.7953343831
 30
0.0
 10
52.4146316827
 20
36.363208372
 30
0.0
 10
52.2801307506
 20
36.6483882131
 30
0.0
  0
SPLINE
  5
27D
100
AcDbEntity
  8
0
100
AcDbSpline
 62
7
  6
BYLAYER
 70
0
 71
3
 72
11
 73
7
 74
0
 42
0.0000001
 43
0.0000001
 44
0.0000000001
 40
0.0
 40
0.0
 40
0.0
 40
0.0
 40
0.2895396729
 40
0.5491163863
 40
0.7822545095
 40
1.0
 40
1.0
 40
1.0
 40
1.0
 10
54.7607410269
 20
27.886175359
 30
0.0
 10
54.7168883917
 20
27.8608571794
 30
0.0
 10
54.629578584
 20
27.8193768917
 30
0.0
 10
54.495436176
 20
27.7869070638
 30
0.0
 10
54.3695062918
 20
27.7900694066
 30
0.0
 10
54.2937565635
 20
27.8176558654
 30
0.0
 10
54.2607774868
 20
27.8366959311
 30
0.0
  0
SPLINE
  5
27E
100
AcDbEntity
  8
0
100
AcDbSpline
 62
7
  6
BYLAYER
 70
0
 71
3
 72
11
 73
7
 74
0
 42
0.0000001
 43
0.0000001
 44
0.0000000001
 40
0.0
 40
0.0
 40
0.0
 40
0.0
 40
0.2177833598
 40
0.4509104088
 40
0.7102966711
 40
1.0
 40
1.0
 40
1.0
 40
1.0
 10
52.0784296134
 20
33.5118493965
 30
0.0
 10
52.1790387201
 20
33.5699357626
 30
0.0
 10
52.3672742234
 20
33.7281849747
 30
0.0
 10
52.5676732263
 20
34.0558464692
 30
0.0
 10
52.686698449
 20
34.4596472453
 30
0.0
 10
52.7101287119
 20
34.7535454979
 30
0.0
 10
52.7101287119
 20
34.9080833383
 30
0.0
  0
SPLINE
  5
27F
100
AcDbEntity
  8
0
100
AcDbSpline
 62
7
  6
BYLAYER
 70
0
 71
3
 72
11
 73
7
 74
0
 42
0.0000001
 43
0.0000001
 44
0.0000000001
 40
0.0
 40
0.0
 40
0.0
 40
0.0
 40
0.2897042895
 40
0.5490907647
 40
0.7822174449
 40
1.0
 40
1.0
 40
1.0
 40
1.0
 10
36.0224334053
 20
43.6038675051
 30
0.0
 10
36.0224334053
 20
43.5025307589
 30
0.0
 10
36.0377974618
 20
43.3098099479
 30
0.0
 10
36.1158468836
 20
43.0450219247
 30
0.0
 10
36.2472562637
 20
42.8301620472
 30
0.0
 10
36.3706897224
 20
42.7263926679
 30
0.0
 10
36.4366630366
 20
42.6883038522
 30
0.0
  0
SPLINE
  5
280
100
AcDbEntity
  8
0
100
AcDbSpline
 62
7
  6
BYLAYER
 70
0
 71
3
 72
11
 73
7
 74
0
 42
0.0000001
 43
0.0000001
 44
0.0000000001
 40
0.0
 40
0.0
 40
0.0
 40
0.0
 40
0.2895411595
 40
0.5491183966
 40
0.7822559144
 40
1.0
 40
1.0
 40
1.0
 40
1.0
 10
47.3360948008
 20
32.1727207902
 30
0.0
 10
47.3360948008
 20
32.1220819383
 30
0.0
 10
47.3438268422
 20
32.0257250859
 30
0.0
 10
47.3827799504
 20
31.8933139227
 30
0.0
 10
47.4484865149
 20
31.7858327858
 30
0.0
 10
47.5102549166
 20
31.7340237791
 30
0.0
 10
47.5432350972
 20
31.7149830995
 30
0.0
  0
SPLINE
  5
281
100
AcDbEntity
  8
0
100
AcDbSpline
 62
7
  6
BYLAYER
 70
0
 71
3
 72
11
 73
7
 74
0
 42
0.0000001
 43
0.0000001
 44
0.0000000001
 40
0.0
 40
0.0
 40
0.0
 40
0.0
 40
0.2372518718
 40
0.4999985497
 40
0.7627460178
 40
1.0
 40
1.0
 40
1.0
 40
1.0
 10
48.043198638
 20
102.8296485544
 30
0.0
 10
47.9428046714
 20
102.7716864168
 30
0.0
 10
47.7528181378
 20
102.6118095071
 30
0.0
 10
47.5311628932
 20
102.3087775891
 30
0.0
 10
47.3795586375
 20
101.9653007792
 30
0.0
 10
47.3360948008
 20
101.7208278088
 30
0.0
 10
47.3360948008
 20
101.6049019834
 30
0.0
  0
SPLINE
  5
282
100
AcDbEntity
  8
0
100
AcDbSpline
 62
7
  6
BYLAYER
 70
0
 71
3
 72
13
 73
9
 74
0
 42
0.0000001
 43
0.0000001
 44
0.0000000001
 40
0.0
 40
0.0
 40
0.0
 40
0.0
 40
0.1142247162
 40
0.2375579183
 40
0.4999983243
 40
0.7624396433
 40
0.8857739388
 40
1.0
 40
1.0
 40
1.0
 40
1.0
 10
37.4366410798
 20
79.5594354867
 30
0.0
 10
37.3398541971
 20
79.5035558875
 30
0.0
 10
37.1486141851
 20
79.3694677921
 30
0.0
 10
36.7905554825
 20
79.0344055787
 30
0.0
 10
36.4123850273
 20
78.5178007582
 30
0.0
 10
36.1540799514
 20
77.9319909268
 30
0.0
 10
36.042937393
 20
77.4543684448
 30
0.0
 10
36.0224334053
 20
77.2217033594
 30
0.0
 10
36.0224334053
 20
77.1099423447
 30
0.0
  0
SPLINE
  5
283
100
AcDbEntity
  8
0
100
AcDbSpline
 62
7
  6
BYLAYER
 70
0
 71
3
 72
11
 73
7
 74
0
 42
0.0000001
 43
0.0000001
 44
0.0000000001
 40
0.0
 40
0.0
 40
0.0
 40
0.0
 40
0.2177839466
 40
0.4509170841
 40
0.710307871
 40
1.0
 40
1.0
 40
1.0
 40
1.0
 10
52.0784301827
 20
91.2680449693
 30
0.0
 10
52.179031777
 20
91.326145293
 30
0.0
 10
52.3672830194
 20
91.4843751349
 30
0.0
 10
52.5676811487
 20
91.8120516543
 30
0.0
 10
52.6866994018
 20
92.215852605
 30
0.0
 10
52.7101287119
 20
92.5097478866
 30
0.0
 10
52.7101287119
 20
92.6642799666
 30
0.0
  0
SPLINE
  5
284
100
AcDbEntity
  8
0
100
AcDbSpline
 62
7
  6
BYLAYER
 70
0
 71
3
 72
11
 73
7
 74
0
 42
0.0000001
 43
0.0000001
 44
0.0000000001
 40
0.0
 40
0.0
 40
0.0
 40
0.0
 40
0.2177839466
 40
0.4509170841
 40
0.710307871
 40
1.0
 40
1.0
 40
1.0
 40
1.0
 10
70.1520566645
 20
94.4360498575
 30
0.0
 10
70.2526582588
 20
94.4941501812
 30
0.0
 10
70.4409095012
 20
94.6523800232
 30
0.0
 10
70.6413076305
 20
94.9800565425
 30
0.0
 10
70.7603258836
 20
95.3838574933
 30
0.0
 10
70.7837551937
 20
95.6777527749
 30
0.0
 10
70.7837551937
 20
95.8322848549
 30
0.0
  0
SPLINE
  5
285
100
AcDbEntity
  8
0
100
AcDbSpline
 62
7
  6
BYLAYER
 70
0
 71
3
 72
12
 73
8
 74
0
 42
0.0000001
 43
0.0000001
 44
0.0000000001
 40
0.0
 40
0.0
 40
0.0
 40
0.0
 40
0.2876572158
 40
0.5526553404
 40
0.6751528052
 40
0.790486365
 40
1.0
 40
1.0
 40
1.0
 40
1.0
 10
38.4973174434
 20
72.6525176067
 30
0.0
 10
38.2996501793
 20
72.0539992259
 30
0.0
 10
37.9952850397
 20
70.8771357224
 30
0.0
 10
37.8487155125
 20
69.3972227167
 30
0.0
 10
37.8994904516
 20
68.2944505798
 30
0.0
 10
38.0483613992
 20
67.3249269634
 30
0.0
 10
38.2810747013
 20
66.6398696685
 30
0.0
 10
38.4973174433
 20
66.2349012569
 30
0.0
  0
SPLINE
  5
286
100
AcDbEntity
  8
0
100
AcDbSpline
 62
7
  6
BYLAYER
 70
0
 71
3
 72
11
 73
7
 74
0
 42
0.0000001
 43
0.0000001
 44
0.0000000001
 40
0.0
 40
0.0
 40
0.0
 40
0.0
 40
0.2697120988
 40
0.5401893256
 40
0.7889633591
 40
1.0
 40
1.0
 40
1.0
 40
1.0
 10
32.299806902
 20
54.7336899516
 30
0.0
 10
32.1792855558
 20
54.6034149123
 30
0.0
 10
31.9675274549
 20
54.3140167895
 30
0.0
 10
31.7498154454
 20
53.8387096673
 30
0.0
 10
31.646722659
 20
53.3655651028
 30
0.0
 10
31.6664701503
 20
53.0561469772
 30
0.0
 10
31.7061578037
 20
52.923074446
 30
0.0
  0
SPLINE
  5
287
100
AcDbEntity
  8
0
100
AcDbSpline
 62
7
  6
BYLAYER
 70
0
 71
3
 72
9
 73
5
 74
0
 42
0.0000001
 43
0.0000001
 44
0.0000000001
 40
0.0
 40
0.0
 40
0.0
 40
0.0
 40
0.2572938987
 40
1.0
 40
1.0
 40
1.0
 40
1.0
 10
23.4945847373
 20
62.2741247722
 30
0.0
 10
23.4903715846
 20
62.2285747412
 30
0.0
 10
23.4767483
 20
62.0513053173
 30
0.0
 10
23.4743937975
 20
61.8730974831
 30
0.0
 10
23.480079111
 20
61.7411736897
 30
0.0
  0
SPLINE
  5
288
100
AcDbEntity
  8
0
100
AcDbSpline
 62
7
  6
BYLAYER
 70
0
 71
3
 72
15
 73
11
 74
0
 42
0.0000001
 43
0.0000001
 44
0.0000000001
 40
0.0
 40
0.0
 40
0.0
 40
0.0
 40
0.1469888389
 40
0.2866902397
 40
0.4191428647
 40
0.5448286616
 40
0.6645093106
 40
0.7792707678
 40
0.8905653225
 40
1.0
 40
1.0
 40
1.0
 40
1.0
 10
23.480079111
 20
61.7411736897
 30
0.0
 10
23.5079165061
 20
61.0952260636
 30
0.0
 10
23.6137454249
 20
59.8367378268
 30
0.0
 10
23.9371745989
 20
58.0188442774
 30
0.0
 10
24.4195834311
 20
56.3331262763
 30
0.0
 10
25.0575211842
 20
54.7942337081
 30
0.0
 10
25.846225352
 20
53.4151321897
 30
0.0
 10
26.7804576117
 20
52.2083079848
 30
0.0
 10
27.8523371353
 20
51.1859307199
 30
0.0
 10
28.6554710557
 20
50.6317706271
 30
0.0
 10
29.0723377233
 20
50.391083043
 30
0.0
  0
SPLINE
  5
289
100
AcDbEntity
  8
0
100
AcDbSpline
 62
7
  6
BYLAYER
 70
0
 71
3
 72
11
 73
7
 74
0
 42
0.0000001
 43
0.0000001
 44
0.0000000001
 40
0.0
 40
0.0
 40
0.0
 40
0.0
 40
0.2042546712
 40
0.4385832826
 40
0.705417271
 40
1.0
 40
1.0
 40
1.0
 40
1.0
 10
22.9919113498
 20
81.56728795
 30
0.0
 10
22.9149967998
 20
81.5793263939
 30
0.0
 10
22.7440358619
 20
81.5708904063
 30
0.0
 10
22.4890259889
 20
81.4776120625
 30
0.0
 10
22.2324843221
 20
81.3121877155
 30
0.0
 10
22.0752493368
 20
81.1654284144
 30
0.0
 10
21.9990012811
 20
81.0830096664
 30
0.0
  0
SPLINE
  5
28A
100
AcDbEntity
  8
0
100
AcDbSpline
 62
7
  6
BYLAYER
 70
0
 71
3
 72
11
 73
7
 74
0
 42
0.0000001
 43
0.0000001
 44
0.0000000001
 40
0.0
 40
0.0
 40
0.0
 40
0.0
 40
0.2539272664
 40
0.5128534899
 40
0.7651179281
 40
1.0
 40
1.0
 40
1.0
 40
1.0
 10
13.9314646181
 20
72.3625739151
 30
0.0
 10
13.6996965733
 20
72.1120490736
 30
0.0
 10
13.2735481025
 20
71.566016487
 30
0.0
 10
12.7670649464
 20
70.6668493784
 30
0.0
 10
12.4098152698
 20
69.7258754507
 30
0.0
 10
12.2806160119
 20
69.0795036719
 30
0.0
 10
12.2515401075
 20
68.7651527691
 30
0.0
  0
SPLINE
  5
28B
100
AcDbEntity
  8
0
100
AcDbSpline
 62
7
  6
BYLAYER
 70
0
 71
3
 72
17
 73
13
 74
0
 42
0.0000001
 43
0.0000001
 44
0.0000000001
 40
0.0
 40
0.0
 40
0.0
 40
0.0
 40
0.1286930371
 40
0.2702795962
 40
0.4174375935
 40
0.5617786795
 40
0.6954478243
 40
0.81271112
 40
0.8646738576
 40
0.9125098523
 40
0.9571380034
 40
1.0
 40
1.0
 40
1.0
 40
1.0
 10
52.7101287119
 20
92.6642799666
 30
0.0
 10
52.7101287119
 20
92.9249872118
 30
0.0
 10
52.6372032369
 20
93.4731484452
 30
0.0
 10
52.3649615882
 20
94.2779975771
 30
0.0
 10
51.9455060584
 20
95.0533224936
 30
0.0
 10
51.412501944
 20
95.7355406538
 30
0.0
 10
50.8095382702
 20
96.2695444339
 30
0.0
 10
50.2637854316
 20
96.5679902876
 30
0.0
 10
49.8368578478
 20
96.6815317096
 30
0.0
 10
49.5430275546
 20
96.7032018
 30
0.0
 10
49.2694315281
 20
96.6630335016
 30
0.0
 10
49.1036492002
 20
96.5942087019
 30
0.0
 10
49.0284579177
 20
96.5507835665
 30
0.0
  0
SPLINE
  5
28C
100
AcDbEntity
  8
0
100
AcDbSpline
 62
7
  6
BYLAYER
 70
0
 71
3
 72
17
 73
13
 74
0
 42
0.0000001
 43
0.0000001
 44
0.0000000001
 40
0.0
 40
0.0
 40
0.0
 40
0.0
 40
0.1286930371
 40
0.2702795962
 40
0.4174375935
 40
0.5617786795
 40
0.6954478243
 40
0.81271112
 40
0.8646738576
 40
0.9125098523
 40
0.9571380034
 40
1.0
 40
1.0
 40
1.0
 40
1.0
 10
70.7837551937
 20
95.8322848549
 30
0.0
 10
70.7837551937
 20
96.0929921001
 30
0.0
 10
70.7108297187
 20
96.6411533334
 30
0.0
 10
70.4385880699
 20
97.4460024654
 30
0.0
 10
70.0191325402
 20
98.2213273818
 30
0.0
 10
69.4861284257
 20
98.9035455421
 30
0.0
 10
68.883164752
 20
99.4375493222
 30
0.0
 10
68.3374119134
 20
99.7359951758
 30
0.0
 10
67.9104843296
 20
99.8495365979
 30
0.0
 10
67.6166540364
 20
99.8712066882
 30
0.0
 10
67.3430580099
 20
99.8310383898
 30
0.0
 10
67.177275682
 20
99.7622135902
 30
0.0
 10
67.1020843995
 20
99.7187884548
 30
0.0
  0
SPLINE
  5
28D
100
AcDbEntity
  8
0
100
AcDbSpline
 62
7
  6
BYLAYER
 70
0
 71
3
 72
9
 73
5
 74
0
 42
0.0000001
 43
0.0000001
 44
0.0000000001
 40
0.0
 40
0.0
 40
0.0
 40
0.0
 40
0.5000025632
 40
1.0
 40
1.0
 40
1.0
 40
1.0
 10
70.509483258
 20
97.0830023435
 30
0.0
 10
70.3045387684
 20
97.3202477444
 30
0.0
 10
69.9412526321
 20
97.8362819293
 30
0.0
 10
69.6760162419
 20
98.4089289962
 30
0.0
 10
69.5730675731
 20
98.7050492087
 30
0.0
  0
SPLINE
  5
28E
100
AcDbEntity
  8
0
100
AcDbSpline
 62
7
  6
BYLAYER
 70
0
 71
3
 72
9
 73
5
 74
0
 42
0.0000001
 43
0.0000001
 44
0.0000000001
 40
0.0
 40
0.0
 40
0.0
 40
0.0
 40
0.2544587957
 40
1.0
 40
1.0
 40
1.0
 40
1.0
 10
57.797832738
 20
101.3862532083
 30
0.0
 10
57.782676221
 20
101.3871056651
 30
0.0
 10
57.7230646415
 20
101.3895042288
 30
0.0
 10
57.6632817208
 20
101.3880081153
 30
0.0
 10
57.6189436857
 20
101.3844898731
 30
0.0
  0
SPLINE
  5
28F
100
AcDbEntity
  8
0
100
AcDbSpline
 62
7
  6
BYLAYER
 70
0
 71
3
 72
11
 73
7
 74
0
 42
0.0000001
 43
0.0000001
 44
0.0000000001
 40
0.0
 40
0.0
 40
0.0
 40
0.0
 40
0.2177839466
 40
0.4509170841
 40
0.710307871
 40
1.0
 40
1.0
 40
1.0
 40
1.0
 10
67.1020843995
 20
99.7187884548
 30
0.0
 10
67.0014828051
 20
99.6606881311
 30
0.0
 10
66.8132315628
 20
99.5024582891
 30
0.0
 10
66.6128334335
 20
99.1747817698
 30
0.0
 10
66.4938151803
 20
98.7709808191
 30
0.0
 10
66.4703858703
 20
98.4770855375
 30
0.0
 10
66.4703858703
 20
98.3225534575
 30
0.0
  0
SPLINE
  5
290
100
AcDbEntity
  8
0
100
AcDbSpline
 62
7
  6
BYLAYER
 70
0
 71
3
 72
11
 73
7
 74
0
 42
0.0000001
 43
0.0000001
 44
0.0000000001
 40
0.0
 40
0.0
 40
0.0
 40
0.0
 40
0.28970066
 40
0.5490882258
 40
0.7822179595
 40
1.0
 40
1.0
 40
1.0
 40
1.0
 10
68.627070532
 20
36.8308901556
 30
0.0
 10
68.7609004739
 20
36.7536251506
 30
0.0
 10
69.0271326064
 20
36.6269729903
 30
0.0
 10
69.436336376
 20
36.5281506024
 30
0.0
 10
69.8202936322
 20
36.5378747289
 30
0.0
 10
70.0514480704
 20
36.6217731549
 30
0.0
 10
70.1520585107
 20
36.6798501127
 30
0.0
  0
SPLINE
  5
291
100
AcDbEntity
  8
0
100
AcDbSpline
 62
7
  6
BYLAYER
 70
0
 71
3
 72
17
 73
13
 74
0
 42
0.0000001
 43
0.0000001
 44
0.0000000001
 40
0.0
 40
0.0
 40
0.0
 40
0.0
 40
0.1286930371
 40
0.2702795962
 40
0.4174375935
 40
0.5617786795
 40
0.6954478243
 40
0.81271112
 40
0.8646738576
 40
0.9125098523
 40
0.9571380034
 40
1.0
 40
1.0
 40
1.0
 40
1.0
 10
48.3967593885
 20
95.1545485692
 30
0.0
 10
48.3967593885
 20
94.893841324
 30
0.0
 10
48.4696848634
 20
94.3456800906
 30
0.0
 10
48.7419265122
 20
93.5408309587
 30
0.0
 10
49.1613820419
 20
92.7655060422
 30
0.0
 10
49.6943861564
 20
92.083287882
 30
0.0
 10
50.2973498301
 20
91.5492841019
 30
0.0
 10
50.8431026688
 20
91.2508382482
 30
0.0
 10
51.2700302526
 20
91.1372968262
 30
0.0
 10
51.5638605457
 20
91.1156267358
 30
0.0
 10
51.8374565723
 20
91.1557950342
 30
0.0
 10
52.0032389001
 20
91.2246198339
 30
0.0
 10
52.0784301827
 20
91.2680449693
 30
0.0
  0
SPLINE
  5
292
100
AcDbEntity
  8
0
100
AcDbSpline
 62
7
  6
BYLAYER
 70
0
 71
3
 72
11
 73
7
 74
0
 42
0.0000001
 43
0.0000001
 44
0.0000000001
 40
0.0
 40
0.0
 40
0.0
 40
0.0
 40
0.2372518718
 40
0.4999985497
 40
0.7627460178
 40
1.0
 40
1.0
 40
1.0
 40
1.0
 10
54.7607410269
 20
88.9197310394
 30
0.0
 10
54.6603470603
 20
88.8617689018
 30
0.0
 10
54.4703605267
 20
88.701891992
 30
0.0
 10
54.2487052821
 20
88.3988600741
 30
0.0
 10
54.0971010264
 20
88.0553832641
 30
0.0
 10
54.0536371897
 20
87.8109102938
 30
0.0
 10
54.0536371897
 20
87.6949844684
 30
0.0
  0
SPLINE
  5
293
100
AcDbEntity
  8
0
100
AcDbSpline
 62
7
  6
BYLAYER
 70
0
 71
3
 72
11
 73
7
 74
0
 42
0.0000001
 43
0.0000001
 44
0.0000000001
 40
0.0
 40
0.0
 40
0.0
 40
0.0
 40
0.2372542275
 40
0.5000017852
 40
0.7627483734
 40
1.0
 40
1.0
 40
1.0
 40
1.0
 10
54.0536371897
 20
97.7266148155
 30
0.0
 10
54.0536371897
 20
97.8425407607
 30
0.0
 10
54.0971010975
 20
98.0870138946
 30
0.0
 10
54.2487054872
 20
98.4304907763
 30
0.0
 10
54.4703607365
 20
98.7335225424
 30
0.0
 10
54.6603471641
 20
98.8933993088
 30
0.0
 10
54.7607410269
 20
98.9513613865
 30
0.0
  0
SPLINE
  5
294
100
AcDbEntity
  8
0
100
AcDbSpline
 62
7
  6
BYLAYER
 70
0
 71
3
 72
11
 73
7
 74
0
 42
0.0000001
 43
0.0000001
 44
0.0000000001
 40
0.0
 40
0.0
 40
0.0
 40
0.0
 40
0.2372518718
 40
0.4999985497
 40
0.7627460178
 40
1.0
 40
1.0
 40
1.0
 40
1.0
 10
66.5410909549
 20
105.75270899
 30
0.0
 10
66.4406969883
 20
105.6947468524
 30
0.0
 10
66.2507104547
 20
105.5348699426
 30
0.0
 10
66.0290552101
 20
105.2318380247
 30
0.0
 10
65.8774509544
 20
104.8883612147
 30
0.0
 10
65.8339871176
 20
104.6438882444
 30
0.0
 10
65.8339871176
 20
104.527962419
 30
0.0
  0
SPLINE
  5
295
100
AcDbEntity
  8
0
100
AcDbSpline
 62
7
  6
BYLAYER
 70
0
 71
3
 72
11
 73
7
 74
0
 42
0.0000001
 43
0.0000001
 44
0.0000000001
 40
0.0
 40
0.0
 40
0.0
 40
0.0
 40
0.2372542275
 40
0.5000017852
 40
0.7627483734
 40
1.0
 40
1.0
 40
1.0
 40
1.0
 10
60.0640698534
 20
84.224938055
 30
0.0
 10
60.0640698534
 20
84.3408640002
 30
0.0
 10
60.1075337613
 20
84.585337134
 30
0.0
 10
60.2591381509
 20
84.9288140158
 30
0.0
 10
60.4807934003
 20
85.2318457818
 30
0.0
 10
60.6707798278
 20
85.3917225483
 30
0.0
 10
60.7711736906
 20
85.449684626
 30
0.0
  0
SPLINE
  5
296
100
AcDbEntity
  8
0
100
AcDbSpline
 62
7
  6
BYLAYER
 70
0
 71
3
 72
17
 73
13
 74
0
 42
0.0000001
 43
0.0000001
 44
0.0000000001
 40
0.0
 40
0.0
 40
0.0
 40
0.0
 40
0.1286930371
 40
0.2702795962
 40
0.4174375935
 40
0.5617786795
 40
0.6954478243
 40
0.81271112
 40
0.8646738576
 40
0.9125098523
 40
0.9571380034
 40
1.0
 40
1.0
 40
1.0
 40
1.0
 10
66.4703858703
 20
98.3225534575
 30
0.0
 10
66.4703858703
 20
98.0618462122
 30
0.0
 10
66.5433113452
 20
97.5136849789
 30
0.0
 10
66.815552994
 20
96.7088358469
 30
0.0
 10
67.2350085237
 20
95.9335109305
 30
0.0
 10
67.7680126382
 20
95.2512927703
 30
0.0
 10
68.3709763119
 20
94.7172889902
 30
0.0
 10
68.9167291506
 20
94.4188431365
 30
0.0
 10
69.3436567343
 20
94.3053017145
 30
0.0
 10
69.6374870275
 20
94.2836316241
 30
0.0
 10
69.9110830541
 20
94.3237999225
 30
0.0
 10
70.0768653819
 20
94.3926247221
 30
0.0
 10
70.1520566645
 20
94.4360498575
 30
0.0
  0
SPLINE
  5
297
100
AcDbEntity
  8
0
100
AcDbSpline
 62
7
  6
BYLAYER
 70
0
 71
3
 72
15
 73
11
 74
0
 42
0.0000001
 43
0.0000001
 44
0.0000000001
 40
0.0
 40
0.0
 40
0.0
 40
0.0
 40
0.1094346775
 40
0.2207292322
 40
0.3354906894
 40
0.4551713384
 40
0.5808571353
 40
0.7133097603
 40
0.8530111611
 40
1.0
 40
1.0
 40
1.0
 40
1.0
 10
30.8401120362
 20
49.3704811567
 30
0.0
 10
30.4232453685
 20
49.6111687408
 30
0.0
 10
29.6201114482
 20
50.1653288336
 30
0.0
 10
28.5482319246
 20
51.1877060985
 30
0.0
 10
27.6139996649
 20
52.3945303034
 30
0.0
 10
26.8252954971
 20
53.7736318218
 30
0.0
 10
26.187357744
 20
55.31252439
 30
0.0
 10
25.7049489117
 20
56.9982423911
 30
0.0
 10
25.3815197378
 20
58.8161359405
 30
0.0
 10
25.275690819
 20
60.0746241773
 30
0.0
 10
25.2478534238
 20
60.7205718033
 30
0.0
  0
SPLINE
  5
298
100
AcDbEntity
  8
0
100
AcDbSpline
 62
7
  6
BYLAYER
 70
0
 71
3
 72
9
 73
5
 74
0
 42
0.0000001
 43
0.0000001
 44
0.0000000001
 40
0.0
 40
0.0
 40
0.0
 40
0.0
 40
0.5243189191
 40
1.0
 40
1.0
 40
1.0
 40
1.0
 10
67.3755954841
 20
38.0156298309
 30
0.0
 10
67.551590422
 20
37.7691792928
 30
0.0
 10
67.9289021922
 20
37.3273010914
 30
0.0
 10
68.389130934
 20
36.9682615388
 30
0.0
 10
68.627070532
 20
36.8308901556
 30
0.0
  0
SPLINE
  5
299
100
AcDbEntity
  8
0
100
AcDbSpline
 62
7
  6
BYLAYER
 70
0
 71
3
 72
10
 73
6
 74
0
 42
0.0000001
 43
0.0000001
 44
0.0000000001
 40
0.0
 40
0.0
 40
0.0
 40
0.0
 40
0.5248846497
 40
0.7715257315
 40
1.0
 40
1.0
 40
1.0
 40
1.0
 10
49.0335624169
 20
35.2638908829
 30
0.0
 10
49.2291233074
 20
34.926688804
 30
0.0
 10
49.5722628572
 20
34.4590613138
 30
0.0
 10
50.1160912838
 20
33.9512023331
 30
0.0
 10
50.406498693
 20
33.7477222896
 30
0.0
 10
50.5534440502
 20
33.6628852673
 30
0.0
  0
SPLINE
  5
29A
100
AcDbEntity
  8
0
100
AcDbSpline
 62
7
  6
BYLAYER
 70
0
 71
3
 72
11
 73
7
 74
0
 42
0.0000001
 43
0.0000001
 44
0.0000000001
 40
0.0
 40
0.0
 40
0.0
 40
0.0
 40
0.289702329
 40
0.5490881649
 40
0.7822156415
 40
1.0
 40
1.0
 40
1.0
 40
1.0
 10
50.5534440502
 20
33.6628852673
 30
0.0
 10
50.6872744636
 20
33.5856199901
 30
0.0
 10
50.9535063102
 20
33.4589682812
 30
0.0
 10
51.3627099561
 20
33.3601529324
 30
0.0
 10
51.7466626888
 20
33.3698745459
 30
0.0
 10
51.9778227345
 20
33.4537643166
 30
0.0
 10
52.0784296134
 20
33.5118493965
 30
0.0
  0
SPLINE
  5
29B
100
AcDbEntity
  8
0
100
AcDbSpline
 62
7
  6
BYLAYER
 70
0
 71
3
 72
11
 73
7
 74
0
 42
0.0000001
 43
0.0000001
 44
0.0000000001
 40
0.0
 40
0.0
 40
0.0
 40
0.0
 40
0.2372542275
 40
0.5000017852
 40
0.7627483734
 40
1.0
 40
1.0
 40
1.0
 40
1.0
 10
71.8444197814
 20
101.0579160056
 30
0.0
 10
71.8444197814
 20
101.1738419508
 30
0.0
 10
71.8878836893
 20
101.4183150846
 30
0.0
 10
72.0394880789
 20
101.7617919664
 30
0.0
 10
72.2611433283
 20
102.0648237324
 30
0.0
 10
72.4511297558
 20
102.2247004989
 30
0.0
 10
72.5515236186
 20
102.2826625766
 30
0.0
  0
SPLINE
  5
29C
100
AcDbEntity
  8
0
100
AcDbSpline
 62
7
  6
BYLAYER
 70
0
 71
3
 72
11
 73
7
 74
0
 42
0.0000001
 43
0.0000001
 44
0.0000000001
 40
0.0
 40
0.0
 40
0.0
 40
0.0
 40
0.2177442246
 40
0.4508817658
 40
0.7104588047
 40
1.0
 40
1.0
 40
1.0
 40
1.0
 10
72.0515600785
 20
31.1679971212
 30
0.0
 10
72.0185798864
 20
31.1870378309
 30
0.0
 10
71.9568114422
 20
31.238846833
 30
0.0
 10
71.8911049324
 20
31.3463280005
 30
0.0
 10
71.8521517625
 20
31.4787391179
 30
0.0
 10
71.8444197814
 20
31.5750959533
 30
0.0
 10
71.8444197814
 20
31.6257348123
 30
0.0
  0
SPLINE
  5
29D
100
AcDbEntity
  8
0
100
AcDbSpline
 62
7
  6
BYLAYER
 70
0
 71
3
 72
12
 73
8
 74
0
 42
0.0000001
 43
0.0000001
 44
0.0000000001
 40
0.0
 40
0.0
 40
0.0
 40
0.0
 40
0.1093432382
 40
0.2263805611
 40
0.4775805806
 40
0.7406651553
 40
1.0
 40
1.0
 40
1.0
 40
1.0
 10
25.2478534238
 20
60.7205718033
 30
0.0
 10
25.2406902752
 20
60.8867877449
 30
0.0
 10
25.2503319159
 20
61.2322351459
 30
0.0
 10
25.3556759426
 20
61.9524533913
 30
0.0
 10
25.6451658874
 20
62.8754204295
 30
0.0
 10
26.1901513998
 20
63.9243731889
 30
0.0
 10
26.6743210474
 20
64.5612955333
 30
0.0
 10
26.9422835609
 20
64.850944032
 30
0.0
  0
SPLINE
  5
29E
100
AcDbEntity
  8
0
100
AcDbSpline
 62
7
  6
BYLAYER
 70
0
 71
3
 72
11
 73
7
 74
0
 42
0.0000001
 43
0.0000001
 44
0.0000000001
 40
0.0
 40
0.0
 40
0.0
 40
0.0
 40
0.2177442246
 40
0.4508817658
 40
0.7104588047
 40
1.0
 40
1.0
 40
1.0
 40
1.0
 10
60.2712101505
 20
34.1646785233
 30
0.0
 10
60.2382299585
 20
34.1837192329
 30
0.0
 10
60.1764615143
 20
34.2355282351
 30
0.0
 10
60.1107550044
 20
34.3430094026
 30
0.0
 10
60.0718018345
 20
34.4754205199
 30
0.0
 10
60.0640698534
 20
34.5717773554
 30
0.0
 10
60.0640698534
 20
34.6224162144
 30
0.0
  0
SPLINE
  5
29F
100
AcDbEntity
  8
0
100
AcDbSpline
 62
7
  6
BYLAYER
 70
0
 71
3
 72
11
 73
7
 74
0
 42
0.0000001
 43
0.0000001
 44
0.0000000001
 40
0.0
 40
0.0
 40
0.0
 40
0.0
 40
0.2177442246
 40
0.4508817658
 40
0.7104588047
 40
1.0
 40
1.0
 40
1.0
 40
1.0
 10
54.2607774868
 20
27.8366959311
 30
0.0
 10
54.2277972947
 20
27.8557366408
 30
0.0
 10
54.1660288505
 20
27.907545643
 30
0.0
 10
54.1003223407
 20
28.0150268104
 30
0.0
 10
54.0613691707
 20
28.1474379278
 30
0.0
 10
54.0536371897
 20
28.2437947633
 30
0.0
 10
54.0536371897
 20
28.2944336222
 30
0.0
  0
SPLINE
  5
2A0
100
AcDbEntity
  8
0
100
AcDbSpline
 62
7
  6
BYLAYER
 70
0
 71
3
 72
9
 73
5
 74
0
 42
0.0000001
 43
0.0000001
 44
0.0000000001
 40
0.0
 40
0.0
 40
0.0
 40
0.0
 40
0.2569337386
 40
1.0
 40
1.0
 40
1.0
 40
1.0
 10
54.1535745397
 20
37.7316827695
 30
0.0
 10
54.1609467154
 20
37.721676126
 30
0.0
 10
54.1914237606
 20
37.6840866147
 30
0.0
 10
54.229647544
 20
37.6526974055
 30
0.0
 10
54.2607774861
 20
37.6347249371
 30
0.0
  0
SPLINE
  5
2A1
100
AcDbEntity
  8
0
100
AcDbSpline
 62
7
  6
BYLAYER
 70
0
 71
3
 72
11
 73
7
 74
0
 42
0.0000001
 43
0.0000001
 44
0.0000000001
 40
0.0
 40
0.0
 40
0.0
 40
0.0
 40
0.2177839466
 40
0.4509170841
 40
0.710307871
 40
1.0
 40
1.0
 40
1.0
 40
1.0
 10
49.0284579177
 20
96.5507835665
 30
0.0
 10
48.9278563233
 20
96.4926832428
 30
0.0
 10
48.739605081
 20
96.3344534009
 30
0.0
 10
48.5392069517
 20
96.0067768815
 30
0.0
 10
48.4201886985
 20
95.6029759308
 30
0.0
 10
48.3967593885
 20
95.3090806492
 30
0.0
 10
48.3967593885
 20
95.1545485692
 30
0.0
  0
SPLINE
  5
2A2
100
AcDbEntity
  8
0
100
AcDbSpline
 62
7
  6
BYLAYER
 70
0
 71
3
 72
11
 73
7
 74
0
 42
0.0000001
 43
0.0000001
 44
0.0000000001
 40
0.0
 40
0.0
 40
0.0
 40
0.0
 40
0.2177825102
 40
0.4509091639
 40
0.7102957096
 40
1.0
 40
1.0
 40
1.0
 40
1.0
 10
49.1646380892
 20
35.3399702708
 30
0.0
 10
49.0986648066
 20
35.3780591093
 30
0.0
 10
48.9752313356
 20
35.4818284159
 30
0.0
 10
48.8438219509
 20
35.6966883062
 30
0.0
 10
48.7657725489
 20
35.9614763449
 30
0.0
 10
48.750408458
 20
36.1541971775
 30
0.0
 10
48.750408458
 20
36.2555339237
 30
0.0
  0
SPLINE
  5
2A3
100
AcDbEntity
  8
0
100
AcDbSpline
 62
7
  6
BYLAYER
 70
0
 71
3
 72
11
 73
7
 74
0
 42
0.0000001
 43
0.0000001
 44
0.0000000001
 40
0.0
 40
0.0
 40
0.0
 40
0.0
 40
0.2895411595
 40
0.5491183966
 40
0.7822559144
 40
1.0
 40
1.0
 40
1.0
 40
1.0
 10
65.8339871176
 20
35.0957812257
 30
0.0
 10
65.8339871176
 20
35.0451423738
 30
0.0
 10
65.8417191591
 20
34.9487855215
 30
0.0
 10
65.8806722672
 20
34.8163743583
 30
0.0
 10
65.9463788318
 20
34.7088932213
 30
0.0
 10
66.0081472334
 20
34.6570842147
 30
0.0
 10
66.0411274141
 20
34.638043535
 30
0.0
  0
SPLINE
  5
2A4
100
AcDbEntity
  8
0
100
AcDbSpline
 62
7
  6
BYLAYER
 70
0
 71
3
 72
13
 73
9
 74
0
 42
0.0000001
 43
0.0000001
 44
0.0000000001
 40
0.0
 40
0.0
 40
0.0
 40
0.0
 40
0.1142260229
 40
0.2375602528
 40
0.5000015383
 40
0.7624419778
 40
0.8857752456
 40
1.0
 40
1.0
 40
1.0
 40
1.0
 10
48.750408458
 20
69.7616087633
 30
0.0
 10
48.750408458
 20
69.8733697406
 30
0.0
 10
48.770912402
 20
70.106034727
 30
0.0
 10
48.8820549338
 20
70.5836570785
 30
0.0
 10
49.140359906
 20
71.1694668755
 30
0.0
 10
49.518530339
 20
71.686071803
 30
0.0
 10
49.8765891415
 20
72.0211341048
 30
0.0
 10
50.0678292173
 20
72.1552222874
 30
0.0
 10
50.1646161324
 20
72.2111019053
 30
0.0
  0
ENDSEC
  0
SECTION
  2
OBJECTS
  0
DICTIONARY
  5
C
100
AcDbDictionary
280
0
281
1
  3
ACAD_GROUP
350
D
  3
ACAD_MLINESTYLE
350
17
  3
ACAD_LAYOUT
350
1A
  3
ACAD_PLOTSETTINGS
350
19
  3
ACAD_PLOTSTYLENAME
350
E
  0
DICTIONARY
  5
D
102
{ACAD_REACTORS
330
C
102
}
100
AcDbDictionary
280
0
281
1
  0
ACDBDICTIONARYWDFLT
  5
E
102
{ACAD_REACTORS
330
C
102
}
100
AcDbDictionary
281
1
  3
Normal
350
F
100
AcDbDictionaryWithDefault
340
F
  0
DICTIONARY
  5
17
102
{ACAD_REACTORS
330
C
102
}
100
AcDbDictionary
280
0
281
1
  3
Standard
350
18
  0
DICTIONARY
  5
19
102
{ACAD_REACTORS
330
C
102
}
100
AcDbDictionary
281
1
  0
DICTIONARY
  5
1A
102
{ACAD_REACTORS
330
C
102
}
100
AcDbDictionary
281
1
  3
Model
350
2A5
  3
Layout1
350
2A6
  0
ACDBPLACEHOLDER
  5
F
102
{ACAD_REACTORS
330
E
102
}
  0
MLINESTYLE
  5
18
102
{ACAD_REACTORS
330
17
102
}
100
AcDbMlineStyle
  2
STANDARD
 70
0
  3

 62
256
 51
90.0
 52
90.0
 71
2
 49
0.5
 62
256
  6
BYLAYER
 49
-0.5
 62
256
  6
BYLAYER
  0
LAYOUT
  5
2A5
102
{ACAD_REACTORS
330
1A
102
}
100
AcDbPlotSettings
  1

  2
none_device
  4

  6

 40
0.0
 41
0.0
 42
0.0
 43
0.0
 44
210.0
 45
297.0
 46
0.0
 47
0.0
 48
0.0
 49
0.0
140
0.0
141
0.0
142
1.0
143
1.0
 70
1024
 72
1
 73
0
 74
0
  7

 75
0
147
1.0
148
0.0
149
0.0
100
AcDbLayout
  1
Model
 70
0
 71
0
 10
0.0
 20
0.0
 11
210.0
 21
297.0
 12
0.0
 22
0.0
 32
0.0
 14
0.0
 24
0.0
 34
0.0
 15
0.0
 25
0.0
 35
0.0
146
0.0
 13
0.0
 23
0.0
 33
0.0
 16
1.0
 26
0.0
 36
0.0
 17
0.0
 27
1.0
 37
0.0
 76
0
330
210
345
0
346
0
  0
LAYOUT
  5
2A6
102
{ACAD_REACTORS
330
1A
102
}
100
AcDbPlotSettings
  1

  2
none_device
  4

  6

 40
0.0
 41
0.0
 42
0.0
 43
0.0
 44
210.0
 45
297.0
 46
0.0
 47
0.0
 48
0.0
 49
0.0
140
0.0
141
0.0
142
1.0
143
1.0
 70
0
 72
1
 73
0
 74
0
  7

 75
0
147
1.0
148
0.0
149
0.0
100
AcDbLayout
  1
Layout1
 70
0
 71
1
 10
0.0
 20
0.0
 11
210.0
 21
297.0
 12
0.0
 22
0.0
 32
0.0
 14
0.0
 24
0.0
 34
0.0
 15
0.0
 25
0.0
 35
0.0
146
0.0
 13
0.0
 23
0.0
 33
0.0
 16
1.0
 26
0.0
 36
0.0
 17
0.0
 27
1.0
 37
0.0
 76
0
330
211
345
0
346
0
  0
ENDSEC
  0
EOF
