999
DXF file: C:\Users\sesa63760\Dev\_Creo\CAD\MCADFD0002484_3D-CAD\drw0001_1.dxf
999
Pro/ENGINEER 2019471 by Parametric Technology Corporation
  0
SECTION
  2
HEADER
  9
$ACADVER
  1
AC1024
  9
$DWGCODEPAGE
  3
ANSI_1252
  9
$EXTMAX
 10
138.2454491316
 20
195.5185637719
 30
0.0
  9
$EXTMIN
 10
0.0
 20
0.0
 30
0.0
  9
$LIMMIN
 10
0.0
 20
0.0
  9
$LIMMAX
 10
138.2454491316
 20
195.5185637719
  9
$VIEWCTR
 10
69.1227245658
 20
97.7592818859
  9
$VIEWSIZE
 40
195.5185637719
  9
$CLAYER
  8
0
  9
$LTSCALE
 40
12.7449137866
  9
$CELTYPE
  6
BYLAYER
  9
$DIMSCALE
 40
1.0
  9
$DIMASZ
 40
1.6457791563
  9
$DIMEXO
 40
1.0
  9
$DIMDLI
 40
8.805576798
  9
$DIMEXE
 40
1.0
  9
$DIMCEN
 40
2.0855313469
  9
$DIMLFAC
 40
1.0
  9
$DIMBLK
  1
_FILLED
  9
$DIMALT
 70
0
  9
$DIMALTF
 40
0.0393700787
  9
$DIMTXT
 40
2.3040908189
  9
$DIMTOL
 70
1
  9
$DIMLIM
 70
0
  9
$DIMTFAC
 40
1.0
  9
$DIMTP
 40
0.01
  9
$DIMTM
 40
0.01
  9
$DIMGAP
 40
0.625
  9
$DIMDSEP
 70
46
  9
$AUNITS
 70
0
  9
$PDMODE
 70
3
  9
$PDSIZE
 40
0.3125
  9
$HANDSEED
  5
354
  9
$TILEMODE
 70
1
  9
$MEASUREMENT
 70
1
  9
$INSUNITS
 70
4
  0
ENDSEC
  0
SECTION
  2
CLASSES
  0
CLASS
  1
ACDBDICTIONARYWDFLT
  2
AcDbDictionaryWithDefault
  3
AutoCAD 2000
 90
0
 91
1
280
0
281
0
  0
CLASS
  1
ACDBPLACEHOLDER
  2
AcDbPlaceHolder
  3
AutoCAD 2000
 90
0
 91
1
280
0
281
0
  0
CLASS
  1
LAYOUT
  2
AcDbLayout
  3
AutoCAD 2000
 90
0
 91
0
280
0
281
0
  0
ENDSEC
  0
SECTION
  2
TABLES
  0
TABLE
  2
VPORT
  5
8
100
AcDbSymbolTable
 70
2
  0
VPORT
  5
1F4
100
AcDbSymbolTableRecord
100
AcDbViewportTableRecord
  2
*ACTIVE
 70
0
 10
0.0
 20
0.0
 11
1.0
 21
1.0
 12
69.1227245658
 22
97.7592818859
 13
0.0
 23
0.0
 14
1.0
 24
1.0
 15
0.0
 25
0.0
 16
0.0
 26
0.0
 36
1.0
 17
0.0
 27
0.0
 37
0.0
 40
195.5185637719
 41
0.7070707071
 42
50.0
 43
0.0
 44
0.0
 50
0.0
 51
0.0
 71
0
 72
100
 73
1
 74
1
 75
0
 76
0
 77
0
 78
0
  0
ENDTAB
  0
TABLE
  2
LTYPE
  5
5
100
AcDbSymbolTable
 70
6
  0
LTYPE
  5
14
100
AcDbSymbolTableRecord
100
AcDbLinetypeTableRecord
  2
BYBLOCK
 70
0
  3

 72
65
 73
0
 40
0.0
  0
LTYPE
  5
15
100
AcDbSymbolTableRecord
100
AcDbLinetypeTableRecord
  2
BYLAYER
 70
0
  3

 72
65
 73
0
 40
0.0
  0
LTYPE
  5
16
100
AcDbSymbolTableRecord
100
AcDbLinetypeTableRecord
  2
CONTINUOUS
 70
64
  3
Solid line
 72
65
 73
0
 40
0.0
  0
LTYPE
  5
1F5
100
AcDbSymbolTableRecord
100
AcDbLinetypeTableRecord
  2
CENTER
 70
64
  3
____ _ ____ _ ____ _ ____ _ ____ _ ____ _ ____
 72
65
 73
4
 40
0.6
 49
0.375
 74
0
 49
-0.075
 74
0
 49
0.075
 74
0
 49
-0.075
 74
0
  0
LTYPE
  5
1F6
100
AcDbSymbolTableRecord
100
AcDbLinetypeTableRecord
  2
HIDDEN
 70
64
  3
- - - - - - - - - - - - - - - - - - - -
 72
65
 73
2
 40
0.2
 49
0.1
 74
0
 49
-0.1
 74
0
  0
LTYPE
  5
1F7
100
AcDbSymbolTableRecord
100
AcDbLinetypeTableRecord
  2
PHANTOM
 70
64
  3
_____ _ _ _____ _ _ _____ _ _ _____
 72
65
 73
6
 40
0.8
 49
0.45
 74
0
 49
-0.05
 74
0
 49
0.1
 74
0
 49
-0.05
 74
0
 49
0.1
 74
0
 49
-0.05
 74
0
  0
LTYPE
  5
1F8
100
AcDbSymbolTableRecord
100
AcDbLinetypeTableRecord
  2
DOT
 70
64
  3
. . . . . . . . . . . . . . . . . . . .
 72
65
 73
2
 40
0.2
 49
0.1
 74
0
 49
-0.1
 74
0
  0
LTYPE
  5
1F9
100
AcDbSymbolTableRecord
100
AcDbLinetypeTableRecord
  2
DASHED
 70
64
  3
- - - - - - - - - - - - - - - - - - - -
 72
65
 73
2
 40
0.2
 49
0.1
 74
0
 49
-0.1
 74
0
  0
ENDTAB
  0
TABLE
  2
LAYER
  5
2
100
AcDbSymbolTable
 70
36
  0
LAYER
  5
10
100
AcDbSymbolTableRecord
100
AcDbLayerTableRecord
  2
0
 70
0
 62
7
  6
CONTINUOUS
370
-3
390
F
  0
LAYER
  5
1FA
100
AcDbSymbolTableRecord
100
AcDbLayerTableRecord
  2
DEFAULT_1
 70
0
 62
7
  6
CENTER
370
-3
390
F
  0
LAYER
  5
1FB
100
AcDbSymbolTableRecord
100
AcDbLayerTableRecord
  2
DEFAULT_2
 70
0
 62
8
  6
HIDDEN
370
-3
390
F
  0
LAYER
  5
1FC
100
AcDbSymbolTableRecord
100
AcDbLayerTableRecord
  2
DEFAULT_3
 70
0
 62
7
  6
PHANTOM
370
-3
390
F
  0
LAYER
  5
1FD
100
AcDbSymbolTableRecord
100
AcDbLayerTableRecord
  2
00_COMPONENTS
 70
0
 62
7
  6
CONTINUOUS
370
-3
390
F
  0
LAYER
  5
1FE
100
AcDbSymbolTableRecord
100
AcDbLayerTableRecord
  2
01_1_DEFAULT_DATUMS
 70
0
 62
7
  6
CONTINUOUS
370
-3
390
F
  0
LAYER
  5
1FF
100
AcDbSymbolTableRecord
100
AcDbLayerTableRecord
  2
01_PLANES
 70
0
 62
7
  6
CONTINUOUS
370
-3
390
F
  0
LAYER
  5
200
100
AcDbSymbolTableRecord
100
AcDbLayerTableRecord
  2
02_COORD_SYS
 70
0
 62
7
  6
CONTINUOUS
370
-3
390
F
  0
LAYER
  5
201
100
AcDbSymbolTableRecord
100
AcDbLayerTableRecord
  2
03_AXES
 70
0
 62
7
  6
CONTINUOUS
370
-3
390
F
  0
LAYER
  5
202
100
AcDbSymbolTableRecord
100
AcDbLayerTableRecord
  2
04_POINTS
 70
0
 62
7
  6
CONTINUOUS
370
-3
390
F
  0
LAYER
  5
203
100
AcDbSymbolTableRecord
100
AcDbLayerTableRecord
  2
05_CURVES
 70
0
 62
7
  6
CONTINUOUS
370
-3
390
F
  0
LAYER
  5
204
100
AcDbSymbolTableRecord
100
AcDbLayerTableRecord
  2
06_SURFS
 70
0
 62
7
  6
CONTINUOUS
370
-3
390
F
  0
LAYER
  5
205
100
AcDbSymbolTableRecord
100
AcDbLayerTableRecord
  2
07_COSMETICS
 70
0
 62
7
  6
CONTINUOUS
370
-3
390
F
  0
LAYER
  5
206
100
AcDbSymbolTableRecord
100
AcDbLayerTableRecord
  2
10_NOTES
 70
0
 62
7
  6
CONTINUOUS
370
-3
390
F
  0
LAYER
  5
207
100
AcDbSymbolTableRecord
100
AcDbLayerTableRecord
  2
11_NOTES_PUB
 70
0
 62
7
  6
CONTINUOUS
370
-3
390
F
  0
LAYER
  5
208
100
AcDbSymbolTableRecord
100
AcDbLayerTableRecord
  2
13_REF_GTOL
 70
0
 62
7
  6
CONTINUOUS
370
-3
390
F
  0
LAYER
  5
209
100
AcDbSymbolTableRecord
100
AcDbLayerTableRecord
  2
16_MISC
 70
0
 62
7
  6
CONTINUOUS
370
-3
390
F
  0
LAYER
  5
20A
100
AcDbSymbolTableRecord
100
AcDbLayerTableRecord
  2
17_NO_PRINT
 70
0
 62
7
  6
CONTINUOUS
370
-3
390
F
  0
LAYER
  5
20B
100
AcDbSymbolTableRecord
100
AcDbLayerTableRecord
  2
18_DATUM_CAMS_JOINTS
 70
0
 62
7
  6
CONTINUOUS
370
-3
390
F
  0
LAYER
  5
20C
100
AcDbSymbolTableRecord
100
AcDbLayerTableRecord
  2
19_DATUM_FUNCTIONAL
 70
0
 62
7
  6
CONTINUOUS
370
-3
390
F
  0
LAYER
  5
20D
100
AcDbSymbolTableRecord
100
AcDbLayerTableRecord
  2
20_DATUM_KINEMATIC_SCHEME
 70
0
 62
7
  6
CONTINUOUS
370
-3
390
F
  0
ENDTAB
  0
TABLE
  2
STYLE
  5
3
100
AcDbSymbolTable
 70
1
  0
STYLE
  5
11
100
AcDbSymbolTableRecord
100
AcDbTextStyleTableRecord
  2
STANDARD
 70
0
 40
0.0
 41
0.8
 50
0.0
 71
0
 42
0.2
  3
txt
  4

  0
STYLE
  5
20E
100
AcDbSymbolTableRecord
100
AcDbTextStyleTableRecord
  2
TEXTSTYLE_1
 70
0
 40
0.0
 41
0.8
 50
0.0
 71
0
 42
0.2
  3
gdt
  4

  0
ENDTAB
  0
TABLE
  2
VIEW
  5
6
100
AcDbSymbolTable
 70
0
  0
ENDTAB
  0
TABLE
  2
UCS
  5
7
100
AcDbSymbolTable
 70
0
  0
ENDTAB
  0
TABLE
  2
APPID
  5
9
100
AcDbSymbolTable
 70
1
  0
APPID
  5
20F
100
AcDbSymbolTableRecord
100
AcDbRegAppTableRecord
  2
ACAD
 70
0
  0
ENDTAB
  0
TABLE
  2
BLOCK_RECORD
  5
1
100
AcDbSymbolTable
 70
0
  0
BLOCK_RECORD
  5
210
100
AcDbSymbolTableRecord
100
AcDbBlockTableRecord
  2
*Model_Space
  0
BLOCK_RECORD
  5
211
100
AcDbSymbolTableRecord
100
AcDbBlockTableRecord
  2
*Paper_Space
  0
BLOCK_RECORD
  5
212
100
AcDbSymbolTableRecord
100
AcDbBlockTableRecord
  2
_FILLED
  0
ENDTAB
  0
TABLE
  2
DIMSTYLE
  5
A
100
AcDbSymbolTable
 70
1
100
AcDbDimStyleTable
 71
0
  0
DIMSTYLE
105
213
100
AcDbSymbolTableRecord
100
AcDbDimStyleTableRecord
  2
STANDARD
 70
0
  3

  4

 40
1.0
 41
1.6457791563
 42
1.0
 43
0.38
 44
1.0
 45
0.0
 46
0.0
 47
0.01
 48
0.01
140
2.3040908189
141
0.09
142
0.0
143
25.4
144
1.0
145
0.0
146
1.0
147
0.625
 71
1
 72
0
 73
0
 74
0
 75
0
 76
0
 77
1
 78
8
 79
2
170
0
171
1
172
0
173
0
174
0
175
0
176
0
177
0
178
0
270
2
179
2
271
2
272
2
273
2
274
2
275
0
280
0
281
0
282
0
283
1
284
8
285
0
286
0
287
3
288
0
340
11
278
46
341
212
342
212
343
212
344
212
  0
ENDTAB
  0
ENDSEC
  0
SECTION
  2
BLOCKS
  0
BLOCK
  5
20
100
AcDbEntity
  8
0
100
AcDbBlockBegin
  2
*Model_Space
 70
0
 10
0.0
 20
0.0
 30
0.0
  3
*Model_Space
  1

  0
ENDBLK
  5
21
100
AcDbEntity
  8
0
100
AcDbBlockEnd
  0
BLOCK
  5
1C
100
AcDbEntity
  8
0
100
AcDbBlockBegin
  2
*Paper_Space
 70
0
 10
0.0
 20
0.0
 30
0.0
  3
*Paper_Space
  1

  0
ENDBLK
  5
1D
100
AcDbEntity
  8
0
100
AcDbBlockEnd
  0
BLOCK
  5
214
100
AcDbEntity
  8
0
100
AcDbBlockBegin
  2
_FILLED
 70
64
 10
0.0
 20
0.0
  3
_FILLED
  1

  0
SOLID
  5
215
100
AcDbEntity
  8
0
  6
BYBLOCK
 62
0
100
AcDbTrace
 10
0.0
 20
0.0
 11
-1.0
 21
0.25
 12
-1.0
 22
-0.25
 13
-1.0
 23
-0.25
  0
ENDBLK
  5
216
100
AcDbEntity
  8
0
  6
BYBLOCK
 62
0
100
AcDbBlockEnd
  0
ENDSEC
  0
SECTION
  2
ENTITIES
  0
LINE
  5
217
100
AcDbEntity
  8
0
100
AcDbLine
 62
7
  6
CONTINUOUS
 10
16.0731049046
 20
82.3013332428
 11
16.03810047
 21
79.5871119884
  0
LINE
  5
218
100
AcDbEntity
  8
0
100
AcDbLine
 62
7
  6
CONTINUOUS
 10
16.6644546984
 20
81.4803525669
 11
16.6294502637
 21
78.7661313125
  0
LINE
  5
219
100
AcDbEntity
  8
0
100
AcDbLine
 62
7
  6
CONTINUOUS
 10
16.6235944194
 20
74.463254419
 11
17.1359320543
 21
114.189583689
  0
LINE
  5
21A
100
AcDbEntity
  8
0
100
AcDbLine
 62
7
  6
CONTINUOUS
 10
73.9999960292
 20
42.9979823194
 11
67.1378754683
 21
45.521070883
  0
LINE
  5
21B
100
AcDbEntity
  8
0
100
AcDbLine
 62
7
  6
CONTINUOUS
 10
67.1378754683
 20
45.521070883
 11
63.4047394512
 21
47.659973101
  0
LINE
  5
21C
100
AcDbEntity
  8
0
100
AcDbLine
 62
7
  6
CONTINUOUS
 10
30.3952820312
 20
66.5727588565
 11
16.6235944194
 21
74.463254419
  0
LINE
  5
21D
100
AcDbEntity
  8
0
100
AcDbLine
 62
7
  6
CONTINUOUS
 10
71.7086109286
 20
148.0300793134
 11
41.4262625323
 21
130.9335371186
  0
LINE
  5
21E
100
AcDbEntity
  8
0
100
AcDbLine
 62
7
  6
CONTINUOUS
 10
43.1826164758
 20
131.8901687582
 11
73.464964872
 21
148.986710953
  0
LINE
  5
21F
100
AcDbEntity
  8
0
100
AcDbLine
 62
7
  6
CONTINUOUS
 10
43.8266342425
 20
130.5511554452
 11
34.3193678992
 21
125.1836265446
  0
LINE
  5
220
100
AcDbEntity
  8
0
100
AcDbLine
 62
7
  6
CONTINUOUS
 10
83.3363881758
 20
152.857222433
 11
74.4599474906
 21
147.84583954
  0
LINE
  5
221
100
AcDbEntity
  8
0
100
AcDbLine
 62
7
  6
CONTINUOUS
 10
17.3541821155
 20
114.6536608871
 11
32.6719190684
 21
123.3016142333
  0
LINE
  5
222
100
AcDbEntity
  8
0
100
AcDbLine
 62
7
  6
CONTINUOUS
 10
82.2267048986
 20
152.8960263816
 11
74.0546613379
 21
148.2825068544
  0
LINE
  5
223
100
AcDbEntity
  8
0
100
AcDbLine
 62
7
  6
CONTINUOUS
 10
42.7517671265
 20
130.6096834171
 11
33.2334482647
 21
125.2360250355
  0
LINE
  5
224
100
AcDbEntity
  8
0
100
AcDbLine
 62
7
  6
CONTINUOUS
 10
33.2334779139
 20
125.2359727012
 11
33.2445007833
 21
125.2421545165
  0
LINE
  5
225
100
AcDbEntity
  8
0
100
AcDbLine
 62
7
  6
CONTINUOUS
 10
71.7086109286
 20
148.0300793134
 11
73.464964872
 21
148.986710953
  0
LINE
  5
226
100
AcDbEntity
  8
0
100
AcDbLine
 62
7
  6
CONTINUOUS
 10
41.4262625323
 20
130.9335371186
 11
43.1826164758
 21
131.8901687582
  0
LINE
  5
227
100
AcDbEntity
  8
0
100
AcDbLine
 62
7
  6
CONTINUOUS
 10
32.5812515071
 20
67.4031418756
 11
32.2263111047
 21
67.6065051633
  0
LINE
  5
228
100
AcDbEntity
  8
0
100
AcDbLine
 62
7
  6
CONTINUOUS
 10
16.6787231475
 20
78.7379003881
 11
16.6294502637
 21
78.7661313125
  0
LINE
  5
229
100
AcDbEntity
  8
0
100
AcDbLine
 62
7
  6
CONTINUOUS
 10
57.7840337378
 20
55.4374877948
 11
32.2283247675
 21
70.0796445088
  0
LINE
  5
22A
100
AcDbEntity
  8
0
100
AcDbLine
 62
7
  6
CONTINUOUS
 10
16.7137275822
 20
81.4521216426
 11
16.6644546984
 21
81.4803525669
  0
LINE
  5
22B
100
AcDbEntity
  8
0
100
AcDbLine
 62
7
  6
CONTINUOUS
 10
63.4047394512
 20
47.659973101
 11
55.9000158971
 21
53.5230680409
  0
LINE
  5
22C
100
AcDbEntity
  8
0
100
AcDbLine
 62
7
  6
CONTINUOUS
 10
29.8534058634
 20
107.7316692787
 11
30.0040310066
 21
119.4110455859
  0
LINE
  5
22D
100
AcDbEntity
  8
0
100
AcDbLine
 62
7
  6
CONTINUOUS
 10
31.5159955054
 20
120.201902356
 11
31.50326662
 21
119.2149128089
  0
LINE
  5
22E
100
AcDbEntity
  8
0
100
AcDbLine
 62
7
  6
CONTINUOUS
 10
32.2283247675
 20
70.0796445088
 11
32.2124136608
 21
68.8459075749
  0
LINE
  5
22F
100
AcDbEntity
  8
0
100
AcDbLine
 62
7
  6
CONTINUOUS
 10
34.0222279254
 20
68.2346713033
 11
34.0326892153
 21
69.0458329622
  0
LINE
  5
230
100
AcDbEntity
  8
0
100
AcDbLine
 62
7
  6
CONTINUOUS
 10
34.7687183218
 20
117.3439705622
 11
34.7814472071
 21
118.3309601092
  0
LINE
  5
231
100
AcDbEntity
  8
0
100
AcDbLine
 62
7
  6
CONTINUOUS
 10
35.2429962893
 20
119.0651834866
 11
35.2370032198
 21
118.8309867601
  0
LINE
  5
232
100
AcDbEntity
  8
0
100
AcDbLine
 62
7
  6
CONTINUOUS
 10
35.628651716
 20
117.8455538463
 11
36.3322394421
 21
118.4287648654
  0
LINE
  5
233
100
AcDbEntity
  8
0
100
AcDbLine
 62
7
  6
CONTINUOUS
 10
32.6798380535
 20
122.9742233791
 11
17.8564202634
 21
114.6053484028
  0
LINE
  5
234
100
AcDbEntity
  8
0
100
AcDbLine
 62
7
  6
CONTINUOUS
 10
45.3978181426
 20
129.6034207109
 11
75.6801665388
 21
146.6999629057
  0
LINE
  5
235
100
AcDbEntity
  8
0
100
AcDbLine
 62
7
  6
CONTINUOUS
 10
30.440531129
 20
120.3391999822
 11
32.7769134347
 21
121.6582541768
  0
LINE
  5
236
100
AcDbEntity
  8
0
100
AcDbLine
 62
7
  6
CONTINUOUS
 10
85.8043184251
 20
151.4189126635
 11
36.6365716794
 21
123.660218197
  0
LINE
  5
237
100
AcDbEntity
  8
0
100
AcDbLine
 62
7
  6
CONTINUOUS
 10
85.8112858817
 20
151.4132506548
 11
36.6430268499
 21
123.6542669663
  0
LINE
  5
238
100
AcDbEntity
  8
0
100
AcDbLine
 62
7
  6
CONTINUOUS
 10
34.2170373462
 20
121.8204040016
 11
33.8494484564
 21
121.6128738958
  0
LINE
  5
239
100
AcDbEntity
  8
0
100
AcDbLine
 62
7
  6
CONTINUOUS
 10
33.0098279653
 20
121.1260276456
 11
31.4450074249
 21
120.2425750136
  0
LINE
  5
23A
100
AcDbEntity
  8
0
100
AcDbLine
 62
7
  6
CONTINUOUS
 10
33.0421873397
 20
121.0635463326
 11
31.5159955054
 21
120.201902356
  0
LINE
  5
23B
100
AcDbEntity
  8
0
100
AcDbLine
 62
7
  6
CONTINUOUS
 10
33.4348266943
 20
120.3054160249
 11
31.50326662
 21
119.2149128089
  0
LINE
  5
23C
100
AcDbEntity
  8
0
100
AcDbLine
 62
7
  6
CONTINUOUS
 10
87.1143520099
 20
149.5485164493
 11
37.8066331074
 21
121.7107977323
  0
LINE
  5
23D
100
AcDbEntity
  8
0
100
AcDbLine
 62
7
  6
CONTINUOUS
 10
35.6268426479
 20
119.2818920913
 11
35.2429962893
 21
119.0651834866
  0
LINE
  5
23E
100
AcDbEntity
  8
0
100
AcDbLine
 62
7
  6
CONTINUOUS
 10
35.5277437572
 20
123.0883957782
 11
33.8675799244
 21
122.1841559151
  0
LINE
  5
23F
100
AcDbEntity
  8
0
100
AcDbLine
 62
7
  6
CONTINUOUS
 10
55.9290942478
 20
54.34398066
 11
57.7755478142
 21
54.7794947635
  0
LINE
  5
240
100
AcDbEntity
  8
0
100
AcDbLine
 62
7
  6
CONTINUOUS
 10
37.8066331074
 20
121.7107977323
 11
37.7682191971
 21
120.2096617702
  0
LINE
  5
241
100
AcDbEntity
  8
0
100
AcDbLine
 62
7
  6
CONTINUOUS
 10
35.7244305391
 20
119.1061741935
 11
35.2370032198
 21
118.8309867601
  0
LINE
  5
242
100
AcDbEntity
  8
0
100
AcDbLine
 62
7
  6
CONTINUOUS
 10
87.1560352428
 20
148.0926010285
 11
37.7682191971
 21
120.2096617702
  0
LINE
  5
243
100
AcDbEntity
  8
0
100
AcDbLine
 62
7
  6
CONTINUOUS
 10
35.8271003322
 20
118.9213057634
 11
34.7814472071
 21
118.3309601092
  0
LINE
  5
244
100
AcDbEntity
  8
0
100
AcDbLine
 62
7
  6
CONTINUOUS
 10
75.2152104369
 20
140.5992498184
 11
74.3862604484
 21
140.1312485171
  0
LINE
  5
245
100
AcDbEntity
  8
0
100
AcDbLine
 62
7
  6
CONTINUOUS
 10
62.750127898
 20
133.5618230376
 11
61.9211779095
 21
133.0938217363
  0
LINE
  5
246
100
AcDbEntity
  8
0
100
AcDbLine
 62
7
  6
CONTINUOUS
 10
50.285045359
 20
126.5243962569
 11
49.4560953705
 21
126.0563949556
  0
LINE
  5
247
100
AcDbEntity
  8
0
100
AcDbLine
 62
7
  6
CONTINUOUS
 10
37.8199628201
 20
119.4869694761
 11
36.0636355616
 21
118.4953976637
  0
LINE
  5
248
100
AcDbEntity
  8
0
100
AcDbLine
 62
7
  6
CONTINUOUS
 10
38.2675836222
 20
119.5543132992
 11
40.5211578666
 21
120.8266164461
  0
LINE
  5
249
100
AcDbEntity
  8
0
100
AcDbLine
 62
7
  6
CONTINUOUS
 10
47.1410322093
 20
124.5640069398
 11
49.5354548439
 21
125.9158290333
  0
LINE
  5
24A
100
AcDbEntity
  8
0
100
AcDbLine
 62
7
  6
CONTINUOUS
 10
50.7326661612
 20
126.59174008
 11
52.9862404055
 21
127.8640432268
  0
LINE
  5
24B
100
AcDbEntity
  8
0
100
AcDbLine
 62
7
  6
CONTINUOUS
 10
59.6061147482
 20
131.6014337206
 11
62.0005373828
 21
132.9532558141
  0
LINE
  5
24C
100
AcDbEntity
  8
0
100
AcDbLine
 62
7
  6
CONTINUOUS
 10
63.1977487001
 20
133.6291668608
 11
65.4513229445
 21
134.9014700076
  0
LINE
  5
24D
100
AcDbEntity
  8
0
100
AcDbLine
 62
7
  6
CONTINUOUS
 10
72.0711972872
 20
138.6388605014
 11
74.4656199218
 21
139.9906825948
  0
LINE
  5
24E
100
AcDbEntity
  8
0
100
AcDbLine
 62
7
  6
CONTINUOUS
 10
75.6628312391
 20
140.6665936416
 11
77.9164054834
 21
141.9388967884
  0
LINE
  5
24F
100
AcDbEntity
  8
0
100
AcDbLine
 62
7
  6
CONTINUOUS
 10
84.5362798261
 20
145.6762872821
 11
86.9307024607
 21
147.0281093756
  0
LINE
  5
250
100
AcDbEntity
  8
0
100
AcDbLine
 62
7
  6
CONTINUOUS
 10
36.3322430361
 20
118.4287584988
 11
39.3252713294
 21
120.1185361157
  0
LINE
  5
251
100
AcDbEntity
  8
0
100
AcDbLine
 62
7
  6
CONTINUOUS
 10
47.1551245274
 20
124.5390458406
 11
51.7903538683
 21
127.1559628965
  0
LINE
  5
252
100
AcDbEntity
  8
0
100
AcDbLine
 62
7
  6
CONTINUOUS
 10
59.6202070663
 20
131.5764726214
 11
64.2554364073
 21
134.1933896773
  0
LINE
  5
253
100
AcDbEntity
  8
0
100
AcDbLine
 62
7
  6
CONTINUOUS
 10
72.0852896053
 20
138.6138994021
 11
76.7205189462
 21
141.230816458
  0
LINE
  5
254
100
AcDbEntity
  8
0
100
AcDbLine
 62
7
  6
CONTINUOUS
 10
84.5503721442
 20
145.6513261829
 11
86.1925731919
 21
146.5784656219
  0
LINE
  5
255
100
AcDbEntity
  8
0
100
AcDbLine
 62
7
  6
CONTINUOUS
 10
40.7297836281
 20
120.4595796471
 11
47.3496579708
 21
124.1969701409
  0
LINE
  5
256
100
AcDbEntity
  8
0
100
AcDbLine
 62
7
  6
CONTINUOUS
 10
53.194866167
 20
127.4970064279
 11
59.8147405097
 21
131.2343969216
  0
LINE
  5
257
100
AcDbEntity
  8
0
100
AcDbLine
 62
7
  6
CONTINUOUS
 10
65.659948706
 20
134.5344332087
 11
72.2798230487
 21
138.2718237024
  0
LINE
  5
258
100
AcDbEntity
  8
0
100
AcDbLine
 62
7
  6
CONTINUOUS
 10
78.1250312449
 20
141.5718599894
 11
84.7449055876
 21
145.3092504832
  0
LINE
  5
259
100
AcDbEntity
  8
0
100
AcDbLine
 62
7
  6
CONTINUOUS
 10
37.7682191971
 20
120.2096617702
 11
37.6649042593
 21
120.1533893208
  0
LINE
  5
25A
100
AcDbEntity
  8
0
100
AcDbLine
 62
7
  6
CONTINUOUS
 10
35.2370032198
 20
118.8309867601
 11
35.133688282
 21
118.7747143107
  0
LINE
  5
25B
100
AcDbEntity
  8
0
100
AcDbLine
 62
7
  6
CONTINUOUS
 10
94.1588326031
 20
141.0278654946
 11
44.2985024473
 21
112.8781583715
  0
LINE
  5
25C
100
AcDbEntity
  8
0
100
AcDbLine
 62
7
  6
CONTINUOUS
 10
32.2124136608
 20
68.8459075749
 11
31.4760143449
 21
67.1964059272
  0
LINE
  5
25D
100
AcDbEntity
  8
0
100
AcDbLine
 62
7
  6
CONTINUOUS
 10
79.3920630675
 20
66.5364047689
 11
82.981017153
 21
64.4801116635
  0
LINE
  5
25E
100
AcDbEntity
  8
0
100
AcDbLine
 62
7
  6
CONTINUOUS
 10
83.0139001068
 20
67.0298346601
 11
81.6500975543
 21
67.8112260402
  0
LINE
  5
25F
100
AcDbEntity
  8
0
100
AcDbLine
 62
7
  6
CONTINUOUS
 10
82.2509021052
 20
67.4972208716
 11
81.6766694515
 21
67.8262277684
  0
LINE
  5
260
100
AcDbEntity
  8
0
100
AcDbLine
 62
7
  6
CONTINUOUS
 10
33.8494484564
 20
121.6128738958
 11
35.2429962893
 21
119.0651834866
  0
LINE
  5
261
100
AcDbEntity
  8
0
100
AcDbLine
 62
7
  6
CONTINUOUS
 10
33.8290080003
 20
119.5443084308
 11
32.7872142677
 21
121.5558627833
  0
LINE
  5
262
100
AcDbEntity
  8
0
100
AcDbLine
 62
7
  6
CONTINUOUS
 10
83.0139001068
 20
67.0298346601
 11
82.2509021052
 21
67.4972208716
  0
LINE
  5
263
100
AcDbEntity
  8
0
100
AcDbLine
 62
7
  6
CONTINUOUS
 10
36.6430268499
 20
123.6542669663
 11
37.8066331074
 21
121.7107977323
  0
LINE
  5
264
100
AcDbEntity
  8
0
100
AcDbLine
 62
7
  6
CONTINUOUS
 10
37.4613571731
 20
120.2734560091
 11
36.0261371614
 21
122.7984488721
  0
LINE
  5
265
100
AcDbEntity
  8
0
100
AcDbLine
 62
7
  6
CONTINUOUS
 10
37.8641017089
 20
120.2641619241
 11
38.2675836222
 21
119.5543132992
  0
LINE
  5
266
100
AcDbEntity
  8
0
100
AcDbLine
 62
7
  6
CONTINUOUS
 10
36.0636355616
 20
118.4953976637
 11
33.9802656743
 21
122.2467378424
  0
LINE
  5
267
100
AcDbEntity
  8
0
100
AcDbLine
 62
7
  6
CONTINUOUS
 10
57.7755478142
 20
54.7794947635
 11
57.7840337378
 21
55.4374877948
  0
LINE
  5
268
100
AcDbEntity
  8
0
100
AcDbLine
 62
7
  6
CONTINUOUS
 10
55.9000158971
 20
53.5230680409
 11
55.9290942478
 21
54.34398066
  0
LINE
  5
269
100
AcDbEntity
  8
0
100
AcDbLine
 62
7
  6
CONTINUOUS
 10
16.6531769916
 20
83.0889951845
 11
16.7354367524
 21
83.1354366775
  0
LINE
  5
26A
100
AcDbEntity
  8
0
100
AcDbLine
 62
7
  6
CONTINUOUS
 10
73.7950276762
 20
82.5552942623
 11
61.7980420763
 21
89.4289733863
  0
LINE
  5
26B
100
AcDbEntity
  8
0
100
AcDbLine
 62
7
  6
CONTINUOUS
 10
29.8534058634
 20
107.7316692787
 11
17.8564202634
 21
114.6053484028
  0
LINE
  5
26C
100
AcDbEntity
  8
0
100
AcDbLine
 62
7
  6
CONTINUOUS
 10
91.8571456065
 20
73.5738315497
 11
95.4460996919
 21
71.5175384443
  0
LINE
  5
26D
100
AcDbEntity
  8
0
100
AcDbLine
 62
7
  6
CONTINUOUS
 10
40.5211578666
 20
120.8266164461
 11
40.7297836281
 21
120.4595796471
  0
LINE
  5
26E
100
AcDbEntity
  8
0
100
AcDbLine
 62
7
  6
CONTINUOUS
 10
61.9486672194
 20
101.1083496934
 11
61.7980420763
 21
89.4289733863
  0
LINE
  5
26F
100
AcDbEntity
  8
0
100
AcDbLine
 62
7
  6
CONTINUOUS
 10
60.5501204189
 20
103.5667854227
 11
110.4104505747
 21
131.7164925458
  0
LINE
  5
270
100
AcDbEntity
  8
0
100
AcDbLine
 62
7
  6
CONTINUOUS
 10
111.8089973752
 20
129.2580568165
 11
61.9486672194
 21
101.1083496934
  0
LINE
  5
271
100
AcDbEntity
  8
0
100
AcDbLine
 62
7
  6
CONTINUOUS
 10
95.4789826457
 20
74.0672614409
 11
94.1151800932
 21
74.848652821
  0
LINE
  5
272
100
AcDbEntity
  8
0
100
AcDbLine
 62
7
  6
CONTINUOUS
 10
94.7159846441
 20
74.5346476524
 11
94.1417519904
 21
74.8636545492
  0
LINE
  5
273
100
AcDbEntity
  8
0
100
AcDbLine
 62
7
  6
CONTINUOUS
 10
95.4789826457
 20
74.0672614409
 11
94.7159846441
 21
74.5346476524
  0
LINE
  5
274
100
AcDbEntity
  8
0
100
AcDbLine
 62
7
  6
CONTINUOUS
 10
47.3496579708
 20
124.1969701409
 11
47.1410322093
 21
124.5640069398
  0
LINE
  5
275
100
AcDbEntity
  8
0
100
AcDbLine
 62
7
  6
CONTINUOUS
 10
31.50326662
 20
119.2149128089
 11
34.7687183218
 21
117.3439705622
  0
LINE
  5
276
100
AcDbEntity
  8
0
100
AcDbLine
 62
7
  6
CONTINUOUS
 10
35.628651716
 20
117.8455538463
 11
34.7814472071
 21
118.3309601092
  0
LINE
  5
277
100
AcDbEntity
  8
0
100
AcDbLine
 62
7
  6
CONTINUOUS
 10
31.4450074249
 20
120.2425750136
 11
31.5159955054
 21
120.201902356
  0
LINE
  5
278
100
AcDbEntity
  8
0
100
AcDbLine
 62
7
  6
CONTINUOUS
 10
44.2985024473
 20
112.8781583715
 11
60.5501204189
 21
103.5667854227
  0
LINE
  5
279
100
AcDbEntity
  8
0
100
AcDbLine
 62
7
  6
CONTINUOUS
 10
35.133688282
 20
118.7747143107
 11
33.8290080003
 21
119.5443084308
  0
LINE
  5
27A
100
AcDbEntity
  8
0
100
AcDbLine
 62
7
  6
CONTINUOUS
 10
36.6365716794
 20
123.660218197
 11
36.6430268499
 21
123.6542669663
  0
LINE
  5
27B
100
AcDbEntity
  8
0
100
AcDbLine
 62
7
  6
CONTINUOUS
 10
49.5354548439
 20
125.9158290333
 11
49.132131135
 21
126.6253993279
  0
LINE
  5
27C
100
AcDbEntity
  8
0
100
AcDbLine
 62
7
  6
CONTINUOUS
 10
50.3293424523
 20
127.3013103747
 11
50.7326661612
 21
126.59174008
  0
LINE
  5
27D
100
AcDbEntity
  8
0
100
AcDbLine
 62
7
  6
CONTINUOUS
 10
52.9862404055
 20
127.8640432268
 11
53.194866167
 21
127.4970064279
  0
LINE
  5
27E
100
AcDbEntity
  8
0
100
AcDbLine
 62
7
  6
CONTINUOUS
 10
74.4137497584
 20
108.1457764742
 11
74.2631246152
 21
96.4664001671
  0
LINE
  5
27F
100
AcDbEntity
  8
0
100
AcDbLine
 62
7
  6
CONTINUOUS
 10
74.4943010765
 20
81.3260763977
 11
73.9999960292
 21
42.9979823194
  0
LINE
  5
280
100
AcDbEntity
  8
0
100
AcDbLine
 62
7
  6
CONTINUOUS
 10
111.6583722321
 20
117.5786805094
 11
61.7980420763
 21
89.4289733863
  0
LINE
  5
281
100
AcDbEntity
  8
0
100
AcDbLine
 62
7
  6
CONTINUOUS
 10
86.2601102152
 20
89.592721043
 11
74.2631246152
 21
96.4664001671
  0
LINE
  5
282
100
AcDbEntity
  8
0
100
AcDbLine
 62
7
  6
CONTINUOUS
 10
31.5265568499
 20
120.9523388418
 11
30.3215028024
 21
121.6427751836
  0
LINE
  5
283
100
AcDbEntity
  8
0
100
AcDbLine
 62
7
  6
CONTINUOUS
 10
104.3222281454
 20
80.6112583304
 11
107.9111822309
 21
78.5549652251
  0
LINE
  5
284
100
AcDbEntity
  8
0
100
AcDbLine
 62
7
  6
CONTINUOUS
 10
38.4581866522
 20
119.6290050669
 11
38.4292489929
 21
119.6455849138
  0
LINE
  5
285
100
AcDbEntity
  8
0
100
AcDbLine
 62
7
  6
CONTINUOUS
 10
107.9440651847
 20
81.1046882217
 11
106.5802626322
 21
81.8860796017
  0
LINE
  5
286
100
AcDbEntity
  8
0
100
AcDbLine
 62
7
  6
CONTINUOUS
 10
107.1810671831
 20
81.5720744331
 11
106.6068345294
 21
81.90108133
  0
LINE
  5
287
100
AcDbEntity
  8
0
100
AcDbLine
 62
7
  6
CONTINUOUS
 10
37.6649042593
 20
120.1533893208
 11
37.4613571731
 21
120.2734560091
  0
LINE
  5
288
100
AcDbEntity
  8
0
100
AcDbLine
 62
7
  6
CONTINUOUS
 10
107.9440651847
 20
81.1046882217
 11
107.1810671831
 21
81.5720744331
  0
LINE
  5
289
100
AcDbEntity
  8
0
100
AcDbLine
 62
7
  6
CONTINUOUS
 10
77.943358057
 20
64.1671525798
 11
77.9104751032
 21
61.6174295832
  0
LINE
  5
28A
100
AcDbEntity
  8
0
100
AcDbLine
 62
7
  6
CONTINUOUS
 10
78.738178272
 20
66.1672402361
 11
78.7296923484
 21
65.5092472047
  0
LINE
  5
28B
100
AcDbEntity
  8
0
100
AcDbLine
 62
7
  6
CONTINUOUS
 10
31.4760143449
 20
67.1964059272
 11
30.3952820312
 21
66.5727588565
  0
LINE
  5
28C
100
AcDbEntity
  8
0
100
AcDbLine
 62
7
  6
CONTINUOUS
 10
34.0222279254
 20
68.2346713033
 11
32.5812515071
 21
67.4031418756
  0
LINE
  5
28D
100
AcDbEntity
  8
0
100
AcDbLine
 62
7
  6
CONTINUOUS
 10
33.3050109931
 20
69.4627565772
 11
32.2124136608
 21
68.8459075749
  0
LINE
  5
28E
100
AcDbEntity
  8
0
100
AcDbLine
 62
7
  6
CONTINUOUS
 10
34.3896072311
 20
68.8413365999
 11
31.4760143449
 21
67.1964059272
  0
LINE
  5
28F
100
AcDbEntity
  8
0
100
AcDbLine
 62
7
  6
CONTINUOUS
 10
32.2263111047
 20
67.6065051633
 11
30.3952820312
 21
66.5727588565
  0
LINE
  5
290
100
AcDbEntity
  8
0
100
AcDbLine
 62
7
  6
CONTINUOUS
 10
34.7405926273
 20
68.640239335
 11
34.0222279254
 21
68.2346713033
  0
LINE
  5
291
100
AcDbEntity
  8
0
100
AcDbLine
 62
7
  6
CONTINUOUS
 10
34.756412652
 20
68.6311752437
 11
32.5812515071
 21
67.4031418756
  0
LINE
  5
292
100
AcDbEntity
  8
0
100
AcDbLine
 62
7
  6
CONTINUOUS
 10
59.8147405097
 20
131.2343969216
 11
59.6061147482
 21
131.6014337206
  0
LINE
  5
293
100
AcDbEntity
  8
0
100
AcDbLine
 62
7
  6
CONTINUOUS
 10
62.0005373828
 20
132.9532558141
 11
61.5972136739
 21
133.6628261087
  0
LINE
  5
294
100
AcDbEntity
  8
0
100
AcDbLine
 62
7
  6
CONTINUOUS
 10
82.2509021052
 20
67.4972208716
 11
82.2593880287
 21
68.155213903
  0
LINE
  5
295
100
AcDbEntity
  8
0
100
AcDbLine
 62
7
  6
CONTINUOUS
 10
82.981017153
 20
64.4801116635
 11
83.0139001068
 21
67.0298346601
  0
LINE
  5
296
100
AcDbEntity
  8
0
100
AcDbLine
 62
7
  6
CONTINUOUS
 10
73.7950276762
 20
82.5552942623
 11
123.655357832
 21
110.7050013854
  0
LINE
  5
297
100
AcDbEntity
  8
0
100
AcDbLine
 62
7
  6
CONTINUOUS
 10
47.9302408979
 20
124.9766542308
 11
47.9013032386
 21
124.9932340777
  0
LINE
  5
298
100
AcDbEntity
  8
0
100
AcDbLine
 62
7
  6
CONTINUOUS
 10
56.7635849863
 20
119.9155851523
 11
73.0152029578
 21
110.6042122034
  0
LINE
  5
299
100
AcDbEntity
  8
0
100
AcDbLine
 62
7
  6
CONTINUOUS
 10
98.7251927541
 20
96.6301478238
 11
86.7282071542
 21
103.5038269479
  0
LINE
  5
29A
100
AcDbEntity
  8
0
100
AcDbLine
 62
7
  6
CONTINUOUS
 10
116.7873106844
 20
87.6486851112
 11
120.3762647698
 21
85.5923920058
  0
LINE
  5
29B
100
AcDbEntity
  8
0
100
AcDbLine
 62
7
  6
CONTINUOUS
 10
50.9232691912
 20
126.6664318477
 11
50.8943315319
 21
126.6830116946
  0
LINE
  5
29C
100
AcDbEntity
  8
0
100
AcDbLine
 62
7
  6
CONTINUOUS
 10
62.7944249912
 20
134.3387371554
 11
63.1977487001
 21
133.6291668608
  0
LINE
  5
29D
100
AcDbEntity
  8
0
100
AcDbLine
 62
7
  6
CONTINUOUS
 10
65.4513229445
 20
134.9014700076
 11
65.659948706
 21
134.5344332087
  0
LINE
  5
29E
100
AcDbEntity
  8
0
100
AcDbLine
 62
7
  6
CONTINUOUS
 10
87.1143520099
 20
149.5485164493
 11
87.1560352428
 21
148.0926010285
  0
LINE
  5
29F
100
AcDbEntity
  8
0
100
AcDbLine
 62
7
  6
CONTINUOUS
 10
86.8788322973
 20
115.183203255
 11
86.7282071542
 21
103.5038269479
  0
LINE
  5
2A0
100
AcDbEntity
  8
0
100
AcDbLine
 62
7
  6
CONTINUOUS
 10
86.9593836155
 20
88.3635031784
 11
86.4650785682
 21
50.0354091002
  0
LINE
  5
2A1
100
AcDbEntity
  8
0
100
AcDbLine
 62
7
  6
CONTINUOUS
 10
90.408440596
 20
71.2045793606
 11
90.3755576422
 21
68.654856364
  0
LINE
  5
2A2
100
AcDbEntity
  8
0
100
AcDbLine
 62
7
  6
CONTINUOUS
 10
124.3546312323
 20
109.4757835208
 11
74.4943010765
 21
81.3260763977
  0
LINE
  5
2A3
100
AcDbEntity
  8
0
100
AcDbLine
 62
7
  6
CONTINUOUS
 10
120.4091477236
 20
88.1421150025
 11
119.0453451711
 21
88.9235063825
  0
LINE
  5
2A4
100
AcDbEntity
  8
0
100
AcDbLine
 62
7
  6
CONTINUOUS
 10
119.646149722
 20
88.6095012139
 11
119.0719170683
 21
88.9385081108
  0
LINE
  5
2A5
100
AcDbEntity
  8
0
100
AcDbLine
 62
7
  6
CONTINUOUS
 10
120.4091477236
 20
88.1421150025
 11
119.646149722
 21
88.6095012139
  0
LINE
  5
2A6
100
AcDbEntity
  8
0
100
AcDbLine
 62
7
  6
CONTINUOUS
 10
91.2032608109
 20
73.2046670169
 11
91.1947748874
 21
72.5466739855
  0
LINE
  5
2A7
100
AcDbEntity
  8
0
100
AcDbLine
 62
7
  6
CONTINUOUS
 10
94.7159846441
 20
74.5346476524
 11
94.7244705677
 21
75.1926406837
  0
LINE
  5
2A8
100
AcDbEntity
  8
0
100
AcDbLine
 62
7
  6
CONTINUOUS
 10
95.4460996919
 20
71.5175384443
 11
95.4789826457
 21
74.0672614409
  0
LINE
  5
2A9
100
AcDbEntity
  8
0
100
AcDbLine
 62
7
  6
CONTINUOUS
 10
78.7296923484
 20
65.5092472047
 11
77.943358057
 21
64.1671525798
  0
LINE
  5
2AA
100
AcDbEntity
  8
0
100
AcDbLine
 62
7
  6
CONTINUOUS
 10
60.3953234369
 20
132.0140810116
 11
60.3663857776
 21
132.0306608585
  0
LINE
  5
2AB
100
AcDbEntity
  8
0
100
AcDbLine
 62
7
  6
CONTINUOUS
 10
69.2286675252
 20
126.9530119331
 11
85.4802854968
 21
117.6416389842
  0
LINE
  5
2AC
100
AcDbEntity
  8
0
100
AcDbLine
 62
7
  6
CONTINUOUS
 10
111.1902752931
 20
103.6675746046
 11
99.1932896931
 21
110.5412537286
  0
LINE
  5
2AD
100
AcDbEntity
  8
0
100
AcDbLine
 62
7
  6
CONTINUOUS
 10
72.2798230487
 20
138.2718237024
 11
72.0711972872
 21
138.6388605014
  0
LINE
  5
2AE
100
AcDbEntity
  8
0
100
AcDbLine
 62
7
  6
CONTINUOUS
 10
74.4656199218
 20
139.9906825948
 11
74.0622962129
 21
140.7002528895
  0
LINE
  5
2AF
100
AcDbEntity
  8
0
100
AcDbLine
 62
7
  6
CONTINUOUS
 10
75.2595075302
 20
141.3761639362
 11
75.6628312391
 21
140.6665936416
  0
LINE
  5
2B0
100
AcDbEntity
  8
0
100
AcDbLine
 62
7
  6
CONTINUOUS
 10
99.3439148363
 20
122.2206300358
 11
99.1932896931
 21
110.5412537286
  0
LINE
  5
2B1
100
AcDbEntity
  8
0
100
AcDbLine
 62
7
  6
CONTINUOUS
 10
99.4244661544
 20
95.4009299592
 11
98.9301611071
 21
57.0728358809
  0
LINE
  5
2B2
100
AcDbEntity
  8
0
100
AcDbLine
 62
7
  6
CONTINUOUS
 10
91.1947748874
 20
72.5466739855
 11
90.408440596
 21
71.2045793606
  0
LINE
  5
2B3
100
AcDbEntity
  8
0
100
AcDbLine
 62
7
  6
CONTINUOUS
 10
57.7834327397
 20
55.3908867934
 11
55.9290942478
 21
54.34398066
  0
LINE
  5
2B4
100
AcDbEntity
  8
0
100
AcDbLine
 62
7
  6
CONTINUOUS
 10
63.3883517301
 20
133.7038586285
 11
63.3594140708
 21
133.7204384754
  0
LINE
  5
2B5
100
AcDbEntity
  8
0
100
AcDbLine
 62
7
  6
CONTINUOUS
 10
77.9164054834
 20
141.9388967884
 11
78.1250312449
 21
141.5718599894
  0
LINE
  5
2B6
100
AcDbEntity
  8
0
100
AcDbLine
 62
7
  6
CONTINUOUS
 10
102.8735231349
 20
78.2420061414
 11
102.8406401811
 21
75.6922831448
  0
LINE
  5
2B7
100
AcDbEntity
  8
0
100
AcDbLine
 62
7
  6
CONTINUOUS
 10
103.6683433499
 20
80.2420937976
 11
103.6598574263
 21
79.5841007662
  0
LINE
  5
2B8
100
AcDbEntity
  8
0
100
AcDbLine
 62
7
  6
CONTINUOUS
 10
119.6546356456
 20
89.2674942453
 11
116.1334258888
 21
87.2795205784
  0
LINE
  5
2B9
100
AcDbEntity
  8
0
100
AcDbLine
 62
7
  6
CONTINUOUS
 10
107.1895531066
 20
82.2300674645
 11
103.6683433499
 21
80.2420937976
  0
LINE
  5
2BA
100
AcDbEntity
  8
0
100
AcDbLine
 62
7
  6
CONTINUOUS
 10
94.7244705677
 20
75.1926406837
 11
91.2032608109
 21
73.2046670169
  0
LINE
  5
2BB
100
AcDbEntity
  8
0
100
AcDbLine
 62
7
  6
CONTINUOUS
 10
82.2593880287
 20
68.155213903
 11
78.738178272
 21
66.1672402361
  0
LINE
  5
2BC
100
AcDbEntity
  8
0
100
AcDbLine
 62
7
  6
CONTINUOUS
 10
84.7449055876
 20
145.3092504832
 11
84.5362798261
 21
145.6762872821
  0
LINE
  5
2BD
100
AcDbEntity
  8
0
100
AcDbLine
 62
7
  6
CONTINUOUS
 10
107.1810671831
 20
81.5720744331
 11
107.1895531066
 21
82.2300674645
  0
LINE
  5
2BE
100
AcDbEntity
  8
0
100
AcDbLine
 62
7
  6
CONTINUOUS
 10
107.9111822309
 20
78.5549652251
 11
107.9440651847
 21
81.1046882217
  0
LINE
  5
2BF
100
AcDbEntity
  8
0
100
AcDbLine
 62
7
  6
CONTINUOUS
 10
111.8089973752
 20
129.2580568165
 11
111.6583722321
 21
117.5786805094
  0
LINE
  5
2C0
100
AcDbEntity
  8
0
100
AcDbLine
 62
7
  6
CONTINUOUS
 10
111.8895486934
 20
102.43835674
 11
111.3952436461
 21
64.1102626617
  0
LINE
  5
2C1
100
AcDbEntity
  8
0
100
AcDbLine
 62
7
  6
CONTINUOUS
 10
103.6598574263
 20
79.5841007662
 11
102.8735231349
 21
78.2420061414
  0
LINE
  5
2C2
100
AcDbEntity
  8
0
100
AcDbLine
 62
7
  6
CONTINUOUS
 10
72.8604059758
 20
139.0515077924
 11
72.8314683165
 21
139.0680876393
  0
LINE
  5
2C3
100
AcDbEntity
  8
0
100
AcDbLine
 62
7
  6
CONTINUOUS
 10
81.6937500642
 20
133.9904387138
 11
97.9453680357
 21
124.679065765
  0
LINE
  5
2C4
100
AcDbEntity
  8
0
100
AcDbLine
 62
7
  6
CONTINUOUS
 10
111.6583722321
 20
117.5786805094
 11
123.655357832
 21
110.7050013854
  0
LINE
  5
2C5
100
AcDbEntity
  8
0
100
AcDbLine
 62
7
  6
CONTINUOUS
 10
75.8534342691
 20
140.7412854092
 11
75.8244966098
 21
140.7578652561
  0
LINE
  5
2C6
100
AcDbEntity
  8
0
100
AcDbLine
 62
7
  6
CONTINUOUS
 10
86.9307024607
 20
147.0281093756
 11
86.5273787518
 21
147.7376796702
  0
LINE
  5
2C7
100
AcDbEntity
  8
0
100
AcDbLine
 62
7
  6
CONTINUOUS
 10
115.3386056739
 20
85.2794329221
 11
115.3057227201
 21
82.7297099255
  0
LINE
  5
2C8
100
AcDbEntity
  8
0
100
AcDbLine
 62
7
  6
CONTINUOUS
 10
116.1334258888
 20
87.2795205784
 11
116.1249399653
 21
86.621527547
  0
LINE
  5
2C9
100
AcDbEntity
  8
0
100
AcDbLine
 62
7
  6
CONTINUOUS
 10
116.1249399653
 20
86.621527547
 11
115.3386056739
 21
85.2794329221
  0
LINE
  5
2CA
100
AcDbEntity
  8
0
100
AcDbLine
 62
7
  6
CONTINUOUS
 10
85.8112858817
 20
151.4132506548
 11
87.1143520099
 21
149.5485164493
  0
LINE
  5
2CB
100
AcDbEntity
  8
0
100
AcDbLine
 62
7
  6
CONTINUOUS
 10
119.646149722
 20
88.6095012139
 11
119.6546356456
 21
89.2674942453
  0
LINE
  5
2CC
100
AcDbEntity
  8
0
100
AcDbLine
 62
7
  6
CONTINUOUS
 10
120.3762647698
 20
85.5923920058
 11
120.4091477236
 21
88.1421150025
  0
LINE
  5
2CD
100
AcDbEntity
  8
0
100
AcDbLine
 62
7
  6
CONTINUOUS
 10
123.860326185
 20
71.1476894425
 11
73.9999960292
 21
42.9979823194
  0
LINE
  5
2CE
100
AcDbEntity
  8
0
100
AcDbLine
 62
7
  6
CONTINUOUS
 10
85.2965508555
 20
146.1055144201
 11
85.3254885148
 21
146.0889345732
  0
LINE
  5
2CF
100
AcDbEntity
  8
0
100
AcDbLine
 62
7
  6
CONTINUOUS
 10
94.1588326031
 20
141.0278654946
 11
110.4104505747
 21
131.7164925458
  0
LINE
  5
2D0
100
AcDbEntity
  8
0
100
AcDbLine
 62
7
  6
CONTINUOUS
 10
85.8043184251
 20
151.4189126635
 11
85.8112858817
 21
151.4132506548
  0
LINE
  5
2D1
100
AcDbEntity
  8
0
100
AcDbLine
 62
7
  6
CONTINUOUS
 10
124.3546312323
 20
109.4757835208
 11
123.860326185
 21
71.1476894425
  0
ARC
  5
2D2
100
AcDbEntity
  8
0
100
AcDbCircle
 62
7
  6
CONTINUOUS
 10
27.0395087546
 20
125.597992885
 40
15.3442730858
100
AcDbArc
 50
16.7880841618
 51
20.348057184
  0
ARC
  5
2D3
100
AcDbEntity
  8
0
100
AcDbCircle
 62
7
  6
CONTINUOUS
 10
28.3811259677
 20
113.4237700293
 40
4.4503883879
100
AcDbArc
 50
68.2337135219
 51
68.5415815946
  0
ARC
  5
2D4
100
AcDbEntity
  8
0
100
AcDbCircle
 62
7
  6
CONTINUOUS
 10
101.1988085306
 20
97.0342737135
 40
3.6409416054
100
AcDbArc
 50
71.544871477
 51
71.821515682
  0
ARC
  5
2D5
100
AcDbEntity
  8
0
100
AcDbCircle
 62
7
  6
CONTINUOUS
 10
88.7337259917
 20
89.9968469327
 40
3.6409416054
100
AcDbArc
 50
71.544871477
 51
71.821515682
  0
ARC
  5
2D6
100
AcDbEntity
  8
0
100
AcDbCircle
 62
7
  6
CONTINUOUS
 10
28.1387248929
 20
110.535481966
 40
3.6409416026
100
AcDbArc
 50
71.5448714768
 51
71.821515682
  0
ARC
  5
2D7
100
AcDbEntity
  8
0
100
AcDbCircle
 62
7
  6
CONTINUOUS
 10
113.6638910705
 20
104.071700497
 40
3.6409416026
100
AcDbArc
 50
71.5448714768
 51
71.821515682
  0
ARC
  5
2D8
100
AcDbEntity
  8
0
100
AcDbCircle
 62
7
  6
CONTINUOUS
 10
76.2686434543
 20
82.9594201567
 40
3.6409416004
100
AcDbArc
 50
71.5448714767
 51
71.8215156821
  0
ARC
  5
2D9
100
AcDbEntity
  8
0
100
AcDbCircle
 62
7
  6
CONTINUOUS
 10
96.0611056523
 20
121.9866421672
 40
3.3136572875
100
AcDbArc
 50
29.573434385
 51
38.5354731058
  0
ARC
  5
2DA
100
AcDbEntity
  8
0
100
AcDbCircle
 62
7
  6
CONTINUOUS
 10
71.1309406139
 20
107.9117886348
 40
3.3136572385
100
AcDbArc
 50
29.5734394162
 51
38.5354731369
  0
ARC
  5
2DB
100
AcDbEntity
  8
0
100
AcDbCircle
 62
7
  6
CONTINUOUS
 10
83.596023159
 20
114.9492154202
 40
3.3136572308
100
AcDbArc
 50
29.5734402026
 51
38.5354731418
  0
ARC
  5
2DC
100
AcDbEntity
  8
0
100
AcDbCircle
 62
7
  6
CONTINUOUS
 10
38.4234269564
 20
116.6196061083
 40
3.0144998568
100
AcDbArc
 50
138.6016196714
 51
141.5189099996
  0
ARC
  5
2DD
100
AcDbEntity
  8
0
100
AcDbCircle
 62
7
  6
CONTINUOUS
 10
110.2190716656
 20
102.3023027019
 40
1.691492025
100
AcDbArc
 50
24.3582201536
 51
29.6489253817
  0
ARC
  5
2DE
100
AcDbEntity
  8
0
100
AcDbCircle
 62
7
  6
CONTINUOUS
 10
85.2889066071
 20
88.2274491497
 40
1.6914920035
100
AcDbArc
 50
24.358220135
 51
29.6489201345
  0
ARC
  5
2DF
100
AcDbEntity
  8
0
100
AcDbCircle
 62
7
  6
CONTINUOUS
 10
97.753989149
 20
95.264875932
 40
1.6914920002
100
AcDbArc
 50
24.3582201321
 51
29.6489193032
  0
ARC
  5
2E0
100
AcDbEntity
  8
0
100
AcDbCircle
 62
7
  6
CONTINUOUS
 10
97.7560500864
 20
95.2670763865
 40
1.6886126017
100
AcDbArc
 50
29.6186245449
 51
34.9153604921
  0
ARC
  5
2E1
100
AcDbEntity
  8
0
100
AcDbCircle
 62
7
  6
CONTINUOUS
 10
85.2909675506
 20
88.2296496079
 40
1.6886125978
100
AcDbArc
 50
29.6186253767
 51
34.9153604954
  0
ARC
  5
2E2
100
AcDbEntity
  8
0
100
AcDbCircle
 62
7
  6
CONTINUOUS
 10
110.2211326488
 20
102.3045031828
 40
1.6886125736
100
AcDbArc
 50
29.6186306269
 51
34.9153605169
  0
SPLINE
  5
2E3
100
AcDbEntity
  8
0
100
AcDbSpline
 62
7
  6
CONTINUOUS
 70
0
 71
3
 72
14
 73
10
 74
0
 42
0.0000001
 43
0.0000001
 44
0.0000000001
 40
0.0
 40
0.0
 40
0.0
 40
0.0
 40
0.2460885916
 40
0.372510546
 40
0.4999399017
 40
0.6273641084
 40
0.7537766926
 40
0.8782466199
 40
1.0
 40
1.0
 40
1.0
 40
1.0
 10
29.5784072049
 20
114.0987081498
 30
0.0
 10
29.3244888946
 20
114.1842130639
 30
0.0
 10
28.9279879058
 20
114.2800074011
 30
0.0
 10
28.3875685763
 20
114.3472288401
 30
0.0
 10
27.9725384956
 20
114.3677756148
 30
0.0
 10
27.5571949452
 20
114.3577700984
 30
0.0
 10
27.1469085118
 20
114.3172777451
 30
0.0
 10
26.7470149271
 20
114.2465741991
 30
0.0
 10
26.4872931436
 20
114.1786865501
 30
0.0
 10
26.3606352674
 20
114.1395765876
 30
0.0
  0
SPLINE
  5
2E4
100
AcDbEntity
  8
0
100
AcDbSpline
 62
7
  6
CONTINUOUS
 70
0
 71
3
 72
15
 73
11
 74
0
 42
0.0000001
 43
0.0000001
 44
0.0000000001
 40
0.0
 40
0.0
 40
0.0
 40
0.0
 40
0.1211083204
 40
0.2458140912
 40
0.3729276569
 40
0.501183441
 40
0.6292878846
 40
0.7559367298
 40
0.8799071203
 40
1.0
 40
1.0
 40
1.0
 40
1.0
 10
26.7331250209
 20
114.0484892439
 30
0.0
 10
26.8333003477
 20
114.0764362083
 30
0.0
 10
27.0390400959
 20
114.1247969909
 30
0.0
 10
27.3556954427
 20
114.1744111791
 30
0.0
 10
27.6812202774
 20
114.2016585951
 30
0.0
 10
28.0107590411
 20
114.2061287498
 30
0.0
 10
28.3394162454
 20
114.1877520835
 30
0.0
 10
28.6623377959
 20
114.1468172665
 30
0.0
 10
28.9746874313
 20
114.0839126909
 30
0.0
 10
29.1766378795
 20
114.0268757285
 30
0.0
 10
29.2746191674
 20
113.994701524
 30
0.0
  0
SPLINE
  5
2E5
100
AcDbEntity
  8
0
100
AcDbSpline
 62
7
  6
CONTINUOUS
 70
0
 71
3
 72
12
 73
8
 74
0
 42
0.0000001
 43
0.0000001
 44
0.0000000001
 40
0.0
 40
0.0
 40
0.0
 40
0.0
 40
0.1080484925
 40
0.2192671113
 40
0.4552452036
 40
0.7147904345
 40
1.0
 40
1.0
 40
1.0
 40
1.0
 10
29.7012691407
 20
114.0553312719
 30
0.0
 10
29.6868199603
 20
114.0606770794
 30
0.0
 10
29.6566444307
 20
114.0693472963
 30
0.0
 10
29.5921833681
 20
114.0783546273
 30
0.0
 10
29.5049024737
 20
114.0731226142
 30
0.0
 10
29.3971369575
 20
114.0428322387
 30
0.0
 10
29.3267214776
 20
114.0091700467
 30
0.0
 10
29.2913081925
 20
113.9891767253
 30
0.0
  0
SPLINE
  5
2E6
100
AcDbEntity
  8
0
100
AcDbSpline
 62
7
  6
CONTINUOUS
 70
0
 71
3
 72
14
 73
10
 74
0
 42
0.0000001
 43
0.0000001
 44
0.0000000001
 40
0.0
 40
0.0
 40
0.0
 40
0.0
 40
0.2460885916
 40
0.372510546
 40
0.4999399017
 40
0.6273641084
 40
0.7537766926
 40
0.8782466199
 40
1.0
 40
1.0
 40
1.0
 40
1.0
 10
115.1035733825
 20
107.6349266808
 30
0.0
 10
114.8496550722
 20
107.720431595
 30
0.0
 10
114.4531540834
 20
107.8162259321
 30
0.0
 10
113.9127347539
 20
107.8834473711
 30
0.0
 10
113.4977046732
 20
107.9039941459
 30
0.0
 10
113.0823611228
 20
107.8939886294
 30
0.0
 10
112.6720746894
 20
107.8534962762
 30
0.0
 10
112.2721811047
 20
107.7827927302
 30
0.0
 10
112.0124593211
 20
107.7149050811
 30
0.0
 10
111.885801445
 20
107.6757951187
 30
0.0
  0
SPLINE
  5
2E7
100
AcDbEntity
  8
0
100
AcDbSpline
 62
7
  6
CONTINUOUS
 70
0
 71
3
 72
15
 73
11
 74
0
 42
0.0000001
 43
0.0000001
 44
0.0000000001
 40
0.0
 40
0.0
 40
0.0
 40
0.0
 40
0.1211083204
 40
0.2458140912
 40
0.3729276569
 40
0.501183441
 40
0.6292878846
 40
0.7559367298
 40
0.8799071203
 40
1.0
 40
1.0
 40
1.0
 40
1.0
 10
112.2582911985
 20
107.584707775
 30
0.0
 10
112.3584665253
 20
107.6126547394
 30
0.0
 10
112.5642062735
 20
107.6610155219
 30
0.0
 10
112.8808616203
 20
107.7106297101
 30
0.0
 10
113.206386455
 20
107.7378771262
 30
0.0
 10
113.5359252187
 20
107.7423472809
 30
0.0
 10
113.864582423
 20
107.7239706146
 30
0.0
 10
114.1875039735
 20
107.6830357975
 30
0.0
 10
114.4998536089
 20
107.620131222
 30
0.0
 10
114.7018040571
 20
107.5630942595
 30
0.0
 10
114.799785345
 20
107.530920055
 30
0.0
  0
SPLINE
  5
2E8
100
AcDbEntity
  8
0
100
AcDbSpline
 62
7
  6
CONTINUOUS
 70
0
 71
3
 72
12
 73
8
 74
0
 42
0.0000001
 43
0.0000001
 44
0.0000000001
 40
0.0
 40
0.0
 40
0.0
 40
0.0
 40
0.1080484925
 40
0.2192671113
 40
0.4552452036
 40
0.7147904345
 40
1.0
 40
1.0
 40
1.0
 40
1.0
 10
115.2264353183
 20
107.591549803
 30
0.0
 10
115.2119861379
 20
107.5968956105
 30
0.0
 10
115.1818106083
 20
107.6055658274
 30
0.0
 10
115.1173495457
 20
107.6145731584
 30
0.0
 10
115.0300686513
 20
107.6093411453
 30
0.0
 10
114.9223031351
 20
107.5790507698
 30
0.0
 10
114.8518876552
 20
107.5453885778
 30
0.0
 10
114.8164743701
 20
107.5253952564
 30
0.0
  0
SPLINE
  5
2E9
100
AcDbEntity
  8
0
100
AcDbSpline
 62
7
  6
CONTINUOUS
 70
0
 71
3
 72
14
 73
10
 74
0
 42
0.0000001
 43
0.0000001
 44
0.0000000001
 40
0.0
 40
0.0
 40
0.0
 40
0.0
 40
0.2460885916
 40
0.372510546
 40
0.4999399017
 40
0.6273641084
 40
0.7537766926
 40
0.8782466199
 40
1.0
 40
1.0
 40
1.0
 40
1.0
 10
102.6384908435
 20
100.5974999
 30
0.0
 10
102.3845725332
 20
100.6830048142
 30
0.0
 10
101.9880715445
 20
100.7787991514
 30
0.0
 10
101.447652215
 20
100.8460205903
 30
0.0
 10
101.0326221343
 20
100.8665673651
 30
0.0
 10
100.6172785838
 20
100.8565618487
 30
0.0
 10
100.2069921505
 20
100.8160694954
 30
0.0
 10
99.8070985657
 20
100.7453659494
 30
0.0
 10
99.5473767822
 20
100.6774783004
 30
0.0
 10
99.420718906
 20
100.6383683379
 30
0.0
  0
SPLINE
  5
2EA
100
AcDbEntity
  8
0
100
AcDbSpline
 62
7
  6
CONTINUOUS
 70
0
 71
3
 72
15
 73
11
 74
0
 42
0.0000001
 43
0.0000001
 44
0.0000000001
 40
0.0
 40
0.0
 40
0.0
 40
0.0
 40
0.1211083204
 40
0.2458140912
 40
0.3729276569
 40
0.501183441
 40
0.6292878846
 40
0.7559367298
 40
0.8799071203
 40
1.0
 40
1.0
 40
1.0
 40
1.0
 10
99.7932086596
 20
100.5472809942
 30
0.0
 10
99.8933839864
 20
100.5752279586
 30
0.0
 10
100.0991237346
 20
100.6235887412
 30
0.0
 10
100.4157790813
 20
100.6732029294
 30
0.0
 10
100.741303916
 20
100.7004503454
 30
0.0
 10
101.0708426798
 20
100.7049205001
 30
0.0
 10
101.399499884
 20
100.6865438338
 30
0.0
 10
101.7224214346
 20
100.6456090168
 30
0.0
 10
102.03477107
 20
100.5827044412
 30
0.0
 10
102.2367215182
 20
100.5256674788
 30
0.0
 10
102.334702806
 20
100.4934932743
 30
0.0
  0
SPLINE
  5
2EB
100
AcDbEntity
  8
0
100
AcDbSpline
 62
7
  6
CONTINUOUS
 70
0
 71
3
 72
12
 73
8
 74
0
 42
0.0000001
 43
0.0000001
 44
0.0000000001
 40
0.0
 40
0.0
 40
0.0
 40
0.0
 40
0.1080484925
 40
0.2192671113
 40
0.4552452036
 40
0.7147904345
 40
1.0
 40
1.0
 40
1.0
 40
1.0
 10
102.7613527793
 20
100.5541230222
 30
0.0
 10
102.7469035989
 20
100.5594688297
 30
0.0
 10
102.7167280694
 20
100.5681390466
 30
0.0
 10
102.6522670068
 20
100.5771463776
 30
0.0
 10
102.5649861124
 20
100.5719143645
 30
0.0
 10
102.4572205961
 20
100.541623989
 30
0.0
 10
102.3868051163
 20
100.507961797
 30
0.0
 10
102.3513918311
 20
100.4879684756
 30
0.0
  0
SPLINE
  5
2EC
100
AcDbEntity
  8
0
100
AcDbSpline
 62
7
  6
CONTINUOUS
 70
0
 71
3
 72
14
 73
10
 74
0
 42
0.0000001
 43
0.0000001
 44
0.0000000001
 40
0.0
 40
0.0
 40
0.0
 40
0.0
 40
0.2460885916
 40
0.372510546
 40
0.4999399017
 40
0.6273641084
 40
0.7537766926
 40
0.8782466199
 40
1.0
 40
1.0
 40
1.0
 40
1.0
 10
90.1734083046
 20
93.5600731193
 30
0.0
 10
89.9194899943
 20
93.6455780334
 30
0.0
 10
89.5229890055
 20
93.7413723706
 30
0.0
 10
88.982569676
 20
93.8085938096
 30
0.0
 10
88.5675395953
 20
93.8291405843
 30
0.0
 10
88.1521960449
 20
93.8191350679
 30
0.0
 10
87.7419096115
 20
93.7786427146
 30
0.0
 10
87.3420160268
 20
93.7079391687
 30
0.0
 10
87.0822942432
 20
93.6400515196
 30
0.0
 10
86.9556363671
 20
93.6009415571
 30
0.0
  0
SPLINE
  5
2ED
100
AcDbEntity
  8
0
100
AcDbSpline
 62
7
  6
CONTINUOUS
 70
0
 71
3
 72
15
 73
11
 74
0
 42
0.0000001
 43
0.0000001
 44
0.0000000001
 40
0.0
 40
0.0
 40
0.0
 40
0.0
 40
0.1211083204
 40
0.2458140912
 40
0.3729276569
 40
0.501183441
 40
0.6292878846
 40
0.7559367298
 40
0.8799071203
 40
1.0
 40
1.0
 40
1.0
 40
1.0
 10
87.3281261206
 20
93.5098542134
 30
0.0
 10
87.4283014474
 20
93.5378011778
 30
0.0
 10
87.6340411956
 20
93.5861619604
 30
0.0
 10
87.9506965424
 20
93.6357761486
 30
0.0
 10
88.2762213771
 20
93.6630235647
 30
0.0
 10
88.6057601408
 20
93.6674937193
 30
0.0
 10
88.9344173451
 20
93.649117053
 30
0.0
 10
89.2573388956
 20
93.608182236
 30
0.0
 10
89.569688531
 20
93.5452776604
 30
0.0
 10
89.7716389792
 20
93.488240698
 30
0.0
 10
89.8696202671
 20
93.4560664935
 30
0.0
  0
SPLINE
  5
2EE
100
AcDbEntity
  8
0
100
AcDbSpline
 62
7
  6
CONTINUOUS
 70
0
 71
3
 72
12
 73
8
 74
0
 42
0.0000001
 43
0.0000001
 44
0.0000000001
 40
0.0
 40
0.0
 40
0.0
 40
0.0
 40
0.1080484925
 40
0.2192671113
 40
0.4552452036
 40
0.7147904345
 40
1.0
 40
1.0
 40
1.0
 40
1.0
 10
90.2962702404
 20
93.5166962414
 30
0.0
 10
90.28182106
 20
93.5220420489
 30
0.0
 10
90.2516455304
 20
93.5307122658
 30
0.0
 10
90.1871844678
 20
93.5397195969
 30
0.0
 10
90.0999035734
 20
93.5344875837
 30
0.0
 10
89.9921380572
 20
93.5041972082
 30
0.0
 10
89.9217225773
 20
93.4705350162
 30
0.0
 10
89.8863092922
 20
93.4505416948
 30
0.0
  0
SPLINE
  5
2EF
100
AcDbEntity
  8
0
100
AcDbSpline
 62
7
  6
CONTINUOUS
 70
0
 71
3
 72
14
 73
10
 74
0
 42
0.0000001
 43
0.0000001
 44
0.0000000001
 40
0.0
 40
0.0
 40
0.0
 40
0.0
 40
0.2460885916
 40
0.372510546
 40
0.4999399017
 40
0.6273641084
 40
0.7537766926
 40
0.8782466199
 40
1.0
 40
1.0
 40
1.0
 40
1.0
 10
77.7083257656
 20
86.5226463385
 30
0.0
 10
77.4544074553
 20
86.6081512526
 30
0.0
 10
77.0579064665
 20
86.7039455898
 30
0.0
 10
76.5174871371
 20
86.7711670288
 30
0.0
 10
76.1024570564
 20
86.7917138035
 30
0.0
 10
75.6871135059
 20
86.7817082871
 30
0.0
 10
75.2768270726
 20
86.7412159338
 30
0.0
 10
74.8769334878
 20
86.6705123879
 30
0.0
 10
74.6172117043
 20
86.6026247388
 30
0.0
 10
74.4905538281
 20
86.5635147764
 30
0.0
  0
SPLINE
  5
2F0
100
AcDbEntity
  8
0
100
AcDbSpline
 62
7
  6
CONTINUOUS
 70
0
 71
3
 72
15
 73
11
 74
0
 42
0.0000001
 43
0.0000001
 44
0.0000000001
 40
0.0
 40
0.0
 40
0.0
 40
0.0
 40
0.1211083204
 40
0.2458140912
 40
0.3729276569
 40
0.501183441
 40
0.6292878846
 40
0.7559367298
 40
0.8799071203
 40
1.0
 40
1.0
 40
1.0
 40
1.0
 10
74.8630435816
 20
86.4724274326
 30
0.0
 10
74.9632189085
 20
86.500374397
 30
0.0
 10
75.1689586567
 20
86.5487351796
 30
0.0
 10
75.4856140034
 20
86.5983493678
 30
0.0
 10
75.8111388381
 20
86.6255967839
 30
0.0
 10
76.1406776019
 20
86.6300669386
 30
0.0
 10
76.4693348061
 20
86.6116902722
 30
0.0
 10
76.7922563567
 20
86.5707554552
 30
0.0
 10
77.1046059921
 20
86.5078508796
 30
0.0
 10
77.3065564403
 20
86.4508139172
 30
0.0
 10
77.4045377281
 20
86.4186397127
 30
0.0
  0
SPLINE
  5
2F1
100
AcDbEntity
  8
0
100
AcDbSpline
 62
7
  6
CONTINUOUS
 70
0
 71
3
 72
12
 73
8
 74
0
 42
0.0000001
 43
0.0000001
 44
0.0000000001
 40
0.0
 40
0.0
 40
0.0
 40
0.0
 40
0.1080484925
 40
0.2192671113
 40
0.4552452036
 40
0.7147904345
 40
1.0
 40
1.0
 40
1.0
 40
1.0
 10
77.8311877014
 20
86.4792694606
 30
0.0
 10
77.816738521
 20
86.4846152682
 30
0.0
 10
77.7865629915
 20
86.493285485
 30
0.0
 10
77.7221019289
 20
86.5022928161
 30
0.0
 10
77.6348210345
 20
86.497060803
 30
0.0
 10
77.5270555182
 20
86.4667704274
 30
0.0
 10
77.4566400384
 20
86.4331082354
 30
0.0
 10
77.4212267532
 20
86.4131149141
 30
0.0
  0
SPLINE
  5
2F2
100
AcDbEntity
  8
0
100
AcDbSpline
 62
7
  6
CONTINUOUS
 70
0
 71
3
 72
12
 73
8
 74
0
 42
0.0000001
 43
0.0000001
 44
0.0000000001
 40
0.0
 40
0.0
 40
0.0
 40
0.0
 40
0.1072230992
 40
0.2166200297
 40
0.4488064893
 40
0.7084576412
 40
1.0
 40
1.0
 40
1.0
 40
1.0
 10
16.0381042283
 20
79.5871119389
 30
0.0
 10
16.0376143906
 20
79.5492771385
 30
0.0
 10
16.0434279315
 20
79.4725874398
 30
0.0
 10
16.0824623365
 20
79.3184026564
 30
0.0
 10
16.1854883755
 20
79.1288775561
 30
0.0
 10
16.3784799001
 20
78.927720407
 30
0.0
 10
16.5401818964
 20
78.8172776699
 30
0.0
 10
16.6294502637
 20
78.7661313125
 30
0.0
  0
SPLINE
  5
2F3
100
AcDbEntity
  8
0
100
AcDbSpline
 62
7
  6
CONTINUOUS
 70
0
 71
3
 72
12
 73
8
 74
0
 42
0.0000001
 43
0.0000001
 44
0.0000000001
 40
0.0
 40
0.0
 40
0.0
 40
0.0
 40
0.1079030082
 40
0.2178736763
 40
0.4506005761
 40
0.709771803
 40
1.0
 40
1.0
 40
1.0
 40
1.0
 10
16.073108662
 20
82.3013331934
 30
0.0
 10
16.0735845205
 20
82.338088425
 30
0.0
 10
16.0809501847
 20
82.4123730229
 30
0.0
 10
16.1215272476
 20
82.5610499789
 30
0.0
 10
16.2232381118
 20
82.7428539831
 30
0.0
 10
16.4107981534
 20
82.9351690846
 30
0.0
 10
16.5670812025
 20
83.0403879802
 30
0.0
 10
16.6531769916
 20
83.0889951845
 30
0.0
  0
SPLINE
  5
2F4
100
AcDbEntity
  8
0
100
AcDbSpline
 62
7
  6
CONTINUOUS
 70
0
 71
3
 72
12
 73
8
 74
0
 42
0.0000001
 43
0.0000001
 44
0.0000000001
 40
0.0
 40
0.0
 40
0.0
 40
0.0
 40
0.2915423681
 40
0.5511935285
 40
0.783379981
 40
0.8927769067
 40
1.0
 40
1.0
 40
1.0
 40
1.0
 10
16.6644546984
 20
81.4803525669
 30
0.0
 10
16.5751863282
 20
81.5314989259
 30
0.0
 10
16.4134843285
 20
81.641941669
 30
0.0
 10
16.2204928011
 20
81.8430988208
 30
0.0
 10
16.1174667675
 20
82.0326239227
 30
0.0
 10
16.0784323662
 20
82.1868087005
 30
0.0
 10
16.0726188267
 20
82.2634983951
 30
0.0
 10
16.073108662
 20
82.3013331934
 30
0.0
  0
SPLINE
  5
2F5
100
AcDbEntity
  8
0
100
AcDbSpline
 62
7
  6
CONTINUOUS
 70
0
 71
3
 72
13
 73
9
 74
0
 42
0.0000001
 43
0.0000001
 44
0.0000000001
 40
0.0
 40
0.0
 40
0.0
 40
0.0
 40
0.3043232162
 40
0.5796944479
 40
0.7007560007
 40
0.8095690416
 40
0.9080148687
 40
1.0
 40
1.0
 40
1.0
 40
1.0
 10
36.0261371614
 20
122.7984488721
 30
0.0
 10
35.9946905834
 20
122.8537730624
 30
0.0
 10
35.9229973534
 20
122.9528880075
 30
0.0
 10
35.8094915205
 20
123.0490359113
 30
0.0
 10
35.713765314
 20
123.09507573
 30
0.0
 10
35.6465062509
 20
123.1116725399
 30
0.0
 10
35.5831354924
 20
123.1106694656
 30
0.0
 10
35.5446356252
 20
123.097596256
 30
0.0
 10
35.5277437572
 20
123.0883957782
 30
0.0
  0
SPLINE
  5
2F6
100
AcDbEntity
  8
0
100
AcDbSpline
 62
7
  6
CONTINUOUS
 70
0
 71
3
 72
9
 73
5
 74
0
 42
0.0000001
 43
0.0000001
 44
0.0000000001
 40
0.0
 40
0.0
 40
0.0
 40
0.0
 40
0.5164330698
 40
1.0
 40
1.0
 40
1.0
 40
1.0
 10
32.7872142677
 20
121.5558627833
 30
0.0
 10
32.722691011
 20
122.0270363651
 30
0.0
 10
32.6441090029
 20
122.9465871239
 30
0.0
 10
32.6745398617
 20
123.8698606367
 30
0.0
 10
32.7205293741
 20
124.3127848236
 30
0.0
  0
SPLINE
  5
2F7
100
AcDbEntity
  8
0
100
AcDbSpline
 62
7
  6
CONTINUOUS
 70
0
 71
3
 72
11
 73
7
 74
0
 42
0.0000001
 43
0.0000001
 44
0.0000000001
 40
0.0
 40
0.0
 40
0.0
 40
0.0
 40
0.2826246908
 40
0.539671188
 40
0.7758006363
 40
1.0
 40
1.0
 40
1.0
 40
1.0
 10
32.7205293741
 20
124.3127848236
 30
0.0
 10
32.7311846739
 20
124.4154060777
 30
0.0
 10
32.7670694644
 20
124.6103661555
 30
0.0
 10
32.8731333076
 20
124.875390959
 30
0.0
 10
33.0276712183
 20
125.0904030985
 30
0.0
 10
33.1621837429
 20
125.1957771169
 30
0.0
 10
33.2334487855
 20
125.2360242893
 30
0.0
  0
SPLINE
  5
2F8
100
AcDbEntity
  8
0
100
AcDbSpline
 62
7
  6
CONTINUOUS
 70
0
 71
3
 72
9
 73
5
 74
0
 42
0.0000001
 43
0.0000001
 44
0.0000000001
 40
0.0
 40
0.0
 40
0.0
 40
0.0
 40
0.4851089198
 40
1.0
 40
1.0
 40
1.0
 40
1.0
 10
83.3364289828
 20
152.8572022166
 30
0.0
 10
83.7606221341
 20
152.6726685146
 30
0.0
 10
84.6110027754
 20
152.2356162321
 30
0.0
 10
85.4080801887
 20
151.7088600692
 30
0.0
 10
85.8043184251
 20
151.4189126635
 30
0.0
  0
SPLINE
  5
2F9
100
AcDbEntity
  8
0
100
AcDbSpline
 62
7
  6
CONTINUOUS
 70
0
 71
3
 72
9
 73
5
 74
0
 42
0.0000001
 43
0.0000001
 44
0.0000000001
 40
0.0
 40
0.0
 40
0.0
 40
0.0
 40
0.4884956062
 40
1.0
 40
1.0
 40
1.0
 40
1.0
 10
75.6801665388
 20
146.6999629057
 30
0.0
 10
75.2776151557
 20
147.0279128574
 30
0.0
 10
74.4958395424
 20
147.7522052957
 30
0.0
 10
73.799258921
 20
148.5579437587
 30
0.0
 10
73.464964872
 20
148.986710953
 30
0.0
  0
SPLINE
  5
2FA
100
AcDbEntity
  8
0
100
AcDbSpline
 62
7
  6
CONTINUOUS
 70
0
 71
3
 72
11
 73
7
 74
0
 42
0.0000001
 43
0.0000001
 44
0.0000000001
 40
0.0
 40
0.0
 40
0.0
 40
0.0
 40
0.2854423632
 40
0.544651351
 40
0.7804315321
 40
1.0
 40
1.0
 40
1.0
 40
1.0
 10
83.3364289828
 20
152.8572022166
 30
0.0
 10
83.2363689022
 20
152.9007306353
 30
0.0
 10
83.0388782122
 20
152.9700809944
 30
0.0
 10
82.7420253487
 20
153.0160769169
 30
0.0
 10
82.4669231908
 20
152.9959926603
 30
0.0
 10
82.3004162277
 20
152.9361746615
 30
0.0
 10
82.2267048986
 20
152.8960263816
 30
0.0
  0
SPLINE
  5
2FB
100
AcDbEntity
  8
0
100
AcDbSpline
 62
7
  6
CONTINUOUS
 70
0
 71
3
 72
9
 73
5
 74
0
 42
0.0000001
 43
0.0000001
 44
0.0000000001
 40
0.0
 40
0.0
 40
0.0
 40
0.0
 40
0.5115043938
 40
1.0
 40
1.0
 40
1.0
 40
1.0
 10
43.1826164758
 20
131.8901687582
 30
0.0
 10
43.5169105248
 20
131.461401564
 30
0.0
 10
44.2134911461
 20
130.655663101
 30
0.0
 10
44.9952667595
 20
129.9313706627
 30
0.0
 10
45.3978181426
 20
129.6034207109
 30
0.0
  0
SPLINE
  5
2FC
100
AcDbEntity
  8
0
100
AcDbSpline
 62
7
  6
CONTINUOUS
 70
0
 71
3
 72
11
 73
7
 74
0
 42
0.0000001
 43
0.0000001
 44
0.0000000001
 40
0.0
 40
0.0
 40
0.0
 40
0.0
 40
0.2231606711
 40
0.4590596202
 40
0.7165311571
 40
1.0
 40
1.0
 40
1.0
 40
1.0
 10
33.2445007833
 20
125.2421545165
 30
0.0
 10
33.3174192068
 20
125.2818709252
 30
0.0
 10
33.480867523
 20
125.3407714796
 30
0.0
 10
33.7499274515
 20
125.3573087121
 30
0.0
 10
34.0365078312
 20
125.3049304274
 30
0.0
 10
34.22469116
 20
125.2301168667
 30
0.0
 10
34.3193652919
 20
125.1836278249
 30
0.0
  0
SPLINE
  5
2FD
100
AcDbEntity
  8
0
100
AcDbSpline
 62
7
  6
CONTINUOUS
 70
0
 71
3
 72
9
 73
5
 74
0
 42
0.0000001
 43
0.0000001
 44
0.0000000001
 40
0.0
 40
0.0
 40
0.0
 40
0.0
 40
0.4839321526
 40
1.0
 40
1.0
 40
1.0
 40
1.0
 10
34.3193652919
 20
125.1836278249
 30
0.0
 10
34.721589395
 20
124.9861180416
 30
0.0
 10
35.5250523471
 20
124.5202463399
 30
0.0
 10
36.268515476
 20
123.9649837766
 30
0.0
 10
36.6365716794
 20
123.660218197
 30
0.0
  0
SPLINE
  5
2FE
100
AcDbEntity
  8
0
100
AcDbSpline
 62
7
  6
CONTINUOUS
 70
0
 71
3
 72
13
 73
9
 74
0
 42
0.0000001
 43
0.0000001
 44
0.0000000001
 40
0.0
 40
0.0
 40
0.0
 40
0.0
 40
0.0922358784
 40
0.1904737325
 40
0.2988573312
 40
0.4194936588
 40
0.6946090647
 40
1.0
 40
1.0
 40
1.0
 40
1.0
 10
33.8675799244
 20
122.1841559151
 30
0.0
 10
33.8507423813
 20
122.1749850265
 30
0.0
 10
33.8190391177
 20
122.1498821275
 30
0.0
 10
33.7842604943
 20
122.0974081358
 30
0.0
 10
33.76251279
 20
122.0322739605
 30
0.0
 10
33.7507715343
 20
121.9275462294
 30
0.0
 10
33.772524833
 20
121.7811310964
 30
0.0
 10
33.8189844326
 20
121.6685683611
 30
0.0
 10
33.8494484564
 20
121.6128738958
 30
0.0
  0
SPLINE
  5
2FF
100
AcDbEntity
  8
0
100
AcDbSpline
 62
7
  6
CONTINUOUS
 70
0
 71
3
 72
9
 73
5
 74
0
 42
0.0000001
 43
0.0000001
 44
0.0000000001
 40
0.0
 40
0.0
 40
0.0
 40
0.0
 40
0.2585848851
 40
1.0
 40
1.0
 40
1.0
 40
1.0
 10
45.3978181426
 20
129.6034207109
 30
0.0
 10
45.269158575
 20
129.6955715774
 30
0.0
 10
44.765040511
 20
130.0425827346
 30
0.0
 10
44.2339343545
 20
130.3511531175
 30
0.0
 10
43.8266368499
 20
130.5511541648
 30
0.0
  0
SPLINE
  5
300
100
AcDbEntity
  8
0
100
AcDbSpline
 62
7
  6
CONTINUOUS
 70
0
 71
3
 72
11
 73
7
 74
0
 42
0.0000001
 43
0.0000001
 44
0.0000000001
 40
0.0
 40
0.0
 40
0.0
 40
0.0
 40
0.2834689844
 40
0.540940619
 40
0.7768394971
 40
1.0
 40
1.0
 40
1.0
 40
1.0
 10
43.8266368499
 20
130.5511541648
 30
0.0
 10
43.7319621815
 20
130.5976434701
 30
0.0
 10
43.5437781254
 20
130.6724581311
 30
0.0
 10
43.2571963249
 20
130.7248376823
 30
0.0
 10
42.9881350207
 20
130.7083006662
 30
0.0
 10
42.8246858719
 20
130.6494000011
 30
0.0
 10
42.7517671265
 20
130.6096834171
 30
0.0
  0
SPLINE
  5
301
100
AcDbEntity
  8
0
100
AcDbSpline
 62
7
  6
CONTINUOUS
 70
0
 71
3
 72
11
 73
7
 74
0
 42
0.0000001
 43
0.0000001
 44
0.0000000001
 40
0.0
 40
0.0
 40
0.0
 40
0.0
 40
0.2380259969
 40
0.500684785
 40
0.7629705454
 40
1.0
 40
1.0
 40
1.0
 40
1.0
 10
124.3546312323
 20
109.4757835208
 30
0.0
 10
124.3561329554
 20
109.5922261571
 30
0.0
 10
124.3155685261
 20
109.8379377541
 30
0.0
 10
124.166623827
 20
110.1833484881
 30
0.0
 10
123.9461705818
 20
110.4875288976
 30
0.0
 10
123.7559774144
 20
110.6473513434
 30
0.0
 10
123.655357832
 20
110.7050013854
 30
0.0
  0
SPLINE
  5
302
100
AcDbEntity
  8
0
100
AcDbSpline
 62
7
  6
CONTINUOUS
 70
0
 71
3
 72
11
 73
7
 74
0
 42
0.0000001
 43
0.0000001
 44
0.0000000001
 40
0.0
 40
0.0
 40
0.0
 40
0.0
 40
0.2380133031
 40
0.5006846724
 40
0.7629828296
 40
1.0
 40
1.0
 40
1.0
 40
1.0
 10
111.8089973752
 20
129.2580568165
 30
0.0
 10
111.8120006718
 20
129.4909304886
 30
0.0
 10
111.7308374142
 20
129.9823402804
 30
0.0
 10
111.4330827356
 20
130.6732431685
 30
0.0
 10
110.9920374695
 20
131.2815302148
 30
0.0
 10
110.6116800178
 20
131.6011980319
 30
0.0
 10
110.4104505747
 20
131.7164925458
 30
0.0
  0
SPLINE
  5
303
100
AcDbEntity
  8
0
100
AcDbSpline
 62
7
  6
CONTINUOUS
 70
0
 71
3
 72
18
 73
14
 74
0
 42
0.0000001
 43
0.0000001
 44
0.0000000001
 40
0.0
 40
0.0
 40
0.0
 40
0.0
 40
0.1502858539
 40
0.3000922297
 40
0.4447419324
 40
0.5800671417
 40
0.7030246575
 40
0.7594765425
 40
0.8125709032
 40
0.8625787087
 40
0.9099851159
 40
0.9554899027
 40
1.0
 40
1.0
 40
1.0
 40
1.0
 10
94.1588326031
 20
141.0278654946
 30
0.0
 10
93.9523660364
 20
141.5226483946
 30
0.0
 10
93.4734166472
 20
142.4841218275
 30
0.0
 10
92.5873862674
 20
143.8053135659
 30
0.0
 10
91.5683085944
 20
144.9577015316
 30
0.0
 10
90.4641138739
 20
145.8866409586
 30
0.0
 10
89.4862820614
 20
146.4547134972
 30
0.0
 10
88.7082676753
 20
146.7471976533
 30
0.0
 10
88.1532678528
 20
146.8807753474
 30
0.0
 10
87.6169175717
 20
146.9328394652
 30
0.0
 10
87.1056328973
 20
146.9020437804
 30
0.0
 10
86.6262314699
 20
146.7880950609
 30
0.0
 10
86.3308373798
 20
146.6565431168
 30
0.0
 10
86.192571498
 20
146.5784686233
 30
0.0
  0
SPLINE
  5
304
100
AcDbEntity
  8
0
100
AcDbSpline
 62
7
  6
CONTINUOUS
 70
0
 71
3
 72
11
 73
7
 74
0
 42
0.0000001
 43
0.0000001
 44
0.0000000001
 40
0.0
 40
0.0
 40
0.0
 40
0.0
 40
0.2910653129
 40
0.550848143
 40
0.7834606662
 40
1.0
 40
1.0
 40
1.0
 40
1.0
 10
115.3057227201
 20
82.7297099255
 30
0.0
 10
115.3033036581
 20
82.5421374243
 30
0.0
 10
115.3270804179
 20
82.1855618585
 30
0.0
 10
115.4654091867
 20
81.6952014311
 30
0.0
 10
115.7037304235
 20
81.2978206172
 30
0.0
 10
115.9302238108
 20
81.1068089994
 30
0.0
 10
116.0513241652
 20
81.0374486315
 30
0.0
  0
SPLINE
  5
305
100
AcDbEntity
  8
0
100
AcDbSpline
 62
7
  6
CONTINUOUS
 70
0
 71
3
 72
17
 73
13
 74
0
 42
0.0000001
 43
0.0000001
 44
0.0000000001
 40
0.0
 40
0.0
 40
0.0
 40
0.0
 40
0.0423735604
 40
0.0865921612
 40
0.1341388326
 40
0.1859632452
 40
0.3033414794
 40
0.4374946304
 40
0.582442207
 40
0.7300658152
 40
0.8717478885
 40
1.0
 40
1.0
 40
1.0
 40
1.0
 10
109.9187883558
 20
109.4697081172
 30
0.0
 10
109.9174973086
 20
109.3682613452
 30
0.0
 10
109.9425123729
 20
109.159674781
 30
0.0
 10
110.0605160345
 20
108.8578687261
 30
0.0
 10
110.2542231416
 20
108.5708981011
 30
0.0
 10
110.621511096
 20
108.2008257271
 30
0.0
 10
111.2493492364
 20
107.8164323294
 30
0.0
 10
112.1534016731
 20
107.5096080515
 30
0.0
 10
113.169217614
 20
107.3595265771
 30
0.0
 10
114.2136140715
 20
107.3790229154
 30
0.0
 10
115.2005096531
 20
107.5657292825
 30
0.0
 10
115.806641885
 20
107.8081014972
 30
0.0
 10
116.0740430336
 20
107.9590684882
 30
0.0
  0
SPLINE
  5
306
100
AcDbEntity
  8
0
100
AcDbSpline
 62
7
  6
CONTINUOUS
 70
0
 71
3
 72
9
 73
5
 74
0
 42
0.0000001
 43
0.0000001
 44
0.0000000001
 40
0.0
 40
0.0
 40
0.0
 40
0.0
 40
0.510620437
 40
1.0
 40
1.0
 40
1.0
 40
1.0
 10
75.6628312391
 20
140.6665936416
 30
0.0
 10
75.4183765972
 20
140.6635055995
 30
0.0
 10
74.9380350096
 20
140.6053938276
 30
0.0
 10
74.4867544835
 20
140.4276509432
 30
0.0
 10
74.2821384781
 20
140.3134980863
 30
0.0
  0
SPLINE
  5
307
100
AcDbEntity
  8
0
100
AcDbSpline
 62
7
  6
CONTINUOUS
 70
0
 71
3
 72
11
 73
7
 74
0
 42
0.0000001
 43
0.0000001
 44
0.0000000001
 40
0.0
 40
0.0
 40
0.0
 40
0.0
 40
0.2903894668
 40
0.5498428277
 40
0.7827095984
 40
1.0
 40
1.0
 40
1.0
 40
1.0
 10
116.0740430336
 20
107.9590684882
 30
0.0
 10
116.2289826808
 20
108.0465429529
 30
0.0
 10
116.5102672099
 20
108.2358890005
 30
0.0
 10
116.847938456
 20
108.5823711376
 30
0.0
 10
117.0635663263
 20
108.966731186
 30
0.0
 10
117.116461694
 20
109.2437330083
 30
0.0
 10
117.1181559173
 20
109.376860202
 30
0.0
  0
SPLINE
  5
308
100
AcDbEntity
  8
0
100
AcDbSpline
 62
7
  6
CONTINUOUS
 70
0
 71
3
 72
17
 73
13
 74
0
 42
0.0000001
 43
0.0000001
 44
0.0000000001
 40
0.0
 40
0.0
 40
0.0
 40
0.0
 40
0.0427110188
 40
0.087184079
 40
0.134844799
 40
0.1866243294
 40
0.3035015191
 40
0.4368459959
 40
0.581045811
 40
0.7283545603
 40
0.8704531132
 40
1.0
 40
1.0
 40
1.0
 40
1.0
 10
116.0513241652
 20
81.0374486315
 30
0.0
 10
116.1392564367
 20
80.9870853213
 30
0.0
 10
116.332896958
 20
80.9071934183
 30
0.0
 10
116.6522999233
 20
80.8611686569
 30
0.0
 10
116.995144149
 20
80.8868333112
 30
0.0
 10
117.4932736906
 20
81.0199467374
 30
0.0
 10
118.1303990812
 20
81.3685431304
 30
0.0
 10
118.8353412736
 20
81.9921964263
 30
0.0
 10
119.4604012072
 20
82.7894763786
 30
0.0
 10
119.9551760523
 20
83.6968728173
 30
0.0
 10
120.2804484852
 20
84.6409571795
 30
0.0
 10
120.3723012297
 20
85.2850616618
 30
0.0
 10
120.3762647698
 20
85.5923920058
 30
0.0
  0
SPLINE
  5
309
100
AcDbEntity
  8
0
100
AcDbSpline
 62
7
  6
CONTINUOUS
 70
0
 71
3
 72
9
 73
5
 74
0
 42
0.0000001
 43
0.0000001
 44
0.0000000001
 40
0.0
 40
0.0
 40
0.0
 40
0.0
 40
0.47767171
 40
1.0
 40
1.0
 40
1.0
 40
1.0
 10
97.9453680357
 20
124.679065765
 30
0.0
 10
98.0766572629
 20
124.6038435341
 30
0.0
 10
98.3328928367
 20
124.4132403321
 30
0.0
 10
98.5499532134
 20
124.1804003334
 30
0.0
 10
98.6531232516
 20
124.0510475015
 30
0.0
  0
SPLINE
  5
30A
100
AcDbEntity
  8
0
100
AcDbSpline
 62
7
  6
CONTINUOUS
 70
0
 71
3
 72
9
 73
5
 74
0
 42
0.0000001
 43
0.0000001
 44
0.0000000001
 40
0.0
 40
0.0
 40
0.0
 40
0.0
 40
0.2517635872
 40
1.0
 40
1.0
 40
1.0
 40
1.0
 10
98.9430724454
 20
123.6220601635
 30
0.0
 10
98.9645909169
 20
123.5842339022
 30
0.0
 10
99.0471458633
 20
123.4323529002
 30
0.0
 10
99.1181569724
 20
123.2741626544
 30
0.0
 10
99.1638967883
 20
123.153184154
 30
0.0
  0
SPLINE
  5
30B
100
AcDbEntity
  8
0
100
AcDbSpline
 62
7
  6
CONTINUOUS
 70
0
 71
3
 72
9
 73
5
 74
0
 42
0.0000001
 43
0.0000001
 44
0.0000000001
 40
0.0
 40
0.0
 40
0.0
 40
0.0
 40
0.5218820357
 40
1.0
 40
1.0
 40
1.0
 40
1.0
 10
99.1638967883
 20
123.153184154
 30
0.0
 10
99.2225766756
 20
122.9979801013
 30
0.0
 10
99.3122776346
 20
122.6913462608
 30
0.0
 10
99.3458751265
 20
122.3726296689
 30
0.0
 10
99.3439148363
 20
122.2206300358
 30
0.0
  0
SPLINE
  5
30C
100
AcDbEntity
  8
0
100
AcDbSpline
 62
7
  6
CONTINUOUS
 70
0
 71
3
 72
9
 73
5
 74
0
 42
0.0000001
 43
0.0000001
 44
0.0000000001
 40
0.0
 40
0.0
 40
0.0
 40
0.0
 40
0.5118159598
 40
1.0
 40
1.0
 40
1.0
 40
1.0
 10
78.1250312449
 20
141.5718599894
 30
0.0
 10
77.876277685
 20
141.5751313332
 30
0.0
 10
77.3868869637
 20
141.5263286234
 30
0.0
 10
76.9271399388
 20
141.347493656
 30
0.0
 10
76.7205147802
 20
141.2308238017
 30
0.0
  0
SPLINE
  5
30D
100
AcDbEntity
  8
0
100
AcDbSpline
 62
7
  6
CONTINUOUS
 70
0
 71
3
 72
17
 73
13
 74
0
 42
0.0000001
 43
0.0000001
 44
0.0000000001
 40
0.0
 40
0.0
 40
0.0
 40
0.0
 40
0.0423735604
 40
0.0865921612
 40
0.1341388326
 40
0.1859632452
 40
0.3033414794
 40
0.4374946304
 40
0.582442207
 40
0.7300658152
 40
0.8717478885
 40
1.0
 40
1.0
 40
1.0
 40
1.0
 10
117.1181559173
 20
109.376860202
 30
0.0
 10
117.1194469645
 20
109.478306974
 30
0.0
 10
117.0944319002
 20
109.6868935383
 30
0.0
 10
116.9764282385
 20
109.9886995932
 30
0.0
 10
116.7827211315
 20
110.2756702182
 30
0.0
 10
116.415433177
 20
110.6457425921
 30
0.0
 10
115.7875950367
 20
111.0301359898
 30
0.0
 10
114.8835426
 20
111.3369602678
 30
0.0
 10
113.867726659
 20
111.4870417421
 30
0.0
 10
112.8233302015
 20
111.4675454038
 30
0.0
 10
111.8364346199
 20
111.2808390367
 30
0.0
 10
111.2303023881
 20
111.0384668221
 30
0.0
 10
110.9629012395
 20
110.887499831
 30
0.0
  0
SPLINE
  5
30E
100
AcDbEntity
  8
0
100
AcDbSpline
 62
7
  6
CONTINUOUS
 70
0
 71
3
 72
11
 73
7
 74
0
 42
0.0000001
 43
0.0000001
 44
0.0000000001
 40
0.0
 40
0.0
 40
0.0
 40
0.0
 40
0.2903894668
 40
0.5498428277
 40
0.7827095984
 40
1.0
 40
1.0
 40
1.0
 40
1.0
 10
110.9629012395
 20
110.887499831
 30
0.0
 10
110.8079615923
 20
110.8000253663
 30
0.0
 10
110.5266770632
 20
110.6106793187
 30
0.0
 10
110.1890058171
 20
110.2641971817
 30
0.0
 10
109.9733779467
 20
109.8798371333
 30
0.0
 10
109.9204825791
 20
109.6028353109
 30
0.0
 10
109.9187883558
 20
109.4697081172
 30
0.0
  0
SPLINE
  5
30F
100
AcDbEntity
  8
0
100
AcDbSpline
 62
7
  6
CONTINUOUS
 70
0
 71
3
 72
9
 73
5
 74
0
 42
0.0000001
 43
0.0000001
 44
0.0000000001
 40
0.0
 40
0.0
 40
0.0
 40
0.0
 40
0.4757933764
 40
1.0
 40
1.0
 40
1.0
 40
1.0
 10
111.1902752931
 20
103.6675746046
 30
0.0
 10
111.2697789965
 20
103.6220229165
 30
0.0
 10
111.4232104134
 20
103.5020788608
 30
0.0
 10
111.5479838069
 20
103.3537687502
 30
0.0
 10
111.6057923568
 20
103.2710071489
 30
0.0
  0
SPLINE
  5
310
100
AcDbEntity
  8
0
100
AcDbSpline
 62
7
  6
CONTINUOUS
 70
0
 71
3
 72
9
 73
5
 74
0
 42
0.0000001
 43
0.0000001
 44
0.0000000001
 40
0.0
 40
0.0
 40
0.0
 40
0.0
 40
0.5236623189
 40
1.0
 40
1.0
 40
1.0
 40
1.0
 10
111.7599949406
 20
102.9999421011
 30
0.0
 10
111.8016985136
 20
102.9077549109
 30
0.0
 10
111.8656631866
 20
102.7241262138
 30
0.0
 10
111.8907355706
 20
102.5303864342
 30
0.0
 10
111.8895486934
 20
102.43835674
 30
0.0
  0
SPLINE
  5
311
100
AcDbEntity
  8
0
100
AcDbSpline
 62
7
  6
CONTINUOUS
 70
0
 71
3
 72
9
 73
5
 74
0
 42
0.0000001
 43
0.0000001
 44
0.0000000001
 40
0.0
 40
0.0
 40
0.0
 40
0.0
 40
0.4960556981
 40
1.0
 40
1.0
 40
1.0
 40
1.0
 10
73.727488959
 20
139.5410418425
 30
0.0
 10
73.8439601039
 20
139.606809518
 30
0.0
 10
74.0897560494
 20
139.720755837
 30
0.0
 10
74.3502473848
 20
139.7948369805
 30
0.0
 10
74.4833319732
 20
139.8222770563
 30
0.0
  0
SPLINE
  5
312
100
AcDbEntity
  8
0
100
AcDbSpline
 62
7
  6
CONTINUOUS
 70
0
 71
3
 72
9
 73
5
 74
0
 42
0.0000001
 43
0.0000001
 44
0.0000000001
 40
0.0
 40
0.0
 40
0.0
 40
0.0
 40
0.4746852703
 40
1.0
 40
1.0
 40
1.0
 40
1.0
 10
74.4833319732
 20
139.8222770563
 30
0.0
 10
74.7802796203
 20
139.8835032736
 30
0.0
 10
75.4292319807
 20
139.9086104003
 30
0.0
 10
76.0575537151
 20
139.7623276687
 30
0.0
 10
76.3752241198
 20
139.6543117968
 30
0.0
  0
SPLINE
  5
313
100
AcDbEntity
  8
0
100
AcDbSpline
 62
7
  6
CONTINUOUS
 70
0
 71
3
 72
9
 73
5
 74
0
 42
0.0000001
 43
0.0000001
 44
0.0000000001
 40
0.0
 40
0.0
 40
0.0
 40
0.0
 40
0.5000350291
 40
1.0
 40
1.0
 40
1.0
 40
1.0
 10
80.277860514
 20
136.5022989224
 30
0.0
 10
80.5619776998
 20
136.1136420357
 30
0.0
 10
81.0838132551
 20
135.3015751501
 30
0.0
 10
81.5083750043
 20
134.4346772711
 30
0.0
 10
81.6937500642
 20
133.9904387138
 30
0.0
  0
SPLINE
  5
314
100
AcDbEntity
  8
0
100
AcDbSpline
 62
7
  6
CONTINUOUS
 70
0
 71
3
 72
11
 73
7
 74
0
 42
0.0000001
 43
0.0000001
 44
0.0000000001
 40
0.0
 40
0.0
 40
0.0
 40
0.0
 40
0.2380259969
 40
0.500684785
 40
0.7629705454
 40
1.0
 40
1.0
 40
1.0
 40
1.0
 10
111.8895486934
 20
102.43835674
 30
0.0
 10
111.8910504164
 20
102.5547993763
 30
0.0
 10
111.8504859871
 20
102.8005109734
 30
0.0
 10
111.701541288
 20
103.1459217073
 30
0.0
 10
111.4810880428
 20
103.4501021168
 30
0.0
 10
111.2908948755
 20
103.6099245627
 30
0.0
 10
111.1902752931
 20
103.6675746046
 30
0.0
  0
SPLINE
  5
315
100
AcDbEntity
  8
0
100
AcDbSpline
 62
7
  6
CONTINUOUS
 70
0
 71
3
 72
11
 73
7
 74
0
 42
0.0000001
 43
0.0000001
 44
0.0000000001
 40
0.0
 40
0.0
 40
0.0
 40
0.0
 40
0.2380133031
 40
0.5006846724
 40
0.7629828296
 40
1.0
 40
1.0
 40
1.0
 40
1.0
 10
99.3439148363
 20
122.2206300358
 30
0.0
 10
99.3469181328
 20
122.4535037078
 30
0.0
 10
99.2657548752
 20
122.9449134996
 30
0.0
 10
98.9680001966
 20
123.6358163877
 30
0.0
 10
98.5269549305
 20
124.244103434
 30
0.0
 10
98.1465974788
 20
124.5637712512
 30
0.0
 10
97.9453680357
 20
124.679065765
 30
0.0
  0
SPLINE
  5
316
100
AcDbEntity
  8
0
100
AcDbSpline
 62
7
  6
CONTINUOUS
 70
0
 71
3
 72
18
 73
14
 74
0
 42
0.0000001
 43
0.0000001
 44
0.0000000001
 40
0.0
 40
0.0
 40
0.0
 40
0.0
 40
0.1502858539
 40
0.3000922297
 40
0.4447419324
 40
0.5800671417
 40
0.7030246575
 40
0.7594765425
 40
0.8125709032
 40
0.8625787087
 40
0.9099851159
 40
0.9554899027
 40
1.0
 40
1.0
 40
1.0
 40
1.0
 10
81.6937500642
 20
133.9904387138
 30
0.0
 10
81.4872834974
 20
134.4852216139
 30
0.0
 10
81.0083341083
 20
135.4466950467
 30
0.0
 10
80.1223037284
 20
136.7678867851
 30
0.0
 10
79.1032260555
 20
137.9202747509
 30
0.0
 10
77.9990313349
 20
138.8492141778
 30
0.0
 10
77.0211995225
 20
139.4172867164
 30
0.0
 10
76.2431851364
 20
139.7097708725
 30
0.0
 10
75.6881853138
 20
139.8433485667
 30
0.0
 10
75.1518350328
 20
139.8954126844
 30
0.0
 10
74.6405503583
 20
139.8646169997
 30
0.0
 10
74.1611489309
 20
139.7506682801
 30
0.0
 10
73.8657548408
 20
139.619116336
 30
0.0
 10
73.727488959
 20
139.5410418425
 30
0.0
  0
SPLINE
  5
317
100
AcDbEntity
  8
0
100
AcDbSpline
 62
7
  6
CONTINUOUS
 70
0
 71
3
 72
11
 73
7
 74
0
 42
0.0000001
 43
0.0000001
 44
0.0000000001
 40
0.0
 40
0.0
 40
0.0
 40
0.0
 40
0.2910653129
 40
0.550848143
 40
0.7834606662
 40
1.0
 40
1.0
 40
1.0
 40
1.0
 10
102.8406401811
 20
75.6922831448
 30
0.0
 10
102.8382211192
 20
75.5047106435
 30
0.0
 10
102.861997879
 20
75.1481350777
 30
0.0
 10
103.0003266477
 20
74.6577746504
 30
0.0
 10
103.2386478845
 20
74.2603938364
 30
0.0
 10
103.4651412718
 20
74.0693822186
 30
0.0
 10
103.5862416262
 20
74.0000218507
 30
0.0
  0
SPLINE
  5
318
100
AcDbEntity
  8
0
100
AcDbSpline
 62
7
  6
CONTINUOUS
 70
0
 71
3
 72
17
 73
13
 74
0
 42
0.0000001
 43
0.0000001
 44
0.0000000001
 40
0.0
 40
0.0
 40
0.0
 40
0.0
 40
0.0423735604
 40
0.0865921612
 40
0.1341388326
 40
0.1859632452
 40
0.3033414794
 40
0.4374946304
 40
0.582442207
 40
0.7300658152
 40
0.8717478885
 40
1.0
 40
1.0
 40
1.0
 40
1.0
 10
97.4537058168
 20
102.4322813364
 30
0.0
 10
97.4524147697
 20
102.3308345644
 30
0.0
 10
97.4774298339
 20
102.1222480002
 30
0.0
 10
97.5954334956
 20
101.8204419453
 30
0.0
 10
97.7891406026
 20
101.5334713203
 30
0.0
 10
98.1564285571
 20
101.1633989464
 30
0.0
 10
98.7842666974
 20
100.7790055487
 30
0.0
 10
99.6883191342
 20
100.4721812707
 30
0.0
 10
100.7041350751
 20
100.3220997963
 30
0.0
 10
101.7485315326
 20
100.3415961346
 30
0.0
 10
102.7354271142
 20
100.5283025017
 30
0.0
 10
103.341559346
 20
100.7706747164
 30
0.0
 10
103.6089604946
 20
100.9216417074
 30
0.0
  0
SPLINE
  5
319
100
AcDbEntity
  8
0
100
AcDbSpline
 62
7
  6
CONTINUOUS
 70
0
 71
3
 72
9
 73
5
 74
0
 42
0.0000001
 43
0.0000001
 44
0.0000000001
 40
0.0
 40
0.0
 40
0.0
 40
0.0
 40
0.510620437
 40
1.0
 40
1.0
 40
1.0
 40
1.0
 10
63.1977487001
 20
133.6291668608
 30
0.0
 10
62.9532940583
 20
133.6260788187
 30
0.0
 10
62.4729524707
 20
133.5679670468
 30
0.0
 10
62.0216719445
 20
133.3902241624
 30
0.0
 10
61.8170559391
 20
133.2760713055
 30
0.0
  0
SPLINE
  5
31A
100
AcDbEntity
  8
0
100
AcDbSpline
 62
7
  6
CONTINUOUS
 70
0
 71
3
 72
11
 73
7
 74
0
 42
0.0000001
 43
0.0000001
 44
0.0000000001
 40
0.0
 40
0.0
 40
0.0
 40
0.0
 40
0.2903894668
 40
0.5498428277
 40
0.7827095984
 40
1.0
 40
1.0
 40
1.0
 40
1.0
 10
103.6089604946
 20
100.9216417074
 30
0.0
 10
103.7639001418
 20
101.0091161722
 30
0.0
 10
104.0451846709
 20
101.1984622197
 30
0.0
 10
104.382855917
 20
101.5449443568
 30
0.0
 10
104.5984837874
 20
101.9293044052
 30
0.0
 10
104.6513791551
 20
102.2063062275
 30
0.0
 10
104.6530733784
 20
102.3394334212
 30
0.0
  0
SPLINE
  5
31B
100
AcDbEntity
  8
0
100
AcDbSpline
 62
7
  6
CONTINUOUS
 70
0
 71
3
 72
17
 73
13
 74
0
 42
0.0000001
 43
0.0000001
 44
0.0000000001
 40
0.0
 40
0.0
 40
0.0
 40
0.0
 40
0.0427110188
 40
0.087184079
 40
0.134844799
 40
0.1866243294
 40
0.3035015191
 40
0.4368459959
 40
0.581045811
 40
0.7283545603
 40
0.8704531132
 40
1.0
 40
1.0
 40
1.0
 40
1.0
 10
103.5862416262
 20
74.0000218507
 30
0.0
 10
103.6741738978
 20
73.9496585405
 30
0.0
 10
103.867814419
 20
73.8697666375
 30
0.0
 10
104.1872173843
 20
73.8237418762
 30
0.0
 10
104.53006161
 20
73.8494065304
 30
0.0
 10
105.0281911516
 20
73.9825199566
 30
0.0
 10
105.6653165423
 20
74.3311163496
 30
0.0
 10
106.3702587346
 20
74.9547696456
 30
0.0
 10
106.9953186682
 20
75.7520495979
 30
0.0
 10
107.4900935133
 20
76.6594460365
 30
0.0
 10
107.8153659463
 20
77.6035303987
 30
0.0
 10
107.9072186907
 20
78.2476348811
 30
0.0
 10
107.9111822309
 20
78.5549652251
 30
0.0
  0
SPLINE
  5
31C
100
AcDbEntity
  8
0
100
AcDbSpline
 62
7
  6
CONTINUOUS
 70
0
 71
3
 72
9
 73
5
 74
0
 42
0.0000001
 43
0.0000001
 44
0.0000000001
 40
0.0
 40
0.0
 40
0.0
 40
0.0
 40
0.47767171
 40
1.0
 40
1.0
 40
1.0
 40
1.0
 10
85.4802854968
 20
117.6416389842
 30
0.0
 10
85.611574724
 20
117.5664167534
 30
0.0
 10
85.8678102978
 20
117.3758135513
 30
0.0
 10
86.0848706744
 20
117.1429735526
 30
0.0
 10
86.1880407126
 20
117.0136207207
 30
0.0
  0
SPLINE
  5
31D
100
AcDbEntity
  8
0
100
AcDbSpline
 62
7
  6
CONTINUOUS
 70
0
 71
3
 72
9
 73
5
 74
0
 42
0.0000001
 43
0.0000001
 44
0.0000000001
 40
0.0
 40
0.0
 40
0.0
 40
0.0
 40
0.2517635867
 40
1.0
 40
1.0
 40
1.0
 40
1.0
 10
86.4779897367
 20
116.5846336811
 30
0.0
 10
86.4995082263
 20
116.546807397
 30
0.0
 10
86.5820632407
 20
116.3949263019
 30
0.0
 10
86.6530744032
 20
116.2367359537
 30
0.0
 10
86.6988142493
 20
116.1157573732
 30
0.0
  0
SPLINE
  5
31E
100
AcDbEntity
  8
0
100
AcDbSpline
 62
7
  6
CONTINUOUS
 70
0
 71
3
 72
9
 73
5
 74
0
 42
0.0000001
 43
0.0000001
 44
0.0000000001
 40
0.0
 40
0.0
 40
0.0
 40
0.0
 40
0.5218820357
 40
1.0
 40
1.0
 40
1.0
 40
1.0
 10
86.6988142493
 20
116.1157573732
 30
0.0
 10
86.7574941367
 20
115.9605533205
 30
0.0
 10
86.8471950957
 20
115.65391948
 30
0.0
 10
86.8807925875
 20
115.3352028882
 30
0.0
 10
86.8788322973
 20
115.183203255
 30
0.0
  0
SPLINE
  5
31F
100
AcDbEntity
  8
0
100
AcDbSpline
 62
7
  6
CONTINUOUS
 70
0
 71
3
 72
9
 73
5
 74
0
 42
0.0000001
 43
0.0000001
 44
0.0000000001
 40
0.0
 40
0.0
 40
0.0
 40
0.0
 40
0.5118159598
 40
1.0
 40
1.0
 40
1.0
 40
1.0
 10
65.659948706
 20
134.5344332087
 30
0.0
 10
65.4111951461
 20
134.5377045524
 30
0.0
 10
64.9218044247
 20
134.4889018427
 30
0.0
 10
64.4620573998
 20
134.3100668752
 30
0.0
 10
64.2554322412
 20
134.1933970209
 30
0.0
  0
SPLINE
  5
320
100
AcDbEntity
  8
0
100
AcDbSpline
 62
7
  6
CONTINUOUS
 70
0
 71
3
 72
17
 73
13
 74
0
 42
0.0000001
 43
0.0000001
 44
0.0000000001
 40
0.0
 40
0.0
 40
0.0
 40
0.0
 40
0.0423735604
 40
0.0865921612
 40
0.1341388326
 40
0.1859632452
 40
0.3033414794
 40
0.4374946304
 40
0.582442207
 40
0.7300658152
 40
0.8717478885
 40
1.0
 40
1.0
 40
1.0
 40
1.0
 10
104.6530733784
 20
102.3394334212
 30
0.0
 10
104.6543644255
 20
102.4408801933
 30
0.0
 10
104.6293493612
 20
102.6494667575
 30
0.0
 10
104.5113456996
 20
102.9512728124
 30
0.0
 10
104.3176385925
 20
103.2382434374
 30
0.0
 10
103.9503506381
 20
103.6083158113
 30
0.0
 10
103.3225124978
 20
103.992709209
 30
0.0
 10
102.418460061
 20
104.299533487
 30
0.0
 10
101.4026441201
 20
104.4496149614
 30
0.0
 10
100.3582476626
 20
104.4301186231
 30
0.0
 10
99.371352081
 20
104.2434122559
 30
0.0
 10
98.7652198491
 20
104.0010400413
 30
0.0
 10
98.4978187006
 20
103.8500730502
 30
0.0
  0
SPLINE
  5
321
100
AcDbEntity
  8
0
100
AcDbSpline
 62
7
  6
CONTINUOUS
 70
0
 71
3
 72
11
 73
7
 74
0
 42
0.0000001
 43
0.0000001
 44
0.0000000001
 40
0.0
 40
0.0
 40
0.0
 40
0.0
 40
0.2903894668
 40
0.5498428277
 40
0.7827095984
 40
1.0
 40
1.0
 40
1.0
 40
1.0
 10
98.4978187006
 20
103.8500730502
 30
0.0
 10
98.3428790534
 20
103.7625985855
 30
0.0
 10
98.0615945242
 20
103.573252538
 30
0.0
 10
97.7239232781
 20
103.2267704009
 30
0.0
 10
97.5082954078
 20
102.8424103525
 30
0.0
 10
97.4554000401
 20
102.5654085302
 30
0.0
 10
97.4537058168
 20
102.4322813364
 30
0.0
  0
SPLINE
  5
322
100
AcDbEntity
  8
0
100
AcDbSpline
 62
7
  6
CONTINUOUS
 70
0
 71
3
 72
9
 73
5
 74
0
 42
0.0000001
 43
0.0000001
 44
0.0000000001
 40
0.0
 40
0.0
 40
0.0
 40
0.0
 40
0.4757933764
 40
1.0
 40
1.0
 40
1.0
 40
1.0
 10
98.7251927541
 20
96.6301478238
 30
0.0
 10
98.8046964576
 20
96.5845961357
 30
0.0
 10
98.9581278745
 20
96.46465208
 30
0.0
 10
99.082901268
 20
96.3163419695
 30
0.0
 10
99.1407098178
 20
96.2335803682
 30
0.0
  0
SPLINE
  5
323
100
AcDbEntity
  8
0
100
AcDbSpline
 62
7
  6
CONTINUOUS
 70
0
 71
3
 72
9
 73
5
 74
0
 42
0.0000001
 43
0.0000001
 44
0.0000000001
 40
0.0
 40
0.0
 40
0.0
 40
0.0
 40
0.5236623189
 40
1.0
 40
1.0
 40
1.0
 40
1.0
 10
99.2949124016
 20
95.9625153204
 30
0.0
 10
99.3366159746
 20
95.8703281302
 30
0.0
 10
99.4005806476
 20
95.686699433
 30
0.0
 10
99.4256530316
 20
95.4929596534
 30
0.0
 10
99.4244661544
 20
95.4009299592
 30
0.0
  0
SPLINE
  5
324
100
AcDbEntity
  8
0
100
AcDbSpline
 62
7
  6
CONTINUOUS
 70
0
 71
3
 72
9
 73
5
 74
0
 42
0.0000001
 43
0.0000001
 44
0.0000000001
 40
0.0
 40
0.0
 40
0.0
 40
0.0
 40
0.4960556981
 40
1.0
 40
1.0
 40
1.0
 40
1.0
 10
61.2624064201
 20
132.5036150617
 30
0.0
 10
61.378877565
 20
132.5693827372
 30
0.0
 10
61.6246735105
 20
132.6833290562
 30
0.0
 10
61.8851648458
 20
132.7574101998
 30
0.0
 10
62.0182494342
 20
132.7848502755
 30
0.0
  0
SPLINE
  5
325
100
AcDbEntity
  8
0
100
AcDbSpline
 62
7
  6
CONTINUOUS
 70
0
 71
3
 72
9
 73
5
 74
0
 42
0.0000001
 43
0.0000001
 44
0.0000000001
 40
0.0
 40
0.0
 40
0.0
 40
0.0
 40
0.4746852703
 40
1.0
 40
1.0
 40
1.0
 40
1.0
 10
62.0182494342
 20
132.7848502755
 30
0.0
 10
62.3151970813
 20
132.8460764928
 30
0.0
 10
62.9641494418
 20
132.8711836195
 30
0.0
 10
63.5924711762
 20
132.724900888
 30
0.0
 10
63.9101415808
 20
132.616885016
 30
0.0
  0
SPLINE
  5
326
100
AcDbEntity
  8
0
100
AcDbSpline
 62
7
  6
CONTINUOUS
 70
0
 71
3
 72
9
 73
5
 74
0
 42
0.0000001
 43
0.0000001
 44
0.0000000001
 40
0.0
 40
0.0
 40
0.0
 40
0.0
 40
0.5000350291
 40
1.0
 40
1.0
 40
1.0
 40
1.0
 10
67.812777975
 20
129.4648721416
 30
0.0
 10
68.0968951608
 20
129.0762152549
 30
0.0
 10
68.6187307161
 20
128.2641483693
 30
0.0
 10
69.0432924653
 20
127.3972504903
 30
0.0
 10
69.2286675252
 20
126.9530119331
 30
0.0
  0
SPLINE
  5
327
100
AcDbEntity
  8
0
100
AcDbSpline
 62
7
  6
CONTINUOUS
 70
0
 71
3
 72
11
 73
7
 74
0
 42
0.0000001
 43
0.0000001
 44
0.0000000001
 40
0.0
 40
0.0
 40
0.0
 40
0.0
 40
0.2380259969
 40
0.500684785
 40
0.7629705454
 40
1.0
 40
1.0
 40
1.0
 40
1.0
 10
99.4244661544
 20
95.4009299592
 30
0.0
 10
99.4259678775
 20
95.5173725956
 30
0.0
 10
99.3854034482
 20
95.7630841926
 30
0.0
 10
99.2364587491
 20
96.1084949265
 30
0.0
 10
99.0160055039
 20
96.412675336
 30
0.0
 10
98.8258123365
 20
96.5724977819
 30
0.0
 10
98.7251927541
 20
96.6301478238
 30
0.0
  0
SPLINE
  5
328
100
AcDbEntity
  8
0
100
AcDbSpline
 62
7
  6
CONTINUOUS
 70
0
 71
3
 72
11
 73
7
 74
0
 42
0.0000001
 43
0.0000001
 44
0.0000000001
 40
0.0
 40
0.0
 40
0.0
 40
0.0
 40
0.2380133031
 40
0.5006846724
 40
0.7629828296
 40
1.0
 40
1.0
 40
1.0
 40
1.0
 10
86.8788322973
 20
115.183203255
 30
0.0
 10
86.8818355939
 20
115.416076927
 30
0.0
 10
86.8006723363
 20
115.9074867188
 30
0.0
 10
86.5029176577
 20
116.598389607
 30
0.0
 10
86.0618723916
 20
117.2066766532
 30
0.0
 10
85.6815149399
 20
117.5263444704
 30
0.0
 10
85.4802854968
 20
117.6416389842
 30
0.0
  0
SPLINE
  5
329
100
AcDbEntity
  8
0
100
AcDbSpline
 62
7
  6
CONTINUOUS
 70
0
 71
3
 72
18
 73
14
 74
0
 42
0.0000001
 43
0.0000001
 44
0.0000000001
 40
0.0
 40
0.0
 40
0.0
 40
0.0
 40
0.1502858539
 40
0.3000922297
 40
0.4447419324
 40
0.5800671417
 40
0.7030246575
 40
0.7594765425
 40
0.8125709032
 40
0.8625787087
 40
0.9099851159
 40
0.9554899027
 40
1.0
 40
1.0
 40
1.0
 40
1.0
 10
69.2286675252
 20
126.9530119331
 30
0.0
 10
69.0222009585
 20
127.4477948331
 30
0.0
 10
68.5432515693
 20
128.4092682659
 30
0.0
 10
67.6572211895
 20
129.7304600043
 30
0.0
 10
66.6381435165
 20
130.8828479701
 30
0.0
 10
65.533948796
 20
131.8117873971
 30
0.0
 10
64.5561169835
 20
132.3798599356
 30
0.0
 10
63.7781025974
 20
132.6723440918
 30
0.0
 10
63.2231027749
 20
132.8059217859
 30
0.0
 10
62.6867524938
 20
132.8579859036
 30
0.0
 10
62.1754678194
 20
132.8271902189
 30
0.0
 10
61.696066392
 20
132.7132414993
 30
0.0
 10
61.4006723019
 20
132.5816895552
 30
0.0
 10
61.2624064201
 20
132.5036150617
 30
0.0
  0
SPLINE
  5
32A
100
AcDbEntity
  8
0
100
AcDbSpline
 62
7
  6
CONTINUOUS
 70
0
 71
3
 72
11
 73
7
 74
0
 42
0.0000001
 43
0.0000001
 44
0.0000000001
 40
0.0
 40
0.0
 40
0.0
 40
0.0
 40
0.2910653129
 40
0.550848143
 40
0.7834606662
 40
1.0
 40
1.0
 40
1.0
 40
1.0
 10
90.3755576422
 20
68.654856364
 30
0.0
 10
90.3731385802
 20
68.4672838627
 30
0.0
 10
90.39691534
 20
68.1107082969
 30
0.0
 10
90.5352441088
 20
67.6203478696
 30
0.0
 10
90.7735653456
 20
67.2229670556
 30
0.0
 10
91.0000587329
 20
67.0319554379
 30
0.0
 10
91.1211590873
 20
66.9625950699
 30
0.0
  0
SPLINE
  5
32B
100
AcDbEntity
  8
0
100
AcDbSpline
 62
7
  6
CONTINUOUS
 70
0
 71
3
 72
17
 73
13
 74
0
 42
0.0000001
 43
0.0000001
 44
0.0000000001
 40
0.0
 40
0.0
 40
0.0
 40
0.0
 40
0.0423735604
 40
0.0865921612
 40
0.1341388326
 40
0.1859632452
 40
0.3033414794
 40
0.4374946304
 40
0.582442207
 40
0.7300658152
 40
0.8717478885
 40
1.0
 40
1.0
 40
1.0
 40
1.0
 10
84.9886232779
 20
95.3948545557
 30
0.0
 10
84.9873322307
 20
95.2934077836
 30
0.0
 10
85.012347295
 20
95.0848212194
 30
0.0
 10
85.1303509566
 20
94.7830151645
 30
0.0
 10
85.3240580637
 20
94.4960445395
 30
0.0
 10
85.6913460181
 20
94.1259721656
 30
0.0
 10
86.3191841585
 20
93.7415787679
 30
0.0
 10
87.2232365952
 20
93.4347544899
 30
0.0
 10
88.2390525361
 20
93.2846730155
 30
0.0
 10
89.2834489936
 20
93.3041693538
 30
0.0
 10
90.2703445752
 20
93.490875721
 30
0.0
 10
90.8764768071
 20
93.7332479356
 30
0.0
 10
91.1438779557
 20
93.8842149267
 30
0.0
  0
SPLINE
  5
32C
100
AcDbEntity
  8
0
100
AcDbSpline
 62
7
  6
CONTINUOUS
 70
0
 71
3
 72
9
 73
5
 74
0
 42
0.0000001
 43
0.0000001
 44
0.0000000001
 40
0.0
 40
0.0
 40
0.0
 40
0.0
 40
0.510620437
 40
1.0
 40
1.0
 40
1.0
 40
1.0
 10
50.7326661612
 20
126.59174008
 30
0.0
 10
50.4882115193
 20
126.588652038
 30
0.0
 10
50.0078699317
 20
126.530540266
 30
0.0
 10
49.5565894056
 20
126.3527973816
 30
0.0
 10
49.3519734002
 20
126.2386445248
 30
0.0
  0
SPLINE
  5
32D
100
AcDbEntity
  8
0
100
AcDbSpline
 62
7
  6
CONTINUOUS
 70
0
 71
3
 72
11
 73
7
 74
0
 42
0.0000001
 43
0.0000001
 44
0.0000000001
 40
0.0
 40
0.0
 40
0.0
 40
0.0
 40
0.2903894668
 40
0.5498428277
 40
0.7827095984
 40
1.0
 40
1.0
 40
1.0
 40
1.0
 10
91.1438779557
 20
93.8842149267
 30
0.0
 10
91.2988176029
 20
93.9716893914
 30
0.0
 10
91.580102132
 20
94.1610354389
 30
0.0
 10
91.9177733781
 20
94.507517576
 30
0.0
 10
92.1334012484
 20
94.8918776244
 30
0.0
 10
92.1862966161
 20
95.1688794467
 30
0.0
 10
92.1879908394
 20
95.3020066405
 30
0.0
  0
SPLINE
  5
32E
100
AcDbEntity
  8
0
100
AcDbSpline
 62
7
  6
CONTINUOUS
 70
0
 71
3
 72
17
 73
13
 74
0
 42
0.0000001
 43
0.0000001
 44
0.0000000001
 40
0.0
 40
0.0
 40
0.0
 40
0.0
 40
0.0427110188
 40
0.087184079
 40
0.134844799
 40
0.1866243294
 40
0.3035015191
 40
0.4368459959
 40
0.581045811
 40
0.7283545603
 40
0.8704531132
 40
1.0
 40
1.0
 40
1.0
 40
1.0
 10
91.1211590873
 20
66.9625950699
 30
0.0
 10
91.2090913588
 20
66.9122317598
 30
0.0
 10
91.4027318801
 20
66.8323398568
 30
0.0
 10
91.7221348454
 20
66.7863150954
 30
0.0
 10
92.0649790711
 20
66.8119797497
 30
0.0
 10
92.5631086127
 20
66.9450931759
 30
0.0
 10
93.2002340033
 20
67.2936895688
 30
0.0
 10
93.9051761957
 20
67.9173428648
 30
0.0
 10
94.5302361293
 20
68.7146228171
 30
0.0
 10
95.0250109744
 20
69.6220192557
 30
0.0
 10
95.3502834073
 20
70.5661036179
 30
0.0
 10
95.4421361518
 20
71.2102081003
 30
0.0
 10
95.4460996919
 20
71.5175384443
 30
0.0
  0
SPLINE
  5
32F
100
AcDbEntity
  8
0
100
AcDbSpline
 62
7
  6
CONTINUOUS
 70
0
 71
3
 72
9
 73
5
 74
0
 42
0.0000001
 43
0.0000001
 44
0.0000000001
 40
0.0
 40
0.0
 40
0.0
 40
0.0
 40
0.47767171
 40
1.0
 40
1.0
 40
1.0
 40
1.0
 10
73.0152029578
 20
110.6042122034
 30
0.0
 10
73.146492185
 20
110.5289899726
 30
0.0
 10
73.4027277588
 20
110.3383867706
 30
0.0
 10
73.6197881355
 20
110.1055467718
 30
0.0
 10
73.7229581737
 20
109.9761939399
 30
0.0
  0
SPLINE
  5
330
100
AcDbEntity
  8
0
100
AcDbSpline
 62
7
  6
CONTINUOUS
 70
0
 71
3
 72
9
 73
5
 74
0
 42
0.0000001
 43
0.0000001
 44
0.0000000001
 40
0.0
 40
0.0
 40
0.0
 40
0.0
 40
0.2517635868
 40
1.0
 40
1.0
 40
1.0
 40
1.0
 10
74.0129072207
 20
109.54720686
 30
0.0
 10
74.0344257078
 20
109.509380579
 30
0.0
 10
74.116980713
 20
109.3574994964
 30
0.0
 10
74.1879918684
 20
109.1993091621
 30
0.0
 10
74.2337317104
 20
109.0783305924
 30
0.0
  0
SPLINE
  5
331
100
AcDbEntity
  8
0
100
AcDbSpline
 62
7
  6
CONTINUOUS
 70
0
 71
3
 72
9
 73
5
 74
0
 42
0.0000001
 43
0.0000001
 44
0.0000000001
 40
0.0
 40
0.0
 40
0.0
 40
0.0
 40
0.5218820357
 40
1.0
 40
1.0
 40
1.0
 40
1.0
 10
74.2337317104
 20
109.0783305924
 30
0.0
 10
74.2924115978
 20
108.9231265397
 30
0.0
 10
74.3821125567
 20
108.6164926992
 30
0.0
 10
74.4157100486
 20
108.2977761074
 30
0.0
 10
74.4137497584
 20
108.1457764742
 30
0.0
  0
SPLINE
  5
332
100
AcDbEntity
  8
0
100
AcDbSpline
 62
7
  6
CONTINUOUS
 70
0
 71
3
 72
8
 73
4
 74
0
 42
0.0000001
 43
0.0000001
 44
0.0000000001
 40
0.0
 40
0.0
 40
0.0
 40
0.0
 40
1.0
 40
1.0
 40
1.0
 40
1.0
 10
29.8192921334
 20
121.691039034
 30
0.0
 10
29.8451872081
 20
121.7056606
 30
0.0
 10
29.8731936126
 20
121.716993989
 30
0.0
 10
29.9019229859
 20
121.7246730646
 30
0.0
  0
SPLINE
  5
333
100
AcDbEntity
  8
0
100
AcDbSpline
 62
7
  6
CONTINUOUS
 70
0
 71
3
 72
9
 73
5
 74
0
 42
0.0000001
 43
0.0000001
 44
0.0000000001
 40
0.0
 40
0.0
 40
0.0
 40
0.0
 40
0.5118159598
 40
1.0
 40
1.0
 40
1.0
 40
1.0
 10
53.194866167
 20
127.4970064279
 30
0.0
 10
52.9461126071
 20
127.5002777716
 30
0.0
 10
52.4567218858
 20
127.4514750619
 30
0.0
 10
51.9969748609
 20
127.2726400945
 30
0.0
 10
51.7903497023
 20
127.1559702401
 30
0.0
  0
SPLINE
  5
334
100
AcDbEntity
  8
0
100
AcDbSpline
 62
7
  6
CONTINUOUS
 70
0
 71
3
 72
17
 73
13
 74
0
 42
0.0000001
 43
0.0000001
 44
0.0000000001
 40
0.0
 40
0.0
 40
0.0
 40
0.0
 40
0.0423735604
 40
0.0865921612
 40
0.1341388326
 40
0.1859632452
 40
0.3033414794
 40
0.4374946304
 40
0.582442207
 40
0.7300658152
 40
0.8717478885
 40
1.0
 40
1.0
 40
1.0
 40
1.0
 10
92.1879908394
 20
95.3020066405
 30
0.0
 10
92.1892818866
 20
95.4034534125
 30
0.0
 10
92.1642668223
 20
95.6120399767
 30
0.0
 10
92.0462631606
 20
95.9138460316
 30
0.0
 10
91.8525560536
 20
96.2008166566
 30
0.0
 10
91.4852680991
 20
96.5708890305
 30
0.0
 10
90.8574299588
 20
96.9552824282
 30
0.0
 10
89.9533775221
 20
97.2621067062
 30
0.0
 10
88.9375615811
 20
97.4121881806
 30
0.0
 10
87.8931651236
 20
97.3926918423
 30
0.0
 10
86.906269542
 20
97.2059854752
 30
0.0
 10
86.3001373102
 20
96.9636132605
 30
0.0
 10
86.0327361616
 20
96.8126462695
 30
0.0
  0
SPLINE
  5
335
100
AcDbEntity
  8
0
100
AcDbSpline
 62
7
  6
CONTINUOUS
 70
0
 71
3
 72
11
 73
7
 74
0
 42
0.0000001
 43
0.0000001
 44
0.0000000001
 40
0.0
 40
0.0
 40
0.0
 40
0.0
 40
0.2903894668
 40
0.5498428277
 40
0.7827095984
 40
1.0
 40
1.0
 40
1.0
 40
1.0
 10
86.0327361616
 20
96.8126462695
 30
0.0
 10
85.8777965144
 20
96.7251718048
 30
0.0
 10
85.5965119853
 20
96.5358257572
 30
0.0
 10
85.2588407392
 20
96.1893436201
 30
0.0
 10
85.0432128688
 20
95.8049835717
 30
0.0
 10
84.9903175012
 20
95.5279817494
 30
0.0
 10
84.9886232779
 20
95.3948545557
 30
0.0
  0
SPLINE
  5
336
100
AcDbEntity
  8
0
100
AcDbSpline
 62
7
  6
CONTINUOUS
 70
0
 71
3
 72
9
 73
5
 74
0
 42
0.0000001
 43
0.0000001
 44
0.0000000001
 40
0.0
 40
0.0
 40
0.0
 40
0.0
 40
0.4757933764
 40
1.0
 40
1.0
 40
1.0
 40
1.0
 10
86.2601102152
 20
89.592721043
 30
0.0
 10
86.3396139186
 20
89.5471693549
 30
0.0
 10
86.4930453355
 20
89.4272252992
 30
0.0
 10
86.617818729
 20
89.2789151887
 30
0.0
 10
86.6756272789
 20
89.1961535874
 30
0.0
  0
SPLINE
  5
337
100
AcDbEntity
  8
0
100
AcDbSpline
 62
7
  6
CONTINUOUS
 70
0
 71
3
 72
9
 73
5
 74
0
 42
0.0000001
 43
0.0000001
 44
0.0000000001
 40
0.0
 40
0.0
 40
0.0
 40
0.0
 40
0.5236623189
 40
1.0
 40
1.0
 40
1.0
 40
1.0
 10
86.8298298627
 20
88.9250885396
 30
0.0
 10
86.8715334357
 20
88.8329013494
 30
0.0
 10
86.9354981087
 20
88.6492726523
 30
0.0
 10
86.9605704927
 20
88.4555328726
 30
0.0
 10
86.9593836155
 20
88.3635031784
 30
0.0
  0
SPLINE
  5
338
100
AcDbEntity
  8
0
100
AcDbSpline
 62
7
  6
CONTINUOUS
 70
0
 71
3
 72
9
 73
5
 74
0
 42
0.0000001
 43
0.0000001
 44
0.0000000001
 40
0.0
 40
0.0
 40
0.0
 40
0.0
 40
0.4960556981
 40
1.0
 40
1.0
 40
1.0
 40
1.0
 10
48.7973238811
 20
125.4661882809
 30
0.0
 10
48.913795026
 20
125.5319559565
 30
0.0
 10
49.1595909715
 20
125.6459022754
 30
0.0
 10
49.4200823069
 20
125.719983419
 30
0.0
 10
49.5531668953
 20
125.7474234947
 30
0.0
  0
SPLINE
  5
339
100
AcDbEntity
  8
0
100
AcDbSpline
 62
7
  6
CONTINUOUS
 70
0
 71
3
 72
9
 73
5
 74
0
 42
0.0000001
 43
0.0000001
 44
0.0000000001
 40
0.0
 40
0.0
 40
0.0
 40
0.0
 40
0.4746852703
 40
1.0
 40
1.0
 40
1.0
 40
1.0
 10
49.5531668953
 20
125.7474234947
 30
0.0
 10
49.8501145424
 20
125.808649712
 30
0.0
 10
50.4990669028
 20
125.8337568387
 30
0.0
 10
51.1273886372
 20
125.6874741072
 30
0.0
 10
51.4450590419
 20
125.5794582352
 30
0.0
  0
SPLINE
  5
33A
100
AcDbEntity
  8
0
100
AcDbSpline
 62
7
  6
CONTINUOUS
 70
0
 71
3
 72
9
 73
5
 74
0
 42
0.0000001
 43
0.0000001
 44
0.0000000001
 40
0.0
 40
0.0
 40
0.0
 40
0.0
 40
0.5000350291
 40
1.0
 40
1.0
 40
1.0
 40
1.0
 10
55.3476954361
 20
122.4274453608
 30
0.0
 10
55.6318126219
 20
122.0387884741
 30
0.0
 10
56.1536481772
 20
121.2267215886
 30
0.0
 10
56.5782099264
 20
120.3598237095
 30
0.0
 10
56.7635849863
 20
119.9155851523
 30
0.0
  0
SPLINE
  5
33B
100
AcDbEntity
  8
0
100
AcDbSpline
 62
7
  6
CONTINUOUS
 70
0
 71
3
 72
11
 73
7
 74
0
 42
0.0000001
 43
0.0000001
 44
0.0000000001
 40
0.0
 40
0.0
 40
0.0
 40
0.0
 40
0.2380259969
 40
0.500684785
 40
0.7629705454
 40
1.0
 40
1.0
 40
1.0
 40
1.0
 10
86.9593836155
 20
88.3635031784
 30
0.0
 10
86.9608853385
 20
88.4799458148
 30
0.0
 10
86.9203209092
 20
88.7256574118
 30
0.0
 10
86.7713762101
 20
89.0710681458
 30
0.0
 10
86.5509229649
 20
89.3752485553
 30
0.0
 10
86.3607297976
 20
89.5350710011
 30
0.0
 10
86.2601102152
 20
89.592721043
 30
0.0
  0
SPLINE
  5
33C
100
AcDbEntity
  8
0
100
AcDbSpline
 62
7
  6
CONTINUOUS
 70
0
 71
3
 72
11
 73
7
 74
0
 42
0.0000001
 43
0.0000001
 44
0.0000000001
 40
0.0
 40
0.0
 40
0.0
 40
0.0
 40
0.2380133031
 40
0.5006846724
 40
0.7629828296
 40
1.0
 40
1.0
 40
1.0
 40
1.0
 10
74.4137497584
 20
108.1457764742
 30
0.0
 10
74.4167530549
 20
108.3786501463
 30
0.0
 10
74.3355897973
 20
108.8700599381
 30
0.0
 10
74.0378351187
 20
109.5609628262
 30
0.0
 10
73.5967898526
 20
110.1692498724
 30
0.0
 10
73.2164324009
 20
110.4889176896
 30
0.0
 10
73.0152029578
 20
110.6042122034
 30
0.0
  0
SPLINE
  5
33D
100
AcDbEntity
  8
0
100
AcDbSpline
 62
7
  6
CONTINUOUS
 70
0
 71
3
 72
18
 73
14
 74
0
 42
0.0000001
 43
0.0000001
 44
0.0000000001
 40
0.0
 40
0.0
 40
0.0
 40
0.0
 40
0.1502858539
 40
0.3000922297
 40
0.4447419324
 40
0.5800671417
 40
0.7030246575
 40
0.7594765425
 40
0.8125709032
 40
0.8625787087
 40
0.9099851159
 40
0.9554899027
 40
1.0
 40
1.0
 40
1.0
 40
1.0
 10
56.7635849863
 20
119.9155851523
 30
0.0
 10
56.5571184195
 20
120.4103680523
 30
0.0
 10
56.0781690303
 20
121.3718414852
 30
0.0
 10
55.1921386505
 20
122.6930332235
 30
0.0
 10
54.1730609776
 20
123.8454211893
 30
0.0
 10
53.068866257
 20
124.7743606163
 30
0.0
 10
52.0910344446
 20
125.3424331549
 30
0.0
 10
51.3130200585
 20
125.634917311
 30
0.0
 10
50.7580202359
 20
125.7684950051
 30
0.0
 10
50.2216699549
 20
125.8205591229
 30
0.0
 10
49.7103852804
 20
125.7897634381
 30
0.0
 10
49.230983853
 20
125.6758147186
 30
0.0
 10
48.9355897629
 20
125.5442627745
 30
0.0
 10
48.7973238811
 20
125.4661882809
 30
0.0
  0
SPLINE
  5
33E
100
AcDbEntity
  8
0
100
AcDbSpline
 62
7
  6
CONTINUOUS
 70
0
 71
3
 72
11
 73
7
 74
0
 42
0.0000001
 43
0.0000001
 44
0.0000000001
 40
0.0
 40
0.0
 40
0.0
 40
0.0
 40
0.2876246829
 40
0.5466540683
 40
0.7805854405
 40
1.0
 40
1.0
 40
1.0
 40
1.0
 10
30.3215028024
 20
121.6427751836
 30
0.0
 10
30.2777146655
 20
121.6678636193
 30
0.0
 10
30.1903347105
 20
121.7089340191
 30
0.0
 10
30.0559047915
 20
121.7408447001
 30
0.0
 10
29.9292825377
 20
121.7373939317
 30
0.0
 10
29.8528153335
 20
121.70996782
 30
0.0
 10
29.8192921332
 20
121.6910390358
 30
0.0
  0
SPLINE
  5
33F
100
AcDbEntity
  8
0
100
AcDbSpline
 62
7
  6
CONTINUOUS
 70
0
 71
3
 72
17
 73
13
 74
0
 42
0.0000001
 43
0.0000001
 44
0.0000000001
 40
0.0
 40
0.0
 40
0.0
 40
0.0
 40
0.0423503568
 40
0.0862582405
 40
0.1330216563
 40
0.1835348759
 40
0.2970541437
 40
0.4268280165
 40
0.5686670371
 40
0.716239768
 40
0.8623441185
 40
1.0
 40
1.0
 40
1.0
 40
1.0
 10
24.3936221782
 20
115.9334895861
 30
0.0
 10
24.3924411112
 20
115.8406847433
 30
0.0
 10
24.4130181719
 20
115.6506500071
 30
0.0
 10
24.5112382794
 20
115.3737734848
 30
0.0
 10
24.6735974147
 20
115.108067225
 30
0.0
 10
24.9824661614
 20
114.7618216014
 30
0.0
 10
25.5175358934
 20
114.3887947236
 30
0.0
 10
26.3027906981
 20
114.0667809043
 30
0.0
 10
27.2047646858
 20
113.8713197406
 30
0.0
 10
28.16134501
 20
113.8160910088
 30
0.0
 10
29.1059334806
 20
113.9046141128
 30
0.0
 10
29.711474604
 20
114.0625652365
 30
0.0
 10
29.9942423067
 20
114.167693658
 30
0.0
  0
SPLINE
  5
340
100
AcDbEntity
  8
0
100
AcDbSpline
 62
7
  6
CONTINUOUS
 70
0
 71
3
 72
11
 73
7
 74
0
 42
0.0000001
 43
0.0000001
 44
0.0000000001
 40
0.0
 40
0.0
 40
0.0
 40
0.0
 40
0.2910653129
 40
0.550848143
 40
0.7834606662
 40
1.0
 40
1.0
 40
1.0
 40
1.0
 10
77.9104751032
 20
61.6174295832
 30
0.0
 10
77.9080560413
 20
61.4298570819
 30
0.0
 10
77.9318328011
 20
61.0732815161
 30
0.0
 10
78.0701615698
 20
60.5829210888
 30
0.0
 10
78.3084828066
 20
60.1855402748
 30
0.0
 10
78.5349761939
 20
59.9945286571
 30
0.0
 10
78.6560765483
 20
59.9251682891
 30
0.0
  0
SPLINE
  5
341
100
AcDbEntity
  8
0
100
AcDbSpline
 62
7
  6
CONTINUOUS
 70
0
 71
3
 72
17
 73
13
 74
0
 42
0.0000001
 43
0.0000001
 44
0.0000000001
 40
0.0
 40
0.0
 40
0.0
 40
0.0
 40
0.0423735604
 40
0.0865921612
 40
0.1341388326
 40
0.1859632452
 40
0.3033414794
 40
0.4374946304
 40
0.582442207
 40
0.7300658152
 40
0.8717478885
 40
1.0
 40
1.0
 40
1.0
 40
1.0
 10
72.5235407389
 20
88.3574277749
 30
0.0
 10
72.5222496917
 20
88.2559810029
 30
0.0
 10
72.547264756
 20
88.0473944386
 30
0.0
 10
72.6652684177
 20
87.7455883838
 30
0.0
 10
72.8589755247
 20
87.4586177587
 30
0.0
 10
73.2262634792
 20
87.0885453848
 30
0.0
 10
73.8541016195
 20
86.7041519871
 30
0.0
 10
74.7581540562
 20
86.3973277091
 30
0.0
 10
75.7739699972
 20
86.2472462348
 30
0.0
 10
76.8183664547
 20
86.2667425731
 30
0.0
 10
77.8052620363
 20
86.4534489402
 30
0.0
 10
78.4113942681
 20
86.6958211548
 30
0.0
 10
78.6787954167
 20
86.8467881459
 30
0.0
  0
SPLINE
  5
342
100
AcDbEntity
  8
0
100
AcDbSpline
 62
7
  6
CONTINUOUS
 70
0
 71
3
 72
9
 73
5
 74
0
 42
0.0000001
 43
0.0000001
 44
0.0000000001
 40
0.0
 40
0.0
 40
0.0
 40
0.0
 40
0.5106334974
 40
1.0
 40
1.0
 40
1.0
 40
1.0
 10
38.2675836222
 20
119.5543132992
 30
0.0
 10
38.0208285796
 20
119.5511961977
 30
0.0
 10
37.5359299431
 20
119.4920363585
 30
0.0
 10
37.0809782171
 20
119.3108396203
 30
0.0
 10
36.8750384233
 20
119.1945656811
 30
0.0
  0
SPLINE
  5
343
100
AcDbEntity
  8
0
100
AcDbSpline
 62
7
  6
CONTINUOUS
 70
0
 71
3
 72
11
 73
7
 74
0
 42
0.0000001
 43
0.0000001
 44
0.0000000001
 40
0.0
 40
0.0
 40
0.0
 40
0.0
 40
0.2903894668
 40
0.5498428277
 40
0.7827095984
 40
1.0
 40
1.0
 40
1.0
 40
1.0
 10
78.6787954167
 20
86.8467881459
 30
0.0
 10
78.8337350639
 20
86.9342626106
 30
0.0
 10
79.115019593
 20
87.1236086582
 30
0.0
 10
79.4526908391
 20
87.4700907952
 30
0.0
 10
79.6683187095
 20
87.8544508436
 30
0.0
 10
79.7212140771
 20
88.131452666
 30
0.0
 10
79.7229083004
 20
88.2645798597
 30
0.0
  0
SPLINE
  5
344
100
AcDbEntity
  8
0
100
AcDbSpline
 62
7
  6
CONTINUOUS
 70
0
 71
3
 72
11
 73
7
 74
0
 42
0.0000001
 43
0.0000001
 44
0.0000000001
 40
0.0
 40
0.0
 40
0.0
 40
0.0
 40
0.2882518881
 40
0.5474989888
 40
0.7811739592
 40
1.0
 40
1.0
 40
1.0
 40
1.0
 10
17.1359320543
 20
114.189583689
 30
0.0
 10
17.1365954617
 20
114.2410238728
 30
0.0
 10
17.1458272921
 20
114.3389546347
 30
0.0
 10
17.1875658729
 20
114.4732759662
 30
0.0
 10
17.2563488376
 20
114.5821320489
 30
0.0
 10
17.3202023257
 20
114.6344101644
 30
0.0
 10
17.3542095944
 20
114.6536122532
 30
0.0
  0
SPLINE
  5
345
100
AcDbEntity
  8
0
100
AcDbSpline
 62
7
  6
CONTINUOUS
 70
0
 71
3
 72
11
 73
7
 74
0
 42
0.0000001
 43
0.0000001
 44
0.0000000001
 40
0.0
 40
0.0
 40
0.0
 40
0.0
 40
0.2884121806
 40
0.5474711894
 40
0.7811378328
 40
1.0
 40
1.0
 40
1.0
 40
1.0
 10
30.0040310066
 20
119.4110455859
 30
0.0
 10
30.0053585843
 20
119.5139851062
 30
0.0
 10
30.0237218102
 20
119.7098545049
 30
0.0
 10
30.1073413573
 20
119.9784627391
 30
0.0
 10
30.2449063877
 20
120.1960664648
 30
0.0
 10
30.3725046356
 20
120.3007877508
 30
0.0
 10
30.44053613
 20
120.3391911207
 30
0.0
  0
SPLINE
  5
346
100
AcDbEntity
  8
0
100
AcDbSpline
 62
7
  6
CONTINUOUS
 70
0
 71
3
 72
11
 73
7
 74
0
 42
0.0000001
 43
0.0000001
 44
0.0000000001
 40
0.0
 40
0.0
 40
0.0
 40
0.0
 40
0.2194543811
 40
0.4533724931
 40
0.7122123886
 40
1.0
 40
1.0
 40
1.0
 40
1.0
 10
30.44053613
 20
120.3391911207
 30
0.0
 10
30.5076004145
 20
120.3770485064
 30
0.0
 10
30.660605682
 20
120.4317494283
 30
0.0
 10
30.9137632759
 20
120.4386895096
 30
0.0
 10
31.1826631643
 20
120.3750143061
 30
0.0
 10
31.3573798248
 20
120.2927812925
 30
0.0
 10
31.4450074249
 20
120.2425750136
 30
0.0
  0
SPLINE
  5
347
100
AcDbEntity
  8
0
100
AcDbSpline
 62
7
  6
CONTINUOUS
 70
0
 71
3
 72
12
 73
8
 74
0
 42
0.0000001
 43
0.0000001
 44
0.0000000001
 40
0.0
 40
0.0
 40
0.0
 40
0.0
 40
0.2486394816
 40
0.5117153223
 40
0.7684102934
 40
0.8884178426
 40
1.0
 40
1.0
 40
1.0
 40
1.0
 10
30.0091932738
 20
117.5656722071
 30
0.0
 10
29.6464366524
 20
117.7082635502
 30
0.0
 10
28.8610638568
 20
117.9067537119
 30
0.0
 10
27.6517889631
 20
117.9673125767
 30
0.0
 10
26.6507247591
 20
117.8252133896
 30
0.0
 10
25.9203748863
 20
117.5912895735
 30
0.0
 10
25.5900558218
 20
117.4372772163
 30
0.0
 10
25.4377350619
 20
117.3512812999
 30
0.0
  0
SPLINE
  5
348
100
AcDbEntity
  8
0
100
AcDbSpline
 62
7
  6
CONTINUOUS
 70
0
 71
3
 72
17
 73
13
 74
0
 42
0.0000001
 43
0.0000001
 44
0.0000000001
 40
0.0
 40
0.0
 40
0.0
 40
0.0
 40
0.0427110188
 40
0.087184079
 40
0.134844799
 40
0.1866243294
 40
0.3035015191
 40
0.4368459959
 40
0.581045811
 40
0.7283545603
 40
0.8704531132
 40
1.0
 40
1.0
 40
1.0
 40
1.0
 10
78.6560765483
 20
59.9251682891
 30
0.0
 10
78.7440088199
 20
59.874804979
 30
0.0
 10
78.9376493411
 20
59.794913076
 30
0.0
 10
79.2570523064
 20
59.7488883146
 30
0.0
 10
79.5998965321
 20
59.7745529689
 30
0.0
 10
80.0980260737
 20
59.9076663951
 30
0.0
 10
80.7351514644
 20
60.256262788
 30
0.0
 10
81.4400936567
 20
60.879916084
 30
0.0
 10
82.0651535903
 20
61.6771960363
 30
0.0
 10
82.5599284354
 20
62.584592475
 30
0.0
 10
82.8852008684
 20
63.5286768372
 30
0.0
 10
82.9770536128
 20
64.1727813195
 30
0.0
 10
82.981017153
 20
64.4801116635
 30
0.0
  0
SPLINE
  5
349
100
AcDbEntity
  8
0
100
AcDbSpline
 62
7
  6
CONTINUOUS
 70
0
 71
3
 72
11
 73
7
 74
0
 42
0.0000001
 43
0.0000001
 44
0.0000000001
 40
0.0
 40
0.0
 40
0.0
 40
0.0
 40
0.2370170666
 40
0.4993151902
 40
0.7619865928
 40
1.0
 40
1.0
 40
1.0
 40
1.0
 10
60.5501204189
 20
103.5667854227
 30
0.0
 10
60.7513497738
 20
103.4514909593
 30
0.0
 10
61.1317071408
 20
103.1318232635
 30
0.0
 10
61.5727524099
 20
102.5235363442
 30
0.0
 10
61.8705071989
 20
101.8326333939
 30
0.0
 10
61.9516705173
 20
101.3412234673
 30
0.0
 10
61.9486672194
 20
101.1083496934
 30
0.0
  0
SPLINE
  5
34A
100
AcDbEntity
  8
0
100
AcDbSpline
 62
7
  6
CONTINUOUS
 70
0
 71
3
 72
11
 73
7
 74
0
 42
0.0000001
 43
0.0000001
 44
0.0000000001
 40
0.0
 40
0.0
 40
0.0
 40
0.0
 40
0.2194146989
 40
0.4533460916
 40
0.7123752801
 40
1.0
 40
1.0
 40
1.0
 40
1.0
 10
17.3542095944
 20
114.6536122532
 30
0.0
 10
17.3877328264
 20
114.6725410322
 30
0.0
 10
17.4642000467
 20
114.6999671864
 30
0.0
 10
17.5908222998
 20
114.7034178901
 30
0.0
 10
17.7252522097
 20
114.6715072866
 30
0.0
 10
17.8126321202
 20
114.6304368422
 30
0.0
 10
17.8564202634
 20
114.6053484028
 30
0.0
  0
SPLINE
  5
34B
100
AcDbEntity
  8
0
100
AcDbSpline
 62
7
  6
CONTINUOUS
 70
0
 71
3
 72
9
 73
5
 74
0
 42
0.0000001
 43
0.0000001
 44
0.0000000001
 40
0.0
 40
0.0
 40
0.0
 40
0.0
 40
0.5118159598
 40
1.0
 40
1.0
 40
1.0
 40
1.0
 10
40.7297836281
 20
120.4595796471
 30
0.0
 10
40.4810300682
 20
120.4628509909
 30
0.0
 10
39.9916393468
 20
120.4140482811
 30
0.0
 10
39.5318923219
 20
120.2352133137
 30
0.0
 10
39.3252671633
 20
120.1185434593
 30
0.0
  0
SPLINE
  5
34C
100
AcDbEntity
  8
0
100
AcDbSpline
 62
7
  6
CONTINUOUS
 70
0
 71
3
 72
17
 73
13
 74
0
 42
0.0000001
 43
0.0000001
 44
0.0000000001
 40
0.0
 40
0.0
 40
0.0
 40
0.0
 40
0.0423735604
 40
0.0865921612
 40
0.1341388326
 40
0.1859632452
 40
0.3033414794
 40
0.4374946304
 40
0.582442207
 40
0.7300658152
 40
0.8717478885
 40
1.0
 40
1.0
 40
1.0
 40
1.0
 10
79.7229083004
 20
88.2645798597
 30
0.0
 10
79.7241993476
 20
88.3660266317
 30
0.0
 10
79.6991842833
 20
88.5746131959
 30
0.0
 10
79.5811806217
 20
88.8764192508
 30
0.0
 10
79.3874735146
 20
89.1633898758
 30
0.0
 10
79.0201855602
 20
89.5334622498
 30
0.0
 10
78.3923474199
 20
89.9178556475
 30
0.0
 10
77.4882949831
 20
90.2246799255
 30
0.0
 10
76.4724790422
 20
90.3747613998
 30
0.0
 10
75.4280825847
 20
90.3552650615
 30
0.0
 10
74.4411870031
 20
90.1685586944
 30
0.0
 10
73.8350547712
 20
89.9261864797
 30
0.0
 10
73.5676536226
 20
89.7752194887
 30
0.0
  0
SPLINE
  5
34D
100
AcDbEntity
  8
0
100
AcDbSpline
 62
7
  6
CONTINUOUS
 70
0
 71
3
 72
11
 73
7
 74
0
 42
0.0000001
 43
0.0000001
 44
0.0000000001
 40
0.0
 40
0.0
 40
0.0
 40
0.0
 40
0.2903894668
 40
0.5498428277
 40
0.7827095984
 40
1.0
 40
1.0
 40
1.0
 40
1.0
 10
73.5676536226
 20
89.7752194887
 30
0.0
 10
73.4127139755
 20
89.687745024
 30
0.0
 10
73.1314294463
 20
89.4983989764
 30
0.0
 10
72.7937582002
 20
89.1519168393
 30
0.0
 10
72.5781303299
 20
88.7675567909
 30
0.0
 10
72.5252349622
 20
88.4905549686
 30
0.0
 10
72.5235407389
 20
88.3574277749
 30
0.0
  0
SPLINE
  5
34E
100
AcDbEntity
  8
0
100
AcDbSpline
 62
7
  6
CONTINUOUS
 70
0
 71
3
 72
11
 73
7
 74
0
 42
0.0000001
 43
0.0000001
 44
0.0000000001
 40
0.0
 40
0.0
 40
0.0
 40
0.0
 40
0.2370296994
 40
0.4993155493
 40
0.7619742486
 40
1.0
 40
1.0
 40
1.0
 40
1.0
 10
73.7950276762
 20
82.5552942623
 30
0.0
 10
73.8956473625
 20
82.4976441608
 30
0.0
 10
74.0858406358
 20
82.337821571
 30
0.0
 10
74.3062938741
 20
82.0336410081
 30
0.0
 10
74.4552384381
 20
81.6882303464
 30
0.0
 10
74.495802798
 20
81.4425189139
 30
0.0
 10
74.4943010765
 20
81.3260763977
 30
0.0
  0
SPLINE
  5
34F
100
AcDbEntity
  8
0
100
AcDbSpline
 62
7
  6
CONTINUOUS
 70
0
 71
3
 72
9
 73
5
 74
0
 42
0.0000001
 43
0.0000001
 44
0.0000000001
 40
0.0
 40
0.0
 40
0.0
 40
0.0
 40
0.4953878122
 40
1.0
 40
1.0
 40
1.0
 40
1.0
 10
36.8750384233
 20
119.1945656811
 30
0.0
 10
36.7422873522
 20
119.1196142127
 30
0.0
 10
36.4869754328
 20
118.9447651356
 30
0.0
 10
36.2648666355
 20
118.7295384242
 30
0.0
 10
36.1621608912
 20
118.6130667095
 30
0.0
  0
SPLINE
  5
350
100
AcDbEntity
  8
0
100
AcDbSpline
 62
7
  6
CONTINUOUS
 70
0
 71
3
 72
11
 73
7
 74
0
 42
0.0000001
 43
0.0000001
 44
0.0000000001
 40
0.0
 40
0.0
 40
0.0
 40
0.0
 40
0.2903894668
 40
0.5498428277
 40
0.7827095984
 40
1.0
 40
1.0
 40
1.0
 40
1.0
 10
25.4377350619
 20
117.3512812999
 30
0.0
 10
25.2827954147
 20
117.2638068352
 30
0.0
 10
25.0015108856
 20
117.0744607877
 30
0.0
 10
24.6638396395
 20
116.7279786506
 30
0.0
 10
24.4482117691
 20
116.3436186022
 30
0.0
 10
24.3953164015
 20
116.0666167799
 30
0.0
 10
24.3936221782
 20
115.9334895861
 30
0.0
  0
SPLINE
  5
351
100
AcDbEntity
  8
0
100
AcDbSpline
 62
7
  6
CONTINUOUS
 70
0
 71
3
 72
18
 73
14
 74
0
 42
0.0000001
 43
0.0000001
 44
0.0000000001
 40
0.0
 40
0.0
 40
0.0
 40
0.0
 40
0.0445100973
 40
0.0900148841
 40
0.1374212913
 40
0.1874290968
 40
0.2405234575
 40
0.2969753425
 40
0.4199328583
 40
0.5552580676
 40
0.6999077703
 40
0.8497141461
 40
1.0
 40
1.0
 40
1.0
 40
1.0
 10
36.3322413422
 20
118.4287615002
 30
0.0
 10
36.470507224
 20
118.5068359937
 30
0.0
 10
36.7659013141
 20
118.6383879378
 30
0.0
 10
37.2453027415
 20
118.7523366573
 30
0.0
 10
37.7565874159
 20
118.7831323421
 30
0.0
 10
38.292937697
 20
118.7310682243
 30
0.0
 10
38.8479375195
 20
118.5974905302
 30
0.0
 10
39.6259519056
 20
118.3050063741
 30
0.0
 10
40.6037837181
 20
117.7369338355
 30
0.0
 10
41.7079784386
 20
116.8079944085
 30
0.0
 10
42.7270561116
 20
115.6556064428
 30
0.0
 10
43.6130864914
 20
114.3344147044
 30
0.0
 10
44.0920358806
 20
113.3729412715
 30
0.0
 10
44.2985024473
 20
112.8781583715
 30
0.0
  0
ENDSEC
  0
SECTION
  2
OBJECTS
  0
DICTIONARY
  5
C
100
AcDbDictionary
280
0
281
1
  3
ACAD_GROUP
350
D
  3
ACAD_MLINESTYLE
350
17
  3
ACAD_LAYOUT
350
1A
  3
ACAD_PLOTSETTINGS
350
19
  3
ACAD_PLOTSTYLENAME
350
E
  0
DICTIONARY
  5
D
102
{ACAD_REACTORS
330
C
102
}
100
AcDbDictionary
280
0
281
1
  0
ACDBDICTIONARYWDFLT
  5
E
102
{ACAD_REACTORS
330
C
102
}
100
AcDbDictionary
281
1
  3
Normal
350
F
100
AcDbDictionaryWithDefault
340
F
  0
DICTIONARY
  5
17
102
{ACAD_REACTORS
330
C
102
}
100
AcDbDictionary
280
0
281
1
  3
Standard
350
18
  0
DICTIONARY
  5
19
102
{ACAD_REACTORS
330
C
102
}
100
AcDbDictionary
281
1
  0
DICTIONARY
  5
1A
102
{ACAD_REACTORS
330
C
102
}
100
AcDbDictionary
281
1
  3
Model
350
352
  3
Layout1
350
353
  0
ACDBPLACEHOLDER
  5
F
102
{ACAD_REACTORS
330
E
102
}
  0
MLINESTYLE
  5
18
102
{ACAD_REACTORS
330
17
102
}
100
AcDbMlineStyle
  2
STANDARD
 70
0
  3

 62
256
 51
90.0
 52
90.0
 71
2
 49
0.5
 62
256
  6
BYLAYER
 49
-0.5
 62
256
  6
BYLAYER
  0
LAYOUT
  5
352
102
{ACAD_REACTORS
330
1A
102
}
100
AcDbPlotSettings
  1

  2
none_device
  4

  6

 40
0.0
 41
0.0
 42
0.0
 43
0.0
 44
210.0
 45
297.0
 46
0.0
 47
0.0
 48
0.0
 49
0.0
140
0.0
141
0.0
142
1.0
143
1.0
 70
1024
 72
1
 73
0
 74
0
  7

 75
0
147
1.0
148
0.0
149
0.0
100
AcDbLayout
  1
Model
 70
0
 71
0
 10
0.0
 20
0.0
 11
210.0
 21
297.0
 12
0.0
 22
0.0
 32
0.0
 14
0.0
 24
0.0
 34
0.0
 15
0.0
 25
0.0
 35
0.0
146
0.0
 13
0.0
 23
0.0
 33
0.0
 16
1.0
 26
0.0
 36
0.0
 17
0.0
 27
1.0
 37
0.0
 76
0
330
210
345
0
346
0
  0
LAYOUT
  5
353
102
{ACAD_REACTORS
330
1A
102
}
100
AcDbPlotSettings
  1

  2
none_device
  4

  6

 40
0.0
 41
0.0
 42
0.0
 43
0.0
 44
210.0
 45
297.0
 46
0.0
 47
0.0
 48
0.0
 49
0.0
140
0.0
141
0.0
142
1.0
143
1.0
 70
0
 72
1
 73
0
 74
0
  7

 75
0
147
1.0
148
0.0
149
0.0
100
AcDbLayout
  1
Layout1
 70
0
 71
1
 10
0.0
 20
0.0
 11
210.0
 21
297.0
 12
0.0
 22
0.0
 32
0.0
 14
0.0
 24
0.0
 34
0.0
 15
0.0
 25
0.0
 35
0.0
146
0.0
 13
0.0
 23
0.0
 33
0.0
 16
1.0
 26
0.0
 36
0.0
 17
0.0
 27
1.0
 37
0.0
 76
0
330
211
345
0
346
0
  0
ENDSEC
  0
EOF
