999
DXF file: C:\Users\sesa63760\Dev\_Creo\CAD\MCADID0005864_3D-CAD\mcadid0005864_3d-simplified_3.dxf
999
Pro/ENGINEER 2019471 by Parametric Technology Corporation
  0
SECTION
  2
HEADER
  9
$ACADVER
  1
AC1024
  9
$DWGCODEPAGE
  3
ANSI_1252
  9
$EXTMAX
 10
63.7118869858
 20
90.1068115942
 30
0.0
  9
$EXTMIN
 10
0.0
 20
0.0
 30
0.0
  9
$LIMMIN
 10
0.0
 20
0.0
  9
$LIMMAX
 10
63.7118869858
 20
90.1068115942
  9
$VIEWCTR
 10
31.8559434929
 20
45.0534057971
  9
$VIEWSIZE
 40
90.1068115942
  9
$CLAYER
  8
0
  9
$LTSCALE
 40
5.8736292002
  9
$CELTYPE
  6
BYLAYER
  9
$DIMSCALE
 40
1.0
  9
$DIMASZ
 40
0.7584748451
  9
$DIMEXO
 40
1.0
  9
$DIMDLI
 40
4.0581438111
  9
$DIMEXE
 40
1.0
  9
$DIMCEN
 40
0.9611393237
  9
$DIMLFAC
 40
1.0
  9
$DIMBLK
  1
_FILLED
  9
$DIMALT
 70
0
  9
$DIMALTF
 40
0.0393700787
  9
$DIMTXT
 40
1.0618647831
  9
$DIMTOL
 70
1
  9
$DIMLIM
 70
0
  9
$DIMTFAC
 40
1.0
  9
$DIMTP
 40
0.01
  9
$DIMTM
 40
0.01
  9
$DIMGAP
 40
0.625
  9
$DIMDSEP
 70
46
  9
$AUNITS
 70
0
  9
$PDMODE
 70
3
  9
$PDSIZE
 40
0.3125
  9
$HANDSEED
  5
397
  9
$TILEMODE
 70
1
  9
$MEASUREMENT
 70
1
  9
$INSUNITS
 70
4
  0
ENDSEC
  0
SECTION
  2
CLASSES
  0
CLASS
  1
ACDBDICTIONARYWDFLT
  2
AcDbDictionaryWithDefault
  3
AutoCAD 2000
 90
0
 91
1
280
0
281
0
  0
CLASS
  1
ACDBPLACEHOLDER
  2
AcDbPlaceHolder
  3
AutoCAD 2000
 90
0
 91
1
280
0
281
0
  0
CLASS
  1
LAYOUT
  2
AcDbLayout
  3
AutoCAD 2000
 90
0
 91
0
280
0
281
0
  0
ENDSEC
  0
SECTION
  2
TABLES
  0
TABLE
  2
VPORT
  5
8
100
AcDbSymbolTable
 70
2
  0
VPORT
  5
1F4
100
AcDbSymbolTableRecord
100
AcDbViewportTableRecord
  2
*ACTIVE
 70
0
 10
0.0
 20
0.0
 11
1.0
 21
1.0
 12
31.8559434929
 22
45.0534057971
 13
0.0
 23
0.0
 14
1.0
 24
1.0
 15
0.0
 25
0.0
 16
0.0
 26
0.0
 36
1.0
 17
0.0
 27
0.0
 37
0.0
 40
90.1068115942
 41
0.7070707071
 42
50.0
 43
0.0
 44
0.0
 50
0.0
 51
0.0
 71
0
 72
100
 73
1
 74
1
 75
0
 76
0
 77
0
 78
0
  0
ENDTAB
  0
TABLE
  2
LTYPE
  5
5
100
AcDbSymbolTable
 70
6
  0
LTYPE
  5
14
100
AcDbSymbolTableRecord
100
AcDbLinetypeTableRecord
  2
BYBLOCK
 70
0
  3

 72
65
 73
0
 40
0.0
  0
LTYPE
  5
15
100
AcDbSymbolTableRecord
100
AcDbLinetypeTableRecord
  2
BYLAYER
 70
0
  3

 72
65
 73
0
 40
0.0
  0
LTYPE
  5
16
100
AcDbSymbolTableRecord
100
AcDbLinetypeTableRecord
  2
CONTINUOUS
 70
64
  3
Solid line
 72
65
 73
0
 40
0.0
  0
LTYPE
  5
1F5
100
AcDbSymbolTableRecord
100
AcDbLinetypeTableRecord
  2
CENTER
 70
64
  3
____ _ ____ _ ____ _ ____ _ ____ _ ____ _ ____
 72
65
 73
4
 40
0.6
 49
0.375
 74
0
 49
-0.075
 74
0
 49
0.075
 74
0
 49
-0.075
 74
0
  0
LTYPE
  5
1F6
100
AcDbSymbolTableRecord
100
AcDbLinetypeTableRecord
  2
HIDDEN
 70
64
  3
- - - - - - - - - - - - - - - - - - - -
 72
65
 73
2
 40
0.2
 49
0.1
 74
0
 49
-0.1
 74
0
  0
LTYPE
  5
1F7
100
AcDbSymbolTableRecord
100
AcDbLinetypeTableRecord
  2
PHANTOM
 70
64
  3
_____ _ _ _____ _ _ _____ _ _ _____
 72
65
 73
6
 40
0.8
 49
0.45
 74
0
 49
-0.05
 74
0
 49
0.1
 74
0
 49
-0.05
 74
0
 49
0.1
 74
0
 49
-0.05
 74
0
  0
LTYPE
  5
1F8
100
AcDbSymbolTableRecord
100
AcDbLinetypeTableRecord
  2
DOT
 70
64
  3
. . . . . . . . . . . . . . . . . . . .
 72
65
 73
2
 40
0.2
 49
0.1
 74
0
 49
-0.1
 74
0
  0
LTYPE
  5
1F9
100
AcDbSymbolTableRecord
100
AcDbLinetypeTableRecord
  2
DASHED
 70
64
  3
- - - - - - - - - - - - - - - - - - - -
 72
65
 73
2
 40
0.2
 49
0.1
 74
0
 49
-0.1
 74
0
  0
ENDTAB
  0
TABLE
  2
LAYER
  5
2
100
AcDbSymbolTable
 70
36
  0
LAYER
  5
10
100
AcDbSymbolTableRecord
100
AcDbLayerTableRecord
  2
0
 70
0
 62
7
  6
CONTINUOUS
370
-3
390
F
  0
LAYER
  5
1FA
100
AcDbSymbolTableRecord
100
AcDbLayerTableRecord
  2
DEFAULT_1
 70
0
 62
7
  6
CENTER
370
-3
390
F
  0
LAYER
  5
1FB
100
AcDbSymbolTableRecord
100
AcDbLayerTableRecord
  2
DEFAULT_2
 70
0
 62
7
  6
HIDDEN
370
-3
390
F
  0
LAYER
  5
1FC
100
AcDbSymbolTableRecord
100
AcDbLayerTableRecord
  2
DEFAULT_3
 70
0
 62
7
  6
PHANTOM
370
-3
390
F
  0
LAYER
  5
1FD
100
AcDbSymbolTableRecord
100
AcDbLayerTableRecord
  2
00_COMPONENTS
 70
0
 62
7
  6
CONTINUOUS
370
-3
390
F
  0
LAYER
  5
1FE
100
AcDbSymbolTableRecord
100
AcDbLayerTableRecord
  2
01_1_DEFAULT_DATUMS
 70
0
 62
7
  6
CONTINUOUS
370
-3
390
F
  0
LAYER
  5
1FF
100
AcDbSymbolTableRecord
100
AcDbLayerTableRecord
  2
01_PLANES
 70
0
 62
7
  6
CONTINUOUS
370
-3
390
F
  0
LAYER
  5
200
100
AcDbSymbolTableRecord
100
AcDbLayerTableRecord
  2
02_COORD_SYS
 70
0
 62
7
  6
CONTINUOUS
370
-3
390
F
  0
LAYER
  5
201
100
AcDbSymbolTableRecord
100
AcDbLayerTableRecord
  2
03_AXES
 70
0
 62
7
  6
CONTINUOUS
370
-3
390
F
  0
LAYER
  5
202
100
AcDbSymbolTableRecord
100
AcDbLayerTableRecord
  2
04_POINTS
 70
0
 62
7
  6
CONTINUOUS
370
-3
390
F
  0
LAYER
  5
203
100
AcDbSymbolTableRecord
100
AcDbLayerTableRecord
  2
05_CURVES
 70
0
 62
7
  6
CONTINUOUS
370
-3
390
F
  0
LAYER
  5
204
100
AcDbSymbolTableRecord
100
AcDbLayerTableRecord
  2
06_SURFS
 70
0
 62
7
  6
CONTINUOUS
370
-3
390
F
  0
LAYER
  5
205
100
AcDbSymbolTableRecord
100
AcDbLayerTableRecord
  2
07_COSMETICS
 70
0
 62
7
  6
CONTINUOUS
370
-3
390
F
  0
LAYER
  5
206
100
AcDbSymbolTableRecord
100
AcDbLayerTableRecord
  2
10_NOTES
 70
0
 62
7
  6
CONTINUOUS
370
-3
390
F
  0
LAYER
  5
207
100
AcDbSymbolTableRecord
100
AcDbLayerTableRecord
  2
11_NOTES_PUB
 70
0
 62
7
  6
CONTINUOUS
370
-3
390
F
  0
LAYER
  5
208
100
AcDbSymbolTableRecord
100
AcDbLayerTableRecord
  2
13_REF_GTOL
 70
0
 62
7
  6
CONTINUOUS
370
-3
390
F
  0
LAYER
  5
209
100
AcDbSymbolTableRecord
100
AcDbLayerTableRecord
  2
16_MISC
 70
0
 62
7
  6
CONTINUOUS
370
-3
390
F
  0
LAYER
  5
20A
100
AcDbSymbolTableRecord
100
AcDbLayerTableRecord
  2
17_NO_PRINT
 70
0
 62
7
  6
CONTINUOUS
370
-3
390
F
  0
LAYER
  5
20B
100
AcDbSymbolTableRecord
100
AcDbLayerTableRecord
  2
18_DATUM_CAMS_JOINTS
 70
0
 62
7
  6
CONTINUOUS
370
-3
390
F
  0
LAYER
  5
20C
100
AcDbSymbolTableRecord
100
AcDbLayerTableRecord
  2
19_DATUM_FUNCTIONAL
 70
0
 62
7
  6
CONTINUOUS
370
-3
390
F
  0
LAYER
  5
20D
100
AcDbSymbolTableRecord
100
AcDbLayerTableRecord
  2
20_DATUM_KINEMATIC_SCHEME
 70
0
 62
7
  6
CONTINUOUS
370
-3
390
F
  0
ENDTAB
  0
TABLE
  2
STYLE
  5
3
100
AcDbSymbolTable
 70
1
  0
STYLE
  5
11
100
AcDbSymbolTableRecord
100
AcDbTextStyleTableRecord
  2
STANDARD
 70
0
 40
0.0
 41
1.0
 50
0.0
 71
0
 42
0.2
  3
ARIAL.TTF
  4

  0
STYLE
  5
20E
100
AcDbSymbolTableRecord
100
AcDbTextStyleTableRecord
  2
TEXTSTYLE_1
 70
0
 40
0.0
 41
0.8
 50
0.0
 71
0
 42
0.2
  3
gdt
  4

  0
ENDTAB
  0
TABLE
  2
VIEW
  5
6
100
AcDbSymbolTable
 70
0
  0
ENDTAB
  0
TABLE
  2
UCS
  5
7
100
AcDbSymbolTable
 70
0
  0
ENDTAB
  0
TABLE
  2
APPID
  5
9
100
AcDbSymbolTable
 70
1
  0
APPID
  5
20F
100
AcDbSymbolTableRecord
100
AcDbRegAppTableRecord
  2
ACAD
 70
0
  0
ENDTAB
  0
TABLE
  2
BLOCK_RECORD
  5
1
100
AcDbSymbolTable
 70
0
  0
BLOCK_RECORD
  5
210
100
AcDbSymbolTableRecord
100
AcDbBlockTableRecord
  2
*Model_Space
  0
BLOCK_RECORD
  5
211
100
AcDbSymbolTableRecord
100
AcDbBlockTableRecord
  2
*Paper_Space
  0
BLOCK_RECORD
  5
212
100
AcDbSymbolTableRecord
100
AcDbBlockTableRecord
  2
_FILLED
  0
ENDTAB
  0
TABLE
  2
DIMSTYLE
  5
A
100
AcDbSymbolTable
 70
1
100
AcDbDimStyleTable
 71
0
  0
DIMSTYLE
105
213
100
AcDbSymbolTableRecord
100
AcDbDimStyleTableRecord
  2
STANDARD
 70
0
  3

  4

 40
1.0
 41
0.7584748451
 42
1.0
 43
0.38
 44
1.0
 45
0.0
 46
0.0
 47
0.01
 48
0.01
140
1.0618647831
141
0.09
142
0.0
143
25.4
144
1.0
145
0.0
146
1.0
147
0.625
 71
1
 72
0
 73
0
 74
0
 75
0
 76
0
 77
1
 78
8
 79
2
170
0
171
1
172
0
173
0
174
0
175
0
176
0
177
0
178
0
270
2
179
2
271
2
272
2
273
2
274
2
275
0
280
0
281
0
282
0
283
1
284
8
285
0
286
0
287
3
288
0
340
11
278
46
341
212
342
212
343
212
344
212
  0
ENDTAB
  0
ENDSEC
  0
SECTION
  2
BLOCKS
  0
BLOCK
  5
20
100
AcDbEntity
  8
0
100
AcDbBlockBegin
  2
*Model_Space
 70
0
 10
0.0
 20
0.0
 30
0.0
  3
*Model_Space
  1

  0
ENDBLK
  5
21
100
AcDbEntity
  8
0
100
AcDbBlockEnd
  0
BLOCK
  5
1C
100
AcDbEntity
  8
0
100
AcDbBlockBegin
  2
*Paper_Space
 70
0
 10
0.0
 20
0.0
 30
0.0
  3
*Paper_Space
  1

  0
ENDBLK
  5
1D
100
AcDbEntity
  8
0
100
AcDbBlockEnd
  0
BLOCK
  5
214
100
AcDbEntity
  8
0
100
AcDbBlockBegin
  2
_FILLED
 70
64
 10
0.0
 20
0.0
  3
_FILLED
  1

  0
SOLID
  5
215
100
AcDbEntity
  8
0
  6
BYBLOCK
 62
0
100
AcDbTrace
 10
0.0
 20
0.0
 11
-1.0
 21
0.25
 12
-1.0
 22
-0.25
 13
-1.0
 23
-0.25
  0
ENDBLK
  5
216
100
AcDbEntity
  8
0
  6
BYBLOCK
 62
0
100
AcDbBlockEnd
  0
ENDSEC
  0
SECTION
  2
ENTITIES
  0
LINE
  5
217
100
AcDbEntity
  8
0
100
AcDbLine
 62
7
  6
BYLAYER
 10
46.7882395571
 20
7.2239855072
 11
18.6882640344
 21
7.2239855072
  0
LINE
  5
218
100
AcDbEntity
  8
0
100
AcDbLine
 62
7
  6
BYLAYER
 10
46.9882640344
 20
7.4239855072
 11
33.9309500786
 21
7.4239855072
  0
LINE
  5
219
100
AcDbEntity
  8
0
100
AcDbLine
 62
7
  6
BYLAYER
 10
31.5455779902
 20
7.4239855072
 11
18.4882640344
 21
7.4239855072
  0
LINE
  5
21A
100
AcDbEntity
  8
0
100
AcDbLine
 62
7
  6
BYLAYER
 10
33.9309500786
 20
13.7239855072
 11
31.5455779902
 21
13.7239855072
  0
LINE
  5
21B
100
AcDbEntity
  8
0
100
AcDbLine
 62
7
  6
BYLAYER
 10
18.2382640344
 20
20.2239855073
 11
17.7382640344
 21
20.7239855073
  0
LINE
  5
21C
100
AcDbEntity
  8
0
100
AcDbLine
 62
7
  6
BYLAYER
 10
47.2381351844
 20
20.2239855072
 11
18.2382640344
 21
20.2239855072
  0
LINE
  5
21D
100
AcDbEntity
  8
0
100
AcDbLine
 62
7
  6
BYLAYER
 10
47.7382640344
 20
20.7239855072
 11
17.7382640344
 21
20.7239855072
  0
LINE
  5
21E
100
AcDbEntity
  8
0
100
AcDbLine
 62
7
  6
BYLAYER
 10
18.4882640344
 20
61.3239855072
 11
17.7382640344
 21
60.5739855072
  0
LINE
  5
21F
100
AcDbEntity
  8
0
100
AcDbLine
 62
7
  6
BYLAYER
 10
50.7382640344
 20
24.2239855072
 11
14.7382640344
 21
24.2239855072
  0
LINE
  5
220
100
AcDbEntity
  8
0
100
AcDbLine
 62
7
  6
BYLAYER
 10
14.7382640344
 20
28.2239855072
 11
14.7382640344
 21
24.2239855072
  0
LINE
  5
221
100
AcDbEntity
  8
0
100
AcDbLine
 62
7
  6
BYLAYER
 10
14.7382640344
 20
34.2239855072
 11
14.7382640344
 21
38.2239855072
  0
LINE
  5
222
100
AcDbEntity
  8
0
100
AcDbLine
 62
7
  6
BYLAYER
 10
15.344481817
 20
27.5692249354
 11
15.344481817
 21
24.8787460219
  0
LINE
  5
223
100
AcDbEntity
  8
0
100
AcDbLine
 62
7
  6
BYLAYER
 10
15.344481817
 20
34.8787460295
 11
15.344481817
 21
37.569224985
  0
LINE
  5
224
100
AcDbEntity
  8
0
100
AcDbLine
 62
7
  6
BYLAYER
 10
14.7382640344
 20
28.2239855072
 11
50.7382640344
 21
28.2239855072
  0
LINE
  5
225
100
AcDbEntity
  8
0
100
AcDbLine
 62
7
  6
BYLAYER
 10
16.4868538729
 20
34.0239855072
 11
16.4332640344
 21
34.2239855072
  0
LINE
  5
226
100
AcDbEntity
  8
0
100
AcDbLine
 62
7
  6
BYLAYER
 10
17.7382640344
 20
20.7239855073
 11
17.7382640344
 21
24.2239855072
  0
LINE
  5
227
100
AcDbEntity
  8
0
100
AcDbLine
 62
7
  6
BYLAYER
 10
17.7382640344
 20
28.87082265
 11
17.7382640344
 21
33.577150006
  0
LINE
  5
228
100
AcDbEntity
  8
0
100
AcDbLine
 62
7
  6
BYLAYER
 10
17.7382640344
 20
38.2239855072
 11
17.7382640344
 21
60.5739855072
  0
LINE
  5
229
100
AcDbEntity
  8
0
100
AcDbLine
 62
7
  6
BYLAYER
 10
18.4882640344
 20
7.4239855072
 11
18.4882640344
 21
20.2239855072
  0
LINE
  5
22A
100
AcDbEntity
  8
0
100
AcDbLine
 62
7
  6
BYLAYER
 10
18.4882640344
 20
61.3239855072
 11
18.4882640344
 21
65.0239855072
  0
LINE
  5
22B
100
AcDbEntity
  8
0
100
AcDbLine
 62
7
  6
BYLAYER
 10
18.4882640344
 20
65.1239855072
 11
18.4882640344
 21
67.9239855072
  0
LINE
  5
22C
100
AcDbEntity
  8
0
100
AcDbLine
 62
7
  6
BYLAYER
 10
18.5382640344
 20
65.0239855072
 11
18.5382640344
 21
65.1239855072
  0
LINE
  5
22D
100
AcDbEntity
  8
0
100
AcDbLine
 62
7
  6
BYLAYER
 10
16.6285859122
 20
28.9239855072
 11
16.9516936991
 21
28.9239855072
  0
LINE
  5
22E
100
AcDbEntity
  8
0
100
AcDbLine
 62
7
  6
BYLAYER
 10
16.9601522099
 20
28.9239855072
 11
17.2101228109
 21
28.9239855072
  0
LINE
  5
22F
100
AcDbEntity
  8
0
100
AcDbLine
 62
7
  6
BYLAYER
 10
17.3069194055
 20
28.9239855072
 11
17.5867304535
 21
28.9239855072
  0
LINE
  5
230
100
AcDbEntity
  8
0
100
AcDbLine
 62
7
  6
BYLAYER
 10
17.7711284514
 20
28.9239855072
 11
18.0786504155
 21
28.9239855072
  0
LINE
  5
231
100
AcDbEntity
  8
0
100
AcDbLine
 62
7
  6
BYLAYER
 10
18.3492464364
 20
28.9239855072
 11
18.6821388888
 21
28.9239855072
  0
LINE
  5
232
100
AcDbEntity
  8
0
100
AcDbLine
 62
7
  6
BYLAYER
 10
19.0368735338
 20
28.9239855072
 11
19.3926029618
 21
28.9239855072
  0
LINE
  5
233
100
AcDbEntity
  8
0
100
AcDbLine
 62
7
  6
BYLAYER
 10
19.8287764859
 20
28.9239855072
 11
20.2046355739
 21
28.9239855072
  0
LINE
  5
234
100
AcDbEntity
  8
0
100
AcDbLine
 62
7
  6
BYLAYER
 10
20.7189284333
 20
28.9239855072
 11
21.1120566666
 21
28.9239855072
  0
LINE
  5
235
100
AcDbEntity
  8
0
100
AcDbLine
 62
7
  6
BYLAYER
 10
21.700554782
 20
28.9239855072
 11
22.1079602174
 21
28.9239855072
  0
LINE
  5
236
100
AcDbEntity
  8
0
100
AcDbLine
 62
7
  6
BYLAYER
 10
22.7661847629
 20
28.9239855072
 11
23.184766799
 21
28.9239855072
  0
LINE
  5
237
100
AcDbEntity
  8
0
100
AcDbLine
 62
7
  6
BYLAYER
 10
23.9077082884
 20
28.9239855072
 11
24.3342812632
 21
28.9239855072
  0
LINE
  5
238
100
AcDbEntity
  8
0
100
AcDbLine
 62
7
  6
BYLAYER
 10
25.1164376752
 20
28.9239855072
 11
25.5477551107
 21
28.9239855072
  0
LINE
  5
239
100
AcDbEntity
  8
0
100
AcDbLine
 62
7
  6
BYLAYER
 10
26.3831737627
 20
28.9239855072
 11
26.8159530729
 21
28.9239855072
  0
LINE
  5
23A
100
AcDbEntity
  8
0
100
AcDbLine
 62
7
  6
BYLAYER
 10
27.6982759245
 20
28.9239855072
 11
28.1292233975
 21
28.9239855072
  0
LINE
  5
23B
100
AcDbEntity
  8
0
100
AcDbLine
 62
7
  6
BYLAYER
 10
29.051735439
 20
28.9239855072
 11
29.4775713043
 21
28.9239855072
  0
LINE
  5
23C
100
AcDbEntity
  8
0
100
AcDbLine
 62
7
  6
BYLAYER
 10
30.4332516622
 20
28.9239855072
 11
30.8507350517
 21
28.9239855072
  0
LINE
  5
23D
100
AcDbEntity
  8
0
100
AcDbLine
 62
7
  6
BYLAYER
 10
31.8323104213
 20
28.9239855072
 11
32.2382640344
 21
28.9239855072
  0
LINE
  5
23E
100
AcDbEntity
  8
0
100
AcDbLine
 62
7
  6
BYLAYER
 10
33.2382640344
 20
28.9239855072
 11
33.6442176475
 21
28.9239855072
  0
LINE
  5
23F
100
AcDbEntity
  8
0
100
AcDbLine
 62
7
  6
BYLAYER
 10
34.6257930171
 20
28.9239855072
 11
35.0432764066
 21
28.9239855072
  0
LINE
  5
240
100
AcDbEntity
  8
0
100
AcDbLine
 62
7
  6
BYLAYER
 10
35.9989567644
 20
28.9239855072
 11
36.4247926297
 21
28.9239855072
  0
LINE
  5
241
100
AcDbEntity
  8
0
100
AcDbLine
 62
7
  6
BYLAYER
 10
37.3473046713
 20
28.9239855072
 11
37.7782521443
 21
28.9239855072
  0
LINE
  5
242
100
AcDbEntity
  8
0
100
AcDbLine
 62
7
  6
BYLAYER
 10
38.6605749958
 20
28.9239855072
 11
39.0933543061
 21
28.9239855072
  0
LINE
  5
243
100
AcDbEntity
  8
0
100
AcDbLine
 62
7
  6
BYLAYER
 10
39.928772958
 20
28.9239855072
 11
40.3600903936
 21
28.9239855072
  0
LINE
  5
244
100
AcDbEntity
  8
0
100
AcDbLine
 62
7
  6
BYLAYER
 10
41.1422468055
 20
28.9239855072
 11
41.5688197803
 21
28.9239855072
  0
LINE
  5
245
100
AcDbEntity
  8
0
100
AcDbLine
 62
7
  6
BYLAYER
 10
42.2917612697
 20
28.9239855072
 11
42.7103433059
 21
28.9239855072
  0
LINE
  5
246
100
AcDbEntity
  8
0
100
AcDbLine
 62
7
  6
BYLAYER
 10
43.3685678514
 20
28.9239855072
 11
43.7759732867
 21
28.9239855072
  0
LINE
  5
247
100
AcDbEntity
  8
0
100
AcDbLine
 62
7
  6
BYLAYER
 10
44.3644714022
 20
28.9239855072
 11
44.7575996355
 21
28.9239855072
  0
LINE
  5
248
100
AcDbEntity
  8
0
100
AcDbLine
 62
7
  6
BYLAYER
 10
45.2718924949
 20
28.9239855072
 11
45.6477515829
 21
28.9239855072
  0
LINE
  5
249
100
AcDbEntity
  8
0
100
AcDbLine
 62
7
  6
BYLAYER
 10
46.083925107
 20
28.9239855072
 11
46.439654535
 21
28.9239855072
  0
LINE
  5
24A
100
AcDbEntity
  8
0
100
AcDbLine
 62
7
  6
BYLAYER
 10
46.79438918
 20
28.9239855072
 11
47.1272806978
 21
28.9239855072
  0
LINE
  5
24B
100
AcDbEntity
  8
0
100
AcDbLine
 62
7
  6
BYLAYER
 10
47.3978776533
 20
28.9239855072
 11
47.7053996174
 21
28.9239855072
  0
LINE
  5
24C
100
AcDbEntity
  8
0
100
AcDbLine
 62
7
  6
BYLAYER
 10
47.8897976152
 20
28.9239855072
 11
48.1696086633
 21
28.9239855072
  0
LINE
  5
24D
100
AcDbEntity
  8
0
100
AcDbLine
 62
7
  6
BYLAYER
 10
48.2664052579
 20
28.9239855072
 11
48.5163758589
 21
28.9239855072
  0
LINE
  5
24E
100
AcDbEntity
  8
0
100
AcDbLine
 62
7
  6
BYLAYER
 10
48.5248343697
 20
28.9239855072
 11
48.8479421566
 21
28.9239855072
  0
LINE
  5
24F
100
AcDbEntity
  8
0
100
AcDbLine
 62
7
  6
BYLAYER
 10
16.4868538729
 20
28.4239855072
 11
16.4332640344
 21
28.2239855072
  0
LINE
  5
250
100
AcDbEntity
  8
0
100
AcDbLine
 62
7
  6
BYLAYER
 10
48.8479421566
 20
33.5239855072
 11
48.5248343697
 21
33.5239855072
  0
LINE
  5
251
100
AcDbEntity
  8
0
100
AcDbLine
 62
7
  6
BYLAYER
 10
48.5163758589
 20
33.5239855072
 11
48.2664052579
 21
33.5239855072
  0
LINE
  5
252
100
AcDbEntity
  8
0
100
AcDbLine
 62
7
  6
BYLAYER
 10
48.1696086633
 20
33.5239855072
 11
47.8897976152
 21
33.5239855072
  0
LINE
  5
253
100
AcDbEntity
  8
0
100
AcDbLine
 62
7
  6
BYLAYER
 10
47.7053996174
 20
33.5239855072
 11
47.3978776533
 21
33.5239855072
  0
LINE
  5
254
100
AcDbEntity
  8
0
100
AcDbLine
 62
7
  6
BYLAYER
 10
47.1272806978
 20
33.5239855072
 11
46.79438918
 21
33.5239855072
  0
LINE
  5
255
100
AcDbEntity
  8
0
100
AcDbLine
 62
7
  6
BYLAYER
 10
46.439654535
 20
33.5239855072
 11
46.083925107
 21
33.5239855072
  0
LINE
  5
256
100
AcDbEntity
  8
0
100
AcDbLine
 62
7
  6
BYLAYER
 10
45.6477515829
 20
33.5239855072
 11
45.2718924949
 21
33.5239855072
  0
LINE
  5
257
100
AcDbEntity
  8
0
100
AcDbLine
 62
7
  6
BYLAYER
 10
44.7575996355
 20
33.5239855072
 11
44.3644714022
 21
33.5239855072
  0
LINE
  5
258
100
AcDbEntity
  8
0
100
AcDbLine
 62
7
  6
BYLAYER
 10
43.7759732867
 20
33.5239855072
 11
43.3685678514
 21
33.5239855072
  0
LINE
  5
259
100
AcDbEntity
  8
0
100
AcDbLine
 62
7
  6
BYLAYER
 10
42.7103433059
 20
33.5239855072
 11
42.2917612697
 21
33.5239855072
  0
LINE
  5
25A
100
AcDbEntity
  8
0
100
AcDbLine
 62
7
  6
BYLAYER
 10
41.5688197803
 20
33.5239855072
 11
41.1422468055
 21
33.5239855072
  0
LINE
  5
25B
100
AcDbEntity
  8
0
100
AcDbLine
 62
7
  6
BYLAYER
 10
40.3600903936
 20
33.5239855072
 11
39.928772958
 21
33.5239855072
  0
LINE
  5
25C
100
AcDbEntity
  8
0
100
AcDbLine
 62
7
  6
BYLAYER
 10
39.0933543061
 20
33.5239855072
 11
38.6605749958
 21
33.5239855072
  0
LINE
  5
25D
100
AcDbEntity
  8
0
100
AcDbLine
 62
7
  6
BYLAYER
 10
37.7782521443
 20
33.5239855072
 11
37.3473046713
 21
33.5239855072
  0
LINE
  5
25E
100
AcDbEntity
  8
0
100
AcDbLine
 62
7
  6
BYLAYER
 10
36.4247926297
 20
33.5239855072
 11
35.9989567644
 21
33.5239855072
  0
LINE
  5
25F
100
AcDbEntity
  8
0
100
AcDbLine
 62
7
  6
BYLAYER
 10
35.0432764066
 20
33.5239855072
 11
34.6257930171
 21
33.5239855072
  0
LINE
  5
260
100
AcDbEntity
  8
0
100
AcDbLine
 62
7
  6
BYLAYER
 10
33.6442176475
 20
33.5239855072
 11
33.2382640344
 21
33.5239855072
  0
LINE
  5
261
100
AcDbEntity
  8
0
100
AcDbLine
 62
7
  6
BYLAYER
 10
32.2382640344
 20
33.5239855072
 11
31.8323104213
 21
33.5239855072
  0
LINE
  5
262
100
AcDbEntity
  8
0
100
AcDbLine
 62
7
  6
BYLAYER
 10
30.8507350517
 20
33.5239855072
 11
30.4332516622
 21
33.5239855072
  0
LINE
  5
263
100
AcDbEntity
  8
0
100
AcDbLine
 62
7
  6
BYLAYER
 10
29.4775713043
 20
33.5239855072
 11
29.051735439
 21
33.5239855072
  0
LINE
  5
264
100
AcDbEntity
  8
0
100
AcDbLine
 62
7
  6
BYLAYER
 10
28.1292233975
 20
33.5239855072
 11
27.6982759245
 21
33.5239855072
  0
LINE
  5
265
100
AcDbEntity
  8
0
100
AcDbLine
 62
7
  6
BYLAYER
 10
26.8159530729
 20
33.5239855072
 11
26.3831737627
 21
33.5239855072
  0
LINE
  5
266
100
AcDbEntity
  8
0
100
AcDbLine
 62
7
  6
BYLAYER
 10
25.5477551107
 20
33.5239855072
 11
25.1164376752
 21
33.5239855072
  0
LINE
  5
267
100
AcDbEntity
  8
0
100
AcDbLine
 62
7
  6
BYLAYER
 10
24.3342812632
 20
33.5239855072
 11
23.9077082884
 21
33.5239855072
  0
LINE
  5
268
100
AcDbEntity
  8
0
100
AcDbLine
 62
7
  6
BYLAYER
 10
23.184766799
 20
33.5239855072
 11
22.7661847629
 21
33.5239855072
  0
LINE
  5
269
100
AcDbEntity
  8
0
100
AcDbLine
 62
7
  6
BYLAYER
 10
22.1079602174
 20
33.5239855072
 11
21.700554782
 21
33.5239855072
  0
LINE
  5
26A
100
AcDbEntity
  8
0
100
AcDbLine
 62
7
  6
BYLAYER
 10
21.1120566666
 20
33.5239855072
 11
20.7189284333
 21
33.5239855072
  0
LINE
  5
26B
100
AcDbEntity
  8
0
100
AcDbLine
 62
7
  6
BYLAYER
 10
20.2046355739
 20
33.5239855072
 11
19.8287764859
 21
33.5239855072
  0
LINE
  5
26C
100
AcDbEntity
  8
0
100
AcDbLine
 62
7
  6
BYLAYER
 10
19.3926029618
 20
33.5239855072
 11
19.0368735338
 21
33.5239855072
  0
LINE
  5
26D
100
AcDbEntity
  8
0
100
AcDbLine
 62
7
  6
BYLAYER
 10
18.6821388888
 20
33.5239855072
 11
18.3492464364
 21
33.5239855072
  0
LINE
  5
26E
100
AcDbEntity
  8
0
100
AcDbLine
 62
7
  6
BYLAYER
 10
18.0786504155
 20
33.5239855072
 11
17.7711284514
 21
33.5239855072
  0
LINE
  5
26F
100
AcDbEntity
  8
0
100
AcDbLine
 62
7
  6
BYLAYER
 10
17.5867304535
 20
33.5239855072
 11
17.3069194055
 21
33.5239855072
  0
LINE
  5
270
100
AcDbEntity
  8
0
100
AcDbLine
 62
7
  6
BYLAYER
 10
17.2101228109
 20
33.5239855072
 11
16.9601522099
 21
33.5239855072
  0
LINE
  5
271
100
AcDbEntity
  8
0
100
AcDbLine
 62
7
  6
BYLAYER
 10
16.9516936991
 20
33.5239855072
 11
16.6285859122
 21
33.5239855072
  0
LINE
  5
272
100
AcDbEntity
  8
0
100
AcDbLine
 62
7
  6
BYLAYER
 10
50.7382640344
 20
34.2239855072
 11
14.7382640344
 21
34.2239855072
  0
LINE
  5
273
100
AcDbEntity
  8
0
100
AcDbLine
 62
7
  6
BYLAYER
 10
32.2382640344
 20
28.9239855072
 11
32.7382640344
 21
28.4239855072
  0
LINE
  5
274
100
AcDbEntity
  8
0
100
AcDbLine
 62
7
  6
BYLAYER
 10
26.5233687483
 20
71.1587151427
 11
26.0174056588
 21
68.2892558717
  0
LINE
  5
275
100
AcDbEntity
  8
0
100
AcDbLine
 62
7
  6
BYLAYER
 10
14.7382640344
 20
38.2239855072
 11
50.7382640344
 21
38.2239855072
  0
LINE
  5
276
100
AcDbEntity
  8
0
100
AcDbLine
 62
7
  6
BYLAYER
 10
33.2382640344
 20
33.5239855072
 11
32.7382640344
 21
34.0239855072
  0
LINE
  5
277
100
AcDbEntity
  8
0
100
AcDbLine
 62
7
  6
BYLAYER
 10
31.5455779902
 20
7.4239855072
 11
31.5455779902
 21
13.7239855072
  0
LINE
  5
278
100
AcDbEntity
  8
0
100
AcDbLine
 62
7
  6
BYLAYER
 10
32.1320462517
 20
27.5692249251
 11
32.1320462517
 21
24.8787460893
  0
LINE
  5
279
100
AcDbEntity
  8
0
100
AcDbLine
 62
7
  6
BYLAYER
 10
32.1320462517
 20
34.8787460976
 11
32.1320462517
 21
37.5692249263
  0
LINE
  5
27A
100
AcDbEntity
  8
0
100
AcDbLine
 62
7
  6
BYLAYER
 10
33.4331465993
 20
73.1344526984
 11
33.348197028
 21
71.513518316
  0
LINE
  5
27B
100
AcDbEntity
  8
0
100
AcDbLine
 62
7
  6
BYLAYER
 10
33.1712767363
 20
27.5436157207
 11
33.1712767363
 21
24.9043552696
  0
LINE
  5
27C
100
AcDbEntity
  8
0
100
AcDbLine
 62
7
  6
BYLAYER
 10
33.1712767363
 20
34.9043552649
 11
33.1712767363
 21
37.5436157496
  0
LINE
  5
27D
100
AcDbEntity
  8
0
100
AcDbLine
 62
7
  6
BYLAYER
 10
33.8382640344
 20
83.3239855072
 11
33.8382640344
 21
73.3239855072
  0
LINE
  5
27E
100
AcDbEntity
  8
0
100
AcDbLine
 62
7
  6
BYLAYER
 10
33.9309500786
 20
13.7239855072
 11
33.9309500786
 21
7.4239855072
  0
LINE
  5
27F
100
AcDbEntity
  8
0
100
AcDbLine
 62
7
  6
BYLAYER
 10
35.8382640344
 20
83.3239855072
 11
35.8382640344
 21
73.3239855072
  0
LINE
  5
280
100
AcDbEntity
  8
0
100
AcDbLine
 62
7
  6
BYLAYER
 10
36.2433814694
 20
73.1344526984
 11
36.3283310408
 21
71.513518316
  0
LINE
  5
281
100
AcDbEntity
  8
0
100
AcDbLine
 62
7
  6
BYLAYER
 10
32.2382640344
 20
33.5239855072
 11
32.7382640344
 21
34.0239855072
  0
LINE
  5
282
100
AcDbEntity
  8
0
100
AcDbLine
 62
7
  6
BYLAYER
 10
48.9896741959
 20
28.4239855072
 11
49.0432640344
 21
28.2239855072
  0
LINE
  5
283
100
AcDbEntity
  8
0
100
AcDbLine
 62
7
  6
BYLAYER
 10
38.9531593205
 20
71.1587151427
 11
39.45912241
 21
68.2892558717
  0
LINE
  5
284
100
AcDbEntity
  8
0
100
AcDbLine
 62
7
  6
BYLAYER
 10
46.9382640344
 20
65.0239855072
 11
46.9382640344
 21
65.1239855072
  0
LINE
  5
285
100
AcDbEntity
  8
0
100
AcDbLine
 62
7
  6
BYLAYER
 10
46.9882640344
 20
7.4239855072
 11
46.9882640344
 21
20.2239855072
  0
LINE
  5
286
100
AcDbEntity
  8
0
100
AcDbLine
 62
7
  6
BYLAYER
 10
46.9882640344
 20
61.3239855072
 11
46.9882640344
 21
65.0239855072
  0
LINE
  5
287
100
AcDbEntity
  8
0
100
AcDbLine
 62
7
  6
BYLAYER
 10
46.9882640344
 20
65.1239855072
 11
46.9882640344
 21
67.9239855072
  0
LINE
  5
288
100
AcDbEntity
  8
0
100
AcDbLine
 62
7
  6
BYLAYER
 10
33.2382640344
 20
28.9239855072
 11
32.7382640344
 21
28.4239855072
  0
LINE
  5
289
100
AcDbEntity
  8
0
100
AcDbLine
 62
7
  6
BYLAYER
 10
47.7382640344
 20
20.7239855073
 11
47.7382640344
 21
24.2239855072
  0
LINE
  5
28A
100
AcDbEntity
  8
0
100
AcDbLine
 62
7
  6
BYLAYER
 10
47.7382640344
 20
28.8708210085
 11
47.7382640344
 21
33.5771483645
  0
LINE
  5
28B
100
AcDbEntity
  8
0
100
AcDbLine
 62
7
  6
BYLAYER
 10
47.7382640344
 20
38.2239855072
 11
47.7382640344
 21
60.5739855072
  0
LINE
  5
28C
100
AcDbEntity
  8
0
100
AcDbLine
 62
7
  6
BYLAYER
 10
17.7382640344
 20
60.5739855072
 11
47.7382640344
 21
60.5739855072
  0
LINE
  5
28D
100
AcDbEntity
  8
0
100
AcDbLine
 62
7
  6
BYLAYER
 10
46.9882640344
 20
61.3239855072
 11
18.4882640344
 21
61.3239855072
  0
LINE
  5
28E
100
AcDbEntity
  8
0
100
AcDbLine
 62
7
  6
BYLAYER
 10
50.3052513325
 20
27.543615719
 11
50.3052513325
 21
24.9043552955
  0
LINE
  5
28F
100
AcDbEntity
  8
0
100
AcDbLine
 62
7
  6
BYLAYER
 10
50.3052513325
 20
34.9043553008
 11
50.3052513325
 21
37.5436157181
  0
LINE
  5
290
100
AcDbEntity
  8
0
100
AcDbLine
 62
7
  6
BYLAYER
 10
50.7382640344
 20
24.2239855072
 11
50.7382640344
 21
28.2239855072
  0
LINE
  5
291
100
AcDbEntity
  8
0
100
AcDbLine
 62
7
  6
BYLAYER
 10
50.7382640344
 20
34.2239855072
 11
50.7382640344
 21
38.2239855072
  0
LINE
  5
292
100
AcDbEntity
  8
0
100
AcDbLine
 62
7
  6
BYLAYER
 10
48.9896741959
 20
34.0239855072
 11
49.0432640344
 21
34.2239855072
  0
LINE
  5
293
100
AcDbEntity
  8
0
100
AcDbLine
 62
7
  6
BYLAYER
 10
18.4883445032
 20
65.0239855072
 11
46.9881835656
 21
65.0239855072
  0
LINE
  5
294
100
AcDbEntity
  8
0
100
AcDbLine
 62
7
  6
BYLAYER
 10
46.9881373365
 20
65.1239855072
 11
18.4882640344
 21
65.1239855072
  0
LINE
  5
295
100
AcDbEntity
  8
0
100
AcDbLine
 62
7
  6
BYLAYER
 10
18.4882640344
 20
67.9239855072
 11
46.9882640344
 21
67.9239855072
  0
LINE
  5
296
100
AcDbEntity
  8
0
100
AcDbLine
 62
7
  6
BYLAYER
 10
46.9882640344
 20
61.3239855072
 11
47.7382640344
 21
60.5739855072
  0
LINE
  5
297
100
AcDbEntity
  8
0
100
AcDbLine
 62
7
  6
BYLAYER
 10
18.6883437935
 20
68.1239855072
 11
46.7881842753
 21
68.1239855072
  0
LINE
  5
298
100
AcDbEntity
  8
0
100
AcDbLine
 62
7
  6
BYLAYER
 10
39.45912241
 20
68.2892558717
 11
26.0174056588
 21
68.2892558717
  0
LINE
  5
299
100
AcDbEntity
  8
0
100
AcDbLine
 62
7
  6
BYLAYER
 10
47.2382640344
 20
20.2239855073
 11
47.7382640344
 21
20.7239855073
  0
LINE
  5
29A
100
AcDbEntity
  8
0
100
AcDbLine
 62
7
  6
BYLAYER
 10
26.5233687483
 20
71.1587151427
 11
38.9531593205
 21
71.1587151427
  0
LINE
  5
29B
100
AcDbEntity
  8
0
100
AcDbLine
 62
7
  6
BYLAYER
 10
26.7203302989
 20
71.3239855072
 11
38.7561999061
 21
71.3239855072
  0
LINE
  5
29C
100
AcDbEntity
  8
0
100
AcDbLine
 62
7
  6
BYLAYER
 10
36.3283310408
 20
71.513518316
 11
33.348197028
 21
71.513518316
  0
LINE
  5
29D
100
AcDbEntity
  8
0
100
AcDbLine
 62
7
  6
BYLAYER
 10
33.4331465993
 20
73.1344526984
 11
36.2433814694
 21
73.1344526984
  0
LINE
  5
29E
100
AcDbEntity
  8
0
100
AcDbLine
 62
7
  6
BYLAYER
 10
33.6328725063
 20
73.3239855072
 11
36.0436555454
 21
73.3239855072
  0
LINE
  5
29F
100
AcDbEntity
  8
0
100
AcDbLine
 62
7
  6
BYLAYER
 10
33.8382640344
 20
83.3239855072
 11
35.8382640344
 21
83.3239855072
  0
ARC
  5
2A0
100
AcDbEntity
  8
0
100
AcDbCircle
 62
7
  6
BYLAYER
 10
30.7674892773
 20
111.3520054273
 40
76.485432662
100
AcDbArc
 50
271.0222535316
 51
271.8009907792
  0
ARC
  5
2A1
100
AcDbEntity
  8
0
100
AcDbCircle
 62
7
  6
BYLAYER
 10
30.7674892773
 20
-48.9040344128
 40
76.485432662
100
AcDbArc
 50
88.1990092208
 51
88.9777464684
  0
ARC
  5
2A2
100
AcDbEntity
  8
0
100
AcDbCircle
 62
7
  6
BYLAYER
 10
30.7674895058
 20
-38.9040251414
 40
76.4854233881
100
AcDbArc
 50
88.1990091736
 51
88.9777465156
  0
ARC
  5
2A3
100
AcDbEntity
  8
0
100
AcDbCircle
 62
7
  6
BYLAYER
 10
30.7674895058
 20
101.3519961559
 40
76.4854233881
100
AcDbArc
 50
271.0222534844
 51
271.8009908264
  0
ARC
  5
2A4
100
AcDbEntity
  8
0
100
AcDbCircle
 62
7
  6
BYLAYER
 10
16.1417923934
 20
60.9404867131
 40
26.0739339498
100
AcDbArc
 50
266.9143460613
 51
268.2476885371
  0
ARC
  5
2A5
100
AcDbEntity
  8
0
100
AcDbCircle
 62
7
  6
BYLAYER
 10
16.1417923934
 20
1.5074843014
 40
26.0739339497
100
AcDbArc
 50
91.7523114629
 51
93.0856539387
  0
ARC
  5
2A6
100
AcDbEntity
  8
0
100
AcDbCircle
 62
7
  6
BYLAYER
 10
16.141792083
 20
50.9404793648
 40
26.0739265954
100
AcDbArc
 50
266.9143458732
 51
268.2476887251
  0
ARC
  5
2A7
100
AcDbEntity
  8
0
100
AcDbCircle
 62
7
  6
BYLAYER
 10
16.141792083
 20
11.5074916499
 40
26.0739265951
100
AcDbArc
 50
91.7523112749
 51
93.0856541268
  0
ARC
  5
2A8
100
AcDbEntity
  8
0
100
AcDbCircle
 62
7
  6
BYLAYER
 10
51.3102191019
 20
14.2247486705
 40
13.3567278805
100
AcDbArc
 50
92.454241424
 51
94.3150447932
  0
ARC
  5
2A9
100
AcDbEntity
  8
0
100
AcDbCircle
 62
7
  6
BYLAYER
 10
51.310219098
 20
38.223222277
 40
13.3567278134
100
AcDbArc
 50
265.6849552021
 51
267.5457585807
  0
ARC
  5
2AA
100
AcDbEntity
  8
0
100
AcDbCircle
 62
7
  6
BYLAYER
 10
51.3096247631
 20
48.2131729871
 40
13.3466622919
100
AcDbArc
 50
265.6842534684
 51
267.5464603143
  0
ARC
  5
2AB
100
AcDbEntity
  8
0
100
AcDbCircle
 62
7
  6
BYLAYER
 10
51.3096247591
 20
24.2347980944
 40
13.3466622248
100
AcDbArc
 50
92.453539681
 51
94.3157465363
  0
ARC
  5
2AC
100
AcDbEntity
  8
0
100
AcDbCircle
 62
7
  6
BYLAYER
 10
18.6882640344
 20
7.4239855072
 40
0.2
100
AcDbArc
 50
180.0
 51
270.0
  0
ARC
  5
2AD
100
AcDbEntity
  8
0
100
AcDbCircle
 62
7
  6
BYLAYER
 10
46.7882640344
 20
7.4239855072
 40
0.2
100
AcDbArc
 50
270.0
 51
360.0
  0
ARC
  5
2AE
100
AcDbEntity
  8
0
100
AcDbCircle
 62
7
  6
BYLAYER
 10
38.7561977699
 20
71.1239855072
 40
0.2
100
AcDbArc
 50
10.0
 51
90.0
  0
ARC
  5
2AF
100
AcDbEntity
  8
0
100
AcDbCircle
 62
7
  6
BYLAYER
 10
26.7203302989
 20
71.1239855072
 40
0.2
100
AcDbArc
 50
90.0
 51
170.0
  0
ARC
  5
2B0
100
AcDbEntity
  8
0
100
AcDbCircle
 62
7
  6
BYLAYER
 10
39.6560839606
 20
68.3239855072
 40
0.2
100
AcDbArc
 50
190.0
 51
270.0
  0
ARC
  5
2B1
100
AcDbEntity
  8
0
100
AcDbCircle
 62
7
  6
BYLAYER
 10
33.148471121
 20
71.5239855072
 40
0.2
100
AcDbArc
 50
270.0
 51
357.0000000139
  0
ARC
  5
2B2
100
AcDbEntity
  8
0
100
AcDbCircle
 62
7
  6
BYLAYER
 10
36.5280569477
 20
71.5239855072
 40
0.2
100
AcDbArc
 50
182.9999999861
 51
270.0
  0
ARC
  5
2B3
100
AcDbEntity
  8
0
100
AcDbCircle
 62
7
  6
BYLAYER
 10
18.6882640344
 20
67.9239855072
 40
0.2
100
AcDbArc
 50
90.0
 51
180.0
  0
ARC
  5
2B4
100
AcDbEntity
  8
0
100
AcDbCircle
 62
7
  6
BYLAYER
 10
33.6328725063
 20
73.1239855072
 40
0.2
100
AcDbArc
 50
90.0
 51
177.0000000139
  0
ARC
  5
2B5
100
AcDbEntity
  8
0
100
AcDbCircle
 62
7
  6
BYLAYER
 10
46.7882640344
 20
67.9239855072
 40
0.2
100
AcDbArc
 50
0.0
 51
90.0
  0
ARC
  5
2B6
100
AcDbEntity
  8
0
100
AcDbCircle
 62
7
  6
BYLAYER
 10
36.0436555625
 20
73.1239855072
 40
0.2
100
AcDbArc
 50
2.9999999861
 51
89.9999999984
  0
ARC
  5
2B7
100
AcDbEntity
  8
0
100
AcDbCircle
 62
7
  6
BYLAYER
 10
25.8204441081
 20
68.3239855072
 40
0.2
100
AcDbArc
 50
270.0
 51
350.0
  0
SPLINE
  5
2B8
100
AcDbEntity
  8
0
100
AcDbSpline
 62
7
  6
BYLAYER
 70
0
 71
3
 72
10
 73
6
 74
0
 42
0.0000001
 43
0.0000001
 44
0.0000000001
 40
0.0
 40
0.0
 40
0.0
 40
0.0
 40
0.2497808676
 40
0.4996693907
 40
1.0
 40
1.0
 40
1.0
 40
1.0
 10
41.7382683588
 20
34.2239855332
 30
0.0
 10
41.0221552153
 20
34.2239854543
 30
0.0
 10
39.5894197909
 20
34.2547089567
 30
0.0
 10
36.7275295945
 20
34.4351577886
 30
0.0
 10
34.5900412268
 20
34.6929350214
 30
0.0
 10
33.1712767363
 20
34.9043552937
 30
0.0
  0
SPLINE
  5
2B9
100
AcDbEntity
  8
0
100
AcDbSpline
 62
7
  6
BYLAYER
 70
0
 71
3
 72
10
 73
6
 74
0
 42
0.0000001
 43
0.0000001
 44
0.0000000001
 40
0.0
 40
0.0
 40
0.0
 40
0.0
 40
0.5003195007
 40
0.7502115219
 40
1.0
 40
1.0
 40
1.0
 40
1.0
 10
32.1320462517
 20
34.8787460976
 30
0.0
 10
30.7417188023
 20
34.6748031886
 30
0.0
 10
28.647266927
 20
34.4267588775
 30
0.0
 10
25.8434288812
 20
34.2534650451
 30
0.0
 10
24.4398284595
 20
34.223985576
 30
0.0
 10
23.7382683588
 20
34.2239855333
 30
0.0
  0
SPLINE
  5
2BA
100
AcDbEntity
  8
0
100
AcDbSpline
 62
7
  6
BYLAYER
 70
0
 71
3
 72
10
 73
6
 74
0
 42
0.0000001
 43
0.0000001
 44
0.0000000001
 40
0.0
 40
0.0
 40
0.0
 40
0.0
 40
0.5003306153
 40
0.7502191272
 40
1.0
 40
1.0
 40
1.0
 40
1.0
 10
33.1712767363
 20
37.5436157448
 30
0.0
 10
34.5900412066
 20
37.7550360129
 30
0.0
 10
36.7275290256
 20
38.0128203057
 30
0.0
 10
39.5894199866
 20
38.1932539887
 30
0.0
 10
41.0221550985
 20
38.2239855398
 30
0.0
 10
41.7382682381
 20
38.2239854787
 30
0.0
  0
SPLINE
  5
2BB
100
AcDbEntity
  8
0
100
AcDbSpline
 62
7
  6
BYLAYER
 70
0
 71
3
 72
10
 73
6
 74
0
 42
0.0000001
 43
0.0000001
 44
0.0000000001
 40
0.0
 40
0.0
 40
0.0
 40
0.0
 40
0.2497884532
 40
0.4996804584
 40
1.0
 40
1.0
 40
1.0
 40
1.0
 10
23.7382682381
 20
38.2239854787
 30
0.0
 10
24.4398283008
 20
38.2239854215
 30
0.0
 10
25.8434285322
 20
38.1945038567
 30
0.0
 10
28.6472675379
 20
38.0212224155
 30
0.0
 10
30.7417186249
 20
37.7731678603
 30
0.0
 10
32.1320462517
 20
37.5692249263
 30
0.0
  0
SPLINE
  5
2BC
100
AcDbEntity
  8
0
100
AcDbSpline
 62
7
  6
BYLAYER
 70
0
 71
3
 72
10
 73
6
 74
0
 42
0.0000001
 43
0.0000001
 44
0.0000000001
 40
0.0
 40
0.0
 40
0.0
 40
0.0
 40
0.5003195042
 40
0.7502115143
 40
1.0
 40
1.0
 40
1.0
 40
1.0
 10
15.344481817
 20
37.5692249925
 30
0.0
 10
16.7348106518
 20
37.7731680936
 30
0.0
 10
18.8292641379
 20
38.021220204
 30
0.0
 10
21.6331059351
 20
38.1944956851
 30
0.0
 10
23.0367074227
 20
38.2239855386
 30
0.0
 10
23.7382682381
 20
38.2239854787
 30
0.0
  0
SPLINE
  5
2BD
100
AcDbEntity
  8
0
100
AcDbSpline
 62
7
  6
BYLAYER
 70
0
 71
3
 72
10
 73
6
 74
0
 42
0.0000001
 43
0.0000001
 44
0.0000000001
 40
0.0
 40
0.0
 40
0.0
 40
0.0
 40
0.2497884794
 40
0.4996805005
 40
1.0
 40
1.0
 40
1.0
 40
1.0
 10
23.7382683588
 20
34.2239855333
 30
0.0
 10
23.0367075393
 20
34.2239854556
 30
0.0
 10
21.6331057234
 20
34.2534664537
 30
0.0
 10
18.8292646872
 20
34.4267578228
 30
0.0
 10
16.7348106819
 20
34.674802969
 30
0.0
 10
15.344481817
 20
34.8787460791
 30
0.0
  0
SPLINE
  5
2BE
100
AcDbEntity
  8
0
100
AcDbSpline
 62
7
  6
BYLAYER
 70
0
 71
3
 72
10
 73
6
 74
0
 42
0.0000001
 43
0.0000001
 44
0.0000000001
 40
0.0
 40
0.0
 40
0.0
 40
0.0
 40
0.2497808372
 40
0.4996693425
 40
1.0
 40
1.0
 40
1.0
 40
1.0
 10
41.7382682381
 20
38.2239854787
 30
0.0
 10
42.4543806143
 20
38.2239854203
 30
0.0
 10
43.8871144365
 20
38.1932615264
 30
0.0
 10
46.7490026753
 20
38.0128231707
 30
0.0
 10
48.8864880532
 20
37.7550358123
 30
0.0
 10
50.3052513325
 20
37.5436157181
 30
0.0
  0
SPLINE
  5
2BF
100
AcDbEntity
  8
0
100
AcDbSpline
 62
7
  6
BYLAYER
 70
0
 71
3
 72
10
 73
6
 74
0
 42
0.0000001
 43
0.0000001
 44
0.0000000001
 40
0.0
 40
0.0
 40
0.0
 40
0.0
 40
0.5003306106
 40
0.7502191338
 40
1.0
 40
1.0
 40
1.0
 40
1.0
 10
50.3052513325
 20
34.9043553008
 30
0.0
 10
48.8864882565
 20
34.6929352366
 30
0.0
 10
46.7490020092
 20
34.4351589439
 30
0.0
 10
43.8871148152
 20
34.2547075131
 30
0.0
 10
42.4543807829
 20
34.2239855772
 30
0.0
 10
41.7382683588
 20
34.2239855332
 30
0.0
  0
SPLINE
  5
2C0
100
AcDbEntity
  8
0
100
AcDbSpline
 62
7
  6
BYLAYER
 70
0
 71
3
 72
10
 73
6
 74
0
 42
0.0000001
 43
0.0000001
 44
0.0000000001
 40
0.0
 40
0.0
 40
0.0
 40
0.0
 40
0.5003306608
 40
0.750219165
 40
1.0
 40
1.0
 40
1.0
 40
1.0
 10
50.3052513325
 20
24.9043552963
 30
0.0
 10
48.886488044
 20
24.6929352008
 30
0.0
 10
46.7490026596
 20
24.4351478426
 30
0.0
 10
43.8871144208
 20
24.2547094861
 30
0.0
 10
42.4543806079
 20
24.2239855942
 30
0.0
 10
41.7382682381
 20
24.2239855357
 30
0.0
  0
SPLINE
  5
2C1
100
AcDbEntity
  8
0
100
AcDbSpline
 62
7
  6
BYLAYER
 70
0
 71
3
 72
10
 73
6
 74
0
 42
0.0000001
 43
0.0000001
 44
0.0000000001
 40
0.0
 40
0.0
 40
0.0
 40
0.0
 40
0.2497884873
 40
0.4996804982
 40
1.0
 40
1.0
 40
1.0
 40
1.0
 10
23.7382682381
 20
24.2239855357
 30
0.0
 10
23.0367074182
 20
24.2239854759
 30
0.0
 10
21.6331059239
 20
24.2534753259
 30
0.0
 10
18.8292641269
 20
24.426750812
 30
0.0
 10
16.7348106454
 20
24.6748029219
 30
0.0
 10
15.344481817
 20
24.8787460219
 30
0.0
  0
SPLINE
  5
2C2
100
AcDbEntity
  8
0
100
AcDbSpline
 62
7
  6
BYLAYER
 70
0
 71
3
 72
10
 73
6
 74
0
 42
0.0000001
 43
0.0000001
 44
0.0000000001
 40
0.0
 40
0.0
 40
0.0
 40
0.0
 40
0.500330612
 40
0.7502191342
 40
1.0
 40
1.0
 40
1.0
 40
1.0
 10
33.1712767363
 20
27.5436157207
 30
0.0
 10
34.5900412343
 20
27.7550359942
 30
0.0
 10
36.7275296072
 20
28.0128132296
 30
0.0
 10
39.5894198039
 20
28.193262053
 30
0.0
 10
41.0221552206
 20
28.2239855602
 30
0.0
 10
41.7382683589
 20
28.2239854813
 30
0.0
  0
SPLINE
  5
2C3
100
AcDbEntity
  8
0
100
AcDbSpline
 62
7
  6
BYLAYER
 70
0
 71
3
 72
10
 73
6
 74
0
 42
0.0000001
 43
0.0000001
 44
0.0000000001
 40
0.0
 40
0.0
 40
0.0
 40
0.0
 40
0.2497884797
 40
0.4996805017
 40
1.0
 40
1.0
 40
1.0
 40
1.0
 10
23.7382683589
 20
28.2239854812
 30
0.0
 10
24.439828464
 20
28.2239854385
 30
0.0
 10
25.8434288923
 20
28.1945059729
 30
0.0
 10
28.6472669379
 20
28.0212121348
 30
0.0
 10
30.7417188087
 20
27.773167825
 30
0.0
 10
32.1320462517
 20
27.5692249169
 30
0.0
  0
SPLINE
  5
2C4
100
AcDbEntity
  8
0
100
AcDbSpline
 62
7
  6
BYLAYER
 70
0
 71
3
 72
10
 73
6
 74
0
 42
0.0000001
 43
0.0000001
 44
0.0000000001
 40
0.0
 40
0.0
 40
0.0
 40
0.0
 40
0.2497808747
 40
0.4996693873
 40
1.0
 40
1.0
 40
1.0
 40
1.0
 10
41.7382682381
 20
24.2239855357
 30
0.0
 10
41.0221550932
 20
24.2239854747
 30
0.0
 10
39.5894199736
 20
24.2547170215
 30
0.0
 10
36.7275290128
 20
24.4351507113
 30
0.0
 10
34.5900411991
 20
24.6929350027
 30
0.0
 10
33.1712767363
 20
24.9043552696
 30
0.0
  0
SPLINE
  5
2C5
100
AcDbEntity
  8
0
100
AcDbSpline
 62
7
  6
BYLAYER
 70
0
 71
3
 72
10
 73
6
 74
0
 42
0.0000001
 43
0.0000001
 44
0.0000000001
 40
0.0
 40
0.0
 40
0.0
 40
0.0
 40
0.5003195444
 40
0.7502115487
 40
1.0
 40
1.0
 40
1.0
 40
1.0
 10
32.1320462517
 20
24.8787460881
 30
0.0
 10
30.741718617
 20
24.6748031531
 30
0.0
 10
28.6472675244
 20
24.4267485982
 30
0.0
 10
25.8434285188
 20
24.2534671561
 30
0.0
 10
24.4398282954
 20
24.223985593
 30
0.0
 10
23.7382682381
 20
24.2239855357
 30
0.0
  0
SPLINE
  5
2C6
100
AcDbEntity
  8
0
100
AcDbSpline
 62
7
  6
BYLAYER
 70
0
 71
3
 72
10
 73
6
 74
0
 42
0.0000001
 43
0.0000001
 44
0.0000000001
 40
0.0
 40
0.0
 40
0.0
 40
0.0
 40
0.2497808681
 40
0.499669392
 40
1.0
 40
1.0
 40
1.0
 40
1.0
 10
41.7382683589
 20
28.2239854813
 30
0.0
 10
42.4543807881
 20
28.2239854373
 30
0.0
 10
43.8871148282
 20
28.1932635058
 30
0.0
 10
46.7490020218
 20
28.0128120676
 30
0.0
 10
48.8864882639
 20
27.7550357768
 30
0.0
 10
50.3052513325
 20
27.5436157137
 30
0.0
  0
SPLINE
  5
2C7
100
AcDbEntity
  8
0
100
AcDbSpline
 62
7
  6
BYLAYER
 70
0
 71
3
 72
10
 73
6
 74
0
 42
0.0000001
 43
0.0000001
 44
0.0000000001
 40
0.0
 40
0.0
 40
0.0
 40
0.0
 40
0.5003195018
 40
0.7502115222
 40
1.0
 40
1.0
 40
1.0
 40
1.0
 10
15.344481817
 20
27.5692249354
 30
0.0
 10
16.7348106883
 20
27.7731680465
 30
0.0
 10
18.8292646981
 20
28.0212131944
 30
0.0
 10
21.6331057346
 20
28.194504557
 30
0.0
 10
23.0367075438
 20
28.2239855589
 30
0.0
 10
23.7382683589
 20
28.2239854812
 30
0.0
  0
SPLINE
  5
2C8
100
AcDbEntity
  8
0
100
AcDbSpline
 62
7
  6
BYLAYER
 70
0
 71
3
 72
45
 73
41
 74
0
 42
0.0000001
 43
0.0000001
 44
0.0000000001
 40
0.0
 40
0.0
 40
0.0
 40
0.0
 40
0.0038861776
 40
0.0077901222
 40
0.0116961748
 40
0.0156030127
 40
0.023413343
 40
0.0312256036
 40
0.0468483823
 40
0.0624734248
 40
0.0780990979
 40
0.0937250011
 40
0.1249759669
 40
0.1562276246
 40
0.1874795613
 40
0.2187316281
 40
0.249983769
 40
0.3124874373
 40
0.3749914402
 40
0.4374956022
 40
0.4999998454
 40
0.5625041368
 40
0.6250083644
 40
0.6875124092
 40
0.7500161102
 40
0.7812682617
 40
0.8125203373
 40
0.8437722801
 40
0.8750239418
 40
0.9062749089
 40
0.9219008122
 40
0.9375264852
 40
0.953151528
 40
0.9687743076
 40
0.9765865676
 40
0.984396901
 40
0.9883037431
 40
0.9922097998
 40
0.9961138171
 40
1.0
 40
1.0
 40
1.0
 40
1.0
 10
31.5455779902
 20
7.4239855072
 30
0.0
 10
31.5455779902
 20
7.4208327799
 30
0.0
 10
31.5475385711
 20
7.4144858172
 30
0.0
 10
31.5536815811
 20
7.4071265482
 30
0.0
 10
31.561064354
 20
7.4010896019
 30
0.0
 10
31.5717815316
 20
7.3942879617
 30
0.0
 10
31.5860684186
 20
7.3873492416
 30
0.0
 10
31.6097060853
 20
7.3781630064
 30
0.0
 10
31.6400869852
 20
7.3690158887
 30
0.0
 10
31.6770573954
 20
7.3600840966
 30
0.0
 10
31.7143380055
 20
7.3525367242
 30
0.0
 10
31.7642924549
 20
7.3438149761
 30
0.0
 10
31.8270509447
 20
7.3348391193
 30
0.0
 10
31.9026156082
 20
7.3261238098
 30
0.0
 10
31.9783411049
 20
7.3189438977
 30
0.0
 10
32.0541697698
 20
7.3129678861
 30
0.0
 10
32.1553685433
 20
7.3063186832
 30
0.0
 10
32.2819920827
 20
7.3000798199
 30
0.0
 10
32.4340390445
 20
7.2951328273
 30
0.0
 10
32.5861399118
 20
7.2923102705
 30
0.0
 10
32.7382637029
 20
7.2913916636
 30
0.0
 10
32.8903875473
 20
7.2923102235
 30
0.0
 10
33.0424885419
 20
7.2951327792
 30
0.0
 10
33.1945356131
 20
7.3000798785
 30
0.0
 10
33.321159228
 20
7.3063186159
 30
0.0
 10
33.4223580409
 20
7.3129678663
 30
0.0
 10
33.4981867269
 20
7.3189438719
 30
0.0
 10
33.5739122381
 20
7.3261237935
 30
0.0
 10
33.649476912
 20
7.3348390927
 30
0.0
 10
33.7122354072
 20
7.3438149435
 30
0.0
 10
33.7621898585
 20
7.3525366861
 30
0.0
 10
33.7994704702
 20
7.3600840528
 30
0.0
 10
33.8364408808
 20
7.3690158433
 30
0.0
 10
33.8668217926
 20
7.3781629273
 30
0.0
 10
33.8904594575
 20
7.3873491729
 30
0.0
 10
33.9047463648
 20
7.3942878628
 30
0.0
 10
33.9154635601
 20
7.4010894919
 30
0.0
 10
33.9228464155
 20
7.4071264371
 30
0.0
 10
33.9289894981
 20
7.4144857454
 30
0.0
 10
33.9309500786
 20
7.4208327755
 30
0.0
 10
33.9309500786
 20
7.4239855072
 30
0.0
  0
ELLIPSE
  5
2C9
100
AcDbEntity
  8
0
100
AcDbEllipse
 62
7
  6
BYLAYER
 10
26.1480624492
 20
27.4086104227
 30
0.0
 11
18.1514209571
 21
18.1605909673
 31
0.0
 40
0.0406765142
 41
1.2401461389
 42
1.2682738639
  0
ELLIPSE
  5
2CA
100
AcDbEntity
  8
0
100
AcDbEllipse
 62
7
  6
BYLAYER
 10
31.5895162064
 20
27.4086104227
 30
0.0
 11
10.9958379272
 21
15.791979517
 31
0.0
 40
0.818317629
 41
-4.5381463488
 42
-4.5376361753
  0
ELLIPSE
  5
2CB
100
AcDbEntity
  8
0
100
AcDbEllipse
 62
7
  6
BYLAYER
 10
31.026078972
 20
27.4086104227
 30
0.0
 11
12.3580633753
 21
15.6563003942
 31
0.0
 40
0.7470541823
 41
1.755413405
 42
1.7604339261
  0
ELLIPSE
  5
2CC
100
AcDbEntity
  8
0
100
AcDbEllipse
 62
7
  6
BYLAYER
 10
30.4756724998
 20
27.4086104226
 30
0.0
 11
13.3023954138
 21
15.7703479229
 31
0.0
 40
0.6792721423
 41
1.7395026584
 42
1.7479481052
  0
ELLIPSE
  5
2CD
100
AcDbEntity
  8
0
100
AcDbEllipse
 62
7
  6
BYLAYER
 10
29.9424857154
 20
27.4086104227
 30
0.0
 11
14.0585338956
 21
15.9844133441
 31
0.0
 40
0.6154007239
 41
-4.5706155829
 42
-4.5594411901
  0
ELLIPSE
  5
2CE
100
AcDbEntity
  8
0
100
AcDbEllipse
 62
7
  6
BYLAYER
 10
29.4305764921
 20
27.4086104227
 30
0.0
 11
14.7051040421
 21
16.2385436118
 31
0.0
 40
0.5552272381
 41
-4.6030939231
 42
-4.5896631569
  0
ELLIPSE
  5
2CF
100
AcDbEntity
  8
0
100
AcDbEllipse
 62
7
  6
BYLAYER
 10
28.9438407682
 20
27.4086104226
 30
0.0
 11
15.274965845
 21
16.5043969512
 31
0.0
 40
0.4983942514
 41
-4.63871335
 42
-4.6233600039
  0
ELLIPSE
  5
2D0
100
AcDbEntity
  8
0
100
AcDbEllipse
 62
7
  6
BYLAYER
 10
28.4859828966
 20
27.4086104227
 30
0.0
 11
15.7835371161
 21
16.766803626
 31
0.0
 40
0.4445239339
 41
-4.6762656208
 42
-4.6592307362
  0
ELLIPSE
  5
2D1
100
AcDbEntity
  8
0
100
AcDbEllipse
 62
7
  6
BYLAYER
 10
28.060487452
 20
27.4086104227
 30
0.0
 11
16.2384907108
 21
17.0168501026
 31
0.0
 40
0.3932536107
 41
1.5681045669
 42
1.5866441138
  0
ELLIPSE
  5
2D2
100
AcDbEntity
  8
0
100
AcDbEllipse
 62
7
  6
BYLAYER
 10
27.6705927117
 20
27.4086104227
 30
0.0
 11
16.6436838349
 21
17.2489119491
 31
0.0
 40
0.3442450777
 41
1.5284256265
 42
1.5483400703
  0
ELLIPSE
  5
2D3
100
AcDbEntity
  8
0
100
AcDbEllipse
 62
7
  6
BYLAYER
 10
27.3192660101
 20
27.4086104226
 30
0.0
 11
17.0009614673
 21
17.4592414022
 31
0.0
 40
0.2971852239
 41
1.4881351505
 42
1.5093298802
  0
ELLIPSE
  5
2D4
100
AcDbEntity
  8
0
100
AcDbEllipse
 62
7
  6
BYLAYER
 10
27.0091811556
 20
27.4086104227
 30
0.0
 11
17.311068251
 21
17.6452378715
 31
0.0
 40
0.2517837063
 41
1.447560264
 42
1.4698078979
  0
ELLIPSE
  5
2D5
100
AcDbEntity
  8
0
100
AcDbEllipse
 62
7
  6
BYLAYER
 10
26.7426980811
 20
27.4086104227
 30
0.0
 11
17.5741469284
 21
17.8050458869
 31
0.0
 40
0.2077697388
 41
1.4065581876
 42
1.4299111685
  0
ELLIPSE
  5
2D6
100
AcDbEntity
  8
0
100
AcDbEllipse
 62
7
  6
BYLAYER
 10
26.5218448837
 20
27.4086104226
 30
0.0
 11
17.7900285404
 21
17.9373217495
 31
0.0
 40
0.1648887629
 41
1.3652388603
 42
1.3897401552
  0
ELLIPSE
  5
2D7
100
AcDbEntity
  8
0
100
AcDbEllipse
 62
7
  6
BYLAYER
 10
26.3483023896
 20
27.4086104227
 30
0.0
 11
17.9584099181
 21
18.0410926156
 31
0.0
 40
0.1228992729
 41
1.3236867023
 42
1.3493714145
  0
ELLIPSE
  5
2D8
100
AcDbEntity
  8
0
100
AcDbEllipse
 62
7
  6
BYLAYER
 10
26.223391362
 20
27.4086104227
 30
0.0
 11
18.0789658936
 21
18.1156691418
 31
0.0
 40
0.0815698667
 41
1.2819697374
 42
1.3088657657
  0
ELLIPSE
  5
2D9
100
AcDbEntity
  8
0
100
AcDbEllipse
 62
7
  6
BYLAYER
 10
28.1181585922
 20
38.715363523
 30
0.0
 11
-17.4274961419
 21
17.4466624083
 31
0.0
 40
0.0843354388
 41
-4.5251695758
 42
-4.4954004319
  0
ELLIPSE
  5
2DA
100
AcDbEntity
  8
0
100
AcDbEllipse
 62
7
  6
BYLAYER
 10
28.2067408481
 20
38.715363523
 30
0.0
 11
-17.326459176
 21
17.3696482286
 31
0.0
 40
0.1269935126
 41
-4.5671318146
 42
-4.5373626707
  0
ELLIPSE
  5
2DB
100
AcDbEntity
  8
0
100
AcDbEllipse
 62
7
  6
BYLAYER
 10
28.3298107317
 20
38.715363523
 30
0.0
 11
-17.185307668
 21
17.2622772411
 31
0.0
 40
0.1702469903
 41
-4.6090176139
 42
-4.57924847
  0
ELLIPSE
  5
2DC
100
AcDbEntity
  8
0
100
AcDbEllipse
 62
7
  6
BYLAYER
 10
28.4864316068
 20
38.715363523
 30
0.0
 11
-17.0043043001
 21
17.1250267564
 31
0.0
 40
0.2143062114
 41
-4.650793302
 42
-4.6210241581
  0
ELLIPSE
  5
2DD
100
AcDbEntity
  8
0
100
AcDbEllipse
 62
7
  6
BYLAYER
 10
28.675411494
 20
38.715363523
 30
0.0
 11
-16.7837266909
 21
16.9585571531
 31
0.0
 40
0.2593921815
 41
-4.6924166842
 42
-4.6626475403
  0
ELLIPSE
  5
2DE
100
AcDbEntity
  8
0
100
AcDbEllipse
 62
7
  6
BYLAYER
 10
28.8953121423
 20
38.715363523
 30
0.0
 11
-16.523808647
 21
16.7637596114
 31
0.0
 40
0.3057398728
 41
1.5493527354
 42
1.5791218793
  0
ELLIPSE
  5
2DF
100
AcDbEntity
  8
0
100
AcDbEllipse
 62
7
  6
BYLAYER
 10
29.1444599749
 20
38.715363523
 30
0.0
 11
-16.2246471729
 21
16.5418339295
 31
0.0
 40
0.3536019736
 41
1.5082194939
 42
1.5379886378
  0
ELLIPSE
  5
2E0
100
AcDbEntity
  8
0
100
AcDbEllipse
 62
7
  6
BYLAYER
 10
29.4209588264
 20
38.715363523
 30
0.0
 11
-15.8860502942
 21
16.2944188981
 31
0.0
 40
0.4032531911
 41
1.4674754626
 42
1.4972446065
  0
ELLIPSE
  5
2E1
100
AcDbEntity
  8
0
100
AcDbEllipse
 62
7
  6
BYLAYER
 10
29.7227043735
 20
38.715363523
 30
0.0
 11
-15.507275323
 21
16.023819938
 31
0.0
 40
0.4549951859
 41
1.4272784908
 42
1.4570476347
  0
ELLIPSE
  5
2E2
100
AcDbEntity
  8
0
100
AcDbEllipse
 62
7
  6
BYLAYER
 10
30.0474001506
 20
38.715363523
 30
0.0
 11
-15.0865489373
 21
15.7334287619
 31
0.0
 40
0.5091621171
 41
1.3878744092
 42
1.4176435531
  0
ELLIPSE
  5
2E3
100
AcDbEntity
  8
0
100
AcDbEllipse
 62
7
  6
BYLAYER
 10
30.3925750265
 20
38.715363523
 30
0.0
 11
-14.6201143459
 21
15.4285527016
 31
0.0
 40
0.5661264515
 41
1.349670045
 42
1.3794391888
  0
ELLIPSE
  5
2E4
100
AcDbEntity
  8
0
100
AcDbEllipse
 62
7
  6
BYLAYER
 10
30.7556020122
 20
38.715363523
 30
0.0
 11
-14.1001405585
 21
15.1182070608
 31
0.0
 40
0.6263036642
 41
1.3133928442
 42
1.3431619881
  0
ELLIPSE
  5
2E5
100
AcDbEntity
  8
0
100
AcDbEllipse
 62
7
  6
BYLAYER
 10
31.1337182531
 20
38.715363523
 30
0.0
 11
-13.5094930283
 21
14.8194770471
 31
0.0
 40
0.6901509118
 41
1.2804861718
 42
1.3102553157
  0
ELLIPSE
  5
2E6
100
AcDbEntity
  8
0
100
AcDbEllipse
 62
7
  6
BYLAYER
 10
31.5240460561
 20
38.715363523
 30
0.0
 11
-12.8060309747
 21
14.5700382847
 31
0.0
 40
0.7581403628
 41
1.2542756011
 42
1.2840447449
  0
ELLIPSE
  5
2E7
100
AcDbEntity
  8
0
100
AcDbEllipse
 62
7
  6
BYLAYER
 10
31.9236147912
 20
38.715363523
 30
0.0
 11
-11.8601695234
 21
14.4741311195
 31
0.0
 40
0.8306103506
 41
1.2444691952
 42
1.2742383391
  0
ELLIPSE
  5
2E8
100
AcDbEntity
  8
0
100
AcDbEllipse
 62
7
  6
BYLAYER
 10
32.3293834989
 20
38.715363523
 30
0.0
 11
-10.0427045149
 21
14.9543464083
 31
0.0
 40
0.9066977799
 41
1.2951223273
 42
1.3248914712
  0
ELLIPSE
  5
2E9
100
AcDbEntity
  8
0
100
AcDbEllipse
 62
7
  6
BYLAYER
 10
32.7382640344
 20
38.715363523
 30
0.0
 11
-0.0
 21
17.5084611122
 31
0.0
 40
0.963433044
 41
-4.4411252267
 42
-4.4113560828
  0
ELLIPSE
  5
2EA
100
AcDbEntity
  8
0
100
AcDbEllipse
 62
7
  6
BYLAYER
 10
37.4117899404
 20
38.715363523
 30
0.0
 11
17.4882083164
 21
17.4929960222
 31
0.0
 40
0.0420701413
 41
-1.8297953707
 42
-1.8000262268
  0
ELLIPSE
  5
2EB
100
AcDbEntity
  8
0
100
AcDbEllipse
 62
7
  6
BYLAYER
 10
32.7382640344
 20
38.715363523
 30
0.0
 11
0.0
 21
17.5084611122
 31
0.0
 40
0.963433044
 41
4.4113560828
 42
4.4411252267
  0
ELLIPSE
  5
2EC
100
AcDbEntity
  8
0
100
AcDbEllipse
 62
7
  6
BYLAYER
 10
33.1471445699
 20
38.715363523
 30
0.0
 11
10.0427045149
 21
14.9543464083
 31
0.0
 40
0.9066977799
 41
-1.3248914712
 42
-1.2951223273
  0
ELLIPSE
  5
2ED
100
AcDbEntity
  8
0
100
AcDbEllipse
 62
7
  6
BYLAYER
 10
33.5529132776
 20
38.715363523
 30
0.0
 11
11.8601695234
 21
14.4741311195
 31
0.0
 40
0.8306103506
 41
-1.2742383391
 42
-1.2444691952
  0
ELLIPSE
  5
2EE
100
AcDbEntity
  8
0
100
AcDbEllipse
 62
7
  6
BYLAYER
 10
33.9524820126
 20
38.715363523
 30
0.0
 11
12.8060309747
 21
14.5700382847
 31
0.0
 40
0.7581403628
 41
-1.2840447449
 42
-1.2542756011
  0
ELLIPSE
  5
2EF
100
AcDbEntity
  8
0
100
AcDbEllipse
 62
7
  6
BYLAYER
 10
34.3428098157
 20
38.715363523
 30
0.0
 11
13.5094930283
 21
14.8194770471
 31
0.0
 40
0.6901509118
 41
-1.3102553157
 42
-1.2804861718
  0
ELLIPSE
  5
2F0
100
AcDbEntity
  8
0
100
AcDbEllipse
 62
7
  6
BYLAYER
 10
34.7209260566
 20
38.715363523
 30
0.0
 11
14.1001405585
 21
15.1182070608
 31
0.0
 40
0.6263036642
 41
-1.3431619881
 42
-1.3133928442
  0
ELLIPSE
  5
2F1
100
AcDbEntity
  8
0
100
AcDbEllipse
 62
7
  6
BYLAYER
 10
35.0839530423
 20
38.715363523
 30
0.0
 11
14.6201143459
 21
15.4285527016
 31
0.0
 40
0.5661264515
 41
-1.3794391888
 42
-1.349670045
  0
ELLIPSE
  5
2F2
100
AcDbEntity
  8
0
100
AcDbEllipse
 62
7
  6
BYLAYER
 10
35.4291279182
 20
38.715363523
 30
0.0
 11
15.0865489373
 21
15.7334287619
 31
0.0
 40
0.5091621171
 41
-1.4176435531
 42
-1.3878744092
  0
ELLIPSE
  5
2F3
100
AcDbEntity
  8
0
100
AcDbEllipse
 62
7
  6
BYLAYER
 10
35.7538236953
 20
38.715363523
 30
0.0
 11
15.507275323
 21
16.023819938
 31
0.0
 40
0.4549951859
 41
-1.4570476347
 42
-1.4272784908
  0
ELLIPSE
  5
2F4
100
AcDbEntity
  8
0
100
AcDbEllipse
 62
7
  6
BYLAYER
 10
36.0555692424
 20
38.715363523
 30
0.0
 11
15.8860502942
 21
16.2944188981
 31
0.0
 40
0.4032531911
 41
-1.4972446065
 42
-1.4674754626
  0
ELLIPSE
  5
2F5
100
AcDbEntity
  8
0
100
AcDbEllipse
 62
7
  6
BYLAYER
 10
36.3320680939
 20
38.715363523
 30
0.0
 11
16.2246471729
 21
16.5418339295
 31
0.0
 40
0.3536019736
 41
-1.5379886378
 42
-1.5082194939
  0
ELLIPSE
  5
2F6
100
AcDbEntity
  8
0
100
AcDbEllipse
 62
7
  6
BYLAYER
 10
36.5812159265
 20
38.715363523
 30
0.0
 11
16.523808647
 21
16.7637596114
 31
0.0
 40
0.3057398728
 41
-1.5791218793
 42
-1.5493527354
  0
ELLIPSE
  5
2F7
100
AcDbEntity
  8
0
100
AcDbEllipse
 62
7
  6
BYLAYER
 10
36.8011165748
 20
38.715363523
 30
0.0
 11
16.7837266909
 21
16.9585571531
 31
0.0
 40
0.2593921815
 41
-1.6205377669
 42
-1.590768623
  0
ELLIPSE
  5
2F8
100
AcDbEntity
  8
0
100
AcDbEllipse
 62
7
  6
BYLAYER
 10
36.990096462
 20
38.715363523
 30
0.0
 11
17.0043043001
 21
17.1250267564
 31
0.0
 40
0.2143062114
 41
-1.6621611491
 42
-1.6323920052
  0
ELLIPSE
  5
2F9
100
AcDbEntity
  8
0
100
AcDbEllipse
 62
7
  6
BYLAYER
 10
37.1467173371
 20
38.715363523
 30
0.0
 11
17.185307668
 21
17.2622772411
 31
0.0
 40
0.1702469903
 41
-1.7039368372
 42
-1.6741676933
  0
ELLIPSE
  5
2FA
100
AcDbEntity
  8
0
100
AcDbEllipse
 62
7
  6
BYLAYER
 10
37.2697872207
 20
38.715363523
 30
0.0
 11
17.326459176
 21
17.3696482286
 31
0.0
 40
0.1269935126
 41
-1.7458226364
 42
-1.7160534926
  0
ELLIPSE
  5
2FB
100
AcDbEntity
  8
0
100
AcDbEllipse
 62
7
  6
BYLAYER
 10
37.3583694766
 20
38.715363523
 30
0.0
 11
17.4274961419
 21
17.4466624083
 31
0.0
 40
0.0843354388
 41
-1.7877848753
 42
-1.7580157314
  0
ELLIPSE
  5
2FC
100
AcDbEntity
  8
0
100
AcDbEllipse
 62
7
  6
BYLAYER
 10
39.2531367068
 20
27.4086104227
 30
0.0
 11
-18.0789658936
 21
18.1156691418
 31
0.0
 40
0.0815698667
 41
-1.3088657657
 42
-1.2819697269
  0
ELLIPSE
  5
2FD
100
AcDbEntity
  8
0
100
AcDbEllipse
 62
7
  6
BYLAYER
 10
39.1282256792
 20
27.4086104227
 30
0.0
 11
-17.9584099181
 21
18.0410926156
 31
0.0
 40
0.1228992729
 41
-1.3493714145
 42
-1.3236866873
  0
ELLIPSE
  5
2FE
100
AcDbEntity
  8
0
100
AcDbEllipse
 62
7
  6
BYLAYER
 10
38.9546831851
 20
27.4086104226
 30
0.0
 11
-17.7900285404
 21
17.9373217495
 31
0.0
 40
0.1648887629
 41
-1.3897401552
 42
-1.3652388413
  0
ELLIPSE
  5
2FF
100
AcDbEntity
  8
0
100
AcDbEllipse
 62
7
  6
BYLAYER
 10
38.7338299877
 20
27.4086104227
 30
0.0
 11
-17.5741469284
 21
17.8050458869
 31
0.0
 40
0.2077697388
 41
-1.4299111685
 42
-1.4065581646
  0
ELLIPSE
  5
300
100
AcDbEntity
  8
0
100
AcDbEllipse
 62
7
  6
BYLAYER
 10
38.4673469132
 20
27.4086104227
 30
0.0
 11
-17.311068251
 21
17.6452378715
 31
0.0
 40
0.2517837063
 41
-1.4698078979
 42
-1.4475602366
  0
ELLIPSE
  5
301
100
AcDbEntity
  8
0
100
AcDbEllipse
 62
7
  6
BYLAYER
 10
38.1572620587
 20
27.4086104226
 30
0.0
 11
-17.0009614673
 21
17.4592414022
 31
0.0
 40
0.2971852239
 41
-1.5093298802
 42
-1.4881351175
  0
ELLIPSE
  5
302
100
AcDbEntity
  8
0
100
AcDbEllipse
 62
7
  6
BYLAYER
 10
37.8059353571
 20
27.4086104227
 30
0.0
 11
-16.6436838349
 21
17.2489119491
 31
0.0
 40
0.3442450777
 41
-1.5483400703
 42
-1.5284256044
  0
ELLIPSE
  5
303
100
AcDbEntity
  8
0
100
AcDbEllipse
 62
7
  6
BYLAYER
 10
37.4160406168
 20
27.4086104227
 30
0.0
 11
-16.2384907108
 21
17.0168501026
 31
0.0
 40
0.3932536107
 41
-1.5866441138
 42
-1.5681045703
  0
ELLIPSE
  5
304
100
AcDbEntity
  8
0
100
AcDbEllipse
 62
7
  6
BYLAYER
 10
36.9905451722
 20
27.4086104227
 30
0.0
 11
-15.7835371161
 21
16.766803626
 31
0.0
 40
0.4445239339
 41
-1.623954571
 42
-1.6069196881
  0
ELLIPSE
  5
305
100
AcDbEntity
  8
0
100
AcDbEllipse
 62
7
  6
BYLAYER
 10
36.5326873005
 20
27.4086104226
 30
0.0
 11
-15.274965845
 21
16.5043969512
 31
0.0
 40
0.4983942514
 41
-1.6598253033
 42
-1.6444719578
  0
ELLIPSE
  5
306
100
AcDbEntity
  8
0
100
AcDbEllipse
 62
7
  6
BYLAYER
 10
36.0459515767
 20
27.4086104227
 30
0.0
 11
-14.7051040421
 21
16.2385436118
 31
0.0
 40
0.5552272381
 41
-1.6935221503
 42
-1.6800913845
  0
ELLIPSE
  5
307
100
AcDbEntity
  8
0
100
AcDbEllipse
 62
7
  6
BYLAYER
 10
35.5340423534
 20
27.4086104227
 30
0.0
 11
-14.0585338956
 21
15.9844133441
 31
0.0
 40
0.6154007239
 41
-1.7237441171
 42
-1.7125697259
  0
ELLIPSE
  5
308
100
AcDbEntity
  8
0
100
AcDbEllipse
 62
7
  6
BYLAYER
 10
35.000855569
 20
27.4086104226
 30
0.0
 11
-13.3023954138
 21
15.7703479229
 31
0.0
 40
0.6792721423
 41
-1.7479481052
 42
-1.7395026589
  0
ELLIPSE
  5
309
100
AcDbEntity
  8
0
100
AcDbEllipse
 62
7
  6
BYLAYER
 10
34.4504490968
 20
27.4086104227
 30
0.0
 11
-12.3580633753
 21
15.6563003942
 31
0.0
 40
0.7470541823
 41
-1.7604339261
 42
-1.7554134017
  0
ELLIPSE
  5
30A
100
AcDbEntity
  8
0
100
AcDbEllipse
 62
7
  6
BYLAYER
 10
28.0647381284
 20
38.715363523
 30
0.0
 11
-17.4882083164
 21
17.4929960222
 31
0.0
 40
0.0420701413
 41
-4.4831590804
 42
-4.4533899365
  0
ELLIPSE
  5
30B
100
AcDbEntity
  8
0
100
AcDbEllipse
 62
7
  6
BYLAYER
 10
33.8870118624
 20
27.4086104227
 30
0.0
 11
-10.9958379272
 21
15.791979517
 31
0.0
 40
0.818317629
 41
-1.7455491319
 42
-1.7450389575
  0
ELLIPSE
  5
30C
100
AcDbEntity
  8
0
100
AcDbEllipse
 62
7
  6
BYLAYER
 10
39.3284656196
 20
27.4086104227
 30
0.0
 11
-18.1514209571
 21
18.1605909673
 31
0.0
 40
0.0406765142
 41
-1.2682738639
 42
-1.2401461334
  0
ELLIPSE
  5
30D
100
AcDbEntity
  8
0
100
AcDbEllipse
 62
7
  6
BYLAYER
 10
28.3298107317
 20
38.715363523
 30
0.0
 11
-17.185307668
 21
17.2622772411
 31
0.0
 40
0.1702469903
 41
-2.0397216116
 42
-2.0099524677
  0
ELLIPSE
  5
30E
100
AcDbEntity
  8
0
100
AcDbEllipse
 62
7
  6
BYLAYER
 10
28.4864316068
 20
38.715363523
 30
0.0
 11
-17.0043043001
 21
17.1250267564
 31
0.0
 40
0.2143062114
 41
-2.0814972997
 42
-2.0517281558
  0
ELLIPSE
  5
30F
100
AcDbEntity
  8
0
100
AcDbEllipse
 62
7
  6
BYLAYER
 10
28.675411494
 20
38.715363523
 30
0.0
 11
-16.7837266909
 21
16.9585571531
 31
0.0
 40
0.2593921815
 41
-2.1231206819
 42
-2.093351538
  0
ELLIPSE
  5
310
100
AcDbEntity
  8
0
100
AcDbEllipse
 62
7
  6
BYLAYER
 10
28.8953121423
 20
38.715363523
 30
0.0
 11
-16.523808647
 21
16.7637596114
 31
0.0
 40
0.3057398728
 41
-2.1645365695
 42
-2.1347674256
  0
ELLIPSE
  5
311
100
AcDbEntity
  8
0
100
AcDbEllipse
 62
7
  6
BYLAYER
 10
37.4117899404
 20
38.715363523
 30
0.0
 11
17.4882083164
 21
17.4929960222
 31
0.0
 40
0.0420701413
 41
-4.3990913729
 42
-4.369322229
  0
ELLIPSE
  5
312
100
AcDbEntity
  8
0
100
AcDbEllipse
 62
7
  6
BYLAYER
 10
37.3583694766
 20
38.715363523
 30
0.0
 11
17.4274961419
 21
17.4466624083
 31
0.0
 40
0.0843354388
 41
-4.3570808775
 42
-4.3273117336
  0
ELLIPSE
  5
313
100
AcDbEntity
  8
0
100
AcDbEllipse
 62
7
  6
BYLAYER
 10
37.2697872207
 20
38.715363523
 30
0.0
 11
17.326459176
 21
17.3696482286
 31
0.0
 40
0.1269935126
 41
-4.3151186387
 42
-4.2853494948
  0
ELLIPSE
  5
314
100
AcDbEntity
  8
0
100
AcDbEllipse
 62
7
  6
BYLAYER
 10
37.1467173371
 20
38.715363523
 30
0.0
 11
17.185307668
 21
17.2622772411
 31
0.0
 40
0.1702469903
 41
-4.2732328395
 42
-4.2434636956
  0
ELLIPSE
  5
315
100
AcDbEntity
  8
0
100
AcDbEllipse
 62
7
  6
BYLAYER
 10
29.1444599749
 20
38.715363523
 30
0.0
 11
-16.2246471729
 21
16.5418339295
 31
0.0
 40
0.3536019736
 41
-2.205669811
 42
-2.1759006671
  0
ELLIPSE
  5
316
100
AcDbEntity
  8
0
100
AcDbEllipse
 62
7
  6
BYLAYER
 10
36.990096462
 20
38.715363523
 30
0.0
 11
17.0043043001
 21
17.1250267564
 31
0.0
 40
0.2143062114
 41
-4.2314571513
 42
-4.2016880075
  0
ELLIPSE
  5
317
100
AcDbEntity
  8
0
100
AcDbEllipse
 62
7
  6
BYLAYER
 10
36.8011165748
 20
38.715363523
 30
0.0
 11
16.7837266909
 21
16.9585571531
 31
0.0
 40
0.2593921815
 41
-4.1898337691
 42
-4.1600646253
  0
ELLIPSE
  5
318
100
AcDbEntity
  8
0
100
AcDbEllipse
 62
7
  6
BYLAYER
 10
36.5812159265
 20
38.715363523
 30
0.0
 11
16.523808647
 21
16.7637596114
 31
0.0
 40
0.3057398728
 41
-4.1484178816
 42
-4.1186487377
  0
ELLIPSE
  5
319
100
AcDbEntity
  8
0
100
AcDbEllipse
 62
7
  6
BYLAYER
 10
36.3320680939
 20
38.715363523
 30
0.0
 11
16.2246471729
 21
16.5418339295
 31
0.0
 40
0.3536019736
 41
-4.1072846401
 42
-4.0775154962
  0
ELLIPSE
  5
31A
100
AcDbEntity
  8
0
100
AcDbEllipse
 62
7
  6
BYLAYER
 10
29.4209588264
 20
38.715363523
 30
0.0
 11
-15.8860502942
 21
16.2944188981
 31
0.0
 40
0.4032531911
 41
-2.2464138423
 42
-2.2166446984
  0
ELLIPSE
  5
31B
100
AcDbEntity
  8
0
100
AcDbEllipse
 62
7
  6
BYLAYER
 10
36.0555692424
 20
38.715363523
 30
0.0
 11
15.8860502942
 21
16.2944188981
 31
0.0
 40
0.4032531911
 41
-4.0665406088
 42
-4.0367714649
  0
ELLIPSE
  5
31C
100
AcDbEntity
  8
0
100
AcDbEllipse
 62
7
  6
BYLAYER
 10
35.7538236953
 20
38.715363523
 30
0.0
 11
15.507275323
 21
16.023819938
 31
0.0
 40
0.4549951859
 41
-4.0263436369
 42
-3.9965744931
  0
ELLIPSE
  5
31D
100
AcDbEntity
  8
0
100
AcDbEllipse
 62
7
  6
BYLAYER
 10
35.4291279182
 20
38.715363523
 30
0.0
 11
15.0865489373
 21
15.7334287619
 31
0.0
 40
0.5091621171
 41
-3.9869395554
 42
-3.9571704115
  0
ELLIPSE
  5
31E
100
AcDbEntity
  8
0
100
AcDbEllipse
 62
7
  6
BYLAYER
 10
29.7227043735
 20
38.715363523
 30
0.0
 11
-15.507275323
 21
16.023819938
 31
0.0
 40
0.4549951859
 41
-2.2866108141
 42
-2.2568416702
  0
ELLIPSE
  5
31F
100
AcDbEntity
  8
0
100
AcDbEllipse
 62
7
  6
BYLAYER
 10
35.0839530423
 20
38.715363523
 30
0.0
 11
14.6201143459
 21
15.4285527016
 31
0.0
 40
0.5661264515
 41
-3.9487351911
 42
-3.9189660472
  0
ELLIPSE
  5
320
100
AcDbEntity
  8
0
100
AcDbEllipse
 62
7
  6
BYLAYER
 10
34.7209260566
 20
38.715363523
 30
0.0
 11
14.1001405585
 21
15.1182070608
 31
0.0
 40
0.6263036642
 41
-3.9124579904
 42
-3.8826888465
  0
ELLIPSE
  5
321
100
AcDbEntity
  8
0
100
AcDbEllipse
 62
7
  6
BYLAYER
 10
34.3428098157
 20
38.715363523
 30
0.0
 11
13.5094930283
 21
14.8194770471
 31
0.0
 40
0.6901509118
 41
-3.879551318
 42
-3.8497821741
  0
ELLIPSE
  5
322
100
AcDbEntity
  8
0
100
AcDbEllipse
 62
7
  6
BYLAYER
 10
33.9524820126
 20
38.715363523
 30
0.0
 11
12.8060309747
 21
14.5700382847
 31
0.0
 40
0.7581403628
 41
-3.8533407472
 42
-3.8235716033
  0
ELLIPSE
  5
323
100
AcDbEntity
  8
0
100
AcDbEllipse
 62
7
  6
BYLAYER
 10
33.5529132776
 20
38.715363523
 30
0.0
 11
11.8601695234
 21
14.4741311195
 31
0.0
 40
0.8306103506
 41
-3.8435343414
 42
-3.8137651975
  0
ELLIPSE
  5
324
100
AcDbEntity
  8
0
100
AcDbEllipse
 62
7
  6
BYLAYER
 10
33.1471445699
 20
38.715363523
 30
0.0
 11
10.0427045149
 21
14.9543464083
 31
0.0
 40
0.9066977799
 41
-3.8941874735
 42
-3.8644183296
  0
ELLIPSE
  5
325
100
AcDbEntity
  8
0
100
AcDbEllipse
 62
7
  6
BYLAYER
 10
30.0474001506
 20
38.715363523
 30
0.0
 11
-15.0865489373
 21
15.7334287619
 31
0.0
 40
0.5091621171
 41
-2.3260148957
 42
-2.2962457518
  0
ELLIPSE
  5
326
100
AcDbEntity
  8
0
100
AcDbEllipse
 62
7
  6
BYLAYER
 10
30.3925750265
 20
38.715363523
 30
0.0
 11
-14.6201143459
 21
15.4285527016
 31
0.0
 40
0.5661264515
 41
-2.36421926
 42
-2.3344501161
  0
ELLIPSE
  5
327
100
AcDbEntity
  8
0
100
AcDbEllipse
 62
7
  6
BYLAYER
 10
30.7556020122
 20
38.715363523
 30
0.0
 11
-14.1001405585
 21
15.1182070608
 31
0.0
 40
0.6263036642
 41
-2.4004964607
 42
-2.3707273168
  0
ELLIPSE
  5
328
100
AcDbEntity
  8
0
100
AcDbEllipse
 62
7
  6
BYLAYER
 10
31.1337182531
 20
38.715363523
 30
0.0
 11
-13.5094930283
 21
14.8194770471
 31
0.0
 40
0.6901509118
 41
-2.4334031331
 42
-2.4036339892
  0
ELLIPSE
  5
329
100
AcDbEntity
  8
0
100
AcDbEllipse
 62
7
  6
BYLAYER
 10
31.5240460561
 20
38.715363523
 30
0.0
 11
-12.8060309747
 21
14.5700382847
 31
0.0
 40
0.7581403628
 41
-2.4596137039
 42
-2.42984456
  0
ELLIPSE
  5
32A
100
AcDbEntity
  8
0
100
AcDbEllipse
 62
7
  6
BYLAYER
 10
28.1181585922
 20
38.715363523
 30
0.0
 11
-17.4274961419
 21
17.4466624083
 31
0.0
 40
0.0843354388
 41
-1.9558735735
 42
-1.9261044297
  0
ELLIPSE
  5
32B
100
AcDbEntity
  8
0
100
AcDbEllipse
 62
7
  6
BYLAYER
 10
31.9236147912
 20
38.715363523
 30
0.0
 11
-11.8601695234
 21
14.4741311195
 31
0.0
 40
0.8306103506
 41
-2.4694201097
 42
-2.4396509658
  0
ELLIPSE
  5
32C
100
AcDbEntity
  8
0
100
AcDbEllipse
 62
7
  6
BYLAYER
 10
28.0647381284
 20
38.715363523
 30
0.0
 11
-17.4882083164
 21
17.4929960222
 31
0.0
 40
0.0420701413
 41
-1.9138630781
 42
-1.8840939343
  0
ELLIPSE
  5
32D
100
AcDbEntity
  8
0
100
AcDbEllipse
 62
7
  6
BYLAYER
 10
32.3293834989
 20
38.715363523
 30
0.0
 11
-10.0427045149
 21
14.9543464083
 31
0.0
 40
0.9066977799
 41
-2.4187669776
 42
-2.3889978337
  0
ELLIPSE
  5
32E
100
AcDbEntity
  8
0
100
AcDbEllipse
 62
7
  6
BYLAYER
 10
28.2067408481
 20
38.715363523
 30
0.0
 11
-17.326459176
 21
17.3696482286
 31
0.0
 40
0.1269935126
 41
-1.9978358124
 42
-1.9680666685
  0
ELLIPSE
  5
32F
100
AcDbEntity
  8
0
100
AcDbEllipse
 62
7
  6
BYLAYER
 10
37.4117899404
 20
23.7326074915
 30
0.0
 11
-17.4882083164
 21
17.4929960222
 31
0.0
 40
0.0420701413
 41
-1.3415664268
 42
-1.3117972829
  0
ELLIPSE
  5
330
100
AcDbEntity
  8
0
100
AcDbEllipse
 62
7
  6
BYLAYER
 10
33.8870118624
 20
35.0393605918
 30
0.0
 11
10.9958379272
 21
15.791979517
 31
0.0
 40
0.818317629
 41
-1.3965536952
 42
-1.3960435217
  0
ELLIPSE
  5
331
100
AcDbEntity
  8
0
100
AcDbEllipse
 62
7
  6
BYLAYER
 10
34.4504490968
 20
35.0393605918
 30
0.0
 11
12.3580633753
 21
15.6563003942
 31
0.0
 40
0.7470541823
 41
4.8970060586
 42
4.9020265797
  0
ELLIPSE
  5
332
100
AcDbEntity
  8
0
100
AcDbEllipse
 62
7
  6
BYLAYER
 10
35.000855569
 20
35.0393605918
 30
0.0
 11
13.3023954138
 21
15.7703479229
 31
0.0
 40
0.6792721423
 41
4.881095312
 42
4.8895407588
  0
ELLIPSE
  5
333
100
AcDbEntity
  8
0
100
AcDbEllipse
 62
7
  6
BYLAYER
 10
35.5340423534
 20
35.0393605918
 30
0.0
 11
14.0585338956
 21
15.9844133441
 31
0.0
 40
0.6154007239
 41
-1.4290229293
 42
-1.4178485365
  0
ELLIPSE
  5
334
100
AcDbEntity
  8
0
100
AcDbEllipse
 62
7
  6
BYLAYER
 10
36.0459515767
 20
35.0393605918
 30
0.0
 11
14.7051040421
 21
16.2385436118
 31
0.0
 40
0.5552272381
 41
-1.4615012695
 42
-1.4480705033
  0
ELLIPSE
  5
335
100
AcDbEntity
  8
0
100
AcDbEllipse
 62
7
  6
BYLAYER
 10
36.5326873005
 20
35.0393605918
 30
0.0
 11
15.274965845
 21
16.5043969512
 31
0.0
 40
0.4983942514
 41
-1.4971206964
 42
-1.4817673503
  0
ELLIPSE
  5
336
100
AcDbEntity
  8
0
100
AcDbEllipse
 62
7
  6
BYLAYER
 10
36.9905451722
 20
35.0393605918
 30
0.0
 11
15.7835371161
 21
16.766803626
 31
0.0
 40
0.4445239339
 41
-1.5346729672
 42
-1.5176380826
  0
ELLIPSE
  5
337
100
AcDbEntity
  8
0
100
AcDbEllipse
 62
7
  6
BYLAYER
 10
37.4160406168
 20
35.0393605918
 30
0.0
 11
16.2384907108
 21
17.0168501026
 31
0.0
 40
0.3932536107
 41
-1.5734880867
 42
-1.5549485398
  0
ELLIPSE
  5
338
100
AcDbEntity
  8
0
100
AcDbEllipse
 62
7
  6
BYLAYER
 10
37.8059353571
 20
35.0393605918
 30
0.0
 11
16.6436838349
 21
17.2489119491
 31
0.0
 40
0.3442450777
 41
-1.6131670271
 42
-1.5932525833
  0
ELLIPSE
  5
339
100
AcDbEntity
  8
0
100
AcDbEllipse
 62
7
  6
BYLAYER
 10
38.1572620587
 20
35.0393605918
 30
0.0
 11
17.0009614673
 21
17.4592414022
 31
0.0
 40
0.2971852239
 41
-1.6534575031
 42
-1.6322627734
  0
ELLIPSE
  5
33A
100
AcDbEntity
  8
0
100
AcDbEllipse
 62
7
  6
BYLAYER
 10
38.4673469132
 20
35.0393605918
 30
0.0
 11
17.311068251
 21
17.6452378715
 31
0.0
 40
0.2517837063
 41
-1.6940323896
 42
-1.6717847557
  0
ELLIPSE
  5
33B
100
AcDbEntity
  8
0
100
AcDbEllipse
 62
7
  6
BYLAYER
 10
38.7338299877
 20
35.0393605918
 30
0.0
 11
17.5741469284
 21
17.8050458869
 31
0.0
 40
0.2077697388
 41
-1.735034466
 42
-1.7116814851
  0
ELLIPSE
  5
33C
100
AcDbEntity
  8
0
100
AcDbEllipse
 62
7
  6
BYLAYER
 10
38.9546831851
 20
35.0393605918
 30
0.0
 11
17.7900285404
 21
17.9373217495
 31
0.0
 40
0.1648887629
 41
-1.7763537932
 42
-1.7518524984
  0
ELLIPSE
  5
33D
100
AcDbEntity
  8
0
100
AcDbEllipse
 62
7
  6
BYLAYER
 10
39.1282256792
 20
35.0393605918
 30
0.0
 11
17.9584099181
 21
18.0410926156
 31
0.0
 40
0.1228992729
 41
-1.8179059513
 42
-1.7922212391
  0
ELLIPSE
  5
33E
100
AcDbEntity
  8
0
100
AcDbEllipse
 62
7
  6
BYLAYER
 10
39.2531367068
 20
35.0393605918
 30
0.0
 11
18.0789658936
 21
18.1156691418
 31
0.0
 40
0.0815698667
 41
-1.8596229162
 42
-1.8327268879
  0
ELLIPSE
  5
33F
100
AcDbEntity
  8
0
100
AcDbEllipse
 62
7
  6
BYLAYER
 10
39.3284656196
 20
35.0393605918
 30
0.0
 11
18.1514209571
 21
18.1605909673
 31
0.0
 40
0.0406765142
 41
-1.9014465147
 42
-1.8733187897
  0
ELLIPSE
  5
340
100
AcDbEntity
  8
0
100
AcDbEllipse
 62
7
  6
BYLAYER
 10
26.1480624492
 20
35.0393605918
 30
0.0
 11
-18.1514209571
 21
18.1605909673
 31
0.0
 40
0.0406765142
 41
-4.4098665175
 42
-4.381738787
  0
ELLIPSE
  5
341
100
AcDbEntity
  8
0
100
AcDbEllipse
 62
7
  6
BYLAYER
 10
32.3293834989
 20
23.7326074915
 30
0.0
 11
10.0427045149
 21
14.9543464083
 31
0.0
 40
0.9066977799
 41
-4.4664841248
 42
-4.4367149809
  0
ELLIPSE
  5
342
100
AcDbEntity
  8
0
100
AcDbEllipse
 62
7
  6
BYLAYER
 10
31.9236147912
 20
23.7326074915
 30
0.0
 11
11.8601695234
 21
14.4741311195
 31
0.0
 40
0.8306103506
 41
-4.4158309927
 42
-4.3860618488
  0
ELLIPSE
  5
343
100
AcDbEntity
  8
0
100
AcDbEllipse
 62
7
  6
BYLAYER
 10
31.5240460561
 20
23.7326074915
 30
0.0
 11
12.8060309747
 21
14.5700382847
 31
0.0
 40
0.7581403628
 41
-4.4256373985
 42
-4.3958682546
  0
ELLIPSE
  5
344
100
AcDbEntity
  8
0
100
AcDbEllipse
 62
7
  6
BYLAYER
 10
31.1337182531
 20
23.7326074915
 30
0.0
 11
13.5094930283
 21
14.8194770471
 31
0.0
 40
0.6901509118
 41
-4.4518479693
 42
-4.4220788254
  0
ELLIPSE
  5
345
100
AcDbEntity
  8
0
100
AcDbEllipse
 62
7
  6
BYLAYER
 10
30.7556020122
 20
23.7326074915
 30
0.0
 11
14.1001405585
 21
15.1182070608
 31
0.0
 40
0.6263036642
 41
-4.4847546417
 42
-4.4549854978
  0
ELLIPSE
  5
346
100
AcDbEntity
  8
0
100
AcDbEllipse
 62
7
  6
BYLAYER
 10
30.3925750265
 20
23.7326074915
 30
0.0
 11
14.6201143459
 21
15.4285527016
 31
0.0
 40
0.5661264515
 41
-4.5210318424
 42
-4.4912626986
  0
ELLIPSE
  5
347
100
AcDbEntity
  8
0
100
AcDbEllipse
 62
7
  6
BYLAYER
 10
30.0474001506
 20
23.7326074915
 30
0.0
 11
15.0865489373
 21
15.7334287619
 31
0.0
 40
0.5091621171
 41
-4.5592362067
 42
-4.5294670628
  0
ELLIPSE
  5
348
100
AcDbEntity
  8
0
100
AcDbEllipse
 62
7
  6
BYLAYER
 10
29.7227043735
 20
23.7326074915
 30
0.0
 11
15.507275323
 21
16.023819938
 31
0.0
 40
0.4549951859
 41
-4.5986402883
 42
-4.5688711444
  0
ELLIPSE
  5
349
100
AcDbEntity
  8
0
100
AcDbEllipse
 62
7
  6
BYLAYER
 10
29.4209588264
 20
23.7326074915
 30
0.0
 11
15.8860502942
 21
16.2944188981
 31
0.0
 40
0.4032531911
 41
-4.6388372601
 42
-4.6090681162
  0
ELLIPSE
  5
34A
100
AcDbEntity
  8
0
100
AcDbEllipse
 62
7
  6
BYLAYER
 10
29.1444599749
 20
23.7326074915
 30
0.0
 11
16.2246471729
 21
16.5418339295
 31
0.0
 40
0.3536019736
 41
-4.6795812914
 42
-4.6498121475
  0
ELLIPSE
  5
34B
100
AcDbEntity
  8
0
100
AcDbEllipse
 62
7
  6
BYLAYER
 10
28.8953121423
 20
23.7326074915
 30
0.0
 11
16.523808647
 21
16.7637596114
 31
0.0
 40
0.3057398728
 41
1.5624707743
 42
1.5922399181
  0
ELLIPSE
  5
34C
100
AcDbEntity
  8
0
100
AcDbEllipse
 62
7
  6
BYLAYER
 10
28.675411494
 20
23.7326074915
 30
0.0
 11
16.7837266909
 21
16.9585571531
 31
0.0
 40
0.2593921815
 41
1.5210548867
 42
1.5508240306
  0
ELLIPSE
  5
34D
100
AcDbEntity
  8
0
100
AcDbEllipse
 62
7
  6
BYLAYER
 10
28.4864316068
 20
23.7326074915
 30
0.0
 11
17.0043043001
 21
17.1250267564
 31
0.0
 40
0.2143062114
 41
1.4794315045
 42
1.5092006484
  0
ELLIPSE
  5
34E
100
AcDbEntity
  8
0
100
AcDbEllipse
 62
7
  6
BYLAYER
 10
28.3298107317
 20
23.7326074915
 30
0.0
 11
17.185307668
 21
17.2622772411
 31
0.0
 40
0.1702469903
 41
1.4376558164
 42
1.4674249603
  0
ELLIPSE
  5
34F
100
AcDbEntity
  8
0
100
AcDbEllipse
 62
7
  6
BYLAYER
 10
28.2067408481
 20
23.7326074915
 30
0.0
 11
17.326459176
 21
17.3696482286
 31
0.0
 40
0.1269935126
 41
1.3957700171
 42
1.425539161
  0
ELLIPSE
  5
350
100
AcDbEntity
  8
0
100
AcDbEllipse
 62
7
  6
BYLAYER
 10
28.1181585922
 20
23.7326074915
 30
0.0
 11
17.4274961419
 21
17.4466624083
 31
0.0
 40
0.0843354388
 41
1.3538077783
 42
1.3835769222
  0
ELLIPSE
  5
351
100
AcDbEntity
  8
0
100
AcDbEllipse
 62
7
  6
BYLAYER
 10
28.0647381284
 20
23.7326074915
 30
0.0
 11
17.4882083164
 21
17.4929960222
 31
0.0
 40
0.0420701413
 41
1.3117972829
 42
1.3415664268
  0
ELLIPSE
  5
352
100
AcDbEntity
  8
0
100
AcDbEllipse
 62
7
  6
BYLAYER
 10
37.3583694766
 20
23.7326074915
 30
0.0
 11
-17.4274961419
 21
17.4466624083
 31
0.0
 40
0.0843354388
 41
-1.3835769222
 42
-1.3538077783
  0
ELLIPSE
  5
353
100
AcDbEntity
  8
0
100
AcDbEllipse
 62
7
  6
BYLAYER
 10
37.2697872207
 20
23.7326074915
 30
0.0
 11
-17.326459176
 21
17.3696482286
 31
0.0
 40
0.1269935126
 41
-1.425539161
 42
-1.3957700171
  0
ELLIPSE
  5
354
100
AcDbEntity
  8
0
100
AcDbEllipse
 62
7
  6
BYLAYER
 10
37.1467173371
 20
23.7326074915
 30
0.0
 11
-17.185307668
 21
17.2622772411
 31
0.0
 40
0.1702469903
 41
-1.4674249603
 42
-1.4376558164
  0
ELLIPSE
  5
355
100
AcDbEntity
  8
0
100
AcDbEllipse
 62
7
  6
BYLAYER
 10
36.990096462
 20
23.7326074915
 30
0.0
 11
-17.0043043001
 21
17.1250267564
 31
0.0
 40
0.2143062114
 41
-1.5092006484
 42
-1.4794315045
  0
ELLIPSE
  5
356
100
AcDbEntity
  8
0
100
AcDbEllipse
 62
7
  6
BYLAYER
 10
36.8011165748
 20
23.7326074915
 30
0.0
 11
-16.7837266909
 21
16.9585571531
 31
0.0
 40
0.2593921815
 41
-1.5508240306
 42
-1.5210548867
  0
ELLIPSE
  5
357
100
AcDbEntity
  8
0
100
AcDbEllipse
 62
7
  6
BYLAYER
 10
36.5812159265
 20
23.7326074915
 30
0.0
 11
-16.523808647
 21
16.7637596114
 31
0.0
 40
0.3057398728
 41
-1.5922399181
 42
-1.5624707743
  0
ELLIPSE
  5
358
100
AcDbEntity
  8
0
100
AcDbEllipse
 62
7
  6
BYLAYER
 10
36.3320680939
 20
23.7326074915
 30
0.0
 11
-16.2246471729
 21
16.5418339295
 31
0.0
 40
0.3536019736
 41
-1.6333731597
 42
-1.6036040158
  0
ELLIPSE
  5
359
100
AcDbEntity
  8
0
100
AcDbEllipse
 62
7
  6
BYLAYER
 10
36.0555692424
 20
23.7326074915
 30
0.0
 11
-15.8860502942
 21
16.2944188981
 31
0.0
 40
0.4032531911
 41
-1.674117191
 42
-1.6443480471
  0
ELLIPSE
  5
35A
100
AcDbEntity
  8
0
100
AcDbEllipse
 62
7
  6
BYLAYER
 10
26.223391362
 20
35.0393605918
 30
0.0
 11
-18.0789658936
 21
18.1156691418
 31
0.0
 40
0.0815698667
 41
-4.4504584193
 42
-4.4235623805
  0
ELLIPSE
  5
35B
100
AcDbEntity
  8
0
100
AcDbEllipse
 62
7
  6
BYLAYER
 10
35.7538236953
 20
23.7326074915
 30
0.0
 11
-15.507275323
 21
16.023819938
 31
0.0
 40
0.4549951859
 41
-1.7143141628
 42
-1.6845450189
  0
ELLIPSE
  5
35C
100
AcDbEntity
  8
0
100
AcDbEllipse
 62
7
  6
BYLAYER
 10
26.3483023896
 20
35.0393605918
 30
0.0
 11
-17.9584099181
 21
18.0410926156
 31
0.0
 40
0.1228992729
 41
-4.490964068
 42
-4.4652793409
  0
ELLIPSE
  5
35D
100
AcDbEntity
  8
0
100
AcDbEllipse
 62
7
  6
BYLAYER
 10
35.4291279182
 20
23.7326074915
 30
0.0
 11
-15.0865489373
 21
15.7334287619
 31
0.0
 40
0.5091621171
 41
-1.7537182443
 42
-1.7239491005
  0
ELLIPSE
  5
35E
100
AcDbEntity
  8
0
100
AcDbEllipse
 62
7
  6
BYLAYER
 10
26.5218448837
 20
35.0393605918
 30
0.0
 11
-17.7900285404
 21
17.9373217495
 31
0.0
 40
0.1648887629
 41
-4.5313328088
 42
-4.5068314949
  0
ELLIPSE
  5
35F
100
AcDbEntity
  8
0
100
AcDbEllipse
 62
7
  6
BYLAYER
 10
35.0839530423
 20
23.7326074915
 30
0.0
 11
-14.6201143459
 21
15.4285527016
 31
0.0
 40
0.5661264515
 41
-1.7919226086
 42
-1.7621534647
  0
ELLIPSE
  5
360
100
AcDbEntity
  8
0
100
AcDbEllipse
 62
7
  6
BYLAYER
 10
26.7426980811
 20
35.0393605918
 30
0.0
 11
-17.5741469284
 21
17.8050458869
 31
0.0
 40
0.2077697388
 41
-4.5715038221
 42
-4.5481508182
  0
ELLIPSE
  5
361
100
AcDbEntity
  8
0
100
AcDbEllipse
 62
7
  6
BYLAYER
 10
34.7209260566
 20
23.7326074915
 30
0.0
 11
-14.1001405585
 21
15.1182070608
 31
0.0
 40
0.6263036642
 41
-1.8281998094
 42
-1.7984306655
  0
ELLIPSE
  5
362
100
AcDbEntity
  8
0
100
AcDbEllipse
 62
7
  6
BYLAYER
 10
27.0091811556
 20
35.0393605918
 30
0.0
 11
-17.311068251
 21
17.6452378715
 31
0.0
 40
0.2517837063
 41
-4.6114005514
 42
-4.5891528902
  0
ELLIPSE
  5
363
100
AcDbEntity
  8
0
100
AcDbEllipse
 62
7
  6
BYLAYER
 10
34.3428098157
 20
23.7326074915
 30
0.0
 11
-13.5094930283
 21
14.8194770471
 31
0.0
 40
0.6901509118
 41
-1.8611064818
 42
-1.8313373379
  0
ELLIPSE
  5
364
100
AcDbEntity
  8
0
100
AcDbEllipse
 62
7
  6
BYLAYER
 10
27.3192660101
 20
35.0393605918
 30
0.0
 11
-17.0009614673
 21
17.4592414022
 31
0.0
 40
0.2971852239
 41
-4.6509225338
 42
-4.6297277711
  0
ELLIPSE
  5
365
100
AcDbEntity
  8
0
100
AcDbEllipse
 62
7
  6
BYLAYER
 10
33.9524820126
 20
23.7326074915
 30
0.0
 11
-12.8060309747
 21
14.5700382847
 31
0.0
 40
0.7581403628
 41
-1.8873170525
 42
-1.8575479087
  0
ELLIPSE
  5
366
100
AcDbEntity
  8
0
100
AcDbEllipse
 62
7
  6
BYLAYER
 10
27.6705927117
 20
35.0393605918
 30
0.0
 11
-16.6436838349
 21
17.2489119491
 31
0.0
 40
0.3442450777
 41
-4.6899327238
 42
-4.670018258
  0
ELLIPSE
  5
367
100
AcDbEntity
  8
0
100
AcDbEllipse
 62
7
  6
BYLAYER
 10
33.5529132776
 20
23.7326074915
 30
0.0
 11
-11.8601695234
 21
14.4741311195
 31
0.0
 40
0.8306103506
 41
-1.8971234584
 42
-1.8673543145
  0
ELLIPSE
  5
368
100
AcDbEntity
  8
0
100
AcDbEllipse
 62
7
  6
BYLAYER
 10
28.060487452
 20
35.0393605918
 30
0.0
 11
-16.2384907108
 21
17.0168501026
 31
0.0
 40
0.3932536107
 41
1.5549485398
 42
1.5734880833
  0
ELLIPSE
  5
369
100
AcDbEntity
  8
0
100
AcDbEllipse
 62
7
  6
BYLAYER
 10
33.1471445699
 20
23.7326074915
 30
0.0
 11
-10.0427045149
 21
14.9543464083
 31
0.0
 40
0.9066977799
 41
-1.8464703263
 42
-1.8167011824
  0
ELLIPSE
  5
36A
100
AcDbEntity
  8
0
100
AcDbEllipse
 62
7
  6
BYLAYER
 10
28.4859828966
 20
35.0393605918
 30
0.0
 11
-15.7835371161
 21
16.766803626
 31
0.0
 40
0.4445239339
 41
1.5176380826
 42
1.5346729655
  0
ELLIPSE
  5
36B
100
AcDbEntity
  8
0
100
AcDbEllipse
 62
7
  6
BYLAYER
 10
32.7382640344
 20
23.7326074915
 30
0.0
 11
-0.0
 21
17.5084611122
 31
0.0
 40
0.963433044
 41
-1.2995325731
 42
-1.2697634292
  0
ELLIPSE
  5
36C
100
AcDbEntity
  8
0
100
AcDbEllipse
 62
7
  6
BYLAYER
 10
28.9438407682
 20
35.0393605918
 30
0.0
 11
-15.274965845
 21
16.5043969512
 31
0.0
 40
0.4983942514
 41
1.4817673503
 42
1.4971206958
  0
ELLIPSE
  5
36D
100
AcDbEntity
  8
0
100
AcDbEllipse
 62
7
  6
BYLAYER
 10
29.4305764921
 20
35.0393605918
 30
0.0
 11
-14.7051040421
 21
16.2385436118
 31
0.0
 40
0.5552272381
 41
1.4480705033
 42
1.4615012691
  0
ELLIPSE
  5
36E
100
AcDbEntity
  8
0
100
AcDbEllipse
 62
7
  6
BYLAYER
 10
29.9424857154
 20
35.0393605918
 30
0.0
 11
-14.0585338956
 21
15.9844133441
 31
0.0
 40
0.6154007239
 41
1.4178485365
 42
1.4290229277
  0
ELLIPSE
  5
36F
100
AcDbEntity
  8
0
100
AcDbEllipse
 62
7
  6
BYLAYER
 10
30.4756724998
 20
35.0393605918
 30
0.0
 11
-13.3023954138
 21
15.7703479229
 31
0.0
 40
0.6792721423
 41
1.3936445484
 42
1.4020899947
  0
ELLIPSE
  5
370
100
AcDbEntity
  8
0
100
AcDbEllipse
 62
7
  6
BYLAYER
 10
31.026078972
 20
35.0393605918
 30
0.0
 11
-12.3580633753
 21
15.6563003942
 31
0.0
 40
0.7470541823
 41
1.3811587275
 42
1.3861792519
  0
ELLIPSE
  5
371
100
AcDbEntity
  8
0
100
AcDbEllipse
 62
7
  6
BYLAYER
 10
31.5895162064
 20
35.0393605918
 30
0.0
 11
-10.9958379272
 21
15.791979517
 31
0.0
 40
0.818317629
 41
1.3960435217
 42
1.3965536961
  0
ELLIPSE
  5
372
100
AcDbEntity
  8
0
100
AcDbEllipse
 62
7
  6
BYLAYER
 10
32.7382640344
 20
23.7326074915
 30
0.0
 11
0.0
 21
17.5084611122
 31
0.0
 40
0.963433044
 41
7.5529487364
 42
7.5827178802
  0
ELLIPSE
  5
373
100
AcDbEntity
  8
0
100
AcDbEllipse
 62
7
  6
BYLAYER
 10
36.5812159265
 20
23.7326074915
 30
0.0
 11
-16.523808647
 21
16.7637596114
 31
0.0
 40
0.3057398728
 41
0.9770560841
 42
1.006825228
  0
ELLIPSE
  5
374
100
AcDbEntity
  8
0
100
AcDbEllipse
 62
7
  6
BYLAYER
 10
37.4117899404
 20
23.7326074915
 30
0.0
 11
-17.4882083164
 21
17.4929960222
 31
0.0
 40
0.0420701413
 41
1.2277295755
 42
1.2574987193
  0
ELLIPSE
  5
375
100
AcDbEntity
  8
0
100
AcDbEllipse
 62
7
  6
BYLAYER
 10
36.3320680939
 20
23.7326074915
 30
0.0
 11
-16.2246471729
 21
16.5418339295
 31
0.0
 40
0.3536019736
 41
0.9359228426
 42
0.9656919865
  0
ELLIPSE
  5
376
100
AcDbEntity
  8
0
100
AcDbEllipse
 62
7
  6
BYLAYER
 10
28.0647381284
 20
23.7326074915
 30
0.0
 11
17.4882083164
 21
17.4929960222
 31
0.0
 40
0.0420701413
 41
-1.2574987193
 42
-1.2277295755
  0
ELLIPSE
  5
377
100
AcDbEntity
  8
0
100
AcDbEllipse
 62
7
  6
BYLAYER
 10
28.1181585922
 20
23.7326074915
 30
0.0
 11
17.4274961419
 21
17.4466624083
 31
0.0
 40
0.0843354388
 41
-1.2154882239
 42
-1.18571908
  0
ELLIPSE
  5
378
100
AcDbEntity
  8
0
100
AcDbEllipse
 62
7
  6
BYLAYER
 10
28.2067408481
 20
23.7326074915
 30
0.0
 11
17.326459176
 21
17.3696482286
 31
0.0
 40
0.1269935126
 41
-1.1735259851
 42
-1.1437568412
  0
ELLIPSE
  5
379
100
AcDbEntity
  8
0
100
AcDbEllipse
 62
7
  6
BYLAYER
 10
28.3298107317
 20
23.7326074915
 30
0.0
 11
17.185307668
 21
17.2622772411
 31
0.0
 40
0.1702469903
 41
-1.1316401859
 42
-1.101871042
  0
ELLIPSE
  5
37A
100
AcDbEntity
  8
0
100
AcDbEllipse
 62
7
  6
BYLAYER
 10
28.4864316068
 20
23.7326074915
 30
0.0
 11
17.0043043001
 21
17.1250267564
 31
0.0
 40
0.2143062114
 41
-1.0898644977
 42
-1.0600953539
  0
ELLIPSE
  5
37B
100
AcDbEntity
  8
0
100
AcDbEllipse
 62
7
  6
BYLAYER
 10
36.0555692424
 20
23.7326074915
 30
0.0
 11
-15.8860502942
 21
16.2944188981
 31
0.0
 40
0.4032531911
 41
0.8951788113
 42
0.9249479552
  0
ELLIPSE
  5
37C
100
AcDbEntity
  8
0
100
AcDbEllipse
 62
7
  6
BYLAYER
 10
28.675411494
 20
23.7326074915
 30
0.0
 11
16.7837266909
 21
16.9585571531
 31
0.0
 40
0.2593921815
 41
-1.0482411156
 42
-1.0184719717
  0
ELLIPSE
  5
37D
100
AcDbEntity
  8
0
100
AcDbEllipse
 62
7
  6
BYLAYER
 10
28.8953121423
 20
23.7326074915
 30
0.0
 11
16.523808647
 21
16.7637596114
 31
0.0
 40
0.3057398728
 41
-1.006825228
 42
-0.9770560841
  0
ELLIPSE
  5
37E
100
AcDbEntity
  8
0
100
AcDbEllipse
 62
7
  6
BYLAYER
 10
29.1444599749
 20
23.7326074915
 30
0.0
 11
16.2246471729
 21
16.5418339295
 31
0.0
 40
0.3536019736
 41
-0.9656919865
 42
-0.9359228426
  0
ELLIPSE
  5
37F
100
AcDbEntity
  8
0
100
AcDbEllipse
 62
7
  6
BYLAYER
 10
29.4209588264
 20
23.7326074915
 30
0.0
 11
15.8860502942
 21
16.2944188981
 31
0.0
 40
0.4032531911
 41
-0.9249479552
 42
-0.8951788113
  0
ELLIPSE
  5
380
100
AcDbEntity
  8
0
100
AcDbEllipse
 62
7
  6
BYLAYER
 10
35.7538236953
 20
23.7326074915
 30
0.0
 11
-15.507275323
 21
16.023819938
 31
0.0
 40
0.4549951859
 41
0.8549818395
 42
0.8847509834
  0
ELLIPSE
  5
381
100
AcDbEntity
  8
0
100
AcDbEllipse
 62
7
  6
BYLAYER
 10
29.7227043735
 20
23.7326074915
 30
0.0
 11
15.507275323
 21
16.023819938
 31
0.0
 40
0.4549951859
 41
-0.8847509834
 42
-0.8549818395
  0
ELLIPSE
  5
382
100
AcDbEntity
  8
0
100
AcDbEllipse
 62
7
  6
BYLAYER
 10
30.0474001506
 20
23.7326074915
 30
0.0
 11
15.0865489373
 21
15.7334287619
 31
0.0
 40
0.5091621171
 41
-0.8453469018
 42
-0.8155777579
  0
ELLIPSE
  5
383
100
AcDbEntity
  8
0
100
AcDbEllipse
 62
7
  6
BYLAYER
 10
30.3925750265
 20
23.7326074915
 30
0.0
 11
14.6201143459
 21
15.4285527016
 31
0.0
 40
0.5661264515
 41
-0.8071425375
 42
-0.7773733936
  0
ELLIPSE
  5
384
100
AcDbEntity
  8
0
100
AcDbEllipse
 62
7
  6
BYLAYER
 10
30.7556020122
 20
23.7326074915
 30
0.0
 11
14.1001405585
 21
15.1182070608
 31
0.0
 40
0.6263036642
 41
-0.7708653368
 42
-0.7410961929
  0
ELLIPSE
  5
385
100
AcDbEntity
  8
0
100
AcDbEllipse
 62
7
  6
BYLAYER
 10
31.1337182531
 20
23.7326074915
 30
0.0
 11
13.5094930283
 21
14.8194770471
 31
0.0
 40
0.6901509118
 41
-0.7379586644
 42
-0.7081895205
  0
ELLIPSE
  5
386
100
AcDbEntity
  8
0
100
AcDbEllipse
 62
7
  6
BYLAYER
 10
31.5240460561
 20
23.7326074915
 30
0.0
 11
12.8060309747
 21
14.5700382847
 31
0.0
 40
0.7581403628
 41
-0.7117480936
 42
-0.6819789497
  0
ELLIPSE
  5
387
100
AcDbEntity
  8
0
100
AcDbEllipse
 62
7
  6
BYLAYER
 10
31.9236147912
 20
23.7326074915
 30
0.0
 11
11.8601695234
 21
14.4741311195
 31
0.0
 40
0.8306103506
 41
-0.7019416878
 42
-0.6721725439
  0
ELLIPSE
  5
388
100
AcDbEntity
  8
0
100
AcDbEllipse
 62
7
  6
BYLAYER
 10
35.4291279182
 20
23.7326074915
 30
0.0
 11
-15.0865489373
 21
15.7334287619
 31
0.0
 40
0.5091621171
 41
0.8155777579
 42
0.8453469018
  0
ELLIPSE
  5
389
100
AcDbEntity
  8
0
100
AcDbEllipse
 62
7
  6
BYLAYER
 10
32.3293834989
 20
23.7326074915
 30
0.0
 11
10.0427045149
 21
14.9543464083
 31
0.0
 40
0.9066977799
 41
-0.7525948199
 42
-0.722825676
  0
ELLIPSE
  5
38A
100
AcDbEntity
  8
0
100
AcDbEllipse
 62
7
  6
BYLAYER
 10
35.0839530423
 20
23.7326074915
 30
0.0
 11
-14.6201143459
 21
15.4285527016
 31
0.0
 40
0.5661264515
 41
0.7773733936
 42
0.8071425375
  0
ELLIPSE
  5
38B
100
AcDbEntity
  8
0
100
AcDbEllipse
 62
7
  6
BYLAYER
 10
34.7209260566
 20
23.7326074915
 30
0.0
 11
-14.1001405585
 21
15.1182070608
 31
0.0
 40
0.6263036642
 41
0.7410961929
 42
0.7708653368
  0
ELLIPSE
  5
38C
100
AcDbEntity
  8
0
100
AcDbEllipse
 62
7
  6
BYLAYER
 10
37.3583694766
 20
23.7326074915
 30
0.0
 11
-17.4274961419
 21
17.4466624083
 31
0.0
 40
0.0843354388
 41
1.18571908
 42
1.2154882239
  0
ELLIPSE
  5
38D
100
AcDbEntity
  8
0
100
AcDbEllipse
 62
7
  6
BYLAYER
 10
34.3428098157
 20
23.7326074915
 30
0.0
 11
-13.5094930283
 21
14.8194770471
 31
0.0
 40
0.6901509118
 41
0.7081895205
 42
0.7379586644
  0
ELLIPSE
  5
38E
100
AcDbEntity
  8
0
100
AcDbEllipse
 62
7
  6
BYLAYER
 10
37.2697872207
 20
23.7326074915
 30
0.0
 11
-17.326459176
 21
17.3696482286
 31
0.0
 40
0.1269935126
 41
1.1437568412
 42
1.1735259851
  0
ELLIPSE
  5
38F
100
AcDbEntity
  8
0
100
AcDbEllipse
 62
7
  6
BYLAYER
 10
33.9524820126
 20
23.7326074915
 30
0.0
 11
-12.8060309747
 21
14.5700382847
 31
0.0
 40
0.7581403628
 41
0.6819789497
 42
0.7117480936
  0
ELLIPSE
  5
390
100
AcDbEntity
  8
0
100
AcDbEllipse
 62
7
  6
BYLAYER
 10
37.1467173371
 20
23.7326074915
 30
0.0
 11
-17.185307668
 21
17.2622772411
 31
0.0
 40
0.1702469903
 41
1.101871042
 42
1.1316401859
  0
ELLIPSE
  5
391
100
AcDbEntity
  8
0
100
AcDbEllipse
 62
7
  6
BYLAYER
 10
33.5529132776
 20
23.7326074915
 30
0.0
 11
-11.8601695234
 21
14.4741311195
 31
0.0
 40
0.8306103506
 41
0.6721725439
 42
0.7019416878
  0
ELLIPSE
  5
392
100
AcDbEntity
  8
0
100
AcDbEllipse
 62
7
  6
BYLAYER
 10
36.990096462
 20
23.7326074915
 30
0.0
 11
-17.0043043001
 21
17.1250267564
 31
0.0
 40
0.2143062114
 41
1.0600953539
 42
1.0898644977
  0
ELLIPSE
  5
393
100
AcDbEntity
  8
0
100
AcDbEllipse
 62
7
  6
BYLAYER
 10
33.1471445699
 20
23.7326074915
 30
0.0
 11
-10.0427045149
 21
14.9543464083
 31
0.0
 40
0.9066977799
 41
0.722825676
 42
0.7525948199
  0
ELLIPSE
  5
394
100
AcDbEntity
  8
0
100
AcDbEllipse
 62
7
  6
BYLAYER
 10
36.8011165748
 20
23.7326074915
 30
0.0
 11
-16.7837266909
 21
16.9585571531
 31
0.0
 40
0.2593921815
 41
1.0184719717
 42
1.0482411156
  0
ENDSEC
  0
SECTION
  2
OBJECTS
  0
DICTIONARY
  5
C
100
AcDbDictionary
280
0
281
1
  3
ACAD_GROUP
350
D
  3
ACAD_MLINESTYLE
350
17
  3
ACAD_LAYOUT
350
1A
  3
ACAD_PLOTSETTINGS
350
19
  3
ACAD_PLOTSTYLENAME
350
E
  0
DICTIONARY
  5
D
102
{ACAD_REACTORS
330
C
102
}
100
AcDbDictionary
280
0
281
1
  0
ACDBDICTIONARYWDFLT
  5
E
102
{ACAD_REACTORS
330
C
102
}
100
AcDbDictionary
281
1
  3
Normal
350
F
100
AcDbDictionaryWithDefault
340
F
  0
DICTIONARY
  5
17
102
{ACAD_REACTORS
330
C
102
}
100
AcDbDictionary
280
0
281
1
  3
Standard
350
18
  0
DICTIONARY
  5
19
102
{ACAD_REACTORS
330
C
102
}
100
AcDbDictionary
281
1
  0
DICTIONARY
  5
1A
102
{ACAD_REACTORS
330
C
102
}
100
AcDbDictionary
281
1
  3
Model
350
395
  3
Layout1
350
396
  0
ACDBPLACEHOLDER
  5
F
102
{ACAD_REACTORS
330
E
102
}
  0
MLINESTYLE
  5
18
102
{ACAD_REACTORS
330
17
102
}
100
AcDbMlineStyle
  2
STANDARD
 70
0
  3

 62
256
 51
90.0
 52
90.0
 71
2
 49
0.5
 62
256
  6
BYLAYER
 49
-0.5
 62
256
  6
BYLAYER
  0
LAYOUT
  5
395
102
{ACAD_REACTORS
330
1A
102
}
100
AcDbPlotSettings
  1

  2
none_device
  4

  6

 40
0.0
 41
0.0
 42
0.0
 43
0.0
 44
210.0
 45
297.0
 46
0.0
 47
0.0
 48
0.0
 49
0.0
140
0.0
141
0.0
142
1.0
143
1.0
 70
1024
 72
1
 73
0
 74
0
  7

 75
0
147
1.0
148
0.0
149
0.0
100
AcDbLayout
  1
Model
 70
0
 71
0
 10
0.0
 20
0.0
 11
210.0
 21
297.0
 12
0.0
 22
0.0
 32
0.0
 14
0.0
 24
0.0
 34
0.0
 15
0.0
 25
0.0
 35
0.0
146
0.0
 13
0.0
 23
0.0
 33
0.0
 16
1.0
 26
0.0
 36
0.0
 17
0.0
 27
1.0
 37
0.0
 76
0
330
210
345
0
346
0
  0
LAYOUT
  5
396
102
{ACAD_REACTORS
330
1A
102
}
100
AcDbPlotSettings
  1

  2
none_device
  4

  6

 40
0.0
 41
0.0
 42
0.0
 43
0.0
 44
210.0
 45
297.0
 46
0.0
 47
0.0
 48
0.0
 49
0.0
140
0.0
141
0.0
142
1.0
143
1.0
 70
0
 72
1
 73
0
 74
0
  7

 75
0
147
1.0
148
0.0
149
0.0
100
AcDbLayout
  1
Layout1
 70
0
 71
1
 10
0.0
 20
0.0
 11
210.0
 21
297.0
 12
0.0
 22
0.0
 32
0.0
 14
0.0
 24
0.0
 34
0.0
 15
0.0
 25
0.0
 35
0.0
146
0.0
 13
0.0
 23
0.0
 33
0.0
 16
1.0
 26
0.0
 36
0.0
 17
0.0
 27
1.0
 37
0.0
 76
0
330
211
345
0
346
0
  0
ENDSEC
  0
EOF
