999
DXF file: C:\Users\sesa63760\Dev\_Creo\CAD\MCADID0004321_3D-CAD\drw0001_6.dxf
999
Pro/ENGINEER 2019471 by Parametric Technology Corporation
  0
SECTION
  2
HEADER
  9
$ACADVER
  1
AC1024
  9
$DWGCODEPAGE
  3
ANSI_1252
  9
$EXTMAX
 10
21.2181862614
 20
30.0085777126
 30
0.0
  9
$EXTMIN
 10
0.0
 20
0.0
 30
0.0
  9
$LIMMIN
 10
0.0
 20
0.0
  9
$LIMMAX
 10
21.2181862614
 20
30.0085777126
  9
$VIEWCTR
 10
10.6090931307
 20
15.0042888563
  9
$VIEWSIZE
 40
30.0085777126
  9
$CLAYER
  8
0
  9
$LTSCALE
 40
1.9561146953
  9
$CELTYPE
  6
BYLAYER
  9
$DIMSCALE
 40
1.0
  9
$DIMASZ
 40
0.2525974555
  9
$DIMEXO
 40
1.0
  9
$DIMDLI
 40
1.3514974259
  9
$DIMEXE
 40
1.0
  9
$DIMCEN
 40
0.3200914956
  9
$DIMLFAC
 40
1.0
  9
$DIMBLK
  1
_FILLED
  9
$DIMALT
 70
0
  9
$DIMALTF
 40
0.0393700787
  9
$DIMTXT
 40
0.3536364377
  9
$DIMTOL
 70
1
  9
$DIMLIM
 70
0
  9
$DIMTFAC
 40
1.0
  9
$DIMTP
 40
0.01
  9
$DIMTM
 40
0.01
  9
$DIMGAP
 40
0.625
  9
$DIMDSEP
 70
46
  9
$AUNITS
 70
0
  9
$PDMODE
 70
3
  9
$PDSIZE
 40
0.3125
  9
$HANDSEED
  5
27B
  9
$TILEMODE
 70
1
  9
$MEASUREMENT
 70
1
  9
$INSUNITS
 70
4
  0
ENDSEC
  0
SECTION
  2
CLASSES
  0
CLASS
  1
ACDBDICTIONARYWDFLT
  2
AcDbDictionaryWithDefault
  3
AutoCAD 2000
 90
0
 91
1
280
0
281
0
  0
CLASS
  1
ACDBPLACEHOLDER
  2
AcDbPlaceHolder
  3
AutoCAD 2000
 90
0
 91
1
280
0
281
0
  0
CLASS
  1
LAYOUT
  2
AcDbLayout
  3
AutoCAD 2000
 90
0
 91
0
280
0
281
0
  0
ENDSEC
  0
SECTION
  2
TABLES
  0
TABLE
  2
VPORT
  5
8
100
AcDbSymbolTable
 70
2
  0
VPORT
  5
1F4
100
AcDbSymbolTableRecord
100
AcDbViewportTableRecord
  2
*ACTIVE
 70
0
 10
0.0
 20
0.0
 11
1.0
 21
1.0
 12
10.6090931307
 22
15.0042888563
 13
0.0
 23
0.0
 14
1.0
 24
1.0
 15
0.0
 25
0.0
 16
0.0
 26
0.0
 36
1.0
 17
0.0
 27
0.0
 37
0.0
 40
30.0085777126
 41
0.7070707071
 42
50.0
 43
0.0
 44
0.0
 50
0.0
 51
0.0
 71
0
 72
100
 73
1
 74
1
 75
0
 76
0
 77
0
 78
0
  0
ENDTAB
  0
TABLE
  2
LTYPE
  5
5
100
AcDbSymbolTable
 70
6
  0
LTYPE
  5
14
100
AcDbSymbolTableRecord
100
AcDbLinetypeTableRecord
  2
BYBLOCK
 70
0
  3

 72
65
 73
0
 40
0.0
  0
LTYPE
  5
15
100
AcDbSymbolTableRecord
100
AcDbLinetypeTableRecord
  2
BYLAYER
 70
0
  3

 72
65
 73
0
 40
0.0
  0
LTYPE
  5
16
100
AcDbSymbolTableRecord
100
AcDbLinetypeTableRecord
  2
CONTINUOUS
 70
64
  3
Solid line
 72
65
 73
0
 40
0.0
  0
LTYPE
  5
1F5
100
AcDbSymbolTableRecord
100
AcDbLinetypeTableRecord
  2
CENTER
 70
64
  3
____ _ ____ _ ____ _ ____ _ ____ _ ____ _ ____
 72
65
 73
4
 40
0.6
 49
0.375
 74
0
 49
-0.075
 74
0
 49
0.075
 74
0
 49
-0.075
 74
0
  0
LTYPE
  5
1F6
100
AcDbSymbolTableRecord
100
AcDbLinetypeTableRecord
  2
HIDDEN
 70
64
  3
- - - - - - - - - - - - - - - - - - - -
 72
65
 73
2
 40
0.2
 49
0.1
 74
0
 49
-0.1
 74
0
  0
LTYPE
  5
1F7
100
AcDbSymbolTableRecord
100
AcDbLinetypeTableRecord
  2
PHANTOM
 70
64
  3
_____ _ _ _____ _ _ _____ _ _ _____
 72
65
 73
6
 40
0.8
 49
0.45
 74
0
 49
-0.05
 74
0
 49
0.1
 74
0
 49
-0.05
 74
0
 49
0.1
 74
0
 49
-0.05
 74
0
  0
LTYPE
  5
1F8
100
AcDbSymbolTableRecord
100
AcDbLinetypeTableRecord
  2
DOT
 70
64
  3
. . . . . . . . . . . . . . . . . . . .
 72
65
 73
2
 40
0.2
 49
0.1
 74
0
 49
-0.1
 74
0
  0
LTYPE
  5
1F9
100
AcDbSymbolTableRecord
100
AcDbLinetypeTableRecord
  2
DASHED
 70
64
  3
- - - - - - - - - - - - - - - - - - - -
 72
65
 73
2
 40
0.2
 49
0.1
 74
0
 49
-0.1
 74
0
  0
ENDTAB
  0
TABLE
  2
LAYER
  5
2
100
AcDbSymbolTable
 70
36
  0
LAYER
  5
10
100
AcDbSymbolTableRecord
100
AcDbLayerTableRecord
  2
0
 70
0
 62
7
  6
CONTINUOUS
370
-3
390
F
  0
LAYER
  5
1FA
100
AcDbSymbolTableRecord
100
AcDbLayerTableRecord
  2
DEFAULT_1
 70
0
 62
7
  6
CENTER
370
-3
390
F
  0
LAYER
  5
1FB
100
AcDbSymbolTableRecord
100
AcDbLayerTableRecord
  2
DEFAULT_2
 70
0
 62
7
  6
HIDDEN
370
-3
390
F
  0
LAYER
  5
1FC
100
AcDbSymbolTableRecord
100
AcDbLayerTableRecord
  2
DEFAULT_3
 70
0
 62
7
  6
PHANTOM
370
-3
390
F
  0
LAYER
  5
1FD
100
AcDbSymbolTableRecord
100
AcDbLayerTableRecord
  2
00_COMPONENTS
 70
0
 62
7
  6
CONTINUOUS
370
-3
390
F
  0
LAYER
  5
1FE
100
AcDbSymbolTableRecord
100
AcDbLayerTableRecord
  2
01_1_DEFAULT_DATUMS
 70
0
 62
7
  6
CONTINUOUS
370
-3
390
F
  0
LAYER
  5
1FF
100
AcDbSymbolTableRecord
100
AcDbLayerTableRecord
  2
01_PLANES
 70
0
 62
7
  6
CONTINUOUS
370
-3
390
F
  0
LAYER
  5
200
100
AcDbSymbolTableRecord
100
AcDbLayerTableRecord
  2
02_COORD_SYS
 70
0
 62
7
  6
CONTINUOUS
370
-3
390
F
  0
LAYER
  5
201
100
AcDbSymbolTableRecord
100
AcDbLayerTableRecord
  2
03_AXES
 70
0
 62
7
  6
CONTINUOUS
370
-3
390
F
  0
LAYER
  5
202
100
AcDbSymbolTableRecord
100
AcDbLayerTableRecord
  2
04_POINTS
 70
0
 62
7
  6
CONTINUOUS
370
-3
390
F
  0
LAYER
  5
203
100
AcDbSymbolTableRecord
100
AcDbLayerTableRecord
  2
05_CURVES
 70
0
 62
7
  6
CONTINUOUS
370
-3
390
F
  0
LAYER
  5
204
100
AcDbSymbolTableRecord
100
AcDbLayerTableRecord
  2
06_SURFS
 70
0
 62
7
  6
CONTINUOUS
370
-3
390
F
  0
LAYER
  5
205
100
AcDbSymbolTableRecord
100
AcDbLayerTableRecord
  2
07_COSMETICS
 70
0
 62
7
  6
CONTINUOUS
370
-3
390
F
  0
LAYER
  5
206
100
AcDbSymbolTableRecord
100
AcDbLayerTableRecord
  2
10_NOTES
 70
0
 62
7
  6
CONTINUOUS
370
-3
390
F
  0
LAYER
  5
207
100
AcDbSymbolTableRecord
100
AcDbLayerTableRecord
  2
11_NOTES_PUB
 70
0
 62
7
  6
CONTINUOUS
370
-3
390
F
  0
LAYER
  5
208
100
AcDbSymbolTableRecord
100
AcDbLayerTableRecord
  2
13_REF_GTOL
 70
0
 62
7
  6
CONTINUOUS
370
-3
390
F
  0
LAYER
  5
209
100
AcDbSymbolTableRecord
100
AcDbLayerTableRecord
  2
16_MISC
 70
0
 62
7
  6
CONTINUOUS
370
-3
390
F
  0
LAYER
  5
20A
100
AcDbSymbolTableRecord
100
AcDbLayerTableRecord
  2
17_NO_PRINT
 70
0
 62
7
  6
CONTINUOUS
370
-3
390
F
  0
LAYER
  5
20B
100
AcDbSymbolTableRecord
100
AcDbLayerTableRecord
  2
18_DATUM_CAMS_JOINTS
 70
0
 62
7
  6
CONTINUOUS
370
-3
390
F
  0
LAYER
  5
20C
100
AcDbSymbolTableRecord
100
AcDbLayerTableRecord
  2
19_DATUM_FUNCTIONAL
 70
0
 62
7
  6
CONTINUOUS
370
-3
390
F
  0
LAYER
  5
20D
100
AcDbSymbolTableRecord
100
AcDbLayerTableRecord
  2
20_DATUM_KINEMATIC_SCHEME
 70
0
 62
7
  6
CONTINUOUS
370
-3
390
F
  0
LAYER
  5
20E
100
AcDbSymbolTableRecord
100
AcDbLayerTableRecord
  2
_1
 70
0
 62
7
  6
CONTINUOUS
370
-3
390
F
  0
ENDTAB
  0
TABLE
  2
STYLE
  5
3
100
AcDbSymbolTable
 70
1
  0
STYLE
  5
11
100
AcDbSymbolTableRecord
100
AcDbTextStyleTableRecord
  2
STANDARD
 70
0
 40
0.0
 41
1.0
 50
0.0
 71
0
 42
0.2
  3
ARIAL.TTF
  4

  0
STYLE
  5
20F
100
AcDbSymbolTableRecord
100
AcDbTextStyleTableRecord
  2
TEXTSTYLE_1
 70
0
 40
0.0
 41
0.8
 50
0.0
 71
0
 42
0.2
  3
gdt
  4

  0
ENDTAB
  0
TABLE
  2
VIEW
  5
6
100
AcDbSymbolTable
 70
0
  0
ENDTAB
  0
TABLE
  2
UCS
  5
7
100
AcDbSymbolTable
 70
0
  0
ENDTAB
  0
TABLE
  2
APPID
  5
9
100
AcDbSymbolTable
 70
1
  0
APPID
  5
210
100
AcDbSymbolTableRecord
100
AcDbRegAppTableRecord
  2
ACAD
 70
0
  0
ENDTAB
  0
TABLE
  2
BLOCK_RECORD
  5
1
100
AcDbSymbolTable
 70
0
  0
BLOCK_RECORD
  5
211
100
AcDbSymbolTableRecord
100
AcDbBlockTableRecord
  2
*Model_Space
  0
BLOCK_RECORD
  5
212
100
AcDbSymbolTableRecord
100
AcDbBlockTableRecord
  2
*Paper_Space
  0
BLOCK_RECORD
  5
213
100
AcDbSymbolTableRecord
100
AcDbBlockTableRecord
  2
_FILLED
  0
ENDTAB
  0
TABLE
  2
DIMSTYLE
  5
A
100
AcDbSymbolTable
 70
1
100
AcDbDimStyleTable
 71
0
  0
DIMSTYLE
105
214
100
AcDbSymbolTableRecord
100
AcDbDimStyleTableRecord
  2
STANDARD
 70
0
  3

  4

 40
1.0
 41
0.2525974555
 42
1.0
 43
0.38
 44
1.0
 45
0.0
 46
0.0
 47
0.01
 48
0.01
140
0.3536364377
141
0.09
142
0.0
143
25.4
144
1.0
145
0.0
146
1.0
147
0.625
 71
1
 72
0
 73
0
 74
0
 75
0
 76
0
 77
1
 78
8
 79
2
170
0
171
1
172
0
173
0
174
0
175
0
176
0
177
0
178
0
270
2
179
2
271
2
272
2
273
2
274
2
275
0
280
0
281
0
282
0
283
1
284
8
285
0
286
0
287
3
288
0
340
11
278
46
341
213
342
213
343
213
344
213
  0
ENDTAB
  0
ENDSEC
  0
SECTION
  2
BLOCKS
  0
BLOCK
  5
20
100
AcDbEntity
  8
0
100
AcDbBlockBegin
  2
*Model_Space
 70
0
 10
0.0
 20
0.0
 30
0.0
  3
*Model_Space
  1

  0
ENDBLK
  5
21
100
AcDbEntity
  8
0
100
AcDbBlockEnd
  0
BLOCK
  5
1C
100
AcDbEntity
  8
0
100
AcDbBlockBegin
  2
*Paper_Space
 70
0
 10
0.0
 20
0.0
 30
0.0
  3
*Paper_Space
  1

  0
ENDBLK
  5
1D
100
AcDbEntity
  8
0
100
AcDbBlockEnd
  0
BLOCK
  5
215
100
AcDbEntity
  8
0
100
AcDbBlockBegin
  2
_FILLED
 70
64
 10
0.0
 20
0.0
  3
_FILLED
  1

  0
SOLID
  5
216
100
AcDbEntity
  8
0
  6
BYBLOCK
 62
0
100
AcDbTrace
 10
0.0
 20
0.0
 11
-1.0
 21
0.25
 12
-1.0
 22
-0.25
 13
-1.0
 23
-0.25
  0
ENDBLK
  5
217
100
AcDbEntity
  8
0
  6
BYBLOCK
 62
0
100
AcDbBlockEnd
  0
ENDSEC
  0
SECTION
  2
ENTITIES
  0
LINE
  5
218
100
AcDbEntity
  8
_1
100
AcDbLine
 62
7
  6
BYLAYER
 10
10.7927441571
 20
2.4792888563
 11
15.3189121352
 21
2.7164952687
  0
LINE
  5
219
100
AcDbEntity
  8
_1
100
AcDbLine
 62
7
  6
BYLAYER
 10
7.3589714947
 20
2.5292888563
 11
9.8386873227
 21
2.5292888563
  0
LINE
  5
21A
100
AcDbEntity
  8
_1
100
AcDbLine
 62
7
  6
BYLAYER
 10
11.7468009915
 20
2.5292888563
 11
14.3589714947
 21
2.5292888563
  0
LINE
  5
21B
100
AcDbEntity
  8
_1
100
AcDbLine
 62
7
  6
BYLAYER
 10
6.266576179
 20
2.7164952687
 11
10.7927441571
 21
2.4792888563
  0
LINE
  5
21C
100
AcDbEntity
  8
0
100
AcDbLine
 62
7
  6
BYLAYER
 10
9.2239999427
 20
27.5292888563
 11
8.2754526833
 21
27.2392888563
  0
LINE
  5
21D
100
AcDbEntity
  8
_1
100
AcDbLine
 62
7
  6
BYLAYER
 10
6.266576179
 20
7.752343767
 11
10.7927441571
 21
7.7659430075
  0
LINE
  5
21E
100
AcDbEntity
  8
_1
100
AcDbLine
 62
7
  6
BYLAYER
 10
10.7927441571
 20
7.7659430075
 11
15.3189121352
 21
7.752343767
  0
LINE
  5
21F
100
AcDbEntity
  8
_1
100
AcDbLine
 62
7
  6
BYLAYER
 10
6.6358222189
 20
21.4792888563
 11
6.8160028016
 21
21.7913707801
  0
LINE
  5
220
100
AcDbEntity
  8
_1
100
AcDbLine
 62
7
  6
BYLAYER
 10
8.5132521811
 20
24.7310929385
 11
8.714283188
 21
25.0792888563
  0
LINE
  5
221
100
AcDbEntity
  8
_1
100
AcDbLine
 62
7
  6
BYLAYER
 10
5.7927441571
 20
3.2158100361
 11
5.7927441571
 21
26.2427676765
  0
LINE
  5
222
100
AcDbEntity
  8
_1
100
AcDbLine
 62
7
  6
BYLAYER
 10
6.0427441571
 20
26.9792888563
 11
6.0427441571
 21
26.6588400612
  0
LINE
  5
223
100
AcDbEntity
  8
0
100
AcDbLine
 62
7
  6
BYLAYER
 10
6.2427441571
 20
27.2292888563
 11
6.2427441571
 21
26.9792888563
  0
LINE
  5
224
100
AcDbEntity
  8
_1
100
AcDbLine
 62
7
  6
BYLAYER
 10
6.266576179
 20
2.7164952687
 11
6.266576179
 21
19.727147553
  0
LINE
  5
225
100
AcDbEntity
  8
_1
100
AcDbLine
 62
7
  6
BYLAYER
 10
6.266576179
 20
23.2802881304
 11
6.266576179
 21
26.7420824439
  0
LINE
  5
226
100
AcDbEntity
  8
0
100
AcDbLine
 62
7
  6
BYLAYER
 10
6.7427441571
 20
27.2292888563
 11
6.7427441571
 21
26.9792888563
  0
LINE
  5
227
100
AcDbEntity
  8
_1
100
AcDbLine
 62
7
  6
BYLAYER
 10
7.3589714947
 20
2.6592452561
 11
7.3589714947
 21
2.5292888563
  0
LINE
  5
228
100
AcDbEntity
  8
0
100
AcDbLine
 62
7
  6
BYLAYER
 10
7.7427441571
 20
27.2392888563
 11
7.7427441571
 21
27.2292888563
  0
LINE
  5
229
100
AcDbEntity
  8
_1
100
AcDbLine
 62
7
  6
BYLAYER
 10
7.8589714947
 20
2.5292888563
 11
7.8589714947
 21
2.6330413665
  0
LINE
  5
22A
100
AcDbEntity
  8
0
100
AcDbLine
 62
7
  6
BYLAYER
 10
8.4927441571
 20
27.2292888563
 11
8.4927441571
 21
27.2392888563
  0
LINE
  5
22B
100
AcDbEntity
  8
0
100
AcDbLine
 62
7
  6
BYLAYER
 10
8.4989993698
 20
27.2392888563
 11
8.4989993698
 21
27.2292888563
  0
LINE
  5
22C
100
AcDbEntity
  8
_1
100
AcDbLine
 62
7
  6
BYLAYER
 10
9.0427441571
 20
23.9137065797
 11
9.0427441571
 21
23.5808413872
  0
LINE
  5
22D
100
AcDbEntity
  8
_1
100
AcDbLine
 62
7
  6
BYLAYER
 10
10.7927441571
 20
26.9792888563
 11
10.7927441571
 21
26.3894903091
  0
LINE
  5
22E
100
AcDbEntity
  8
_1
100
AcDbLine
 62
7
  6
BYLAYER
 10
10.7927441571
 20
16.6620028508
 11
10.7927441571
 21
2.4792888563
  0
LINE
  5
22F
100
AcDbEntity
  8
_1
100
AcDbLine
 62
7
  6
BYLAYER
 10
8.714283188
 20
17.8792888563
 11
8.5131372771
 21
18.2276837938
  0
LINE
  5
230
100
AcDbEntity
  8
_1
100
AcDbLine
 62
7
  6
BYLAYER
 10
6.8152728962
 20
21.1684711658
 11
6.6358222189
 21
21.4792888563
  0
LINE
  5
231
100
AcDbEntity
  8
_1
100
AcDbLine
 62
7
  6
BYLAYER
 10
14.9496660953
 20
21.4792888563
 11
14.7367847807
 21
21.1105676034
  0
LINE
  5
232
100
AcDbEntity
  8
_1
100
AcDbLine
 62
7
  6
BYLAYER
 10
13.0722361331
 20
18.2274847741
 11
12.8712051262
 21
17.8792888563
  0
LINE
  5
233
100
AcDbEntity
  8
_1
100
AcDbLine
 62
7
  6
BYLAYER
 10
12.4427441571
 20
23.9639315078
 11
12.4427441571
 21
23.6601740275
  0
LINE
  5
234
100
AcDbEntity
  8
0
100
AcDbLine
 62
7
  6
BYLAYER
 10
12.9864889444
 20
27.2292888563
 11
12.9864889444
 21
27.2392888563
  0
LINE
  5
235
100
AcDbEntity
  8
0
100
AcDbLine
 62
7
  6
BYLAYER
 10
12.9918687136
 20
27.2392888563
 11
12.9918687136
 21
27.2292888563
  0
LINE
  5
236
100
AcDbEntity
  8
0
100
AcDbLine
 62
7
  6
BYLAYER
 10
13.7427441571
 20
27.2292888563
 11
13.7427441571
 21
27.2392888563
  0
LINE
  5
237
100
AcDbEntity
  8
_1
100
AcDbLine
 62
7
  6
BYLAYER
 10
13.8589714947
 20
2.6399830218
 11
13.8589714947
 21
2.5292888563
  0
LINE
  5
238
100
AcDbEntity
  8
_1
100
AcDbLine
 62
7
  6
BYLAYER
 10
14.3589714947
 20
2.5292888563
 11
14.3589714947
 21
2.6661869115
  0
LINE
  5
239
100
AcDbEntity
  8
_1
100
AcDbLine
 62
7
  6
BYLAYER
 10
12.8712051262
 20
17.8792888563
 11
12.4695658642
 21
17.8792888563
  0
LINE
  5
23A
100
AcDbEntity
  8
_1
100
AcDbLine
 62
7
  6
BYLAYER
 10
9.1152067818
 20
17.8792888563
 11
8.714283188
 21
17.8792888563
  0
LINE
  5
23B
100
AcDbEntity
  8
0
100
AcDbLine
 62
7
  6
BYLAYER
 10
14.7427441571
 20
27.2292888563
 11
14.7427441571
 21
26.9792888563
  0
LINE
  5
23C
100
AcDbEntity
  8
0
100
AcDbLine
 62
7
  6
BYLAYER
 10
15.2427441571
 20
27.2292888563
 11
15.2427441571
 21
26.9792888563
  0
LINE
  5
23D
100
AcDbEntity
  8
_1
100
AcDbLine
 62
7
  6
BYLAYER
 10
15.3189121352
 20
2.7164952687
 11
15.3189121352
 21
19.727147553
  0
LINE
  5
23E
100
AcDbEntity
  8
_1
100
AcDbLine
 62
7
  6
BYLAYER
 10
15.3189121352
 20
23.2802881304
 11
15.3189121352
 21
26.7420824439
  0
LINE
  5
23F
100
AcDbEntity
  8
_1
100
AcDbLine
 62
7
  6
BYLAYER
 10
15.4427441571
 20
26.9792888563
 11
15.4427441571
 21
26.6960297278
  0
LINE
  5
240
100
AcDbEntity
  8
_1
100
AcDbLine
 62
7
  6
BYLAYER
 10
15.7927441571
 20
26.2427676765
 11
15.7927441571
 21
3.2158100361
  0
LINE
  5
241
100
AcDbEntity
  8
_1
100
AcDbLine
 62
7
  6
BYLAYER
 10
7.8118044501
 20
21.3593633297
 11
7.8927441571
 21
21.3593633297
  0
LINE
  5
242
100
AcDbEntity
  8
_1
100
AcDbLine
 62
7
  6
BYLAYER
 10
13.6927441571
 20
21.3593633297
 11
13.7737675083
 21
21.3593633297
  0
LINE
  5
243
100
AcDbEntity
  8
_1
100
AcDbLine
 62
7
  6
BYLAYER
 10
12.8712051262
 20
25.0792888563
 11
13.0723510371
 21
24.7308939188
  0
LINE
  5
244
100
AcDbEntity
  8
_1
100
AcDbLine
 62
7
  6
BYLAYER
 10
14.7381304146
 20
21.8456794029
 11
14.9496660953
 21
21.4792888563
  0
LINE
  5
245
100
AcDbEntity
  8
_1
100
AcDbLine
 62
7
  6
BYLAYER
 10
7.9320044518
 20
22.3593633297
 11
8.0706126394
 21
22.3593633297
  0
LINE
  5
246
100
AcDbEntity
  8
_1
100
AcDbLine
 62
7
  6
BYLAYER
 10
13.5148756749
 20
22.3593633297
 11
13.6528700384
 21
22.3593633297
  0
LINE
  5
247
100
AcDbEntity
  8
_1
100
AcDbLine
 62
7
  6
BYLAYER
 10
8.3830613455
 20
23.2593633297
 11
8.6388982479
 21
23.2593633297
  0
LINE
  5
248
100
AcDbEntity
  8
_1
100
AcDbLine
 62
7
  6
BYLAYER
 10
12.9424562536
 20
23.2593633297
 11
13.2027655033
 21
23.2593633297
  0
LINE
  5
249
100
AcDbEntity
  8
_1
100
AcDbLine
 62
7
  6
BYLAYER
 10
7.5113110481
 20
25.0840911836
 11
6.266576179
 21
25.0803512762
  0
LINE
  5
24A
100
AcDbEntity
  8
_1
100
AcDbLine
 62
7
  6
BYLAYER
 10
8.714283188
 20
25.0792888563
 11
9.0956103134
 21
25.0792888563
  0
LINE
  5
24B
100
AcDbEntity
  8
_1
100
AcDbLine
 62
7
  6
BYLAYER
 10
12.4702815324
 20
25.0792888563
 11
12.8712051262
 21
25.0792888563
  0
LINE
  5
24C
100
AcDbEntity
  8
_1
100
AcDbLine
 62
7
  6
BYLAYER
 10
15.3189121352
 20
25.0803512762
 11
14.0741772662
 21
25.0840911836
  0
LINE
  5
24D
100
AcDbEntity
  8
_1
100
AcDbLine
 62
7
  6
BYLAYER
 10
10.7927441571
 20
26.9792888563
 11
6.266576179
 21
26.7420824439
  0
LINE
  5
24E
100
AcDbEntity
  8
_1
100
AcDbLine
 62
7
  6
BYLAYER
 10
15.4427441571
 20
26.9792888563
 11
6.0427441571
 21
26.9792888563
  0
LINE
  5
24F
100
AcDbEntity
  8
0
100
AcDbLine
 62
7
  6
BYLAYER
 10
6.2427441571
 20
27.2292888563
 11
15.2427441571
 21
27.2292888563
  0
LINE
  5
250
100
AcDbEntity
  8
0
100
AcDbLine
 62
7
  6
BYLAYER
 10
7.7427441571
 20
27.2392888563
 11
8.4927441571
 21
27.2392888563
  0
LINE
  5
251
100
AcDbEntity
  8
0
100
AcDbLine
 62
7
  6
BYLAYER
 10
8.4989993698
 20
27.2392888563
 11
12.9864889444
 21
27.2392888563
  0
LINE
  5
252
100
AcDbEntity
  8
0
100
AcDbLine
 62
7
  6
BYLAYER
 10
12.9912707497
 20
27.2392888563
 11
12.9918687136
 21
27.2392888563
  0
LINE
  5
253
100
AcDbEntity
  8
0
100
AcDbLine
 62
7
  6
BYLAYER
 10
12.9927441571
 20
27.2392888563
 11
13.7427441571
 21
27.2392888563
  0
LINE
  5
254
100
AcDbEntity
  8
0
100
AcDbLine
 62
7
  6
BYLAYER
 10
9.2241000481
 20
27.5292888563
 11
12.2613882661
 21
27.5292888563
  0
LINE
  5
255
100
AcDbEntity
  8
_1
100
AcDbLine
 62
7
  6
BYLAYER
 10
15.3189121352
 20
26.7420824439
 11
10.7927441571
 21
26.9792888563
  0
LINE
  5
256
100
AcDbEntity
  8
0
100
AcDbLine
 62
7
  6
BYLAYER
 10
12.2614883716
 20
27.5292888563
 11
13.2100356309
 21
27.2392888563
  0
CIRCLE
  5
257
100
AcDbEntity
  8
_1
100
AcDbCircle
 62
7
  6
BYLAYER
 10
10.7927441571
 20
21.4792888563
 40
4.75
  0
ARC
  5
258
100
AcDbEntity
  8
_1
100
AcDbCircle
 62
7
  6
BYLAYER
 10
10.7927441571
 20
21.4792888563
 40
4.0
100
AcDbArc
 50
348.33446772
 51
344.3357331486
  0
CIRCLE
  5
259
100
AcDbEntity
  8
_1
100
AcDbCircle
 62
7
  6
BYLAYER
 10
10.7927441571
 20
21.4792888563
 40
3.45
  0
CIRCLE
  5
25A
100
AcDbEntity
  8
_1
100
AcDbCircle
 62
7
  6
BYLAYER
 10
10.7927441571
 20
21.4792888563
 40
3.3
  0
CIRCLE
  5
25B
100
AcDbEntity
  8
_1
100
AcDbCircle
 62
7
  6
BYLAYER
 10
10.7927441571
 20
21.4792888563
 40
3.0
  0
ARC
  5
25C
100
AcDbEntity
  8
_1
100
AcDbCircle
 62
7
  6
BYLAYER
 10
10.7927441571
 20
21.3593633297
 40
2.9
100
AcDbArc
 50
300.0399371641
 51
239.8942712591
  0
CIRCLE
  5
25D
100
AcDbEntity
  8
_1
100
AcDbCircle
 62
7
  6
BYLAYER
 10
9.7927441571
 20
22.8593633297
 40
0.5
  0
CIRCLE
  5
25E
100
AcDbEntity
  8
_1
100
AcDbCircle
 62
7
  6
BYLAYER
 10
9.0927441571
 20
20.8593633297
 40
0.5
  0
CIRCLE
  5
25F
100
AcDbEntity
  8
_1
100
AcDbCircle
 62
7
  6
BYLAYER
 10
12.4927441571
 20
20.8593633297
 40
0.5
  0
CIRCLE
  5
260
100
AcDbEntity
  8
_1
100
AcDbCircle
 62
7
  6
BYLAYER
 10
11.7927441571
 20
22.8593633297
 40
0.5
  0
ARC
  5
261
100
AcDbEntity
  8
_1
100
AcDbCircle
 62
7
  6
BYLAYER
 10
15.2927441571
 20
26.2427676765
 40
0.5
100
AcDbArc
 50
0.0
 51
87.0
  0
ARC
  5
262
100
AcDbEntity
  8
_1
100
AcDbCircle
 62
7
  6
BYLAYER
 10
15.2927441571
 20
3.2158100361
 40
0.5
100
AcDbArc
 50
273.0
 51
360.0
  0
ARC
  5
263
100
AcDbEntity
  8
_1
100
AcDbCircle
 62
7
  6
BYLAYER
 10
6.2927441571
 20
3.2158100361
 40
0.5
100
AcDbArc
 50
180.0
 51
267.0
  0
ARC
  5
264
100
AcDbEntity
  8
_1
100
AcDbCircle
 62
7
  6
BYLAYER
 10
6.2927441571
 20
26.2427676765
 40
0.5
100
AcDbArc
 50
93.0
 51
180.0
  0
CIRCLE
  5
265
100
AcDbEntity
  8
_1
100
AcDbCircle
 62
7
  6
BYLAYER
 10
9.0927441571
 20
20.8593633297
 40
0.05
  0
CIRCLE
  5
266
100
AcDbEntity
  8
_1
100
AcDbCircle
 62
7
  6
BYLAYER
 10
11.7927441571
 20
22.8593633297
 40
0.05
  0
CIRCLE
  5
267
100
AcDbEntity
  8
_1
100
AcDbCircle
 62
7
  6
BYLAYER
 10
9.7927441571
 20
22.8593633297
 40
0.05
  0
CIRCLE
  5
268
100
AcDbEntity
  8
_1
100
AcDbCircle
 62
7
  6
BYLAYER
 10
12.4927441571
 20
20.8593633297
 40
0.05
  0
SPLINE
  5
269
100
AcDbEntity
  8
_1
100
AcDbSpline
 62
7
  6
BYLAYER
 70
0
 71
3
 72
53
 73
49
 74
0
 42
0.0000001
 43
0.0000001
 44
0.0000000001
 40
0.0
 40
0.0
 40
0.0
 40
0.0
 40
0.0312400522
 40
0.0468727869
 40
0.0625037823
 40
0.0937482304
 40
0.1093732475
 40
0.1249999146
 40
0.1406282938
 40
0.1562570686
 40
0.1875029538
 40
0.2031288855
 40
0.2187555469
 40
0.2500025404
 40
0.2812488977
 40
0.296875962
 40
0.3125037586
 40
0.3437498284
 40
0.3749956952
 40
0.4062427429
 40
0.4374881079
 40
0.4687331355
 40
0.4999805433
 40
0.531226154
 40
0.5468523979
 40
0.5624793415
 40
0.578107641
 40
0.5937368724
 40
0.6249825312
 40
0.6406093495
 40
0.6562374216
 40
0.6874846729
 40
0.7187304714
 40
0.7343580546
 40
0.7499857008
 40
0.7812308824
 40
0.8124763488
 40
0.8281042764
 40
0.8437320895
 40
0.8593594223
 40
0.8749864018
 40
0.9062320062
 40
0.9218599887
 40
0.9374872497
 40
0.9531154281
 40
0.9687475998
 40
0.9843788169
 40
1.0
 40
1.0
 40
1.0
 40
1.0
 10
14.6441854458
 20
20.3992888563
 30
0.0
 10
14.672240838
 20
20.5174923445
 30
0.0
 10
14.7060420395
 20
20.6969600523
 30
0.0
 10
14.7345259029
 20
20.9384129193
 30
0.0
 10
14.7520032074
 20
21.1809362135
 30
0.0
 10
14.7527811297
 20
21.4244058671
 30
0.0
 10
14.7363889464
 20
21.6669592986
 30
0.0
 10
14.7155897199
 20
21.8481466107
 30
0.0
 10
14.686472773
 20
22.0281974156
 30
0.0
 10
14.6368181611
 20
22.2661976362
 30
0.0
 10
14.5710293915
 20
22.5006017973
 30
0.0
 10
14.4892040537
 20
22.7295355334
 30
0.0
 10
14.3967641926
 20
22.9544061383
 30
0.0
 10
14.2617894476
 20
23.2270836898
 30
0.0
 10
14.1021470832
 20
23.4861075907
 30
0.0
 10
13.9602444602
 20
23.6835413173
 30
0.0
 10
13.8090769769
 20
23.8739686116
 30
0.0
 10
13.6032253668
 20
24.09809087
 30
0.0
 10
13.3312434409
 20
24.3416499726
 30
0.0
 10
13.0371143964
 20
24.5579402681
 30
0.0
 10
12.7236002603
 20
24.7450330345
 30
0.0
 10
12.39343324
 20
24.9008834016
 30
0.0
 10
12.0498924126
 20
25.0244025101
 30
0.0
 10
11.7549879287
 20
25.0994787615
 30
0.0
 10
11.5156167444
 20
25.1420525985
 30
0.0
 10
11.334709691
 20
25.1652404265
 30
0.0
 10
11.1528856905
 20
25.1797169961
 30
0.0
 10
10.9098795035
 20
25.1874785641
 30
0.0
 10
10.6665466266
 20
25.1776940691
 30
0.0
 10
10.425039028
 20
25.1495661153
 30
0.0
 10
10.1852567692
 20
25.1092206222
 30
0.0
 10
9.8898088163
 20
25.0361632089
 30
0.0
 10
9.6032142259
 20
24.9337444009
 30
0.0
 10
9.3810884768
 20
24.8348490584
 30
0.0
 10
9.1642321548
 20
24.7248843772
 30
0.0
 10
8.9039720072
 20
24.5671339579
 30
0.0
 10
8.6609260391
 20
24.3839650226
 30
0.0
 10
8.4783492186
 20
24.2233904235
 30
0.0
 10
8.3476350311
 20
24.0961758804
 30
0.0
 10
8.223517129
 20
23.9625189075
 30
0.0
 10
8.067345638
 20
23.7761768252
 30
0.0
 10
7.9254983499
 20
23.5782063414
 30
0.0
 10
7.7990283856
 20
23.3705582098
 30
0.0
 10
7.7121581143
 20
23.2101653956
 30
0.0
 10
7.6337301251
 20
23.0454639516
 30
0.0
 10
7.5641977596
 20
22.8767919968
 30
0.0
 10
7.5037200645
 20
22.7047028154
 30
0.0
 10
7.4695060302
 20
22.5880133419
 30
0.0
 10
7.4539569522
 20
22.5292888563
 30
0.0
  0
SPLINE
  5
26A
100
AcDbEntity
  8
_1
100
AcDbSpline
 62
7
  6
BYLAYER
 70
0
 71
3
 72
54
 73
50
 74
0
 42
0.0000001
 43
0.0000001
 44
0.0000000001
 40
0.0
 40
0.0
 40
0.0
 40
0.0
 40
0.0156210905
 40
0.0312520636
 40
0.0468841879
 40
0.0625124429
 40
0.0781392238
 40
0.093766556
 40
0.1250114595
 40
0.1406383703
 40
0.1562660662
 40
0.1718940916
 40
0.1875215293
 40
0.2187665547
 40
0.2343953381
 40
0.2500238039
 40
0.2656513037
 40
0.2812777292
 40
0.3125227037
 40
0.3281514267
 40
0.3437794299
 40
0.3594062913
 40
0.3750326321
 40
0.4062778828
 40
0.4375244511
 40
0.468769254
 40
0.5000143599
 40
0.5312600102
 40
0.5625054913
 40
0.5781330262
 40
0.5937603967
 40
0.6093867882
 40
0.6250123162
 40
0.6562586485
 40
0.6875051378
 40
0.703130723
 40
0.7187568856
 40
0.7343844092
 40
0.7500127124
 40
0.7812593885
 40
0.8125048372
 40
0.8437507823
 40
0.8749977924
 40
0.8906254107
 40
0.9062518282
 40
0.9218777868
 40
0.937505272
 40
0.9687591855
 40
1.0
 40
1.0
 40
1.0
 40
1.0
 10
7.4539569522
 20
22.5292888563
 30
0.0
 10
7.4330644672
 20
22.4721998846
 30
0.0
 10
7.3941739792
 20
22.3568970826
 30
0.0
 10
7.3447879477
 20
22.1811712669
 30
0.0
 10
7.304576806
 20
22.0030847214
 30
0.0
 10
7.2737927602
 20
21.8231491126
 30
0.0
 10
7.2523435089
 20
21.6418786378
 30
0.0
 10
7.2360561102
 20
21.3991250674
 30
0.0
 10
7.2380794655
 20
21.1554053982
 30
0.0
 10
7.2589133137
 20
20.9129877489
 30
0.0
 10
7.2840220755
 20
20.7321855341
 30
0.0
 10
7.3184906878
 20
20.5529306944
 30
0.0
 10
7.3767970567
 20
20.3167052311
 30
0.0
 10
7.4534082822
 20
20.0853176241
 30
0.0
 10
7.5470935162
 20
19.8607659137
 30
0.0
 10
7.6257163938
 20
19.6960262192
 30
0.0
 10
7.7125061285
 20
19.5354494363
 30
0.0
 10
7.8388649555
 20
19.3275294547
 30
0.0
 10
7.9808260608
 20
19.1294390862
 30
0.0
 10
8.1365811769
 20
18.9425255214
 30
0.0
 10
8.2600568608
 20
18.8080969949
 30
0.0
 10
8.3899244731
 20
18.6798469387
 30
0.0
 10
8.5712444557
 20
18.5176121862
 30
0.0
 10
8.8126452328
 20
18.3319426891
 30
0.0
 10
9.1226335879
 20
18.1385699925
 30
0.0
 10
9.4500947376
 20
17.9764729783
 30
0.0
 10
9.7919579445
 20
17.8475081547
 30
0.0
 10
10.1447680295
 20
17.7525914013
 30
0.0
 10
10.4451632547
 20
17.7025263932
 30
0.0
 10
10.6874465218
 20
17.6802122919
 30
0.0
 10
10.8697950533
 20
17.6723083845
 30
0.0
 10
11.0523034993
 20
17.673238299
 30
0.0
 10
11.2952590448
 20
17.6862048971
 30
0.0
 10
11.5973898314
 20
17.7238517808
 30
0.0
 10
11.8948503338
 20
17.7887993075
 30
0.0
 10
12.1282894965
 20
17.8573686075
 30
0.0
 10
12.3007253647
 20
17.9171647119
 30
0.0
 10
12.470131963
 20
17.9850951337
 30
0.0
 10
12.6914488728
 20
18.086185168
 30
0.0
 10
12.9588812175
 20
18.2317864979
 30
0.0
 10
13.2620247778
 20
18.4356534428
 30
0.0
 10
13.544756595
 20
18.6670115844
 30
0.0
 10
13.7611916299
 20
18.8812115245
 30
0.0
 10
13.9216317893
 20
19.064122874
 30
0.0
 10
14.0354017172
 20
19.2068339977
 30
0.0
 10
14.1423581348
 20
19.3547169317
 30
0.0
 10
14.2756820143
 20
19.5582723295
 30
0.0
 10
14.4245559495
 20
19.8238560936
 30
0.0
 10
14.5240225542
 20
20.0462044288
 30
0.0
 10
14.5686678852
 20
20.1592888563
 30
0.0
  0
SPLINE
  5
26B
100
AcDbEntity
  8
_1
100
AcDbSpline
 62
7
  6
BYLAYER
 70
0
 71
3
 72
14
 73
10
 74
0
 42
0.0000001
 43
0.0000001
 44
0.0000000001
 40
0.0
 40
0.0
 40
0.0
 40
0.0
 40
0.1259789365
 40
0.2512576717
 40
0.3755126684
 40
0.4993027464
 40
0.6233414784
 40
0.7482556115
 40
1.0
 40
1.0
 40
1.0
 40
1.0
 10
7.5113111191
 20
25.0840911838
 30
0.0
 10
7.6234933397
 20
25.1862070572
 30
0.0
 10
7.8560642967
 20
25.3804034469
 30
0.0
 10
8.2270405909
 20
25.6398768807
 30
0.0
 10
8.6171615964
 20
25.8644602978
 30
0.0
 10
9.0245533255
 20
26.0524039509
 30
0.0
 10
9.4484682583
 20
26.2020758446
 30
0.0
 10
10.034022252
 20
26.3482910281
 30
0.0
 10
10.4896113846
 20
26.3916371263
 30
0.0
 10
10.7927441571
 20
26.3894903091
 30
0.0
  0
SPLINE
  5
26C
100
AcDbEntity
  8
_1
100
AcDbSpline
 62
7
  6
BYLAYER
 70
0
 71
3
 72
14
 73
10
 74
0
 42
0.0000001
 43
0.0000001
 44
0.0000000001
 40
0.0
 40
0.0
 40
0.0
 40
0.0
 40
0.2517444087
 40
0.3766585403
 40
0.5006972734
 40
0.6244873502
 40
0.7487423439
 40
0.8740210663
 40
1.0
 40
1.0
 40
1.0
 40
1.0
 10
10.7927441571
 20
26.3894903091
 30
0.0
 10
11.0958769542
 20
26.3916371267
 30
0.0
 10
11.5514661072
 20
26.3482910173
 30
0.0
 10
12.1370201315
 20
26.2020758533
 30
0.0
 10
12.5609350521
 20
26.0524039264
 30
0.0
 10
12.9683267663
 20
25.8644602526
 30
0.0
 10
13.3584477608
 20
25.6398768579
 30
0.0
 10
13.729424039
 20
25.3804034385
 30
0.0
 10
13.9619949769
 20
25.186207055
 30
0.0
 10
14.0741771952
 20
25.0840911838
 30
0.0
  0
SPLINE
  5
26D
100
AcDbEntity
  8
_1
100
AcDbSpline
 62
7
  6
BYLAYER
 70
0
 71
3
 72
21
 73
17
 74
0
 42
0.0000001
 43
0.0000001
 44
0.0000000001
 40
0.0
 40
0.0
 40
0.0
 40
0.0
 40
0.1964632648
 40
0.3842793472
 40
0.5561531746
 40
0.7061647459
 40
0.7713148855
 40
0.8290664422
 40
0.8789035804
 40
0.9204467585
 40
0.9533435998
 40
0.9664666811
 40
0.9773656857
 40
0.9860585111
 40
0.9925993587
 40
1.0
 40
1.0
 40
1.0
 40
1.0
 10
15.3189121352
 20
25.0803512762
 30
0.0
 10
15.350132957
 20
25.0802574707
 30
0.0
 10
15.4111999782
 20
25.079744913
 30
0.0
 10
15.4995661544
 20
25.0780086089
 30
0.0
 10
15.5805246631
 20
25.075368951
 30
0.0
 10
15.6419627594
 20
25.0723942514
 30
0.0
 10
15.6852404732
 20
25.0695511603
 30
0.0
 10
15.7126056807
 20
25.0673684394
 30
0.0
 10
15.7361932708
 20
25.0650590002
 30
0.0
 10
15.755799287
 20
25.062644903
 30
0.0
 10
15.7695414574
 20
25.0604588145
 30
0.0
 10
15.7784030495
 20
25.0585799306
 30
0.0
 10
15.783416134
 20
25.0572883389
 30
0.0
 10
15.7874214743
 20
25.055945701
 30
0.0
 10
15.7905431643
 20
25.0545608636
 30
0.0
 10
15.7927441571
 20
25.0529012191
 30
0.0
 10
15.7927441571
 20
25.0517251461
 30
0.0
  0
SPLINE
  5
26E
100
AcDbEntity
  8
_1
100
AcDbSpline
 62
7
  6
BYLAYER
 70
0
 71
3
 72
21
 73
17
 74
0
 42
0.0000001
 43
0.0000001
 44
0.0000000001
 40
0.0
 40
0.0
 40
0.0
 40
0.0
 40
0.0074006413
 40
0.0139414889
 40
0.0226343143
 40
0.0335333189
 40
0.0466564002
 40
0.0795532415
 40
0.1210964196
 40
0.1709335578
 40
0.2286851145
 40
0.2938352541
 40
0.4438468254
 40
0.6157206528
 40
0.8035367352
 40
1.0
 40
1.0
 40
1.0
 40
1.0
 10
15.7927441571
 20
7.7237176368
 30
0.0
 10
15.7927441571
 20
7.7248937098
 30
0.0
 10
15.7905431643
 20
7.7265533544
 30
0.0
 10
15.7874214743
 20
7.7279381917
 30
0.0
 10
15.783416134
 20
7.7292808296
 30
0.0
 10
15.7784030495
 20
7.7305724213
 30
0.0
 10
15.7695414574
 20
7.7324513052
 30
0.0
 10
15.755799287
 20
7.7346373937
 30
0.0
 10
15.7361932708
 20
7.737051491
 30
0.0
 10
15.7126056807
 20
7.7393609301
 30
0.0
 10
15.6852404732
 20
7.7415436511
 30
0.0
 10
15.6419627594
 20
7.7443867421
 30
0.0
 10
15.5805246631
 20
7.7473614417
 30
0.0
 10
15.4995661544
 20
7.7500010997
 30
0.0
 10
15.4111999782
 20
7.7517374038
 30
0.0
 10
15.350132957
 20
7.7522499615
 30
0.0
 10
15.3189121352
 20
7.752343767
 30
0.0
  0
SPLINE
  5
26F
100
AcDbEntity
  8
_1
100
AcDbSpline
 62
7
  6
BYLAYER
 70
0
 71
3
 72
10
 73
6
 74
0
 42
0.0000001
 43
0.0000001
 44
0.0000000001
 40
0.0
 40
0.0
 40
0.0
 40
0.0
 40
0.2504026801
 40
0.5002805308
 40
1.0
 40
1.0
 40
1.0
 40
1.0
 10
6.266576179
 20
23.2802881304
 30
0.0
 10
6.2100936897
 20
23.1370953632
 30
0.0
 10
6.109370244
 20
22.8459740626
 30
0.0
 10
5.9605764903
 20
22.2490609587
 30
0.0
 10
5.9137500337
 20
21.7864765017
 30
0.0
 10
5.9154662979
 20
21.4792888562
 30
0.0
  0
SPLINE
  5
270
100
AcDbEntity
  8
_1
100
AcDbSpline
 62
7
  6
BYLAYER
 70
0
 71
3
 72
10
 73
6
 74
0
 42
0.0000001
 43
0.0000001
 44
0.0000000001
 40
0.0
 40
0.0
 40
0.0
 40
0.0
 40
0.2503939978
 40
0.5003052347
 40
1.0
 40
1.0
 40
1.0
 40
1.0
 10
15.6700220163
 20
21.4792888563
 30
0.0
 10
15.6708821036
 20
21.6332326312
 30
0.0
 10
15.6560189616
 20
21.9411631376
 30
0.0
 10
15.5652137027
 20
22.5499315924
 30
0.0
 10
15.4316423665
 20
22.9944977204
 30
0.0
 10
15.3189121352
 20
23.2802881304
 30
0.0
  0
SPLINE
  5
271
100
AcDbEntity
  8
_1
100
AcDbSpline
 62
7
  6
BYLAYER
 70
0
 71
3
 72
11
 73
7
 74
0
 42
0.0000001
 43
0.0000001
 44
0.0000000001
 40
0.0
 40
0.0
 40
0.0
 40
0.0
 40
0.251077902
 40
0.4999603788
 40
0.7488129082
 40
1.0
 40
1.0
 40
1.0
 40
1.0
 10
15.3189121352
 20
19.727147553
 30
0.0
 10
15.3740837467
 20
19.8670195669
 30
0.0
 10
15.4723621173
 20
20.1502760591
 30
0.0
 10
15.582545575
 20
20.5855575023
 30
0.0
 10
15.6519621361
 20
21.029304156
 30
0.0
 10
15.6691816002
 20
21.3288659567
 30
0.0
 10
15.6700220163
 20
21.4792888563
 30
0.0
  0
SPLINE
  5
272
100
AcDbEntity
  8
_1
100
AcDbSpline
 62
7
  6
BYLAYER
 70
0
 71
3
 72
10
 73
6
 74
0
 42
0.0000001
 43
0.0000001
 44
0.0000000001
 40
0.0
 40
0.0
 40
0.0
 40
0.0
 40
0.4997400611
 40
0.7487718916
 40
1.0
 40
1.0
 40
1.0
 40
1.0
 10
5.9154662979
 20
21.4792888562
 30
0.0
 10
5.9171373061
 20
21.180201409
 30
0.0
 10
5.9662118502
 20
20.7309387301
 30
0.0
 10
6.1131140554
 20
20.1503349244
 30
0.0
 10
6.2114049335
 20
19.8670186391
 30
0.0
 10
6.266576179
 20
19.727147553
 30
0.0
  0
SPLINE
  5
273
100
AcDbEntity
  8
_1
100
AcDbSpline
 62
7
  6
BYLAYER
 70
0
 71
3
 72
21
 73
17
 74
0
 42
0.0000001
 43
0.0000001
 44
0.0000000001
 40
0.0
 40
0.0
 40
0.0
 40
0.0
 40
0.0074006413
 40
0.0139414889
 40
0.0226343143
 40
0.0335333189
 40
0.0466564002
 40
0.0795532415
 40
0.1210964196
 40
0.1709335578
 40
0.2286851145
 40
0.2938352541
 40
0.4438468254
 40
0.6157206528
 40
0.8035367352
 40
1.0
 40
1.0
 40
1.0
 40
1.0
 10
5.7927441571
 20
25.0517251461
 30
0.0
 10
5.7927441571
 20
25.0529012191
 30
0.0
 10
5.7949451499
 20
25.0545608636
 30
0.0
 10
5.7980668399
 20
25.055945701
 30
0.0
 10
5.8020721802
 20
25.0572883389
 30
0.0
 10
5.8070852648
 20
25.0585799306
 30
0.0
 10
5.8159468568
 20
25.0604588145
 30
0.0
 10
5.8296890272
 20
25.062644903
 30
0.0
 10
5.8492950434
 20
25.0650590002
 30
0.0
 10
5.8728826335
 20
25.0673684394
 30
0.0
 10
5.900247841
 20
25.0695511603
 30
0.0
 10
5.9435255549
 20
25.0723942514
 30
0.0
 10
6.0049636511
 20
25.075368951
 30
0.0
 10
6.0859221598
 20
25.0780086089
 30
0.0
 10
6.174288336
 20
25.079744913
 30
0.0
 10
6.2353553573
 20
25.0802574707
 30
0.0
 10
6.266576179
 20
25.0803512762
 30
0.0
  0
SPLINE
  5
274
100
AcDbEntity
  8
_1
100
AcDbSpline
 62
7
  6
BYLAYER
 70
0
 71
3
 72
21
 73
17
 74
0
 42
0.0000001
 43
0.0000001
 44
0.0000000001
 40
0.0
 40
0.0
 40
0.0
 40
0.0
 40
0.1964632648
 40
0.3842793472
 40
0.5561531746
 40
0.7061647459
 40
0.7713148855
 40
0.8290664422
 40
0.8789035804
 40
0.9204467585
 40
0.9533435998
 40
0.9664666811
 40
0.9773656857
 40
0.9860585111
 40
0.9925993587
 40
1.0
 40
1.0
 40
1.0
 40
1.0
 10
6.266576179
 20
7.752343767
 30
0.0
 10
6.2353553573
 20
7.7522499615
 30
0.0
 10
6.174288336
 20
7.7517374038
 30
0.0
 10
6.0859221598
 20
7.7500010997
 30
0.0
 10
6.0049636511
 20
7.7473614417
 30
0.0
 10
5.9435255549
 20
7.7443867421
 30
0.0
 10
5.900247841
 20
7.7415436511
 30
0.0
 10
5.8728826335
 20
7.7393609301
 30
0.0
 10
5.8492950434
 20
7.737051491
 30
0.0
 10
5.8296890272
 20
7.7346373937
 30
0.0
 10
5.8159468568
 20
7.7324513052
 30
0.0
 10
5.8070852648
 20
7.7305724213
 30
0.0
 10
5.8020721802
 20
7.7292808296
 30
0.0
 10
5.7980668399
 20
7.7279381917
 30
0.0
 10
5.7949451499
 20
7.7265533544
 30
0.0
 10
5.7927441571
 20
7.7248937098
 30
0.0
 10
5.7927441571
 20
7.7237176368
 30
0.0
  0
ELLIPSE
  5
275
100
AcDbEntity
  8
_1
100
AcDbEllipse
 62
7
  6
BYLAYER
 10
10.8149804023
 20
21.5036139167
 30
0.0
 11
3.2667336949
 21
3.5736021921
 31
0.0
 40
0.999976833
 41
-0.4545072031
 42
0.0021070503
  0
ELLIPSE
  5
276
100
AcDbEntity
  8
_1
100
AcDbEllipse
 62
7
  6
BYLAYER
 10
10.770507912
 20
21.5036139167
 30
0.0
 11
-3.2667336949
 21
3.5736021921
 31
0.0
 40
0.999976833
 41
-0.0021070503
 42
0.4545072031
  0
ELLIPSE
  5
277
100
AcDbEntity
  8
_1
100
AcDbEllipse
 62
7
  6
BYLAYER
 10
10.8149804023
 20
21.5036139167
 30
0.0
 11
3.2667336949
 21
3.5736021921
 31
0.0
 40
0.999976833
 41
-2.4056072206
 42
-1.2059291556
  0
ELLIPSE
  5
278
100
AcDbEntity
  8
_1
100
AcDbEllipse
 62
7
  6
BYLAYER
 10
10.770507912
 20
21.5036139167
 30
0.0
 11
-3.2667336949
 21
3.5736021921
 31
0.0
 40
0.999976833
 41
1.2059291556
 42
2.4056072206
  0
ENDSEC
  0
SECTION
  2
OBJECTS
  0
DICTIONARY
  5
C
100
AcDbDictionary
280
0
281
1
  3
ACAD_GROUP
350
D
  3
ACAD_MLINESTYLE
350
17
  3
ACAD_LAYOUT
350
1A
  3
ACAD_PLOTSETTINGS
350
19
  3
ACAD_PLOTSTYLENAME
350
E
  0
DICTIONARY
  5
D
102
{ACAD_REACTORS
330
C
102
}
100
AcDbDictionary
280
0
281
1
  0
ACDBDICTIONARYWDFLT
  5
E
102
{ACAD_REACTORS
330
C
102
}
100
AcDbDictionary
281
1
  3
Normal
350
F
100
AcDbDictionaryWithDefault
340
F
  0
DICTIONARY
  5
17
102
{ACAD_REACTORS
330
C
102
}
100
AcDbDictionary
280
0
281
1
  3
Standard
350
18
  0
DICTIONARY
  5
19
102
{ACAD_REACTORS
330
C
102
}
100
AcDbDictionary
281
1
  0
DICTIONARY
  5
1A
102
{ACAD_REACTORS
330
C
102
}
100
AcDbDictionary
281
1
  3
Model
350
279
  3
Layout1
350
27A
  0
ACDBPLACEHOLDER
  5
F
102
{ACAD_REACTORS
330
E
102
}
  0
MLINESTYLE
  5
18
102
{ACAD_REACTORS
330
17
102
}
100
AcDbMlineStyle
  2
STANDARD
 70
0
  3

 62
256
 51
90.0
 52
90.0
 71
2
 49
0.5
 62
256
  6
BYLAYER
 49
-0.5
 62
256
  6
BYLAYER
  0
LAYOUT
  5
279
102
{ACAD_REACTORS
330
1A
102
}
100
AcDbPlotSettings
  1

  2
none_device
  4

  6

 40
0.0
 41
0.0
 42
0.0
 43
0.0
 44
210.0
 45
297.0
 46
0.0
 47
0.0
 48
0.0
 49
0.0
140
0.0
141
0.0
142
1.0
143
1.0
 70
1024
 72
1
 73
0
 74
0
  7

 75
0
147
1.0
148
0.0
149
0.0
100
AcDbLayout
  1
Model
 70
0
 71
0
 10
0.0
 20
0.0
 11
210.0
 21
297.0
 12
0.0
 22
0.0
 32
0.0
 14
0.0
 24
0.0
 34
0.0
 15
0.0
 25
0.0
 35
0.0
146
0.0
 13
0.0
 23
0.0
 33
0.0
 16
1.0
 26
0.0
 36
0.0
 17
0.0
 27
1.0
 37
0.0
 76
0
330
211
345
0
346
0
  0
LAYOUT
  5
27A
102
{ACAD_REACTORS
330
1A
102
}
100
AcDbPlotSettings
  1

  2
none_device
  4

  6

 40
0.0
 41
0.0
 42
0.0
 43
0.0
 44
210.0
 45
297.0
 46
0.0
 47
0.0
 48
0.0
 49
0.0
140
0.0
141
0.0
142
1.0
143
1.0
 70
0
 72
1
 73
0
 74
0
  7

 75
0
147
1.0
148
0.0
149
0.0
100
AcDbLayout
  1
Layout1
 70
0
 71
1
 10
0.0
 20
0.0
 11
210.0
 21
297.0
 12
0.0
 22
0.0
 32
0.0
 14
0.0
 24
0.0
 34
0.0
 15
0.0
 25
0.0
 35
0.0
146
0.0
 13
0.0
 23
0.0
 33
0.0
 16
1.0
 26
0.0
 36
0.0
 17
0.0
 27
1.0
 37
0.0
 76
0
330
212
345
0
346
0
  0
ENDSEC
  0
EOF
