999
DXF file: C:\Users\sesa63760\Dev\_Creo\CAD\MCADID0001841_3D-CAD\drw0001_5.dxf
999
Pro/ENGINEER 2019471 by Parametric Technology Corporation
  0
SECTION
  2
HEADER
  9
$ACADVER
  1
AC1024
  9
$DWGCODEPAGE
  3
ANSI_1252
  9
$EXTMAX
 10
54.1438683131
 20
76.5748994714
 30
0.0
  9
$EXTMIN
 10
0.0
 20
0.0
 30
0.0
  9
$LIMMIN
 10
0.0
 20
0.0
  9
$LIMMAX
 10
54.1438683131
 20
76.5748994714
  9
$VIEWCTR
 10
27.0719341566
 20
38.2874497357
  9
$VIEWSIZE
 40
76.5748994714
  9
$CLAYER
  8
0
  9
$LTSCALE
 40
4.9915490026
  9
$CELTYPE
  6
BYLAYER
  9
$DIMSCALE
 40
1.0
  9
$DIMASZ
 40
0.6445698609
  9
$DIMEXO
 40
1.0
  9
$DIMDLI
 40
3.4487065836
  9
$DIMEXE
 40
1.0
  9
$DIMCEN
 40
0.8167989277
  9
$DIMLFAC
 40
1.0
  9
$DIMBLK
  1
_FILLED
  9
$DIMALT
 70
0
  9
$DIMALTF
 40
0.0393700787
  9
$DIMTXT
 40
0.9023978052
  9
$DIMTOL
 70
1
  9
$DIMLIM
 70
0
  9
$DIMTFAC
 40
1.0
  9
$DIMTP
 40
0.01
  9
$DIMTM
 40
0.01
  9
$DIMGAP
 40
0.625
  9
$DIMDSEP
 70
46
  9
$AUNITS
 70
0
  9
$PDMODE
 70
3
  9
$PDSIZE
 40
0.3125
  9
$HANDSEED
  5
303
  9
$TILEMODE
 70
1
  9
$MEASUREMENT
 70
1
  9
$INSUNITS
 70
4
  0
ENDSEC
  0
SECTION
  2
CLASSES
  0
CLASS
  1
ACDBDICTIONARYWDFLT
  2
AcDbDictionaryWithDefault
  3
AutoCAD 2000
 90
0
 91
1
280
0
281
0
  0
CLASS
  1
ACDBPLACEHOLDER
  2
AcDbPlaceHolder
  3
AutoCAD 2000
 90
0
 91
1
280
0
281
0
  0
CLASS
  1
LAYOUT
  2
AcDbLayout
  3
AutoCAD 2000
 90
0
 91
0
280
0
281
0
  0
ENDSEC
  0
SECTION
  2
TABLES
  0
TABLE
  2
VPORT
  5
8
100
AcDbSymbolTable
 70
2
  0
VPORT
  5
1F4
100
AcDbSymbolTableRecord
100
AcDbViewportTableRecord
  2
*ACTIVE
 70
0
 10
0.0
 20
0.0
 11
1.0
 21
1.0
 12
27.0719341566
 22
38.2874497357
 13
0.0
 23
0.0
 14
1.0
 24
1.0
 15
0.0
 25
0.0
 16
0.0
 26
0.0
 36
1.0
 17
0.0
 27
0.0
 37
0.0
 40
76.5748994714
 41
0.7070707071
 42
50.0
 43
0.0
 44
0.0
 50
0.0
 51
0.0
 71
0
 72
100
 73
1
 74
1
 75
0
 76
0
 77
0
 78
0
  0
ENDTAB
  0
TABLE
  2
LTYPE
  5
5
100
AcDbSymbolTable
 70
6
  0
LTYPE
  5
14
100
AcDbSymbolTableRecord
100
AcDbLinetypeTableRecord
  2
BYBLOCK
 70
0
  3

 72
65
 73
0
 40
0.0
  0
LTYPE
  5
15
100
AcDbSymbolTableRecord
100
AcDbLinetypeTableRecord
  2
BYLAYER
 70
0
  3

 72
65
 73
0
 40
0.0
  0
LTYPE
  5
16
100
AcDbSymbolTableRecord
100
AcDbLinetypeTableRecord
  2
CONTINUOUS
 70
64
  3
Solid line
 72
65
 73
0
 40
0.0
  0
LTYPE
  5
1F5
100
AcDbSymbolTableRecord
100
AcDbLinetypeTableRecord
  2
CENTER
 70
64
  3
____ _ ____ _ ____ _ ____ _ ____ _ ____ _ ____
 72
65
 73
4
 40
0.6
 49
0.375
 74
0
 49
-0.075
 74
0
 49
0.075
 74
0
 49
-0.075
 74
0
  0
LTYPE
  5
1F6
100
AcDbSymbolTableRecord
100
AcDbLinetypeTableRecord
  2
HIDDEN
 70
64
  3
- - - - - - - - - - - - - - - - - - - -
 72
65
 73
2
 40
0.2
 49
0.1
 74
0
 49
-0.1
 74
0
  0
LTYPE
  5
1F7
100
AcDbSymbolTableRecord
100
AcDbLinetypeTableRecord
  2
PHANTOM
 70
64
  3
_____ _ _ _____ _ _ _____ _ _ _____
 72
65
 73
6
 40
0.8
 49
0.45
 74
0
 49
-0.05
 74
0
 49
0.1
 74
0
 49
-0.05
 74
0
 49
0.1
 74
0
 49
-0.05
 74
0
  0
LTYPE
  5
1F8
100
AcDbSymbolTableRecord
100
AcDbLinetypeTableRecord
  2
DOT
 70
64
  3
. . . . . . . . . . . . . . . . . . . .
 72
65
 73
2
 40
0.2
 49
0.1
 74
0
 49
-0.1
 74
0
  0
LTYPE
  5
1F9
100
AcDbSymbolTableRecord
100
AcDbLinetypeTableRecord
  2
DASHED
 70
64
  3
- - - - - - - - - - - - - - - - - - - -
 72
65
 73
2
 40
0.2
 49
0.1
 74
0
 49
-0.1
 74
0
  0
ENDTAB
  0
TABLE
  2
LAYER
  5
2
100
AcDbSymbolTable
 70
36
  0
LAYER
  5
10
100
AcDbSymbolTableRecord
100
AcDbLayerTableRecord
  2
0
 70
0
 62
7
  6
CONTINUOUS
370
-3
390
F
  0
LAYER
  5
1FA
100
AcDbSymbolTableRecord
100
AcDbLayerTableRecord
  2
DEFAULT_1
 70
0
 62
7
  6
CENTER
370
-3
390
F
  0
LAYER
  5
1FB
100
AcDbSymbolTableRecord
100
AcDbLayerTableRecord
  2
DEFAULT_2
 70
0
 62
8
  6
HIDDEN
370
-3
390
F
  0
LAYER
  5
1FC
100
AcDbSymbolTableRecord
100
AcDbLayerTableRecord
  2
DEFAULT_3
 70
0
 62
7
  6
PHANTOM
370
-3
390
F
  0
LAYER
  5
1FD
100
AcDbSymbolTableRecord
100
AcDbLayerTableRecord
  2
00_COMPONENTS
 70
0
 62
7
  6
CONTINUOUS
370
-3
390
F
  0
LAYER
  5
1FE
100
AcDbSymbolTableRecord
100
AcDbLayerTableRecord
  2
01_1_DEFAULT_DATUMS
 70
0
 62
7
  6
CONTINUOUS
370
-3
390
F
  0
LAYER
  5
1FF
100
AcDbSymbolTableRecord
100
AcDbLayerTableRecord
  2
01_PLANES
 70
0
 62
7
  6
CONTINUOUS
370
-3
390
F
  0
LAYER
  5
200
100
AcDbSymbolTableRecord
100
AcDbLayerTableRecord
  2
02_COORD_SYS
 70
0
 62
7
  6
CONTINUOUS
370
-3
390
F
  0
LAYER
  5
201
100
AcDbSymbolTableRecord
100
AcDbLayerTableRecord
  2
03_AXES
 70
0
 62
7
  6
CONTINUOUS
370
-3
390
F
  0
LAYER
  5
202
100
AcDbSymbolTableRecord
100
AcDbLayerTableRecord
  2
04_POINTS
 70
0
 62
7
  6
CONTINUOUS
370
-3
390
F
  0
LAYER
  5
203
100
AcDbSymbolTableRecord
100
AcDbLayerTableRecord
  2
05_CURVES
 70
0
 62
7
  6
CONTINUOUS
370
-3
390
F
  0
LAYER
  5
204
100
AcDbSymbolTableRecord
100
AcDbLayerTableRecord
  2
06_SURFS
 70
0
 62
7
  6
CONTINUOUS
370
-3
390
F
  0
LAYER
  5
205
100
AcDbSymbolTableRecord
100
AcDbLayerTableRecord
  2
07_COSMETICS
 70
0
 62
7
  6
CONTINUOUS
370
-3
390
F
  0
LAYER
  5
206
100
AcDbSymbolTableRecord
100
AcDbLayerTableRecord
  2
10_NOTES
 70
0
 62
7
  6
CONTINUOUS
370
-3
390
F
  0
LAYER
  5
207
100
AcDbSymbolTableRecord
100
AcDbLayerTableRecord
  2
11_NOTES_PUB
 70
0
 62
7
  6
CONTINUOUS
370
-3
390
F
  0
LAYER
  5
208
100
AcDbSymbolTableRecord
100
AcDbLayerTableRecord
  2
13_REF_GTOL
 70
0
 62
7
  6
CONTINUOUS
370
-3
390
F
  0
LAYER
  5
209
100
AcDbSymbolTableRecord
100
AcDbLayerTableRecord
  2
16_MISC
 70
0
 62
7
  6
CONTINUOUS
370
-3
390
F
  0
LAYER
  5
20A
100
AcDbSymbolTableRecord
100
AcDbLayerTableRecord
  2
17_NO_PRINT
 70
0
 62
7
  6
CONTINUOUS
370
-3
390
F
  0
LAYER
  5
20B
100
AcDbSymbolTableRecord
100
AcDbLayerTableRecord
  2
18_DATUM_CAMS_JOINTS
 70
0
 62
7
  6
CONTINUOUS
370
-3
390
F
  0
LAYER
  5
20C
100
AcDbSymbolTableRecord
100
AcDbLayerTableRecord
  2
19_DATUM_FUNCTIONAL
 70
0
 62
7
  6
CONTINUOUS
370
-3
390
F
  0
LAYER
  5
20D
100
AcDbSymbolTableRecord
100
AcDbLayerTableRecord
  2
20_DATUM_KINEMATIC_SCHEME
 70
0
 62
7
  6
CONTINUOUS
370
-3
390
F
  0
ENDTAB
  0
TABLE
  2
STYLE
  5
3
100
AcDbSymbolTable
 70
1
  0
STYLE
  5
11
100
AcDbSymbolTableRecord
100
AcDbTextStyleTableRecord
  2
STANDARD
 70
0
 40
0.0
 41
0.8
 50
0.0
 71
0
 42
0.2
  3
txt
  4

  0
STYLE
  5
20E
100
AcDbSymbolTableRecord
100
AcDbTextStyleTableRecord
  2
TEXTSTYLE_1
 70
0
 40
0.0
 41
0.8
 50
0.0
 71
0
 42
0.2
  3
gdt
  4

  0
ENDTAB
  0
TABLE
  2
VIEW
  5
6
100
AcDbSymbolTable
 70
0
  0
ENDTAB
  0
TABLE
  2
UCS
  5
7
100
AcDbSymbolTable
 70
0
  0
ENDTAB
  0
TABLE
  2
APPID
  5
9
100
AcDbSymbolTable
 70
1
  0
APPID
  5
20F
100
AcDbSymbolTableRecord
100
AcDbRegAppTableRecord
  2
ACAD
 70
0
  0
ENDTAB
  0
TABLE
  2
BLOCK_RECORD
  5
1
100
AcDbSymbolTable
 70
0
  0
BLOCK_RECORD
  5
210
100
AcDbSymbolTableRecord
100
AcDbBlockTableRecord
  2
*Model_Space
  0
BLOCK_RECORD
  5
211
100
AcDbSymbolTableRecord
100
AcDbBlockTableRecord
  2
*Paper_Space
  0
BLOCK_RECORD
  5
212
100
AcDbSymbolTableRecord
100
AcDbBlockTableRecord
  2
_FILLED
  0
ENDTAB
  0
TABLE
  2
DIMSTYLE
  5
A
100
AcDbSymbolTable
 70
1
100
AcDbDimStyleTable
 71
0
  0
DIMSTYLE
105
213
100
AcDbSymbolTableRecord
100
AcDbDimStyleTableRecord
  2
STANDARD
 70
0
  3

  4

 40
1.0
 41
0.6445698609
 42
1.0
 43
0.38
 44
1.0
 45
0.0
 46
0.0
 47
0.01
 48
0.01
140
0.9023978052
141
0.09
142
0.0
143
25.4
144
1.0
145
0.0
146
1.0
147
0.625
 71
1
 72
0
 73
0
 74
0
 75
0
 76
0
 77
1
 78
8
 79
2
170
0
171
1
172
0
173
0
174
0
175
0
176
0
177
0
178
0
270
2
179
2
271
2
272
2
273
2
274
2
275
0
280
0
281
0
282
0
283
1
284
8
285
0
286
0
287
3
288
0
340
11
278
46
341
212
342
212
343
212
344
212
  0
ENDTAB
  0
ENDSEC
  0
SECTION
  2
BLOCKS
  0
BLOCK
  5
20
100
AcDbEntity
  8
0
100
AcDbBlockBegin
  2
*Model_Space
 70
0
 10
0.0
 20
0.0
 30
0.0
  3
*Model_Space
  1

  0
ENDBLK
  5
21
100
AcDbEntity
  8
0
100
AcDbBlockEnd
  0
BLOCK
  5
1C
100
AcDbEntity
  8
0
100
AcDbBlockBegin
  2
*Paper_Space
 70
0
 10
0.0
 20
0.0
 30
0.0
  3
*Paper_Space
  1

  0
ENDBLK
  5
1D
100
AcDbEntity
  8
0
100
AcDbBlockEnd
  0
BLOCK
  5
214
100
AcDbEntity
  8
0
100
AcDbBlockBegin
  2
_FILLED
 70
64
 10
0.0
 20
0.0
  3
_FILLED
  1

  0
SOLID
  5
215
100
AcDbEntity
  8
0
  6
BYBLOCK
 62
0
100
AcDbTrace
 10
0.0
 20
0.0
 11
-1.0
 21
0.25
 12
-1.0
 22
-0.25
 13
-1.0
 23
-0.25
  0
ENDBLK
  5
216
100
AcDbEntity
  8
0
  6
BYBLOCK
 62
0
100
AcDbBlockEnd
  0
ENDSEC
  0
SECTION
  2
ENTITIES
  0
LINE
  5
217
100
AcDbEntity
  8
0
100
AcDbLine
 62
7
  6
CONTINUOUS
 10
22.3717495737
 20
6.2328406547
 11
33.3717495737
 21
6.2328406547
  0
LINE
  5
218
100
AcDbEntity
  8
0
100
AcDbLine
 62
7
  6
CONTINUOUS
 10
20.0717495737
 20
6.3328406547
 11
23.7217495737
 21
6.3328406547
  0
LINE
  5
219
100
AcDbEntity
  8
0
100
AcDbLine
 62
7
  6
CONTINUOUS
 10
32.0217495737
 20
6.3328406547
 11
35.6717495737
 21
6.3328406547
  0
LINE
  5
21A
100
AcDbEntity
  8
0
100
AcDbLine
 62
7
  6
CONTINUOUS
 10
32.1717495737
 20
8.0328406547
 11
32.0217495737
 21
8.0328406547
  0
LINE
  5
21B
100
AcDbEntity
  8
0
100
AcDbLine
 62
7
  6
CONTINUOUS
 10
23.7217495737
 20
8.0328406547
 11
23.5717495737
 21
8.0328406547
  0
LINE
  5
21C
100
AcDbEntity
  8
0
100
AcDbLine
 62
7
  6
CONTINUOUS
 10
22.2717495737
 20
8.0328406547
 11
22.4717495737
 21
8.0328406547
  0
LINE
  5
21D
100
AcDbEntity
  8
0
100
AcDbLine
 62
7
  6
CONTINUOUS
 10
33.2717495737
 20
8.0328406547
 11
33.4717495737
 21
8.0328406547
  0
LINE
  5
21E
100
AcDbEntity
  8
0
100
AcDbLine
 62
7
  6
CONTINUOUS
 10
22.4717495737
 20
9.7328406547
 11
23.7217495737
 21
9.7328406547
  0
LINE
  5
21F
100
AcDbEntity
  8
0
100
AcDbLine
 62
7
  6
CONTINUOUS
 10
32.0217495737
 20
9.7328406547
 11
33.2717495737
 21
9.7328406547
  0
LINE
  5
220
100
AcDbEntity
  8
0
100
AcDbLine
 62
7
  6
CONTINUOUS
 10
32.1717495737
 20
9.8328406547
 11
32.0217495737
 21
9.8328406547
  0
LINE
  5
221
100
AcDbEntity
  8
0
100
AcDbLine
 62
7
  6
CONTINUOUS
 10
23.7217495737
 20
9.8328406547
 11
23.5717495737
 21
9.8328406547
  0
LINE
  5
222
100
AcDbEntity
  8
0
100
AcDbLine
 62
7
  6
CONTINUOUS
 10
23.7217495737
 20
10.7328406547
 11
32.0217495737
 21
10.7328406547
  0
LINE
  5
223
100
AcDbEntity
  8
0
100
AcDbLine
 62
7
  6
CONTINUOUS
 10
33.4717495737
 20
11.3328406547
 11
32.1717495737
 21
11.3328406547
  0
LINE
  5
224
100
AcDbEntity
  8
0
100
AcDbLine
 62
7
  6
CONTINUOUS
 10
23.5717495737
 20
11.3328406547
 11
22.2717495737
 21
11.3328406547
  0
LINE
  5
225
100
AcDbEntity
  8
0
100
AcDbLine
 62
7
  6
CONTINUOUS
 10
22.1217495737
 20
16.8328406547
 11
26.1217495737
 21
16.8328406547
  0
LINE
  5
226
100
AcDbEntity
  8
0
100
AcDbLine
 62
7
  6
CONTINUOUS
 10
29.6217495737
 20
16.8328406547
 11
33.6217495737
 21
16.8328406547
  0
LINE
  5
227
100
AcDbEntity
  8
0
100
AcDbLine
 62
7
  6
CONTINUOUS
 10
33.3217495737
 20
17.2328406547
 11
29.9217495737
 21
17.2328406547
  0
LINE
  5
228
100
AcDbEntity
  8
0
100
AcDbLine
 62
7
  6
CONTINUOUS
 10
29.6217495737
 20
17.4454906763
 11
29.8217495737
 21
17.4454906763
  0
LINE
  5
229
100
AcDbEntity
  8
0
100
AcDbLine
 62
7
  6
CONTINUOUS
 10
33.4217495737
 20
17.4454906763
 11
33.6217495737
 21
17.4454906763
  0
LINE
  5
22A
100
AcDbEntity
  8
0
100
AcDbLine
 62
7
  6
CONTINUOUS
 10
33.6217495737
 20
17.7527791881
 11
33.4217495737
 21
17.7527791881
  0
LINE
  5
22B
100
AcDbEntity
  8
0
100
AcDbLine
 62
7
  6
CONTINUOUS
 10
29.8217495737
 20
17.7527791881
 11
29.6217495737
 21
17.7527791881
  0
LINE
  5
22C
100
AcDbEntity
  8
0
100
AcDbLine
 62
7
  6
CONTINUOUS
 10
29.6217495737
 20
18.6328406547
 11
29.8217495737
 21
18.6328406547
  0
LINE
  5
22D
100
AcDbEntity
  8
0
100
AcDbLine
 62
7
  6
CONTINUOUS
 10
33.4217495737
 20
18.6328406547
 11
33.6217495737
 21
18.6328406547
  0
LINE
  5
22E
100
AcDbEntity
  8
0
100
AcDbLine
 62
7
  6
CONTINUOUS
 10
25.8160109137
 20
67.2771691183
 11
24.8867574417
 21
65.7216135605
  0
LINE
  5
22F
100
AcDbEntity
  8
0
100
AcDbLine
 62
7
  6
CONTINUOUS
 10
24.5937886915
 20
65.7216135627
 11
25.5278164695
 21
67.2771691161
  0
LINE
  5
230
100
AcDbEntity
  8
0
100
AcDbLine
 62
7
  6
CONTINUOUS
 10
26.8715664693
 20
67.1291656461
 11
26.3255595251
 21
66.2216135605
  0
LINE
  5
231
100
AcDbEntity
  8
0
100
AcDbLine
 62
7
  6
CONTINUOUS
 10
26.0660109137
 20
66.2216135627
 11
26.8516011917
 21
67.5271691161
  0
LINE
  5
232
100
AcDbEntity
  8
0
100
AcDbLine
 62
7
  6
CONTINUOUS
 10
32.6717370251
 20
21.8828406547
 11
30.5717621222
 21
21.8828406547
  0
LINE
  5
233
100
AcDbEntity
  8
0
100
AcDbLine
 62
7
  6
CONTINUOUS
 10
25.1717370251
 20
21.8828406547
 11
23.0717621222
 21
21.8828406547
  0
LINE
  5
234
100
AcDbEntity
  8
0
100
AcDbLine
 62
7
  6
CONTINUOUS
 10
22.6217495737
 20
21.9328406547
 11
25.6217495737
 21
21.9328406547
  0
LINE
  5
235
100
AcDbEntity
  8
0
100
AcDbLine
 62
7
  6
CONTINUOUS
 10
29.8217495737
 20
21.9328406547
 11
33.1217495737
 21
21.9328406547
  0
LINE
  5
236
100
AcDbEntity
  8
0
100
AcDbLine
 62
7
  6
CONTINUOUS
 10
33.2757459565
 20
22.0328406546
 11
29.9757459565
 21
22.0328406546
  0
LINE
  5
237
100
AcDbEntity
  8
0
100
AcDbLine
 62
7
  6
CONTINUOUS
 10
33.4217495737
 20
22.1328406547
 11
33.2757459565
 21
22.1328406547
  0
LINE
  5
238
100
AcDbEntity
  8
0
100
AcDbLine
 62
7
  6
CONTINUOUS
 10
22.1217495737
 20
22.3328406547
 11
23.0217495737
 21
22.3328406547
  0
LINE
  5
239
100
AcDbEntity
  8
0
100
AcDbLine
 62
7
  6
CONTINUOUS
 10
25.8717495737
 20
22.3328406547
 11
26.1217495737
 21
22.3328406547
  0
LINE
  5
23A
100
AcDbEntity
  8
0
100
AcDbLine
 62
7
  6
CONTINUOUS
 10
29.8217495737
 20
22.3328406547
 11
29.9757459565
 21
22.3328406547
  0
LINE
  5
23B
100
AcDbEntity
  8
0
100
AcDbLine
 62
7
  6
CONTINUOUS
 10
33.6217495737
 20
22.4328406547
 11
29.6217495737
 21
22.4328406547
  0
LINE
  5
23C
100
AcDbEntity
  8
0
100
AcDbLine
 62
7
  6
CONTINUOUS
 10
26.1217495737
 20
22.4328406547
 11
22.1217495737
 21
22.4328406547
  0
LINE
  5
23D
100
AcDbEntity
  8
0
100
AcDbLine
 62
7
  6
CONTINUOUS
 10
23.0717495737
 20
21.8828406547
 11
23.0217495737
 21
21.9328406546
  0
LINE
  5
23E
100
AcDbEntity
  8
0
100
AcDbLine
 62
7
  6
CONTINUOUS
 10
33.6217495737
 20
26.9328406547
 11
29.6217495737
 21
26.9328406547
  0
LINE
  5
23F
100
AcDbEntity
  8
0
100
AcDbLine
 62
7
  6
CONTINUOUS
 10
26.1217495737
 20
26.9328406547
 11
22.1217495737
 21
26.9328406547
  0
LINE
  5
240
100
AcDbEntity
  8
0
100
AcDbLine
 62
7
  6
CONTINUOUS
 10
33.6217495737
 20
27.9328406547
 11
33.5665065698
 21
27.9328406547
  0
LINE
  5
241
100
AcDbEntity
  8
0
100
AcDbLine
 62
7
  6
CONTINUOUS
 10
29.6357615213
 20
27.9328406547
 11
29.6217495737
 21
27.9328406547
  0
LINE
  5
242
100
AcDbEntity
  8
0
100
AcDbLine
 62
7
  6
CONTINUOUS
 10
26.1217495737
 20
27.9328406547
 11
26.0665065697
 21
27.9328406547
  0
LINE
  5
243
100
AcDbEntity
  8
0
100
AcDbLine
 62
7
  6
CONTINUOUS
 10
22.1217495737
 20
27.9328406547
 11
22.1357615213
 21
27.9328406547
  0
LINE
  5
244
100
AcDbEntity
  8
0
100
AcDbLine
 62
7
  6
CONTINUOUS
 10
32.3511340455
 20
29.2328406547
 11
30.8511340455
 21
29.2328406547
  0
LINE
  5
245
100
AcDbEntity
  8
0
100
AcDbLine
 62
7
  6
CONTINUOUS
 10
23.3511340455
 20
29.2328406547
 11
24.8511340455
 21
29.2328406547
  0
LINE
  5
246
100
AcDbEntity
  8
0
100
AcDbLine
 62
7
  6
CONTINUOUS
 10
30.5717495737
 20
21.8828406547
 11
30.5217495737
 21
21.9328406546
  0
LINE
  5
247
100
AcDbEntity
  8
0
100
AcDbLine
 62
7
  6
CONTINUOUS
 10
22.2275594993
 20
27.7317163828
 11
22.4886357492
 21
26.9328406547
  0
LINE
  5
248
100
AcDbEntity
  8
0
100
AcDbLine
 62
7
  6
CONTINUOUS
 10
19.9717495737
 20
33.6328406547
 11
19.9717495737
 21
70.529512671
  0
LINE
  5
249
100
AcDbEntity
  8
0
100
AcDbLine
 62
7
  6
CONTINUOUS
 10
20.0717495737
 20
40.1328406547
 11
20.0717495737
 21
6.3328406547
  0
LINE
  5
24A
100
AcDbEntity
  8
0
100
AcDbLine
 62
7
  6
CONTINUOUS
 10
20.1011340455
 20
33.7328406547
 11
20.1011340455
 21
35.0328406547
  0
LINE
  5
24B
100
AcDbEntity
  8
0
100
AcDbLine
 62
7
  6
CONTINUOUS
 10
20.2717495737
 20
6.3328406547
 11
20.2717495737
 21
33.7328406547
  0
LINE
  5
24C
100
AcDbEntity
  8
0
100
AcDbLine
 62
7
  6
CONTINUOUS
 10
20.2717495737
 20
35.2206692079
 11
20.2717495737
 21
40.3328406547
  0
LINE
  5
24D
100
AcDbEntity
  8
0
100
AcDbLine
 62
7
  6
CONTINUOUS
 10
20.3011340455
 20
33.7328406547
 11
20.3011340455
 21
35.2328406547
  0
LINE
  5
24E
100
AcDbEntity
  8
0
100
AcDbLine
 62
7
  6
CONTINUOUS
 10
21.3717495737
 20
61.4882918234
 11
21.3717495737
 21
40.3328406547
  0
LINE
  5
24F
100
AcDbEntity
  8
0
100
AcDbLine
 62
7
  6
CONTINUOUS
 10
21.5717495737
 20
57.8328406547
 11
21.5717495737
 21
35.3328406547
  0
LINE
  5
250
100
AcDbEntity
  8
0
100
AcDbLine
 62
7
  6
CONTINUOUS
 10
22.0717495737
 20
35.3328406547
 11
22.0717495737
 21
58.3328406547
  0
LINE
  5
251
100
AcDbEntity
  8
0
100
AcDbLine
 62
7
  6
CONTINUOUS
 10
22.1217495737
 20
16.8328406547
 11
22.1217495737
 21
33.7328406547
  0
LINE
  5
252
100
AcDbEntity
  8
0
100
AcDbLine
 62
7
  6
CONTINUOUS
 10
22.1357615213
 20
33.7328406547
 11
22.1357615213
 21
27.9328406547
  0
LINE
  5
253
100
AcDbEntity
  8
0
100
AcDbLine
 62
7
  6
CONTINUOUS
 10
22.2275594993
 20
27.7317163828
 11
22.2275594993
 21
33.7328406547
  0
LINE
  5
254
100
AcDbEntity
  8
0
100
AcDbLine
 62
7
  6
CONTINUOUS
 10
22.2717495737
 20
8.0328406547
 11
22.2717495737
 21
11.3328406547
  0
LINE
  5
255
100
AcDbEntity
  8
0
100
AcDbLine
 62
7
  6
CONTINUOUS
 10
22.3717495737
 20
6.3328406547
 11
22.3717495737
 21
6.2328406547
  0
LINE
  5
256
100
AcDbEntity
  8
0
100
AcDbLine
 62
7
  6
CONTINUOUS
 10
22.4717495737
 20
9.7328406547
 11
22.4717495737
 21
8.0328406547
  0
LINE
  5
257
100
AcDbEntity
  8
0
100
AcDbLine
 62
7
  6
CONTINUOUS
 10
22.6217495737
 20
21.9328406547
 11
22.6217495737
 21
16.8328406547
  0
LINE
  5
258
100
AcDbEntity
  8
0
100
AcDbLine
 62
7
  6
CONTINUOUS
 10
23.0217495737
 20
21.9328406546
 11
23.0217495737
 21
22.4328406547
  0
LINE
  5
259
100
AcDbEntity
  8
0
100
AcDbLine
 62
7
  6
CONTINUOUS
 10
23.3511340455
 20
29.2328406547
 11
23.3511340455
 21
33.7328406547
  0
LINE
  5
25A
100
AcDbEntity
  8
0
100
AcDbLine
 62
7
  6
CONTINUOUS
 10
23.5717495737
 20
8.0328406547
 11
23.5717495737
 21
6.3328406547
  0
LINE
  5
25B
100
AcDbEntity
  8
0
100
AcDbLine
 62
7
  6
CONTINUOUS
 10
23.5717495737
 20
9.8328406547
 11
23.5717495737
 21
11.3328406547
  0
LINE
  5
25C
100
AcDbEntity
  8
0
100
AcDbLine
 62
7
  6
CONTINUOUS
 10
19.9717495737
 20
33.6328406547
 11
20.0717495737
 21
33.6328406547
  0
LINE
  5
25D
100
AcDbEntity
  8
0
100
AcDbLine
 62
7
  6
CONTINUOUS
 10
20.1011340455
 20
33.7328406547
 11
35.6011340455
 21
33.7328406547
  0
LINE
  5
25E
100
AcDbEntity
  8
0
100
AcDbLine
 62
7
  6
CONTINUOUS
 10
23.7217495737
 20
10.7328406547
 11
23.7217495737
 21
6.2328406547
  0
LINE
  5
25F
100
AcDbEntity
  8
0
100
AcDbLine
 62
7
  6
CONTINUOUS
 10
24.5937886907
 20
65.4993913389
 11
24.5937886915
 21
65.7216135627
  0
LINE
  5
260
100
AcDbEntity
  8
0
100
AcDbLine
 62
7
  6
CONTINUOUS
 10
24.6771220238
 20
67.2771691166
 11
24.6771220238
 21
67.4993913389
  0
LINE
  5
261
100
AcDbEntity
  8
0
100
AcDbLine
 62
7
  6
CONTINUOUS
 10
24.8511340455
 20
33.7328406547
 11
24.8511340455
 21
29.2328406547
  0
LINE
  5
262
100
AcDbEntity
  8
0
100
AcDbLine
 62
7
  6
CONTINUOUS
 10
25.2217495737
 20
21.9328406546
 11
25.2217495737
 21
22.4328406547
  0
LINE
  5
263
100
AcDbEntity
  8
0
100
AcDbLine
 62
7
  6
CONTINUOUS
 10
25.6217495737
 20
21.9328406547
 11
25.6217495737
 21
16.8328406547
  0
LINE
  5
264
100
AcDbEntity
  8
0
100
AcDbLine
 62
7
  6
CONTINUOUS
 10
25.8160109129
 20
67.4993913389
 11
25.8160109137
 21
67.2771691183
  0
LINE
  5
265
100
AcDbEntity
  8
0
100
AcDbLine
 62
7
  6
CONTINUOUS
 10
25.8437886905
 20
65.721613561
 11
25.8437886905
 21
65.4993913389
  0
LINE
  5
266
100
AcDbEntity
  8
0
100
AcDbLine
 62
7
  6
CONTINUOUS
 10
25.8717495737
 20
22.4328406547
 11
25.8717495737
 21
16.8328406547
  0
LINE
  5
267
100
AcDbEntity
  8
0
100
AcDbLine
 62
7
  6
CONTINUOUS
 10
20.3011340455
 20
35.0720638817
 11
35.4011340455
 21
35.0720638817
  0
LINE
  5
268
100
AcDbEntity
  8
0
100
AcDbLine
 62
7
  6
CONTINUOUS
 10
20.0717495737
 20
35.1328406547
 11
20.1303282174
 21
35.1328406547
  0
LINE
  5
269
100
AcDbEntity
  8
0
100
AcDbLine
 62
7
  6
CONTINUOUS
 10
35.5597126893
 20
35.1328406547
 11
35.6717495737
 21
35.1328406547
  0
LINE
  5
26A
100
AcDbEntity
  8
0
100
AcDbLine
 62
7
  6
CONTINUOUS
 10
35.4011340455
 20
35.2328406547
 11
20.3011340455
 21
35.2328406547
  0
LINE
  5
26B
100
AcDbEntity
  8
0
100
AcDbLine
 62
7
  6
CONTINUOUS
 10
35.4717495737
 20
35.3328406547
 11
20.2717495737
 21
35.3328406547
  0
LINE
  5
26C
100
AcDbEntity
  8
0
100
AcDbLine
 62
7
  6
CONTINUOUS
 10
25.9747085918
 20
33.7328406547
 11
25.9747085918
 21
27.7317163829
  0
LINE
  5
26D
100
AcDbEntity
  8
0
100
AcDbLine
 62
7
  6
CONTINUOUS
 10
26.0660109129
 20
65.9993913389
 11
26.0660109137
 21
66.2216135627
  0
LINE
  5
26E
100
AcDbEntity
  8
0
100
AcDbLine
 62
7
  6
CONTINUOUS
 10
26.0665065697
 20
27.9328406547
 11
26.0665065697
 21
33.7328406547
  0
LINE
  5
26F
100
AcDbEntity
  8
0
100
AcDbLine
 62
7
  6
CONTINUOUS
 10
26.1217495737
 20
16.8328406547
 11
26.1217495737
 21
33.7328406547
  0
LINE
  5
270
100
AcDbEntity
  8
0
100
AcDbLine
 62
7
  6
CONTINUOUS
 10
26.3717495737
 20
59.6207800529
 11
26.3717495737
 21
58.3328406547
  0
LINE
  5
271
100
AcDbEntity
  8
0
100
AcDbLine
 62
7
  6
CONTINUOUS
 10
26.8715664683
 20
65.4716135611
 11
26.8715664683
 21
65.9993913389
  0
LINE
  5
272
100
AcDbEntity
  8
0
100
AcDbLine
 62
7
  6
CONTINUOUS
 10
26.8715664685
 20
66.221613561
 11
26.8715664693
 21
67.1291656461
  0
LINE
  5
273
100
AcDbEntity
  8
0
100
AcDbLine
 62
7
  6
CONTINUOUS
 10
27.1215664683
 20
67.5271691166
 11
27.1215664683
 21
66.2216135611
  0
LINE
  5
274
100
AcDbEntity
  8
0
100
AcDbLine
 62
7
  6
CONTINUOUS
 10
27.1215664683
 20
65.9993913389
 11
27.1215664683
 21
65.4716135611
  0
LINE
  5
275
100
AcDbEntity
  8
0
100
AcDbLine
 62
7
  6
CONTINUOUS
 10
27.3676602183
 20
66.2216135611
 11
27.3676602183
 21
65.9993913389
  0
LINE
  5
276
100
AcDbEntity
  8
0
100
AcDbLine
 62
7
  6
CONTINUOUS
 10
20.0717495737
 20
36.6828419781
 11
19.9717495737
 21
36.682842011
  0
LINE
  5
277
100
AcDbEntity
  8
0
100
AcDbLine
 62
7
  6
CONTINUOUS
 10
19.9717495737
 20
37.9245061655
 11
20.0717495737
 21
37.9245061655
  0
LINE
  5
278
100
AcDbEntity
  8
0
100
AcDbLine
 62
7
  6
CONTINUOUS
 10
29.7275594993
 20
27.7317163828
 11
29.9886357492
 21
26.9328406547
  0
LINE
  5
279
100
AcDbEntity
  8
0
100
AcDbLine
 62
7
  6
CONTINUOUS
 10
28.1493442461
 20
66.4438357833
 11
28.1493442461
 21
66.6382802278
  0
LINE
  5
27A
100
AcDbEntity
  8
0
100
AcDbLine
 62
7
  6
CONTINUOUS
 10
29.3717495737
 20
59.6207800529
 11
29.3717495737
 21
58.3328406547
  0
LINE
  5
27B
100
AcDbEntity
  8
0
100
AcDbLine
 62
7
  6
CONTINUOUS
 10
29.6217495737
 20
16.8328406547
 11
29.6217495737
 21
33.7328406547
  0
LINE
  5
27C
100
AcDbEntity
  8
0
100
AcDbLine
 62
7
  6
CONTINUOUS
 10
29.6357615213
 20
33.7328406547
 11
29.6357615213
 21
27.9328406547
  0
LINE
  5
27D
100
AcDbEntity
  8
0
100
AcDbLine
 62
7
  6
CONTINUOUS
 10
29.7275594993
 20
27.7317163828
 11
29.7275594993
 21
33.7328406547
  0
LINE
  5
27E
100
AcDbEntity
  8
0
100
AcDbLine
 62
7
  6
CONTINUOUS
 10
29.8217495737
 20
17.3328406547
 11
29.8217495737
 21
22.4328406547
  0
LINE
  5
27F
100
AcDbEntity
  8
0
100
AcDbLine
 62
7
  6
CONTINUOUS
 10
29.9757459565
 20
22.0328406546
 11
29.9757459565
 21
22.4328406547
  0
LINE
  5
280
100
AcDbEntity
  8
0
100
AcDbLine
 62
7
  6
CONTINUOUS
 10
30.1217495737
 20
16.8328406547
 11
30.1217495737
 21
21.9328406547
  0
LINE
  5
281
100
AcDbEntity
  8
0
100
AcDbLine
 62
7
  6
CONTINUOUS
 10
25.7136323418
 20
26.9328406547
 11
25.9747085918
 21
27.7317163829
  0
LINE
  5
282
100
AcDbEntity
  8
0
100
AcDbLine
 62
7
  6
CONTINUOUS
 10
20.0717495737
 20
40.1328406547
 11
21.5717495737
 21
40.1328406547
  0
LINE
  5
283
100
AcDbEntity
  8
0
100
AcDbLine
 62
7
  6
CONTINUOUS
 10
34.1717495737
 20
40.1328406547
 11
35.6717495737
 21
40.1328406547
  0
LINE
  5
284
100
AcDbEntity
  8
0
100
AcDbLine
 62
7
  6
CONTINUOUS
 10
35.4717495737
 20
40.3328406547
 11
34.1717495737
 21
40.3328406547
  0
LINE
  5
285
100
AcDbEntity
  8
0
100
AcDbLine
 62
7
  6
CONTINUOUS
 10
21.5717495737
 20
40.3328406547
 11
20.2717495737
 21
40.3328406547
  0
LINE
  5
286
100
AcDbEntity
  8
0
100
AcDbLine
 62
7
  6
CONTINUOUS
 10
30.4757459565
 20
22.0328406546
 11
30.4757459565
 21
22.4328406546
  0
LINE
  5
287
100
AcDbEntity
  8
0
100
AcDbLine
 62
7
  6
CONTINUOUS
 10
30.5217495737
 20
21.9328406546
 11
30.5217495737
 21
22.0328406546
  0
LINE
  5
288
100
AcDbEntity
  8
0
100
AcDbLine
 62
7
  6
CONTINUOUS
 10
30.8511340455
 20
29.2328406547
 11
30.8511340455
 21
33.7328406547
  0
LINE
  5
289
100
AcDbEntity
  8
0
100
AcDbLine
 62
7
  6
CONTINUOUS
 10
32.0217495737
 20
10.7328406547
 11
32.0217495737
 21
6.2328406547
  0
LINE
  5
28A
100
AcDbEntity
  8
0
100
AcDbLine
 62
7
  6
CONTINUOUS
 10
32.1717495737
 20
8.0328406547
 11
32.1717495737
 21
6.3328406547
  0
LINE
  5
28B
100
AcDbEntity
  8
0
100
AcDbLine
 62
7
  6
CONTINUOUS
 10
32.1717495737
 20
9.8328406547
 11
32.1717495737
 21
11.3328406547
  0
LINE
  5
28C
100
AcDbEntity
  8
0
100
AcDbLine
 62
7
  6
CONTINUOUS
 10
32.3511340455
 20
33.7328406547
 11
32.3511340455
 21
29.2328406547
  0
LINE
  5
28D
100
AcDbEntity
  8
0
100
AcDbLine
 62
7
  6
CONTINUOUS
 10
35.6717495737
 20
41.6328406547
 11
34.2717495737
 21
41.6328406547
  0
LINE
  5
28E
100
AcDbEntity
  8
0
100
AcDbLine
 62
7
  6
CONTINUOUS
 10
21.3717495737
 20
41.6328406547
 11
19.9717495737
 21
41.6328406547
  0
LINE
  5
28F
100
AcDbEntity
  8
0
100
AcDbLine
 62
7
  6
CONTINUOUS
 10
32.7217495737
 20
21.9328406546
 11
32.7217495737
 21
22.0328406546
  0
LINE
  5
290
100
AcDbEntity
  8
0
100
AcDbLine
 62
7
  6
CONTINUOUS
 10
32.7757459565
 20
22.0328406546
 11
32.7757459565
 21
22.4328406546
  0
LINE
  5
291
100
AcDbEntity
  8
0
100
AcDbLine
 62
7
  6
CONTINUOUS
 10
33.1217495737
 20
21.9328406547
 11
33.1217495737
 21
16.8328406547
  0
LINE
  5
292
100
AcDbEntity
  8
0
100
AcDbLine
 62
7
  6
CONTINUOUS
 10
33.2717495737
 20
9.7328406547
 11
33.2717495737
 21
8.0328406547
  0
LINE
  5
293
100
AcDbEntity
  8
0
100
AcDbLine
 62
7
  6
CONTINUOUS
 10
33.2757459565
 20
22.0328406546
 11
33.2757459565
 21
22.4328406546
  0
LINE
  5
294
100
AcDbEntity
  8
0
100
AcDbLine
 62
7
  6
CONTINUOUS
 10
33.3717495737
 20
6.3328406547
 11
33.3717495737
 21
6.2328406547
  0
LINE
  5
295
100
AcDbEntity
  8
0
100
AcDbLine
 62
7
  6
CONTINUOUS
 10
33.4217495737
 20
17.3328406547
 11
33.4217495737
 21
22.4328406547
  0
LINE
  5
296
100
AcDbEntity
  8
0
100
AcDbLine
 62
7
  6
CONTINUOUS
 10
33.4717495737
 20
8.0328406547
 11
33.4717495737
 21
11.3328406547
  0
LINE
  5
297
100
AcDbEntity
  8
0
100
AcDbLine
 62
7
  6
CONTINUOUS
 10
33.4747085918
 20
33.7328406547
 11
33.4747085918
 21
27.7317163828
  0
LINE
  5
298
100
AcDbEntity
  8
0
100
AcDbLine
 62
7
  6
CONTINUOUS
 10
33.5665065698
 20
27.9328406547
 11
33.5665065698
 21
33.7328406547
  0
LINE
  5
299
100
AcDbEntity
  8
0
100
AcDbLine
 62
7
  6
CONTINUOUS
 10
33.6217495737
 20
16.8328406547
 11
33.6217495737
 21
33.7328406547
  0
LINE
  5
29A
100
AcDbEntity
  8
0
100
AcDbLine
 62
7
  6
CONTINUOUS
 10
33.6717495737
 20
58.3328406547
 11
33.6717495737
 21
35.3328406547
  0
LINE
  5
29B
100
AcDbEntity
  8
0
100
AcDbLine
 62
7
  6
CONTINUOUS
 10
34.1717495737
 20
35.3328406547
 11
34.1717495737
 21
57.8328406547
  0
LINE
  5
29C
100
AcDbEntity
  8
0
100
AcDbLine
 62
7
  6
CONTINUOUS
 10
34.2717495737
 20
40.3328406547
 11
34.2717495737
 21
61.4882918234
  0
LINE
  5
29D
100
AcDbEntity
  8
0
100
AcDbLine
 62
7
  6
CONTINUOUS
 10
35.6717495737
 20
43.1328406547
 11
34.2717495737
 21
43.1328406547
  0
LINE
  5
29E
100
AcDbEntity
  8
0
100
AcDbLine
 62
7
  6
CONTINUOUS
 10
21.3717495737
 20
43.1328406547
 11
19.9717495737
 21
43.1328406547
  0
LINE
  5
29F
100
AcDbEntity
  8
0
100
AcDbLine
 62
7
  6
CONTINUOUS
 10
35.4011340455
 20
35.2328406547
 11
35.4011340455
 21
33.7328406547
  0
LINE
  5
2A0
100
AcDbEntity
  8
0
100
AcDbLine
 62
7
  6
CONTINUOUS
 10
35.4717495737
 20
40.3328406547
 11
35.4717495737
 21
35.2035907452
  0
LINE
  5
2A1
100
AcDbEntity
  8
0
100
AcDbLine
 62
7
  6
CONTINUOUS
 10
35.4717495737
 20
33.7328406547
 11
35.4717495737
 21
6.3328406547
  0
LINE
  5
2A2
100
AcDbEntity
  8
0
100
AcDbLine
 62
7
  6
CONTINUOUS
 10
35.6011340455
 20
35.0328406547
 11
35.6011340455
 21
33.7328406547
  0
LINE
  5
2A3
100
AcDbEntity
  8
0
100
AcDbLine
 62
7
  6
CONTINUOUS
 10
35.6717495737
 20
6.3328406547
 11
35.6717495737
 21
70.529512671
  0
LINE
  5
2A4
100
AcDbEntity
  8
0
100
AcDbLine
 62
7
  6
CONTINUOUS
 10
33.2136323418
 20
26.9328406547
 11
33.4747085918
 21
27.7317163828
  0
LINE
  5
2A5
100
AcDbEntity
  8
0
100
AcDbLine
 62
7
  6
CONTINUOUS
 10
25.1717495737
 20
21.8828406547
 11
25.2217495737
 21
21.9328406546
  0
LINE
  5
2A6
100
AcDbEntity
  8
0
100
AcDbLine
 62
7
  6
CONTINUOUS
 10
32.6717495737
 20
21.8828406547
 11
32.7217495737
 21
21.9328406546
  0
LINE
  5
2A7
100
AcDbEntity
  8
0
100
AcDbLine
 62
7
  6
CONTINUOUS
 10
21.3717495737
 20
56.9911268646
 11
19.9717495737
 21
56.9911268646
  0
LINE
  5
2A8
100
AcDbEntity
  8
0
100
AcDbLine
 62
7
  6
CONTINUOUS
 10
34.2717495737
 20
56.9911268646
 11
35.6717495737
 21
56.9911268646
  0
LINE
  5
2A9
100
AcDbEntity
  8
0
100
AcDbLine
 62
7
  6
CONTINUOUS
 10
21.5717495737
 20
57.8328406547
 11
34.1717495737
 21
57.8328406547
  0
LINE
  5
2AA
100
AcDbEntity
  8
0
100
AcDbLine
 62
7
  6
CONTINUOUS
 10
33.6717495737
 20
58.3328406547
 11
22.0717495737
 21
58.3328406547
  0
LINE
  5
2AB
100
AcDbEntity
  8
0
100
AcDbLine
 62
7
  6
CONTINUOUS
 10
19.9717495737
 20
58.3339221538
 11
21.3717495737
 21
58.3339221538
  0
LINE
  5
2AC
100
AcDbEntity
  8
0
100
AcDbLine
 62
7
  6
CONTINUOUS
 10
34.2717495737
 20
58.3339221538
 11
35.6717495737
 21
58.3339221538
  0
LINE
  5
2AD
100
AcDbEntity
  8
0
100
AcDbLine
 62
7
  6
CONTINUOUS
 10
26.3717495737
 20
59.6207800529
 11
29.3717495737
 21
59.6207800529
  0
LINE
  5
2AE
100
AcDbEntity
  8
0
100
AcDbLine
 62
7
  6
CONTINUOUS
 10
21.3717495737
 20
59.7250221516
 11
19.9717495737
 21
59.7250280077
  0
LINE
  5
2AF
100
AcDbEntity
  8
0
100
AcDbLine
 62
7
  6
CONTINUOUS
 10
35.6717495737
 20
59.7250239099
 11
34.2717495737
 21
59.7250218681
  0
LINE
  5
2B0
100
AcDbEntity
  8
0
100
AcDbLine
 62
7
  6
CONTINUOUS
 10
29.974289609
 20
60.8833554913
 11
28.6582122409
 21
60.8833554913
  0
LINE
  5
2B1
100
AcDbEntity
  8
0
100
AcDbLine
 62
7
  6
CONTINUOUS
 10
27.0852869064
 20
60.8833554913
 11
25.6692085892
 21
60.8833554913
  0
LINE
  5
2B2
100
AcDbEntity
  8
0
100
AcDbLine
 62
7
  6
CONTINUOUS
 10
21.3717495737
 20
61.4882918234
 11
34.2717495737
 21
61.4882918234
  0
LINE
  5
2B3
100
AcDbEntity
  8
0
100
AcDbLine
 62
7
  6
CONTINUOUS
 10
27.1215664683
 20
65.4716135611
 11
26.8715664683
 21
65.4716135611
  0
LINE
  5
2B4
100
AcDbEntity
  8
0
100
AcDbLine
 62
7
  6
CONTINUOUS
 10
25.8437886905
 20
65.4993913389
 11
24.5937886907
 21
65.4993913389
  0
LINE
  5
2B5
100
AcDbEntity
  8
0
100
AcDbLine
 62
7
  6
CONTINUOUS
 10
24.8867574417
 20
65.7216135605
 11
25.8437886905
 21
65.721613561
  0
LINE
  5
2B6
100
AcDbEntity
  8
0
100
AcDbLine
 62
7
  6
CONTINUOUS
 10
27.3676602183
 20
65.9993913389
 11
27.1215664683
 21
65.9993913389
  0
LINE
  5
2B7
100
AcDbEntity
  8
0
100
AcDbLine
 62
7
  6
CONTINUOUS
 10
26.8715664683
 20
65.9993913389
 11
26.0660109129
 21
65.9993913389
  0
LINE
  5
2B8
100
AcDbEntity
  8
0
100
AcDbLine
 62
7
  6
CONTINUOUS
 10
27.6215664683
 20
66.1105024474
 11
27.8715664683
 21
66.1105024474
  0
LINE
  5
2B9
100
AcDbEntity
  8
0
100
AcDbLine
 62
7
  6
CONTINUOUS
 10
26.3255595251
 20
66.2216135605
 11
26.8715664685
 21
66.221613561
  0
LINE
  5
2BA
100
AcDbEntity
  8
0
100
AcDbLine
 62
7
  6
CONTINUOUS
 10
27.1215664683
 20
66.2216135611
 11
27.3676602183
 21
66.2216135611
  0
LINE
  5
2BB
100
AcDbEntity
  8
0
100
AcDbLine
 62
7
  6
CONTINUOUS
 10
27.9271220238
 20
66.9160580029
 11
27.6771220238
 21
66.9160580029
  0
LINE
  5
2BC
100
AcDbEntity
  8
0
100
AcDbLine
 62
7
  6
CONTINUOUS
 10
25.5278164695
 20
67.2771691161
 11
24.6771220238
 21
67.2771691166
  0
LINE
  5
2BD
100
AcDbEntity
  8
0
100
AcDbLine
 62
7
  6
CONTINUOUS
 10
24.6771220238
 20
67.4993913389
 11
25.8160109129
 21
67.4993913389
  0
LINE
  5
2BE
100
AcDbEntity
  8
0
100
AcDbLine
 62
7
  6
CONTINUOUS
 10
26.8516011917
 20
67.5271691161
 11
27.1215664683
 21
67.5271691166
  0
LINE
  5
2BF
100
AcDbEntity
  8
0
100
AcDbLine
 62
7
  6
CONTINUOUS
 10
35.6717495737
 20
70.529512671
 11
19.9717495737
 21
70.529512671
  0
ARC
  5
2C0
100
AcDbEntity
  8
0
100
AcDbCircle
 62
7
  6
CONTINUOUS
 10
37.219902502
 20
56.4391339982
 40
8.5
100
AcDbArc
 50
147.3240017227
 51
157.7217733224
  0
ARC
  5
2C1
100
AcDbEntity
  8
0
100
AcDbCircle
 62
7
  6
CONTINUOUS
 10
18.4235966453
 20
56.4391341485
 40
8.5
100
AcDbArc
 50
20.4322690207
 51
32.6759972504
  0
ARC
  5
2C2
100
AcDbEntity
  8
0
100
AcDbCircle
 62
7
  6
CONTINUOUS
 10
27.8217495737
 20
61.4882918175
 40
2.9
100
AcDbArc
 50
0.0000286346
 51
179.9999713655
  0
ARC
  5
2C3
100
AcDbEntity
  8
0
100
AcDbCircle
 62
7
  6
CONTINUOUS
 10
27.8717495737
 20
59.6207800529
 40
1.5
100
AcDbArc
 50
0.0
 51
180.0
  0
ARC
  5
2C4
100
AcDbEntity
  8
0
100
AcDbCircle
 62
7
  6
CONTINUOUS
 10
30.9068748087
 20
60.4882922108
 40
1.0
100
AcDbArc
 50
90.0000648223
 51
147.3239949045
  0
ARC
  5
2C5
100
AcDbEntity
  8
0
100
AcDbCircle
 62
7
  6
CONTINUOUS
 10
24.7366243387
 20
60.4882922081
 40
1.0
100
AcDbArc
 50
32.6759964949
 51
78.6261642491
  0
ARC
  5
2C6
100
AcDbEntity
  8
0
100
AcDbCircle
 62
7
  6
CONTINUOUS
 10
33.6717495737
 20
57.8328406547
 40
0.5
100
AcDbArc
 50
0.0
 51
90.0
  0
ARC
  5
2C7
100
AcDbEntity
  8
0
100
AcDbCircle
 62
7
  6
CONTINUOUS
 10
22.0717495737
 20
57.8328406547
 40
0.5
100
AcDbArc
 50
90.0
 51
180.0
  0
ARC
  5
2C8
100
AcDbEntity
  8
0
100
AcDbCircle
 62
7
  6
CONTINUOUS
 10
20.2717495737
 20
33.5328406547
 40
0.2
100
AcDbArc
 50
90.0
 51
180.0
  0
ARC
  5
2C9
100
AcDbEntity
  8
0
100
AcDbCircle
 62
7
  6
CONTINUOUS
 10
20.2717495737
 20
35.1328406547
 40
0.2
100
AcDbArc
 50
90.0
 51
180.0
  0
ARC
  5
2CA
100
AcDbEntity
  8
0
100
AcDbCircle
 62
7
  6
CONTINUOUS
 10
35.4717495737
 20
40.1328406547
 40
0.2
100
AcDbArc
 50
0.0
 51
90.0
  0
ARC
  5
2CB
100
AcDbEntity
  8
0
100
AcDbCircle
 62
7
  6
CONTINUOUS
 10
35.4717495737
 20
35.1328406547
 40
0.2
100
AcDbArc
 50
0.0
 51
90.0
  0
ARC
  5
2CC
100
AcDbEntity
  8
0
100
AcDbCircle
 62
7
  6
CONTINUOUS
 10
35.4717495737
 20
33.5328406547
 40
0.2
100
AcDbArc
 50
0.0
 51
90.0
  0
ARC
  5
2CD
100
AcDbEntity
  8
0
100
AcDbCircle
 62
7
  6
CONTINUOUS
 10
20.3011340455
 20
35.0328406547
 40
0.2
100
AcDbArc
 50
90.0
 51
180.0
  0
ARC
  5
2CE
100
AcDbEntity
  8
0
100
AcDbCircle
 62
7
  6
CONTINUOUS
 10
35.4011340455
 20
35.0328406547
 40
0.2
100
AcDbArc
 50
0.0
 51
90.0
  0
ARC
  5
2CF
100
AcDbEntity
  8
0
100
AcDbCircle
 62
7
  6
CONTINUOUS
 10
20.2717495737
 20
40.1328406547
 40
0.2
100
AcDbArc
 50
90.0
 51
180.0
  0
ARC
  5
2D0
100
AcDbEntity
  8
0
100
AcDbCircle
 62
7
  6
CONTINUOUS
 10
29.9217495737
 20
17.3328406547
 40
0.1
100
AcDbArc
 50
180.0
 51
270.0
  0
ARC
  5
2D1
100
AcDbEntity
  8
0
100
AcDbCircle
 62
7
  6
CONTINUOUS
 10
33.3217495737
 20
17.3328406547
 40
0.1
100
AcDbArc
 50
270.0
 51
360.0
  0
SPLINE
  5
2D2
100
AcDbEntity
  8
0
100
AcDbSpline
 62
7
  6
CONTINUOUS
 70
0
 71
3
 72
19
 73
15
 74
0
 42
0.0000001
 43
0.0000001
 44
0.0000000001
 40
0.0
 40
0.0
 40
0.0
 40
0.0
 40
0.1210519128
 40
0.2339593836
 40
0.3426071402
 40
0.4523625824
 40
0.5083538107
 40
0.5664652529
 40
0.6277170773
 40
0.6922192321
 40
0.7612265509
 40
0.8349463351
 40
0.9143645575
 40
1.0
 40
1.0
 40
1.0
 40
1.0
 10
29.7326775794
 20
67.3049468918
 30
0.0
 10
29.7111809674
 20
67.3039697965
 30
0.0
 10
29.6696340478
 20
67.3020813454
 30
0.0
 10
29.610181163
 20
67.2868602937
 30
0.0
 10
29.5575239903
 20
67.2599142145
 30
0.0
 10
29.5186464876
 20
67.2299901855
 30
0.0
 10
29.4918468345
 20
67.2005096075
 30
0.0
 10
29.4744251249
 20
67.1745916692
 30
0.0
 10
29.4598101652
 20
67.145353854
 30
0.0
 10
29.4474210728
 20
67.112999344
 30
0.0
 10
29.438772312
 20
67.0771962971
 30
0.0
 10
29.4315371785
 20
67.0384159981
 30
0.0
 10
29.4278484441
 20
66.9961348083
 30
0.0
 10
29.4273701691
 20
66.9668448862
 30
0.0
 10
29.4271220238
 20
66.9516482807
 30
0.0
  0
SPLINE
  5
2D3
100
AcDbEntity
  8
0
100
AcDbSpline
 62
7
  6
CONTINUOUS
 70
0
 71
3
 72
15
 73
11
 74
0
 42
0.0000001
 43
0.0000001
 44
0.0000000001
 40
0.0
 40
0.0
 40
0.0
 40
0.0
 40
0.1732070435
 40
0.3338887132
 40
0.4847310232
 40
0.623306658
 40
0.7525267725
 40
0.8755952079
 40
0.9944595283
 40
1.0
 40
1.0
 40
1.0
 40
1.0
 10
29.4271220238
 20
66.9516482807
 30
0.0
 10
29.4273179591
 20
66.936590479
 30
0.0
 10
29.4276956606
 20
66.9075637724
 30
0.0
 10
29.4320973484
 20
66.8656097548
 30
0.0
 10
29.4393218963
 20
66.8271124551
 30
0.0
 10
29.4493646059
 20
66.7921100161
 30
0.0
 10
29.4616651571
 20
66.7603249456
 30
0.0
 10
29.4781319032
 20
66.7324831429
 30
0.0
 10
29.4909017613
 20
66.7150910812
 30
0.0
 10
29.4980716712
 20
66.7070029471
 30
0.0
 10
29.4983924456
 20
66.7066440186
 30
0.0
  0
SPLINE
  5
2D4
100
AcDbEntity
  8
0
100
AcDbSpline
 62
7
  6
CONTINUOUS
 70
0
 71
3
 72
9
 73
5
 74
0
 42
0.0000001
 43
0.0000001
 44
0.0000000001
 40
0.0
 40
0.0
 40
0.0
 40
0.0
 40
0.5979734758
 40
1.0
 40
1.0
 40
1.0
 40
1.0
 10
29.4983924456
 20
66.7066440186
 30
0.0
 10
29.504682933
 20
66.6996053169
 30
0.0
 10
29.5161392686
 20
66.6886597185
 30
0.0
 10
29.5284843261
 20
66.6787667028
 30
0.0
 10
29.5335723212
 20
66.6749551978
 30
0.0
  0
SPLINE
  5
2D5
100
AcDbEntity
  8
0
100
AcDbSpline
 62
7
  6
CONTINUOUS
 70
0
 71
3
 72
11
 73
7
 74
0
 42
0.0000001
 43
0.0000001
 44
0.0000000001
 40
0.0
 40
0.0
 40
0.0
 40
0.0
 40
0.1844212012
 40
0.4518824601
 40
0.719592607
 40
1.0
 40
1.0
 40
1.0
 40
1.0
 10
29.5335723212
 20
66.6749551978
 30
0.0
 10
29.5440540159
 20
66.6671031794
 30
0.0
 10
29.5710364193
 20
66.6495871862
 30
0.0
 10
29.6175122572
 20
66.6280538263
 30
0.0
 10
29.673836579
 20
66.6130346692
 30
0.0
 10
29.7127633307
 20
66.6113594569
 30
0.0
 10
29.7326775794
 20
66.6105024474
 30
0.0
  0
SPLINE
  5
2D6
100
AcDbEntity
  8
0
100
AcDbSpline
 62
7
  6
CONTINUOUS
 70
0
 71
3
 72
11
 73
7
 74
0
 42
0.0000001
 43
0.0000001
 44
0.0000000001
 40
0.0
 40
0.0
 40
0.0
 40
0.0
 40
0.2811388863
 40
0.5495474035
 40
0.8177063834
 40
1.0
 40
1.0
 40
1.0
 40
1.0
 10
29.7326775794
 20
66.6105024474
 30
0.0
 10
29.752591828
 20
66.6113594569
 30
0.0
 10
29.7915185798
 20
66.6130346692
 30
0.0
 10
29.8478429016
 20
66.6280538263
 30
0.0
 10
29.8941506928
 20
66.6495093262
 30
0.0
 10
29.920990346
 20
66.6669016012
 30
0.0
 10
29.9313388807
 20
66.6746232789
 30
0.0
  0
SPLINE
  5
2D7
100
AcDbEntity
  8
0
100
AcDbSpline
 62
7
  6
CONTINUOUS
 70
0
 71
3
 72
10
 73
6
 74
0
 42
0.0000001
 43
0.0000001
 44
0.0000000001
 40
0.0
 40
0.0
 40
0.0
 40
0.0
 40
0.3896412365
 40
0.9815429149
 40
1.0
 40
1.0
 40
1.0
 40
1.0
 10
29.9313388807
 20
66.6746232789
 30
0.0
 10
29.9365822144
 20
66.6785356524
 30
0.0
 10
29.9494587782
 20
66.6888331131
 30
0.0
 10
29.9615940527
 20
66.7004889523
 30
0.0
 10
29.9683285485
 20
66.7081898812
 30
0.0
 10
29.96853159
 20
66.708423283
 30
0.0
  0
SPLINE
  5
2D8
100
AcDbEntity
  8
0
100
AcDbSpline
 62
7
  6
CONTINUOUS
 70
0
 71
3
 72
14
 73
10
 74
0
 42
0.0000001
 43
0.0000001
 44
0.0000000001
 40
0.0
 40
0.0
 40
0.0
 40
0.0
 40
0.116362587
 40
0.2405613867
 40
0.3709683678
 40
0.5108167981
 40
0.6630445712
 40
0.8252020769
 40
1.0
 40
1.0
 40
1.0
 40
1.0
 10
29.96853159
 20
66.708423283
 30
0.0
 10
29.9751063913
 20
66.7159811986
 30
0.0
 10
29.9873812348
 20
66.7327502525
 30
0.0
 10
30.0036900016
 20
66.7603249456
 30
0.0
 10
30.0159905529
 20
66.7921100161
 30
0.0
 10
30.0260332625
 20
66.8271124551
 30
0.0
 10
30.0332578104
 20
66.8656097548
 30
0.0
 10
30.0376594982
 20
66.9075637724
 30
0.0
 10
30.0380371997
 20
66.936590479
 30
0.0
 10
30.038233135
 20
66.9516482807
 30
0.0
  0
SPLINE
  5
2D9
100
AcDbEntity
  8
0
100
AcDbSpline
 62
7
  6
CONTINUOUS
 70
0
 71
3
 72
19
 73
15
 74
0
 42
0.0000001
 43
0.0000001
 44
0.0000000001
 40
0.0
 40
0.0
 40
0.0
 40
0.0
 40
0.0856354425
 40
0.1650536649
 40
0.2387734491
 40
0.3077807679
 40
0.3722829227
 40
0.4335347471
 40
0.4916461893
 40
0.5476374176
 40
0.6573928598
 40
0.7660406164
 40
0.8789480872
 40
1.0
 40
1.0
 40
1.0
 40
1.0
 10
30.038233135
 20
66.9516482807
 30
0.0
 10
30.0379849897
 20
66.9668448862
 30
0.0
 10
30.0375067147
 20
66.9961348083
 30
0.0
 10
30.0338179803
 20
67.0384159981
 30
0.0
 10
30.0265828468
 20
67.0771962971
 30
0.0
 10
30.017934086
 20
67.112999344
 30
0.0
 10
30.0055449936
 20
67.145353854
 30
0.0
 10
29.9909300339
 20
67.1745916692
 30
0.0
 10
29.9735083243
 20
67.2005096075
 30
0.0
 10
29.9467086712
 20
67.2299901855
 30
0.0
 10
29.9078311685
 20
67.2599142145
 30
0.0
 10
29.8551739958
 20
67.2868602937
 30
0.0
 10
29.795721111
 20
67.3020813454
 30
0.0
 10
29.7541741914
 20
67.3039697965
 30
0.0
 10
29.7326775794
 20
67.3049468918
 30
0.0
  0
SPLINE
  5
2DA
100
AcDbEntity
  8
0
100
AcDbSpline
 62
7
  6
CONTINUOUS
 70
0
 71
3
 72
14
 73
10
 74
0
 42
0.0000001
 43
0.0000001
 44
0.0000000001
 40
0.0
 40
0.0
 40
0.0
 40
0.0
 40
0.1869218849
 40
0.3614553058
 40
0.5285846144
 40
0.6872806075
 40
0.8395122155
 40
0.9878867836
 40
1.0
 40
1.0
 40
1.0
 40
1.0
 10
29.7326775794
 20
66.4160580029
 30
0.0
 10
29.7184879568
 20
66.4158594234
 30
0.0
 10
29.6910491451
 20
66.4154754255
 30
0.0
 10
29.6511099232
 20
66.411051401
 30
0.0
 10
29.6138413431
 20
66.4036434745
 30
0.0
 10
29.5788291293
 20
66.3938809541
 30
0.0
 10
29.5465629397
 20
66.3805637218
 30
0.0
 10
29.5253555745
 20
66.3698002214
 30
0.0
 10
29.5149596511
 20
66.3634556246
 30
0.0
 10
29.5141777519
 20
66.3629721991
 30
0.0
  0
SPLINE
  5
2DB
100
AcDbEntity
  8
0
100
AcDbSpline
 62
7
  6
CONTINUOUS
 70
0
 71
3
 72
11
 73
7
 74
0
 42
0.0000001
 43
0.0000001
 44
0.0000000001
 40
0.0
 40
0.0
 40
0.0
 40
0.0
 40
0.2408474109
 40
0.5051315775
 40
0.7642158988
 40
1.0
 40
1.0
 40
1.0
 40
1.0
 10
29.5141777519
 20
66.3629721991
 30
0.0
 10
29.5056744242
 20
66.3577148387
 30
0.0
 10
29.4885247276
 20
66.345559601
 30
0.0
 10
29.4645859416
 20
66.3246539053
 30
0.0
 10
29.4434189368
 20
66.301227108
 30
0.0
 10
29.431123136
 20
66.284731881
 30
0.0
 10
29.4256971682
 20
66.2765823632
 30
0.0
  0
SPLINE
  5
2DC
100
AcDbEntity
  8
0
100
AcDbSpline
 62
7
  6
CONTINUOUS
 70
0
 71
3
 72
14
 73
10
 74
0
 42
0.0000001
 43
0.0000001
 44
0.0000000001
 40
0.0
 40
0.0
 40
0.0
 40
0.0
 40
0.0136849573
 40
0.1651251597
 40
0.319328559
 40
0.4787735264
 40
0.6443736088
 40
0.817667704
 40
1.0
 40
1.0
 40
1.0
 40
1.0
 10
29.4256971682
 20
66.2765823632
 30
0.0
 10
29.425155041
 20
66.2757681168
 30
0.0
 10
29.4186657288
 20
66.265908313
 30
0.0
 10
29.4073575237
 20
66.2460216322
 30
0.0
 10
29.3944170435
 20
66.2153554804
 30
0.0
 10
29.3838708745
 20
66.1827194729
 30
0.0
 10
29.3766063602
 20
66.1478051324
 30
0.0
 10
29.3721664119
 20
66.1107634609
 30
0.0
 10
29.3717698094
 20
66.0853418513
 30
0.0
 10
29.3715664683
 20
66.0723080029
 30
0.0
  0
SPLINE
  5
2DD
100
AcDbEntity
  8
0
100
AcDbSpline
 62
7
  6
CONTINUOUS
 70
0
 71
3
 72
23
 73
19
 74
0
 42
0.0000001
 43
0.0000001
 44
0.0000000001
 40
0.0
 40
0.0
 40
0.0
 40
0.0
 40
0.0754548958
 40
0.1461090487
 40
0.2132955666
 40
0.2774507628
 40
0.3391666055
 40
0.3994594639
 40
0.4583495527
 40
0.5168974267
 40
0.5750181561
 40
0.6327132226
 40
0.690375773
 40
0.7487219469
 40
0.8077619817
 40
0.8692167947
 40
0.9333218565
 40
1.0
 40
1.0
 40
1.0
 40
1.0
 10
29.3715664683
 20
66.0723080029
 30
0.0
 10
29.3719609658
 20
66.0573982007
 30
0.0
 10
29.3727248612
 20
66.0285272177
 30
0.0
 10
29.3768649153
 20
65.9865146101
 30
0.0
 10
29.3847492557
 20
65.9473126761
 30
0.0
 10
29.3955864457
 20
65.9106857508
 30
0.0
 10
29.4093539521
 20
65.8764636934
 30
0.0
 10
29.4269955765
 20
65.8452919337
 30
0.0
 10
29.4467970037
 20
65.816188435
 30
0.0
 10
29.470435829
 20
65.790610723
 30
0.0
 10
29.4966761939
 20
65.7682308417
 30
0.0
 10
29.5243311801
 20
65.7478223736
 30
0.0
 10
29.5546822932
 20
65.7316296942
 30
0.0
 10
29.5862660455
 20
65.7173686572
 30
0.0
 10
29.6201951477
 20
65.707215024
 30
0.0
 10
29.6558123881
 20
65.699111756
 30
0.0
 10
29.6936676861
 20
65.6950452364
 30
0.0
 10
29.7195048381
 20
65.694244186
 30
0.0
 10
29.7326775794
 20
65.6938357807
 30
0.0
  0
SPLINE
  5
2DE
100
AcDbEntity
  8
0
100
AcDbSpline
 62
7
  6
CONTINUOUS
 70
0
 71
3
 72
23
 73
19
 74
0
 42
0.0000001
 43
0.0000001
 44
0.0000000001
 40
0.0
 40
0.0
 40
0.0
 40
0.0
 40
0.0666914899
 40
0.1308093831
 40
0.1922764971
 40
0.2513283494
 40
0.309686202
 40
0.3673602942
 40
0.425066909
 40
0.4826479784
 40
0.5412075715
 40
0.6005311363
 40
0.660483908
 40
0.7224937022
 40
0.7866617397
 40
0.8538617058
 40
0.924530001
 40
1.0
 40
1.0
 40
1.0
 40
1.0
 10
29.7326775794
 20
65.6938357807
 30
0.0
 10
29.7458503292
 20
65.6942441756
 30
0.0
 10
29.7716874979
 20
65.6950452054
 30
0.0
 10
29.809542676
 20
65.6991118724
 30
0.0
 10
29.8451603444
 20
65.707214614
 30
0.0
 10
29.8790879273
 20
65.7173701157
 30
0.0
 10
29.9106772189
 20
65.731624341
 30
0.0
 10
29.9410079322
 20
65.7478421063
 30
0.0
 10
29.9686509931
 20
65.7680923455
 30
0.0
 10
29.9945313019
 20
65.7907424619
 30
0.0
 10
30.0180504155
 20
65.8163262419
 30
0.0
 10
30.0385360526
 20
65.8450116526
 30
0.0
 10
30.0553365383
 20
65.876719346
 30
0.0
 10
30.0699351562
 20
65.9105495791
 30
0.0
 10
30.0805538671
 20
65.9473363053
 30
0.0
 10
30.0885051736
 20
65.9865078304
 30
0.0
 10
30.0926261842
 20
66.0285290856
 30
0.0
 10
30.0933927922
 20
66.0573988369
 30
0.0
 10
30.0937886905
 20
66.0723080029
 30
0.0
  0
SPLINE
  5
2DF
100
AcDbEntity
  8
0
100
AcDbSpline
 62
7
  6
CONTINUOUS
 70
0
 71
3
 72
15
 73
11
 74
0
 42
0.0000001
 43
0.0000001
 44
0.0000000001
 40
0.0
 40
0.0
 40
0.0
 40
0.0
 40
0.1461084301
 40
0.2849742743
 40
0.4176746714
 40
0.5454427871
 40
0.6690106743
 40
0.7903643276
 40
0.9110872291
 40
1.0
 40
1.0
 40
1.0
 40
1.0
 10
30.0937886905
 20
66.0723080029
 30
0.0
 10
30.0935853494
 20
66.0853418513
 30
0.0
 10
30.0931887469
 20
66.1107634609
 30
0.0
 10
30.0887487986
 20
66.1478051324
 30
0.0
 10
30.0814842842
 20
66.1827194729
 30
0.0
 10
30.0709381153
 20
66.2153554804
 30
0.0
 10
30.0579976351
 20
66.2460216322
 30
0.0
 10
30.0418390542
 20
66.2744382145
 30
0.0
 10
30.0242747471
 20
66.2982228956
 30
0.0
 10
30.0119060288
 20
66.3122734948
 30
0.0
 10
30.0064243732
 20
66.3180048147
 30
0.0
  0
SPLINE
  5
2E0
100
AcDbEntity
  8
0
100
AcDbSpline
 62
7
  6
CONTINUOUS
 70
0
 71
3
 72
11
 73
7
 74
0
 42
0.0000001
 43
0.0000001
 44
0.0000000001
 40
0.0
 40
0.0
 40
0.0
 40
0.0
 40
0.1033561038
 40
0.5045920595
 40
0.9038690486
 40
1.0
 40
1.0
 40
1.0
 40
1.0
 10
30.0064243732
 20
66.3180048147
 30
0.0
 10
30.0044706112
 20
66.3200475616
 30
0.0
 10
29.9947860165
 20
66.3298790229
 30
0.0
 10
29.9761367022
 20
66.3461654332
 30
0.0
 10
29.9560173661
 20
66.3602920232
 30
0.0
 10
29.9442979655
 20
66.3670820462
 30
0.0
 10
29.9420042076
 20
66.3683652571
 30
0.0
  0
SPLINE
  5
2E1
100
AcDbEntity
  8
0
100
AcDbSpline
 62
7
  6
CONTINUOUS
 70
0
 71
3
 72
13
 73
9
 74
0
 42
0.0000001
 43
0.0000001
 44
0.0000000001
 40
0.0
 40
0.0
 40
0.0
 40
0.0
 40
0.1193192848
 40
0.279016117
 40
0.4454943387
 40
0.6208194338
 40
0.8039117284
 40
1.0
 40
1.0
 40
1.0
 40
1.0
 10
29.9420042076
 20
66.3683652571
 30
0.0
 10
29.9344710596
 20
66.3725795719
 30
0.0
 10
29.9163592341
 20
66.3815678883
 30
0.0
 10
29.8865260295
 20
66.3938809541
 30
0.0
 10
29.8515138157
 20
66.4036434745
 30
0.0
 10
29.8142452356
 20
66.411051401
 30
0.0
 10
29.7743060137
 20
66.4154754255
 30
0.0
 10
29.746867202
 20
66.4158594234
 30
0.0
 10
29.7326775794
 20
66.4160580029
 30
0.0
  0
SPLINE
  5
2E2
100
AcDbEntity
  8
0
100
AcDbSpline
 62
7
  6
CONTINUOUS
 70
0
 71
3
 72
23
 73
19
 74
0
 42
0.0000001
 43
0.0000001
 44
0.0000000001
 40
0.0
 40
0.0
 40
0.0
 40
0.0
 40
0.0708277366
 40
0.1384658614
 40
0.2027891027
 40
0.2647646628
 40
0.3249206154
 40
0.383435657
 40
0.4407250897
 40
0.4983220626
 40
0.5556745354
 40
0.6132941592
 40
0.6713147982
 40
0.7309125207
 40
0.7934042033
 40
0.8583409112
 40
0.9273657251
 40
1.0
 40
1.0
 40
1.0
 40
1.0
 10
29.7326775794
 20
65.4716135585
 30
0.0
 10
29.7097948778
 20
65.4719272842
 30
0.0
 10
29.6650599599
 20
65.4725406074
 30
0.0
 10
29.5999451997
 20
65.4803177454
 30
0.0
 10
29.5383229738
 20
65.4917679619
 30
0.0
 10
29.480342239
 20
65.508322057
 30
0.0
 10
29.4258736585
 20
65.5294747732
 30
0.0
 10
29.3753630527
 20
65.5557015254
 30
0.0
 10
29.3282934713
 20
65.5862315656
 30
0.0
 10
29.285487267
 20
65.6219078979
 30
0.0
 10
29.2464049676
 20
65.6618184955
 30
0.0
 10
29.2130862634
 20
65.7068401859
 30
0.0
 10
29.1845287084
 20
65.7558326927
 30
0.0
 10
29.1615761541
 20
65.8093965254
 30
0.0
 10
29.1432333359
 20
65.8670567585
 30
0.0
 10
29.1309968385
 20
65.9293918529
 30
0.0
 10
29.1229306804
 20
65.9957071752
 30
0.0
 10
29.1220288651
 20
66.0414667621
 30
0.0
 10
29.1215664683
 20
66.0649295307
 30
0.0
  0
SPLINE
  5
2E3
100
AcDbEntity
  8
0
100
AcDbSpline
 62
7
  6
CONTINUOUS
 70
0
 71
3
 72
10
 73
6
 74
0
 42
0.0000001
 43
0.0000001
 44
0.0000000001
 40
0.0
 40
0.0
 40
0.0
 40
0.0
 40
0.3639551149
 40
0.7199936421
 40
1.0
 40
1.0
 40
1.0
 40
1.0
 10
29.1215664683
 20
66.0649295307
 30
0.0
 10
29.1227839405
 20
66.0896209676
 30
0.0
 10
29.1251924029
 20
66.1384667642
 30
0.0
 10
29.1417128239
 20
66.2047347138
 30
0.0
 10
29.158715251
 20
66.2445018602
 30
0.0
 10
29.1672354561
 20
66.2614920549
 30
0.0
  0
SPLINE
  5
2E4
100
AcDbEntity
  8
0
100
AcDbSpline
 62
7
  6
CONTINUOUS
 70
0
 71
3
 72
13
 73
9
 74
0
 42
0.0000001
 43
0.0000001
 44
0.0000000001
 40
0.0
 40
0.0
 40
0.0
 40
0.0
 40
0.0382842263
 40
0.221039311
 40
0.4089959783
 40
0.5984492693
 40
0.7943347906
 40
1.0
 40
1.0
 40
1.0
 40
1.0
 10
29.1672354561
 20
66.2614920549
 30
0.0
 10
29.1695857161
 20
66.2661787233
 30
0.0
 10
29.1836100621
 20
66.2930109397
 30
0.0
 10
29.2141290482
 20
66.3401642698
 30
0.0
 10
29.2657241422
 20
66.3973002459
 30
0.0
 10
29.3269773846
 20
66.4466566469
 30
0.0
 10
29.3965025136
 20
66.4886607395
 30
0.0
 10
29.4477494839
 20
66.5086728404
 30
0.0
 10
29.4739970238
 20
66.5189225863
 30
0.0
  0
SPLINE
  5
2E5
100
AcDbEntity
  8
0
100
AcDbSpline
 62
7
  6
CONTINUOUS
 70
0
 71
3
 72
12
 73
8
 74
0
 42
0.0000001
 43
0.0000001
 44
0.0000000001
 40
0.0
 40
0.0
 40
0.0
 40
0.0
 40
0.2538137476
 40
0.4921584049
 40
0.7230340502
 40
0.9468713428
 40
1.0
 40
1.0
 40
1.0
 40
1.0
 10
29.4739970238
 20
66.5189225863
 30
0.0
 10
29.4512349218
 20
66.5291408021
 30
0.0
 10
29.4070979909
 20
66.5489544681
 30
0.0
 10
29.3478460848
 20
66.5885438369
 30
0.0
 10
29.2961738984
 20
66.6330769633
 30
0.0
 10
29.2637891239
 20
66.6712488004
 30
0.0
 10
29.248386735
 20
66.6937129854
 30
0.0
 10
29.2455205037
 20
66.6980799269
 30
0.0
  0
SPLINE
  5
2E6
100
AcDbEntity
  8
0
100
AcDbSpline
 62
7
  6
CONTINUOUS
 70
0
 71
3
 72
11
 73
7
 74
0
 42
0.0000001
 43
0.0000001
 44
0.0000000001
 40
0.0
 40
0.0
 40
0.0
 40
0.0
 40
0.1870648067
 40
0.438902908
 40
0.7091747057
 40
1.0
 40
1.0
 40
1.0
 40
1.0
 10
29.2455205037
 20
66.6980799269
 30
0.0
 10
29.2361942274
 20
66.7122892833
 30
0.0
 10
29.2165061417
 20
66.7470633748
 30
0.0
 10
29.1945951013
 20
66.8078360716
 30
0.0
 10
29.1794406051
 20
66.8803554927
 30
0.0
 10
29.1779135303
 20
66.9313127405
 30
0.0
 10
29.1771220238
 20
66.9577246696
 30
0.0
  0
SPLINE
  5
2E7
100
AcDbEntity
  8
0
100
AcDbSpline
 62
7
  6
CONTINUOUS
 70
0
 71
3
 72
23
 73
19
 74
0
 42
0.0000001
 43
0.0000001
 44
0.0000000001
 40
0.0
 40
0.0
 40
0.0
 40
0.0
 40
0.0712475623
 40
0.1395878411
 40
0.2051150433
 40
0.2687948966
 40
0.3307412788
 40
0.3922021925
 40
0.4540390999
 40
0.5168032978
 40
0.5794214949
 40
0.64018411
 40
0.6998152314
 40
0.7591746287
 40
0.8179220987
 40
0.8775292942
 40
0.9380075809
 40
1.0
 40
1.0
 40
1.0
 40
1.0
 10
29.1771220238
 20
66.9577246696
 30
0.0
 10
29.1776066664
 20
66.9788703237
 30
0.0
 10
29.1785561754
 20
67.0202987755
 30
0.0
 10
29.1864391522
 20
67.0807864713
 30
0.0
 10
29.1996450384
 20
67.1379470976
 30
0.0
 10
29.2169733462
 20
67.1920991378
 30
0.0
 10
29.2410282251
 20
67.2422560908
 30
0.0
 10
29.2690253392
 20
67.2896946154
 30
0.0
 10
29.3034345465
 20
67.3330278035
 30
0.0
 10
29.3416881331
 20
67.3734508596
 30
0.0
 10
29.3842761659
 20
67.4087413262
 30
0.0
 10
29.4279937771
 20
67.4410560707
 30
0.0
 10
29.474415052
 20
67.4675651902
 30
0.0
 10
29.5225751644
 20
67.4892211545
 30
0.0
 10
29.5725229411
 20
67.5063763442
 30
0.0
 10
29.6242571709
 20
67.5185761836
 30
0.0
 10
29.6779483514
 20
67.5254819248
 30
0.0
 10
29.7142847584
 20
67.5266021013
 30
0.0
 10
29.7326775794
 20
67.527169114
 30
0.0
  0
SPLINE
  5
2E8
100
AcDbEntity
  8
0
100
AcDbSpline
 62
7
  6
CONTINUOUS
 70
0
 71
3
 72
9
 73
5
 74
0
 42
0.0000001
 43
0.0000001
 44
0.0000000001
 40
0.0
 40
0.0
 40
0.0
 40
0.0
 40
0.6793089871
 40
1.0
 40
1.0
 40
1.0
 40
1.0
 10
29.7326775794
 20
67.527169114
 30
0.0
 10
29.7510702544
 20
67.5266017443
 30
0.0
 10
29.77814582
 20
67.5257665282
 30
0.0
 10
29.8050989541
 20
67.5229765253
 30
0.0
 10
29.8137165918
 20
67.5218730284
 30
0.0
  0
SPLINE
  5
2E9
100
AcDbEntity
  8
0
100
AcDbSpline
 62
7
  6
CONTINUOUS
 70
0
 71
3
 72
21
 73
17
 74
0
 42
0.0000001
 43
0.0000001
 44
0.0000000001
 40
0.0
 40
0.0
 40
0.0
 40
0.0
 40
0.0382246967
 40
0.1112228927
 40
0.1831682223
 40
0.2553189301
 40
0.328346427
 40
0.4032443784
 40
0.4794753271
 40
0.5567538139
 40
0.6321168566
 40
0.7076948616
 40
0.7835577522
 40
0.8615435453
 40
0.9417917018
 40
1.0
 40
1.0
 40
1.0
 40
1.0
 10
29.8137165918
 20
67.5218730284
 30
0.0
 10
29.8229075508
 20
67.5206961171
 30
0.0
 10
29.849564582
 20
67.5165806728
 30
0.0
 10
29.8928260604
 20
67.5063612802
 30
0.0
 10
29.9426778
 20
67.4893194696
 30
0.0
 10
29.9906163069
 20
67.4674703579
 30
0.0
 10
30.0369562756
 20
67.4409091812
 30
0.0
 10
30.0810501465
 20
67.4090595074
 30
0.0
 10
30.1231859378
 20
67.3731021918
 30
0.0
 10
30.1620328617
 20
67.3333722711
 30
0.0
 10
30.1957468531
 20
67.2893858682
 30
0.0
 10
30.2244421289
 20
67.2424208274
 30
0.0
 10
30.2483409793
 20
67.1920723355
 30
0.0
 10
30.2657215259
 20
67.137954584
 30
0.0
 10
30.2775232016
 20
67.0868067389
 30
0.0
 10
30.2823682595
 20
67.0535642991
 30
0.0
 10
30.2839033173
 20
67.0395392054
 30
0.0
  0
SPLINE
  5
2EA
100
AcDbEntity
  8
0
100
AcDbSpline
 62
7
  6
CONTINUOUS
 70
0
 71
3
 72
9
 73
5
 74
0
 42
0.0000001
 43
0.0000001
 44
0.0000000001
 40
0.0
 40
0.0
 40
0.0
 40
0.0
 40
0.2260532008
 40
1.0
 40
1.0
 40
1.0
 40
1.0
 10
30.2839033173
 20
67.0395392054
 30
0.0
 10
30.2845754001
 20
67.0333987035
 30
0.0
 10
30.2871229625
 20
67.0061926055
 30
0.0
 10
30.2877487831
 20
66.9788705145
 30
0.0
 10
30.2882331349
 20
66.9577246696
 30
0.0
  0
SPLINE
  5
2EB
100
AcDbEntity
  8
0
100
AcDbSpline
 62
7
  6
CONTINUOUS
 70
0
 71
3
 72
11
 73
7
 74
0
 42
0.0000001
 43
0.0000001
 44
0.0000000001
 40
0.0
 40
0.0
 40
0.0
 40
0.0
 40
0.2910826965
 40
0.5612778994
 40
0.8138994422
 40
1.0
 40
1.0
 40
1.0
 40
1.0
 10
30.2882331349
 20
66.9577246696
 30
0.0
 10
30.2873748339
 20
66.9313288526
 30
0.0
 10
30.2857198217
 20
66.8804313279
 30
0.0
 10
30.271461667
 20
66.8076738
 30
0.0
 10
30.2487981895
 20
66.7472464676
 30
0.0
 10
30.229219432
 20
66.7124760487
 30
0.0
 10
30.2199850026
 20
66.6983390391
 30
0.0
  0
SPLINE
  5
2EC
100
AcDbEntity
  8
0
100
AcDbSpline
 62
7
  6
CONTINUOUS
 70
0
 71
3
 72
12
 73
8
 74
0
 42
0.0000001
 43
0.0000001
 44
0.0000000001
 40
0.0
 40
0.0
 40
0.0
 40
0.0
 40
0.0541086997
 40
0.2776851313
 40
0.5071845726
 40
0.7464820481
 40
1.0
 40
1.0
 40
1.0
 40
1.0
 10
30.2199850026
 20
66.6983390391
 30
0.0
 10
30.2170737067
 20
66.6938821295
 30
0.0
 10
30.2016589274
 20
66.6713215877
 30
0.0
 10
30.16916608
 20
66.633252886
 30
0.0
 10
30.1178803228
 20
66.5882535083
 30
0.0
 10
30.0582956723
 20
66.5491055132
 30
0.0
 10
30.0140957852
 20
66.5291752616
 30
0.0
 10
29.9913581349
 20
66.5189225863
 30
0.0
  0
SPLINE
  5
2ED
100
AcDbEntity
  8
0
100
AcDbSpline
 62
7
  6
CONTINUOUS
 70
0
 71
3
 72
15
 73
11
 74
0
 42
0.0000001
 43
0.0000001
 44
0.0000000001
 40
0.0
 40
0.0
 40
0.0
 40
0.0
 40
0.137519627
 40
0.2684999903
 40
0.3951793932
 40
0.5203856604
 40
0.6429723697
 40
0.7613735243
 40
0.8793748704
 40
1.0
 40
1.0
 40
1.0
 40
1.0
 10
29.9913581349
 20
66.5189225863
 30
0.0
 10
30.017608823
 20
66.5086754767
 30
0.0
 10
30.0688619396
 20
66.4886685229
 30
0.0
 10
30.1383431275
 20
66.4466276332
 30
0.0
 10
30.1996802869
 20
66.3974655427
 30
0.0
 10
30.2506979638
 20
66.3398728827
 30
0.0
 10
30.2921937611
 20
66.2771690975
 30
0.0
 10
30.3223336429
 20
66.2098304316
 30
0.0
 10
30.3401711263
 20
66.1384725832
 30
0.0
 10
30.3425740288
 20
66.0896229214
 30
0.0
 10
30.3437886905
 20
66.0649295307
 30
0.0
  0
SPLINE
  5
2EE
100
AcDbEntity
  8
0
100
AcDbSpline
 62
7
  6
CONTINUOUS
 70
0
 71
3
 72
23
 73
19
 74
0
 42
0.0000001
 43
0.0000001
 44
0.0000000001
 40
0.0
 40
0.0
 40
0.0
 40
0.0
 40
0.0726342749
 40
0.1416590888
 40
0.2065957967
 40
0.2690874793
 40
0.3286852018
 40
0.3867058408
 40
0.4443254646
 40
0.5016779374
 40
0.5592749103
 40
0.616564343
 40
0.6750793846
 40
0.7352353372
 40
0.7972108973
 40
0.8615341386
 40
0.9291722634
 40
1.0
 40
1.0
 40
1.0
 40
1.0
 10
30.3437886905
 20
66.0649295307
 30
0.0
 10
30.3433262937
 20
66.0414667621
 30
0.0
 10
30.3424244784
 20
65.9957071752
 30
0.0
 10
30.3343583202
 20
65.9293918529
 30
0.0
 10
30.3221218229
 20
65.8670567585
 30
0.0
 10
30.3037790047
 20
65.8093965254
 30
0.0
 10
30.2808264504
 20
65.7558326927
 30
0.0
 10
30.2522688954
 20
65.7068401859
 30
0.0
 10
30.2189501912
 20
65.6618184955
 30
0.0
 10
30.1798678918
 20
65.6219078979
 30
0.0
 10
30.1370616875
 20
65.5862315656
 30
0.0
 10
30.0899921061
 20
65.5557015254
 30
0.0
 10
30.0394815003
 20
65.5294747732
 30
0.0
 10
29.9850129198
 20
65.508322057
 30
0.0
 10
29.927032185
 20
65.4917679619
 30
0.0
 10
29.8654099591
 20
65.4803177454
 30
0.0
 10
29.8002951989
 20
65.4725406074
 30
0.0
 10
29.755560281
 20
65.4719272842
 30
0.0
 10
29.7326775794
 20
65.4716135585
 30
0.0
  0
SPLINE
  5
2EF
100
AcDbEntity
  8
0
100
AcDbSpline
 62
7
  6
CONTINUOUS
 70
0
 71
3
 72
23
 73
19
 74
0
 42
0.0000001
 43
0.0000001
 44
0.0000000001
 40
0.0
 40
0.0
 40
0.0
 40
0.0
 40
0.0634635935
 40
0.1247020113
 40
0.1841386007
 40
0.2418182149
 40
0.2988375828
 40
0.3555863209
 40
0.4122304965
 40
0.4699581653
 40
0.5284215416
 40
0.5869372313
 40
0.6474215301
 40
0.7103601406
 40
0.7764989273
 40
0.8464815081
 40
0.9208041864
 40
1.0
 40
1.0
 40
1.0
 40
1.0
 10
28.2187886905
 20
65.4716135585
 30
0.0
 10
28.1977883047
 20
65.4721258932
 30
0.0
 10
28.1565238537
 20
65.473132599
 30
0.0
 10
28.0959742919
 20
65.480703275
 30
0.0
 10
28.0381473506
 20
65.4927356724
 30
0.0
 10
27.9829665202
 20
65.5096488961
 30
0.0
 10
27.9307316767
 20
65.5319933677
 30
0.0
 10
27.8810726344
 20
65.5588710749
 30
0.0
 10
27.8342616518
 20
65.5908833378
 30
0.0
 10
27.7903706292
 20
65.627680403
 30
0.0
 10
27.7503527759
 20
65.6695895179
 30
0.0
 10
27.7156314618
 20
65.7171482532
 30
0.0
 10
27.6865849397
 20
65.7700327336
 30
0.0
 10
27.6626907733
 20
65.8281471946
 30
0.0
 10
27.6441313355
 20
65.8914452733
 30
0.0
 10
27.6307204537
 20
65.9598522072
 30
0.0
 10
27.6229713614
 20
66.033499893
 30
0.0
 10
27.6220445723
 20
66.0842974406
 30
0.0
 10
27.6215664683
 20
66.1105024474
 30
0.0
  0
SPLINE
  5
2F0
100
AcDbEntity
  8
0
100
AcDbSpline
 62
7
  6
CONTINUOUS
 70
0
 71
3
 72
23
 73
19
 74
0
 42
0.0000001
 43
0.0000001
 44
0.0000000001
 40
0.0
 40
0.0
 40
0.0
 40
0.0
 40
0.0847322445
 40
0.1642519706
 40
0.238104556
 40
0.3068103429
 40
0.3707063446
 40
0.431573016
 40
0.4889791953
 40
0.5441850149
 40
0.5982258747
 40
0.6518278441
 40
0.7056541843
 40
0.760081706
 40
0.81629135
 40
0.8752592392
 40
0.936062516
 40
1.0
 40
1.0
 40
1.0
 40
1.0
 10
27.8715664683
 20
66.1105024474
 30
0.0
 10
27.8717131788
 20
66.0928372705
 30
0.0
 10
27.8719975746
 20
66.0585936349
 30
0.0
 10
27.8771051484
 20
66.0091934918
 30
0.0
 10
27.8841104746
 20
65.9634102128
 30
0.0
 10
27.8946620013
 20
65.9216563418
 30
0.0
 10
27.9074311645
 20
65.8833369665
 30
0.0
 10
27.9240623818
 20
65.8491201657
 30
0.0
 10
27.9430768238
 20
65.818271973
 30
0.0
 10
27.9655066461
 20
65.7916048453
 30
0.0
 10
27.9904662679
 20
65.7685096869
 30
0.0
 10
28.0175389623
 20
65.7484380025
 30
0.0
 10
28.0466886309
 20
65.7312922071
 30
0.0
 10
28.0783562534
 20
65.7180139659
 30
0.0
 10
28.1119677563
 20
65.7069653064
 30
0.0
 10
28.1478864584
 20
65.6992200921
 30
0.0
 10
28.1859917571
 20
65.6950029222
 30
0.0
 10
28.2119790073
 20
65.6942312905
 30
0.0
 10
28.2252991072
 20
65.6938357807
 30
0.0
  0
SPLINE
  5
2F1
100
AcDbEntity
  8
0
100
AcDbSpline
 62
7
  6
CONTINUOUS
 70
0
 71
3
 72
23
 73
19
 74
0
 42
0.0000001
 43
0.0000001
 44
0.0000000001
 40
0.0
 40
0.0
 40
0.0
 40
0.0
 40
0.0671218788
 40
0.1303438126
 40
0.1906956903
 40
0.2481174327
 40
0.3039427707
 40
0.3584817156
 40
0.4125899801
 40
0.4662244674
 40
0.5216866789
 40
0.5783440068
 40
0.6386958845
 40
0.7021193498
 40
0.7689713429
 40
0.8406593372
 40
0.9175715862
 40
1.0
 40
1.0
 40
1.0
 40
1.0
 10
28.2252991072
 20
65.6938357807
 30
0.0
 10
28.2386286854
 20
65.6939813212
 30
0.0
 10
28.2645133607
 20
65.6942639458
 30
0.0
 10
28.3020622018
 20
65.6994521864
 30
0.0
 10
28.3373021924
 20
65.7065135234
 30
0.0
 10
28.3702017481
 20
65.7170067596
 30
0.0
 10
28.4006171525
 20
65.7306296448
 30
0.0
 10
28.4292436253
 20
65.7464768572
 30
0.0
 10
28.4547594412
 20
65.7662791113
 30
0.0
 10
28.4782092088
 20
65.7886897137
 30
0.0
 10
28.4990245211
 20
65.8142736308
 30
0.0
 10
28.517088445
 20
65.8434487762
 30
0.0
 10
28.5320152107
 20
65.8760589975
 30
0.0
 10
28.5447250746
 20
65.9117397017
 30
0.0
 10
28.554128978
 20
65.9507570873
 30
0.0
 10
28.5609571722
 20
65.9929771313
 30
0.0
 10
28.5654529315
 20
66.0386468621
 30
0.0
 10
28.5658206754
 20
66.0702713016
 30
0.0
 10
28.5660109127
 20
66.0866309196
 30
0.0
  0
SPLINE
  5
2F2
100
AcDbEntity
  8
0
100
AcDbSpline
 62
7
  6
CONTINUOUS
 70
0
 71
3
 72
23
 73
19
 74
0
 42
0.0000001
 43
0.0000001
 44
0.0000000001
 40
0.0
 40
0.0
 40
0.0
 40
0.0
 40
0.0639363389
 40
0.1254757351
 40
0.1836915124
 40
0.2395691754
 40
0.2938002411
 40
0.3460627982
 40
0.3984742067
 40
0.4505738953
 40
0.5040995218
 40
0.5597528182
 40
0.6199894818
 40
0.6840991251
 40
0.7540953925
 40
0.8292191727
 40
0.9113362507
 40
1.0
 40
1.0
 40
1.0
 40
1.0
 10
28.5660109127
 20
66.0866309196
 30
0.0
 10
28.5657958339
 20
66.1000963931
 30
0.0
 10
28.5653737394
 20
66.1265225259
 30
0.0
 10
28.5610522669
 20
66.1650298298
 30
0.0
 10
28.5535573914
 20
66.2012780458
 30
0.0
 10
28.5437250217
 20
66.2353814446
 30
0.0
 10
28.5306822465
 20
66.2670612988
 30
0.0
 10
28.514825077
 20
66.296575199
 30
0.0
 10
28.4963068257
 20
66.3240036837
 30
0.0
 10
28.4742025726
 20
66.348958655
 30
0.0
 10
28.4491032057
 20
66.372016726
 30
0.0
 10
28.4187933784
 20
66.3911157761
 30
0.0
 10
28.3845435218
 20
66.4074833167
 30
0.0
 10
28.3458386776
 20
66.4210141702
 30
0.0
 10
28.3029117036
 20
66.4312118261
 30
0.0
 10
28.2555796904
 20
66.4383766645
 30
0.0
 10
28.2039947748
 20
66.4434116598
 30
0.0
 10
28.168020762
 20
66.4436908397
 30
0.0
 10
28.149344246
 20
66.4438357807
 30
0.0
  0
SPLINE
  5
2F3
100
AcDbEntity
  8
0
100
AcDbSpline
 62
7
  6
CONTINUOUS
 70
0
 71
3
 72
23
 73
19
 74
0
 42
0.0000001
 43
0.0000001
 44
0.0000000001
 40
0.0
 40
0.0
 40
0.0
 40
0.0
 40
0.0761746297
 40
0.1468407323
 40
0.2138988714
 40
0.2762515677
 40
0.3353922945
 40
0.3917245646
 40
0.4463662388
 40
0.5002472488
 40
0.5537739223
 40
0.6088065973
 40
0.6661059144
 40
0.7256621127
 40
0.7878210797
 40
0.8546229345
 40
0.9252890371
 40
1.0
 40
1.0
 40
1.0
 40
1.0
 10
28.1493442461
 20
66.6382802252
 30
0.0
 10
28.1644015602
 20
66.6384761256
 30
0.0
 10
28.1934273268
 20
66.6388537601
 30
0.0
 10
28.2355294494
 20
66.6432707667
 30
0.0
 10
28.2744153982
 20
66.6505880013
 30
0.0
 10
28.3104230851
 20
66.6604191493
 30
0.0
 10
28.3430827069
 20
66.6735646592
 30
0.0
 10
28.3729565976
 20
66.6891294672
 30
0.0
 10
28.3996876471
 20
66.7079337314
 30
0.0
 10
28.4232146333
 20
66.7297884332
 30
0.0
 10
28.4438876672
 20
66.7544477013
 30
0.0
 10
28.4617595502
 20
66.7820176522
 30
0.0
 10
28.4768440206
 20
66.8125186896
 30
0.0
 10
28.4895032263
 20
66.8456041197
 30
0.0
 10
28.4991780981
 20
66.8816645709
 30
0.0
 10
28.5051772067
 20
66.920685026
 30
0.0
 10
28.5099319925
 20
66.962384869
 30
0.0
 10
28.5102776961
 20
66.9911295351
 30
0.0
 10
28.5104553572
 20
67.0059017529
 30
0.0
  0
SPLINE
  5
2F4
100
AcDbEntity
  8
0
100
AcDbSpline
 62
7
  6
CONTINUOUS
 70
0
 71
3
 72
19
 73
15
 74
0
 42
0.0000001
 43
0.0000001
 44
0.0000000001
 40
0.0
 40
0.0
 40
0.0
 40
0.0
 40
0.1416803054
 40
0.2700926467
 40
0.388188253
 40
0.5011934546
 40
0.5575230651
 40
0.612815267
 40
0.6692071373
 40
0.7282809339
 40
0.790189895
 40
0.8561333888
 40
0.9259538466
 40
1.0
 40
1.0
 40
1.0
 40
1.0
 10
28.5104553572
 20
67.0059017529
 30
0.0
 10
28.5098759294
 20
67.0278208865
 30
0.0
 10
28.5087713355
 20
67.069606488
 30
0.0
 10
28.4958600573
 20
67.1285175157
 30
0.0
 10
28.4755473452
 20
67.1804782913
 30
0.0
 10
28.4512260456
 20
67.2180529878
 30
0.0
 10
28.4277117176
 20
67.2437115177
 30
0.0
 10
28.4072802747
 20
67.2598589642
 30
0.0
 10
28.3849103722
 20
67.273904068
 30
0.0
 10
28.3601254806
 20
67.2857845147
 30
0.0
 10
28.3324512837
 20
67.2943321984
 30
0.0
 10
28.3024567925
 20
67.3001696519
 30
0.0
 10
28.2702603842
 20
67.3042916533
 30
0.0
 10
28.2480270294
 20
67.3047242436
 30
0.0
 10
28.2365838294
 20
67.3049468918
 30
0.0
  0
SPLINE
  5
2F5
100
AcDbEntity
  8
0
100
AcDbSpline
 62
7
  6
CONTINUOUS
 70
0
 71
3
 72
23
 73
19
 74
0
 42
0.0000001
 43
0.0000001
 44
0.0000000001
 40
0.0
 40
0.0
 40
0.0
 40
0.0
 40
0.0623278724
 40
0.1212038146
 40
0.1781985823
 40
0.2326729848
 40
0.2869636808
 40
0.3405132488
 40
0.3950543003
 40
0.4507596699
 40
0.5083883192
 40
0.5683242561
 40
0.6310588084
 40
0.6970116157
 40
0.7664874499
 40
0.840196185
 40
0.9179971476
 40
1.0
 40
1.0
 40
1.0
 40
1.0
 10
28.2365838294
 20
67.3049468918
 30
0.0
 10
28.2249965647
 20
67.3045579232
 30
0.0
 10
28.2024637776
 20
67.3038015285
 30
0.0
 10
28.1695552038
 20
67.2995248029
 30
0.0
 10
28.1386761847
 20
67.291967965
 30
0.0
 10
28.1101882522
 20
67.2800745904
 30
0.0
 10
28.0830364709
 20
67.266714261
 30
0.0
 10
28.0586036374
 20
67.248780543
 30
0.0
 10
28.0358944543
 20
67.2284261202
 30
0.0
 10
28.0153643721
 20
67.2047847868
 30
0.0
 10
27.9973269315
 20
67.1780475321
 30
0.0
 10
27.9804816453
 20
67.148995126
 30
0.0
 10
27.9669318475
 20
67.1165714319
 30
0.0
 10
27.9547933751
 20
67.0817836113
 30
0.0
 10
27.9440966218
 20
67.0443436145
 30
0.0
 10
27.9367535378
 20
67.0038835543
 30
0.0
 10
27.9303952158
 20
66.9609142086
 30
0.0
 10
27.9282320473
 20
66.9312698945
 30
0.0
 10
27.9271220238
 20
66.9160580029
 30
0.0
  0
SPLINE
  5
2F6
100
AcDbEntity
  8
0
100
AcDbSpline
 62
7
  6
CONTINUOUS
 70
0
 71
3
 72
23
 73
19
 74
0
 42
0.0000001
 43
0.0000001
 44
0.0000000001
 40
0.0
 40
0.0
 40
0.0
 40
0.0
 40
0.0738669914
 40
0.1445339117
 40
0.2123876044
 40
0.2782537913
 40
0.3414690691
 40
0.4035107425
 40
0.464833089
 40
0.5251607141
 40
0.5847577251
 40
0.6422163781
 40
0.6995911198
 40
0.7567506444
 40
0.8144272836
 40
0.8739000831
 40
0.9355577061
 40
1.0
 40
1.0
 40
1.0
 40
1.0
 10
27.6771220238
 20
66.9160580029
 30
0.0
 10
27.6794549084
 20
66.938517809
 30
0.0
 10
27.6840196121
 20
66.9824644157
 30
0.0
 10
27.6953059693
 20
67.0464510796
 30
0.0
 10
27.7104973178
 20
67.1070961936
 30
0.0
 10
27.7295113805
 20
67.1642624035
 30
0.0
 10
27.7521730266
 20
67.2181720726
 30
0.0
 10
27.7787680308
 20
67.2686843595
 30
0.0
 10
27.8089666119
 20
67.3161156602
 30
0.0
 10
27.8434796593
 20
67.3595447535
 30
0.0
 10
27.8807870186
 20
67.3990118195
 30
0.0
 10
27.9217639757
 20
67.4332764043
 30
0.0
 10
27.9655425176
 20
67.4626243357
 30
0.0
 10
28.0128950609
 20
67.4858371111
 30
0.0
 10
28.0627032515
 20
67.5050502518
 30
0.0
 10
28.1159923876
 20
67.5177025601
 30
0.0
 10
28.1722436845
 20
67.5257779266
 30
0.0
 10
28.2108023574
 20
67.5266986078
 30
0.0
 10
28.2305074405
 20
67.527169114
 30
0.0
  0
SPLINE
  5
2F7
100
AcDbEntity
  8
0
100
AcDbSpline
 62
7
  6
CONTINUOUS
 70
0
 71
3
 72
23
 73
19
 74
0
 42
0.0000001
 43
0.0000001
 44
0.0000000001
 40
0.0
 40
0.0
 40
0.0
 40
0.0
 40
0.0750654143
 40
0.145836232
 40
0.2138047375
 40
0.2786332607
 40
0.3408586576
 40
0.4019318632
 40
0.4623711213
 40
0.5232910402
 40
0.5835753998
 40
0.6426555641
 40
0.7008456077
 40
0.7587784751
 40
0.8172508221
 40
0.8763309864
 40
0.9370765596
 40
1.0
 40
1.0
 40
1.0
 40
1.0
 10
28.2305074405
 20
67.5271691141
 30
0.0
 10
28.2510756174
 20
67.5268286116
 30
0.0
 10
28.2910352373
 20
67.5261670874
 30
0.0
 10
28.3492167977
 20
67.5188412549
 30
0.0
 10
28.4039681297
 20
67.5079713085
 30
0.0
 10
28.454963098
 20
67.4917619325
 30
0.0
 10
28.5023923347
 20
67.4713779393
 30
0.0
 10
28.5459417372
 20
67.4459602142
 30
0.0
 10
28.5863266697
 20
67.4163568922
 30
0.0
 10
28.6224448381
 20
67.3819879696
 30
0.0
 10
28.6549324593
 20
67.3447442477
 30
0.0
 10
28.6834473151
 20
67.3052297268
 30
0.0
 10
28.7067230997
 20
67.2631848794
 30
0.0
 10
28.7265927363
 20
67.2196275354
 30
0.0
 10
28.7417054368
 20
67.1739083607
 30
0.0
 10
28.7525915138
 20
67.1262535638
 30
0.0
 10
28.7592634884
 20
67.0765482699
 30
0.0
 10
28.7600534305
 20
67.0426702941
 30
0.0
 10
28.7604553572
 20
67.0254330029
 30
0.0
  0
SPLINE
  5
2F8
100
AcDbEntity
  8
0
100
AcDbSpline
 62
7
  6
CONTINUOUS
 70
0
 71
3
 72
23
 73
19
 74
0
 42
0.0000001
 43
0.0000001
 44
0.0000000001
 40
0.0
 40
0.0
 40
0.0
 40
0.0
 40
0.0796157129
 40
0.1551338931
 40
0.2266506345
 40
0.2936180544
 40
0.3579733329
 40
0.41784505
 40
0.4753820321
 40
0.5299272908
 40
0.5832327226
 40
0.6372235826
 40
0.6924993907
 40
0.7489717835
 40
0.8078473735
 40
0.8686058746
 40
0.9327490297
 40
1.0
 40
1.0
 40
1.0
 40
1.0
 10
28.7604553572
 20
67.0254330029
 30
0.0
 10
28.7603801248
 20
67.0093656785
 30
0.0
 10
28.760233532
 20
66.9780579565
 30
0.0
 10
28.7564561327
 20
66.9324554395
 30
0.0
 10
28.7513757473
 20
66.8895779818
 30
0.0
 10
28.7445777205
 20
66.8491994889
 30
0.0
 10
28.7352145522
 20
66.8117225005
 30
0.0
 10
28.7231440054
 20
66.7770733395
 30
0.0
 10
28.710068974
 20
66.7448958026
 30
0.0
 10
28.6941256613
 20
66.7155208217
 30
0.0
 10
28.6762299173
 20
66.6881635037
 30
0.0
 10
28.6552713271
 20
66.6628195131
 30
0.0
 10
28.6311064722
 20
66.6396781204
 30
0.0
 10
28.6051944214
 20
66.6169226843
 30
0.0
 10
28.5753542668
 20
66.5974981361
 30
0.0
 10
28.5434926059
 20
66.5785583377
 30
0.0
 10
28.5088532093
 20
66.5610002368
 30
0.0
 10
28.4840749978
 20
66.5515415624
 30
0.0
 10
28.4713928572
 20
66.546700364
 30
0.0
  0
SPLINE
  5
2F9
100
AcDbEntity
  8
0
100
AcDbSpline
 62
7
  6
CONTINUOUS
 70
0
 71
3
 72
23
 73
19
 74
0
 42
0.0000001
 43
0.0000001
 44
0.0000000001
 40
0.0
 40
0.0
 40
0.0
 40
0.0
 40
0.0625210453
 40
0.1238819367
 40
0.1830447775
 40
0.2414102597
 40
0.2995437022
 40
0.3585196744
 40
0.4178953592
 40
0.4781784579
 40
0.5398031107
 40
0.6013582696
 40
0.663936938
 40
0.7269782684
 40
0.7919344294
 40
0.8593580456
 40
0.9281509769
 40
1.0
 40
1.0
 40
1.0
 40
1.0
 10
28.4713928572
 20
66.5467003641
 30
0.0
 10
28.4844826852
 20
66.5434631532
 30
0.0
 10
28.5104194437
 20
66.5370488019
 30
0.0
 10
28.5475421908
 20
66.5234811234
 30
0.0
 10
28.5826412588
 20
66.5074192306
 30
0.0
 10
28.615374556
 20
66.4882389469
 30
0.0
 10
28.6459022045
 20
66.4658323707
 30
0.0
 10
28.674663049
 20
66.4408334817
 30
0.0
 10
28.7006494184
 20
66.4123295579
 30
0.0
 10
28.7246096277
 20
66.3814180652
 30
0.0
 10
28.7461789271
 20
66.3482206685
 30
0.0
 10
28.7650736362
 20
66.312845779
 30
0.0
 10
28.7803846096
 20
66.2754761499
 30
0.0
 10
28.7937720457
 20
66.2365990503
 30
0.0
 10
28.803534057
 20
66.1955683296
 30
0.0
 10
28.8109279073
 20
66.1528220409
 30
0.0
 10
28.8154015277
 20
66.1081383461
 30
0.0
 10
28.815804863
 20
66.0778159888
 30
0.0
 10
28.8160109127
 20
66.0623253641
 30
0.0
  0
SPLINE
  5
2FA
100
AcDbEntity
  8
0
100
AcDbSpline
 62
7
  6
CONTINUOUS
 70
0
 71
3
 72
23
 73
19
 74
0
 42
0.0000001
 43
0.0000001
 44
0.0000000001
 40
0.0
 40
0.0
 40
0.0
 40
0.0
 40
0.0698693763
 40
0.1369804146
 40
0.201048704
 40
0.26306906
 40
0.3241174623
 40
0.3840621583
 40
0.4440490714
 40
0.5051216588
 40
0.5660507228
 40
0.6260675216
 40
0.6858924409
 40
0.7457808012
 40
0.8065000245
 40
0.8690234694
 40
0.9333431658
 40
1.0
 40
1.0
 40
1.0
 40
1.0
 10
28.8160109127
 20
66.0623253641
 30
0.0
 10
28.8155176868
 20
66.0403132594
 30
0.0
 10
28.8145507069
 20
65.9971580549
 30
0.0
 10
28.8067877728
 20
65.9341799244
 30
0.0
 10
28.793272935
 20
65.874742715
 30
0.0
 10
28.7744895696
 20
65.8187725174
 30
0.0
 10
28.7507575237
 20
65.7661082466
 30
0.0
 10
28.7213564695
 20
65.7171300635
 30
0.0
 10
28.68688581
 20
65.6715635475
 30
0.0
 10
28.6469870574
 20
65.6302282204
 30
0.0
 10
28.6032145725
 20
65.5930902138
 30
0.0
 10
28.5566446576
 20
65.5601602246
 30
0.0
 10
28.5069526153
 20
65.5327896895
 30
0.0
 10
28.4545252475
 20
65.5106242611
 30
0.0
 10
28.3994608303
 20
65.4931633868
 30
0.0
 10
28.3416529294
 20
65.4805942303
 30
0.0
 10
28.28104833
 20
65.4731623455
 30
0.0
 10
28.2397873233
 20
65.472135926
 30
0.0
 10
28.2187886905
 20
65.4716135585
 30
0.0
  0
SPLINE
  5
2FB
100
AcDbEntity
  8
0
100
AcDbSpline
 62
7
  6
CONTINUOUS
 70
0
 71
3
 72
15
 73
11
 74
0
 42
0.0000001
 43
0.0000001
 44
0.0000000001
 40
0.0
 40
0.0
 40
0.0
 40
0.0
 40
0.0408362582
 40
0.0697531922
 40
0.1057437233
 40
0.1998051534
 40
0.3218116659
 40
0.4682932343
 40
0.634336641
 40
1.0
 40
1.0
 40
1.0
 40
1.0
 10
20.1011340455
 20
35.0328406547
 30
0.0
 10
20.1011340455
 20
35.0356919558
 30
0.0
 10
20.1041828265
 20
35.040293307
 30
0.0
 10
20.1100640026
 20
35.044603139
 30
0.0
 10
20.1199111875
 20
35.049890556
 30
0.0
 10
20.1366407896
 20
35.0555323464
 30
0.0
 10
20.1613263784
 20
35.0612368205
 30
0.0
 10
20.1913268829
 20
35.0659102695
 30
0.0
 10
20.2384452807
 20
35.070739909
 30
0.0
 10
20.2756024122
 20
35.0720638817
 30
0.0
 10
20.3011340455
 20
35.0720638817
 30
0.0
  0
SPLINE
  5
2FC
100
AcDbEntity
  8
0
100
AcDbSpline
 62
7
  6
CONTINUOUS
 70
0
 71
3
 72
15
 73
11
 74
0
 42
0.0000001
 43
0.0000001
 44
0.0000000001
 40
0.0
 40
0.0
 40
0.0
 40
0.0
 40
0.365663359
 40
0.5317067657
 40
0.6781883341
 40
0.8001948466
 40
0.8942562767
 40
0.9302468078
 40
0.9591637418
 40
1.0
 40
1.0
 40
1.0
 40
1.0
 10
35.4011340455
 20
35.0720638817
 30
0.0
 10
35.4266656789
 20
35.0720638817
 30
0.0
 10
35.4638228104
 20
35.070739909
 30
0.0
 10
35.5109412082
 20
35.0659102695
 30
0.0
 10
35.5409417127
 20
35.0612368205
 30
0.0
 10
35.5656273014
 20
35.0555323464
 30
0.0
 10
35.5823569036
 20
35.049890556
 30
0.0
 10
35.5922040885
 20
35.044603139
 30
0.0
 10
35.5980852646
 20
35.040293307
 30
0.0
 10
35.6011340455
 20
35.0356919558
 30
0.0
 10
35.6011340455
 20
35.0328406547
 30
0.0
  0
ELLIPSE
  5
2FD
100
AcDbEntity
  8
0
100
AcDbEllipse
 62
7
  6
CONTINUOUS
 10
33.4747085918
 20
27.5995073213
 30
0.0
 11
0.0929768028
 21
0.3331749757
 31
0.0
 40
0.1104962682
 41
0.0308256507
 42
1.1937822327
  0
ELLIPSE
  5
2FE
100
AcDbEntity
  8
0
100
AcDbEllipse
 62
7
  6
CONTINUOUS
 10
29.7275594993
 20
27.5995073213
 30
0.0
 11
-0.0929768028
 21
0.3331749757
 31
0.0
 40
0.1104962682
 41
-1.1937822327
 42
-0.0308256508
  0
ELLIPSE
  5
2FF
100
AcDbEntity
  8
0
100
AcDbEllipse
 62
7
  6
CONTINUOUS
 10
22.2275594993
 20
27.5995073213
 30
0.0
 11
-0.0929768028
 21
0.3331749757
 31
0.0
 40
0.1104962682
 41
-1.1937822328
 42
-0.030825651
  0
ELLIPSE
  5
300
100
AcDbEntity
  8
0
100
AcDbEllipse
 62
7
  6
CONTINUOUS
 10
25.9747085918
 20
27.5995073213
 30
0.0
 11
0.0929768028
 21
0.3331749757
 31
0.0
 40
0.1104962682
 41
0.0308256514
 42
1.1937822324
  0
ENDSEC
  0
SECTION
  2
OBJECTS
  0
DICTIONARY
  5
C
100
AcDbDictionary
280
0
281
1
  3
ACAD_GROUP
350
D
  3
ACAD_MLINESTYLE
350
17
  3
ACAD_LAYOUT
350
1A
  3
ACAD_PLOTSETTINGS
350
19
  3
ACAD_PLOTSTYLENAME
350
E
  0
DICTIONARY
  5
D
102
{ACAD_REACTORS
330
C
102
}
100
AcDbDictionary
280
0
281
1
  0
ACDBDICTIONARYWDFLT
  5
E
102
{ACAD_REACTORS
330
C
102
}
100
AcDbDictionary
281
1
  3
Normal
350
F
100
AcDbDictionaryWithDefault
340
F
  0
DICTIONARY
  5
17
102
{ACAD_REACTORS
330
C
102
}
100
AcDbDictionary
280
0
281
1
  3
Standard
350
18
  0
DICTIONARY
  5
19
102
{ACAD_REACTORS
330
C
102
}
100
AcDbDictionary
281
1
  0
DICTIONARY
  5
1A
102
{ACAD_REACTORS
330
C
102
}
100
AcDbDictionary
281
1
  3
Model
350
301
  3
Layout1
350
302
  0
ACDBPLACEHOLDER
  5
F
102
{ACAD_REACTORS
330
E
102
}
  0
MLINESTYLE
  5
18
102
{ACAD_REACTORS
330
17
102
}
100
AcDbMlineStyle
  2
STANDARD
 70
0
  3

 62
256
 51
90.0
 52
90.0
 71
2
 49
0.5
 62
256
  6
BYLAYER
 49
-0.5
 62
256
  6
BYLAYER
  0
LAYOUT
  5
301
102
{ACAD_REACTORS
330
1A
102
}
100
AcDbPlotSettings
  1

  2
none_device
  4

  6

 40
0.0
 41
0.0
 42
0.0
 43
0.0
 44
210.0
 45
297.0
 46
0.0
 47
0.0
 48
0.0
 49
0.0
140
0.0
141
0.0
142
1.0
143
1.0
 70
1024
 72
1
 73
0
 74
0
  7

 75
0
147
1.0
148
0.0
149
0.0
100
AcDbLayout
  1
Model
 70
0
 71
0
 10
0.0
 20
0.0
 11
210.0
 21
297.0
 12
0.0
 22
0.0
 32
0.0
 14
0.0
 24
0.0
 34
0.0
 15
0.0
 25
0.0
 35
0.0
146
0.0
 13
0.0
 23
0.0
 33
0.0
 16
1.0
 26
0.0
 36
0.0
 17
0.0
 27
1.0
 37
0.0
 76
0
330
210
345
0
346
0
  0
LAYOUT
  5
302
102
{ACAD_REACTORS
330
1A
102
}
100
AcDbPlotSettings
  1

  2
none_device
  4

  6

 40
0.0
 41
0.0
 42
0.0
 43
0.0
 44
210.0
 45
297.0
 46
0.0
 47
0.0
 48
0.0
 49
0.0
140
0.0
141
0.0
142
1.0
143
1.0
 70
0
 72
1
 73
0
 74
0
  7

 75
0
147
1.0
148
0.0
149
0.0
100
AcDbLayout
  1
Layout1
 70
0
 71
1
 10
0.0
 20
0.0
 11
210.0
 21
297.0
 12
0.0
 22
0.0
 32
0.0
 14
0.0
 24
0.0
 34
0.0
 15
0.0
 25
0.0
 35
0.0
146
0.0
 13
0.0
 23
0.0
 33
0.0
 16
1.0
 26
0.0
 36
0.0
 17
0.0
 27
1.0
 37
0.0
 76
0
330
211
345
0
346
0
  0
ENDSEC
  0
EOF
