999
DXF file: C:\Users\sesa63760\Dev\_Creo\CAD\MCADID0004813_3D-CAD\drw0001_2.dxf
999
Pro/ENGINEER 2019471 by Parametric Technology Corporation
  0
SECTION
  2
HEADER
  9
$ACADVER
  1
AC1024
  9
$DWGCODEPAGE
  3
ANSI_1252
  9
$EXTMAX
 10
67.2186194059
 20
95.0663331598
 30
0.0
  9
$EXTMIN
 10
0.0
 20
0.0
 30
0.0
  9
$LIMMIN
 10
0.0
 20
0.0
  9
$LIMMAX
 10
67.2186194059
 20
95.0663331598
  9
$VIEWCTR
 10
33.609309703
 20
47.5331665799
  9
$VIEWSIZE
 40
95.0663331598
  9
$CLAYER
  8
0
  9
$LTSCALE
 40
6.1969165319
  9
$CELTYPE
  6
BYLAYER
  9
$DIMSCALE
 40
1.0
  9
$DIMASZ
 40
0.8002216596
  9
$DIMEXO
 40
1.0
  9
$DIMDLI
 40
4.2815059675
  9
$DIMEXE
 40
1.0
  9
$DIMCEN
 40
1.014040887
  9
$DIMLFAC
 40
1.0
  9
$DIMBLK
  1
_FILLED
  9
$DIMALT
 70
0
  9
$DIMALTF
 40
0.0393700787
  9
$DIMTXT
 40
1.1203103234
  9
$DIMTOL
 70
1
  9
$DIMLIM
 70
0
  9
$DIMTFAC
 40
1.0
  9
$DIMTP
 40
0.01
  9
$DIMTM
 40
0.01
  9
$DIMGAP
 40
0.625
  9
$DIMDSEP
 70
46
  9
$AUNITS
 70
0
  9
$PDMODE
 70
3
  9
$PDSIZE
 40
0.3125
  9
$HANDSEED
  5
341
  9
$TILEMODE
 70
1
  9
$MEASUREMENT
 70
1
  9
$INSUNITS
 70
4
  0
ENDSEC
  0
SECTION
  2
CLASSES
  0
CLASS
  1
ACDBDICTIONARYWDFLT
  2
AcDbDictionaryWithDefault
  3
AutoCAD 2000
 90
0
 91
1
280
0
281
0
  0
CLASS
  1
ACDBPLACEHOLDER
  2
AcDbPlaceHolder
  3
AutoCAD 2000
 90
0
 91
1
280
0
281
0
  0
CLASS
  1
LAYOUT
  2
AcDbLayout
  3
AutoCAD 2000
 90
0
 91
0
280
0
281
0
  0
ENDSEC
  0
SECTION
  2
TABLES
  0
TABLE
  2
VPORT
  5
8
100
AcDbSymbolTable
 70
2
  0
VPORT
  5
1F4
100
AcDbSymbolTableRecord
100
AcDbViewportTableRecord
  2
*ACTIVE
 70
0
 10
0.0
 20
0.0
 11
1.0
 21
1.0
 12
33.609309703
 22
47.5331665799
 13
0.0
 23
0.0
 14
1.0
 24
1.0
 15
0.0
 25
0.0
 16
0.0
 26
0.0
 36
1.0
 17
0.0
 27
0.0
 37
0.0
 40
95.0663331598
 41
0.7070707071
 42
50.0
 43
0.0
 44
0.0
 50
0.0
 51
0.0
 71
0
 72
100
 73
1
 74
1
 75
0
 76
0
 77
0
 78
0
  0
ENDTAB
  0
TABLE
  2
LTYPE
  5
5
100
AcDbSymbolTable
 70
6
  0
LTYPE
  5
14
100
AcDbSymbolTableRecord
100
AcDbLinetypeTableRecord
  2
BYBLOCK
 70
0
  3

 72
65
 73
0
 40
0.0
  0
LTYPE
  5
15
100
AcDbSymbolTableRecord
100
AcDbLinetypeTableRecord
  2
BYLAYER
 70
0
  3

 72
65
 73
0
 40
0.0
  0
LTYPE
  5
16
100
AcDbSymbolTableRecord
100
AcDbLinetypeTableRecord
  2
CONTINUOUS
 70
64
  3
Solid line
 72
65
 73
0
 40
0.0
  0
LTYPE
  5
1F5
100
AcDbSymbolTableRecord
100
AcDbLinetypeTableRecord
  2
CENTER
 70
64
  3
____ _ ____ _ ____ _ ____ _ ____ _ ____ _ ____
 72
65
 73
4
 40
0.6
 49
0.375
 74
0
 49
-0.075
 74
0
 49
0.075
 74
0
 49
-0.075
 74
0
  0
LTYPE
  5
1F6
100
AcDbSymbolTableRecord
100
AcDbLinetypeTableRecord
  2
HIDDEN
 70
64
  3
- - - - - - - - - - - - - - - - - - - -
 72
65
 73
2
 40
0.2
 49
0.1
 74
0
 49
-0.1
 74
0
  0
LTYPE
  5
1F7
100
AcDbSymbolTableRecord
100
AcDbLinetypeTableRecord
  2
PHANTOM
 70
64
  3
_____ _ _ _____ _ _ _____ _ _ _____
 72
65
 73
6
 40
0.8
 49
0.45
 74
0
 49
-0.05
 74
0
 49
0.1
 74
0
 49
-0.05
 74
0
 49
0.1
 74
0
 49
-0.05
 74
0
  0
LTYPE
  5
1F8
100
AcDbSymbolTableRecord
100
AcDbLinetypeTableRecord
  2
DOT
 70
64
  3
. . . . . . . . . . . . . . . . . . . .
 72
65
 73
2
 40
0.2
 49
0.1
 74
0
 49
-0.1
 74
0
  0
LTYPE
  5
1F9
100
AcDbSymbolTableRecord
100
AcDbLinetypeTableRecord
  2
DASHED
 70
64
  3
- - - - - - - - - - - - - - - - - - - -
 72
65
 73
2
 40
0.2
 49
0.1
 74
0
 49
-0.1
 74
0
  0
ENDTAB
  0
TABLE
  2
LAYER
  5
2
100
AcDbSymbolTable
 70
36
  0
LAYER
  5
10
100
AcDbSymbolTableRecord
100
AcDbLayerTableRecord
  2
0
 70
0
 62
7
  6
CONTINUOUS
370
-3
390
F
  0
LAYER
  5
1FA
100
AcDbSymbolTableRecord
100
AcDbLayerTableRecord
  2
DEFAULT_1
 70
0
 62
7
  6
CENTER
370
-3
390
F
  0
LAYER
  5
1FB
100
AcDbSymbolTableRecord
100
AcDbLayerTableRecord
  2
DEFAULT_2
 70
0
 62
7
  6
HIDDEN
370
-3
390
F
  0
LAYER
  5
1FC
100
AcDbSymbolTableRecord
100
AcDbLayerTableRecord
  2
DEFAULT_3
 70
0
 62
7
  6
PHANTOM
370
-3
390
F
  0
LAYER
  5
1FD
100
AcDbSymbolTableRecord
100
AcDbLayerTableRecord
  2
00_COMPONENTS
 70
0
 62
7
  6
CONTINUOUS
370
-3
390
F
  0
LAYER
  5
1FE
100
AcDbSymbolTableRecord
100
AcDbLayerTableRecord
  2
01_1_DEFAULT_DATUMS
 70
0
 62
7
  6
CONTINUOUS
370
-3
390
F
  0
LAYER
  5
1FF
100
AcDbSymbolTableRecord
100
AcDbLayerTableRecord
  2
01_PLANES
 70
0
 62
7
  6
CONTINUOUS
370
-3
390
F
  0
LAYER
  5
200
100
AcDbSymbolTableRecord
100
AcDbLayerTableRecord
  2
02_COORD_SYS
 70
0
 62
7
  6
CONTINUOUS
370
-3
390
F
  0
LAYER
  5
201
100
AcDbSymbolTableRecord
100
AcDbLayerTableRecord
  2
03_AXES
 70
0
 62
7
  6
CONTINUOUS
370
-3
390
F
  0
LAYER
  5
202
100
AcDbSymbolTableRecord
100
AcDbLayerTableRecord
  2
04_POINTS
 70
0
 62
7
  6
CONTINUOUS
370
-3
390
F
  0
LAYER
  5
203
100
AcDbSymbolTableRecord
100
AcDbLayerTableRecord
  2
05_CURVES
 70
0
 62
7
  6
CONTINUOUS
370
-3
390
F
  0
LAYER
  5
204
100
AcDbSymbolTableRecord
100
AcDbLayerTableRecord
  2
06_SURFS
 70
0
 62
7
  6
CONTINUOUS
370
-3
390
F
  0
LAYER
  5
205
100
AcDbSymbolTableRecord
100
AcDbLayerTableRecord
  2
07_COSMETICS
 70
0
 62
7
  6
CONTINUOUS
370
-3
390
F
  0
LAYER
  5
206
100
AcDbSymbolTableRecord
100
AcDbLayerTableRecord
  2
10_NOTES
 70
0
 62
7
  6
CONTINUOUS
370
-3
390
F
  0
LAYER
  5
207
100
AcDbSymbolTableRecord
100
AcDbLayerTableRecord
  2
11_NOTES_PUB
 70
0
 62
7
  6
CONTINUOUS
370
-3
390
F
  0
LAYER
  5
208
100
AcDbSymbolTableRecord
100
AcDbLayerTableRecord
  2
13_REF_GTOL
 70
0
 62
7
  6
CONTINUOUS
370
-3
390
F
  0
LAYER
  5
209
100
AcDbSymbolTableRecord
100
AcDbLayerTableRecord
  2
16_MISC
 70
0
 62
7
  6
CONTINUOUS
370
-3
390
F
  0
LAYER
  5
20A
100
AcDbSymbolTableRecord
100
AcDbLayerTableRecord
  2
17_NO_PRINT
 70
0
 62
7
  6
CONTINUOUS
370
-3
390
F
  0
LAYER
  5
20B
100
AcDbSymbolTableRecord
100
AcDbLayerTableRecord
  2
18_DATUM_CAMS_JOINTS
 70
0
 62
7
  6
CONTINUOUS
370
-3
390
F
  0
LAYER
  5
20C
100
AcDbSymbolTableRecord
100
AcDbLayerTableRecord
  2
19_DATUM_FUNCTIONAL
 70
0
 62
7
  6
CONTINUOUS
370
-3
390
F
  0
LAYER
  5
20D
100
AcDbSymbolTableRecord
100
AcDbLayerTableRecord
  2
20_DATUM_KINEMATIC_SCHEME
 70
0
 62
7
  6
CONTINUOUS
370
-3
390
F
  0
ENDTAB
  0
TABLE
  2
STYLE
  5
3
100
AcDbSymbolTable
 70
1
  0
STYLE
  5
11
100
AcDbSymbolTableRecord
100
AcDbTextStyleTableRecord
  2
STANDARD
 70
0
 40
0.0
 41
1.0
 50
0.0
 71
0
 42
0.2
  3
ARIAL.TTF
  4

  0
STYLE
  5
20E
100
AcDbSymbolTableRecord
100
AcDbTextStyleTableRecord
  2
TEXTSTYLE_1
 70
0
 40
0.0
 41
0.8
 50
0.0
 71
0
 42
0.2
  3
gdt
  4

  0
ENDTAB
  0
TABLE
  2
VIEW
  5
6
100
AcDbSymbolTable
 70
0
  0
ENDTAB
  0
TABLE
  2
UCS
  5
7
100
AcDbSymbolTable
 70
0
  0
ENDTAB
  0
TABLE
  2
APPID
  5
9
100
AcDbSymbolTable
 70
1
  0
APPID
  5
20F
100
AcDbSymbolTableRecord
100
AcDbRegAppTableRecord
  2
ACAD
 70
0
  0
ENDTAB
  0
TABLE
  2
BLOCK_RECORD
  5
1
100
AcDbSymbolTable
 70
0
  0
BLOCK_RECORD
  5
210
100
AcDbSymbolTableRecord
100
AcDbBlockTableRecord
  2
*Model_Space
  0
BLOCK_RECORD
  5
211
100
AcDbSymbolTableRecord
100
AcDbBlockTableRecord
  2
*Paper_Space
  0
BLOCK_RECORD
  5
212
100
AcDbSymbolTableRecord
100
AcDbBlockTableRecord
  2
_FILLED
  0
ENDTAB
  0
TABLE
  2
DIMSTYLE
  5
A
100
AcDbSymbolTable
 70
1
100
AcDbDimStyleTable
 71
0
  0
DIMSTYLE
105
213
100
AcDbSymbolTableRecord
100
AcDbDimStyleTableRecord
  2
STANDARD
 70
0
  3

  4

 40
1.0
 41
0.8002216596
 42
1.0
 43
0.38
 44
1.0
 45
0.0
 46
0.0
 47
0.01
 48
0.01
140
1.1203103234
141
0.09
142
0.0
143
25.4
144
1.0
145
0.0
146
1.0
147
0.625
 71
1
 72
0
 73
0
 74
0
 75
0
 76
0
 77
1
 78
8
 79
2
170
0
171
1
172
0
173
0
174
0
175
0
176
0
177
0
178
0
270
2
179
2
271
2
272
2
273
2
274
2
275
0
280
0
281
0
282
0
283
1
284
8
285
0
286
0
287
3
288
0
340
11
278
46
341
212
342
212
343
212
344
212
  0
ENDTAB
  0
ENDSEC
  0
SECTION
  2
BLOCKS
  0
BLOCK
  5
20
100
AcDbEntity
  8
0
100
AcDbBlockBegin
  2
*Model_Space
 70
0
 10
0.0
 20
0.0
 30
0.0
  3
*Model_Space
  1

  0
ENDBLK
  5
21
100
AcDbEntity
  8
0
100
AcDbBlockEnd
  0
BLOCK
  5
1C
100
AcDbEntity
  8
0
100
AcDbBlockBegin
  2
*Paper_Space
 70
0
 10
0.0
 20
0.0
 30
0.0
  3
*Paper_Space
  1

  0
ENDBLK
  5
1D
100
AcDbEntity
  8
0
100
AcDbBlockEnd
  0
BLOCK
  5
214
100
AcDbEntity
  8
0
100
AcDbBlockBegin
  2
_FILLED
 70
64
 10
0.0
 20
0.0
  3
_FILLED
  1

  0
SOLID
  5
215
100
AcDbEntity
  8
0
  6
BYBLOCK
 62
0
100
AcDbTrace
 10
0.0
 20
0.0
 11
-1.0
 21
0.25
 12
-1.0
 22
-0.25
 13
-1.0
 23
-0.25
  0
ENDBLK
  5
216
100
AcDbEntity
  8
0
  6
BYBLOCK
 62
0
100
AcDbBlockEnd
  0
ENDSEC
  0
SECTION
  2
ENTITIES
  0
LWPOLYLINE
  5
217
100
AcDbEntity
  8
0
100
AcDbPolyline
 62
7
  6
BYLAYER
 90
23
 70
0
 10
51.8059988274
 20
44.8448266726
 10
51.7482366811
 20
44.8283757323
 10
51.6920163126
 20
44.8133952181
 10
51.6085003637
 20
44.7918196232
 10
51.4946440365
 20
44.7633808242
 10
51.3477682753
 20
44.7280503995
 10
51.16634095
 20
44.6862269126
 10
50.9505721955
 20
44.6388330441
 10
50.7020269343
 20
44.5871587167
 10
50.423219049
 20
44.5327124916
 10
50.1155073589
 20
44.4767972368
 10
49.7800276138
 20
44.4207400559
 10
49.4171386691
 20
44.3658407645
 10
49.0266090342
 20
44.3134915412
 10
48.607541906
 20
44.2652613789
 10
48.1584176796
 20
44.2230331353
 10
47.677034419
 20
44.1891832767
 10
47.1605804933
 20
44.1668482956
 10
46.6053575119
 20
44.1603239095
 10
46.0064146725
 20
44.1757183871
 10
45.3582741723
 20
44.2220803164
 10
44.6546159718
 20
44.3133457294
 10
43.8838444809
 20
44.4732649746
  0
LWPOLYLINE
  5
218
100
AcDbEntity
  8
0
100
AcDbPolyline
 62
7
  6
BYLAYER
 90
16
 70
0
 10
44.3982106404
 20
43.0856776868
 10
44.4608530958
 20
43.1007404968
 10
44.4858072732
 20
43.1061501057
 10
44.4649739801
 20
43.1028161535
 10
44.3808108041
 20
43.0954282806
 10
44.2580414411
 20
43.0994364744
 10
44.1207931656
 20
43.1243202182
 10
43.9805664062
 20
43.1738730906
 10
43.8463587167
 20
43.2487024986
 10
43.7233638237
 20
43.3484928611
 10
43.6169128853
 20
43.4724936115
 10
43.5322860758
 20
43.618550792
 10
43.4751725088
 20
43.7833964396
 10
43.4506114704
 20
43.9621337045
 10
43.4633562463
 20
44.1483637059
 10
43.5166317041
 20
44.33413839
  0
LWPOLYLINE
  5
219
100
AcDbEntity
  8
0
100
AcDbPolyline
 62
7
  6
BYLAYER
 90
6
 70
0
 10
52.2922669695
 20
43.111708844
 10
51.9107839985
 20
43.0888154902
 10
51.5530540525
 20
43.2270040092
 10
51.2850511243
 20
43.5020134728
 10
51.1561840605
 20
43.8629720907
 10
51.1886228308
 20
44.24289427
  0
LINE
  5
21A
100
AcDbEntity
  8
0
100
AcDbLine
 62
7
  6
BYLAYER
 10
30.7794306244
 20
40.4586261886
 11
60.7794306244
 21
40.4586261886
  0
LINE
  5
21B
100
AcDbEntity
  8
0
100
AcDbLine
 62
7
  6
BYLAYER
 10
31.7794306244
 20
41.2586261886
 11
32.4794306244
 21
41.2586261886
  0
LINE
  5
21C
100
AcDbEntity
  8
0
100
AcDbLine
 62
7
  6
BYLAYER
 10
57.6294306244
 20
41.9086261886
 11
33.9294306244
 21
41.9086261886
  0
LINE
  5
21D
100
AcDbEntity
  8
0
100
AcDbLine
 62
7
  6
BYLAYER
 10
30.7794306244
 20
42.0586261886
 11
31.8622401953
 21
42.0586261886
  0
LWPOLYLINE
  5
21E
100
AcDbEntity
  8
0
100
AcDbPolyline
 62
7
  6
BYLAYER
 90
6
 70
0
 10
56.428920241
 20
44.7272907047
 10
56.0427076333
 20
44.6822354131
 10
55.6735292289
 20
44.8042988504
 10
55.3904964038
 20
45.0704018161
 10
55.2461366627
 20
45.430097859
 10
55.266037106
 20
45.8156689816
  0
LWPOLYLINE
  5
21F
100
AcDbEntity
  8
0
100
AcDbPolyline
 62
7
  6
BYLAYER
 90
13
 70
0
 10
43.6111856965
 20
43.0206076244
 10
43.8196001866
 20
43.0228795856
 10
44.0016437474
 20
43.0330335976
 10
44.1581965383
 20
43.04797483
 10
44.2900923357
 20
43.0651899306
 10
44.3993710901
 20
43.0830435765
 10
44.4888923634
 20
43.1007210534
 10
44.5678814727
 20
43.119710806
 10
44.6686003305
 20
43.1521415091
 10
44.8063742742
 20
43.2184948861
 10
44.9519923605
 20
43.3252408837
 10
45.0831892161
 20
43.4724449541
 10
45.1833777462
 20
43.6544943719
  0
LINE
  5
220
100
AcDbEntity
  8
0
100
AcDbLine
 62
7
  6
BYLAYER
 10
32.4794306244
 20
42.8586261886
 11
31.8622401953
 21
42.8586261886
  0
LINE
  5
221
100
AcDbEntity
  8
0
100
AcDbLine
 62
7
  6
BYLAYER
 10
30.8286731066
 20
43.6586261886
 11
10.5620110131
 21
43.6586261886
  0
LINE
  5
222
100
AcDbEntity
  8
0
100
AcDbLine
 62
7
  6
BYLAYER
 10
30.8286731066
 20
43.6586261886
 11
32.4794306244
 21
43.6586261886
  0
LINE
  5
223
100
AcDbEntity
  8
0
100
AcDbLine
 62
7
  6
BYLAYER
 10
32.4794306244
 20
43.6586261886
 11
39.3147119987
 21
43.6586261886
  0
LINE
  5
224
100
AcDbEntity
  8
0
100
AcDbLine
 62
7
  6
BYLAYER
 10
30.7794306244
 20
54.2586261886
 11
30.7794306244
 21
52.6586261886
  0
LINE
  5
225
100
AcDbEntity
  8
0
100
AcDbLine
 62
7
  6
BYLAYER
 10
30.7794306244
 20
42.0586261886
 11
30.7794306244
 21
40.4586261886
  0
LINE
  5
226
100
AcDbEntity
  8
0
100
AcDbLine
 62
7
  6
BYLAYER
 10
30.8286731066
 20
42.0586261886
 11
30.8286731066
 21
43.6586261886
  0
LINE
  5
227
100
AcDbEntity
  8
0
100
AcDbLine
 62
7
  6
BYLAYER
 10
30.8286731066
 20
51.0586261886
 11
30.8286731066
 21
52.6586261886
  0
LINE
  5
228
100
AcDbEntity
  8
0
100
AcDbLine
 62
7
  6
BYLAYER
 10
31.7794306244
 20
41.2586261886
 11
31.7794306244
 21
42.0586261886
  0
LINE
  5
229
100
AcDbEntity
  8
0
100
AcDbLine
 62
7
  6
BYLAYER
 10
31.7794306244
 20
52.6586261886
 11
31.7794306244
 21
53.4586261886
  0
LINE
  5
22A
100
AcDbEntity
  8
0
100
AcDbLine
 62
7
  6
BYLAYER
 10
31.8622401953
 20
52.6586261886
 11
31.8622401953
 21
51.8586261886
  0
LINE
  5
22B
100
AcDbEntity
  8
0
100
AcDbLine
 62
7
  6
BYLAYER
 10
31.8622401953
 20
42.8586261886
 11
31.8622401953
 21
42.0586261886
  0
LINE
  5
22C
100
AcDbEntity
  8
0
100
AcDbLine
 62
7
  6
BYLAYER
 10
32.4794306244
 20
54.2586261886
 11
32.4794306244
 21
40.4586261886
  0
LWPOLYLINE
  5
22D
100
AcDbEntity
  8
0
100
AcDbPolyline
 62
7
  6
BYLAYER
 90
4
 70
0
 10
40.7560457056
 20
45.9844475363
 10
40.7903028151
 20
45.9916989566
 10
40.8311803275
 20
46.00358937
 10
40.8746640755
 20
46.0204651129
  0
LWPOLYLINE
  5
22E
100
AcDbEntity
  8
0
100
AcDbPolyline
 62
7
  6
BYLAYER
 90
36
 70
0
 10
39.7218605577
 20
44.6199790039
 10
39.7121884034
 20
44.6192153376
 10
39.8168454179
 20
44.5768530516
 10
39.9908461594
 20
44.4797313743
 10
40.1807863432
 20
44.3563584244
 10
40.3811342041
 20
44.2171226059
 10
40.5965972381
 20
44.0643402962
 10
40.8252565664
 20
43.9043602003
 10
41.0677767033
 20
43.741914004
 10
41.3270004342
 20
43.5806345735
 10
41.6018422164
 20
43.4261223639
 10
41.8926635311
 20
43.2797362366
 10
42.2001962735
 20
43.1419149878
 10
42.5249277299
 20
43.013223864
 10
42.8678597445
 20
42.8940818123
 10
43.2299622893
 20
42.7850208326
 10
43.6123334342
 20
42.686610357
 10
44.0160212783
 20
42.5995178141
 10
44.4420229963
 20
42.5245100179
 10
44.8923531929
 20
42.4623093199
 10
45.3699179773
 20
42.4137213239
 10
45.877374184
 20
42.3799185816
 10
46.4164231069
 20
42.3623541148
 10
46.98848532
 20
42.3626094861
 10
47.6043381362
 20
42.3828540155
 10
48.2816524553
 20
42.4271600027
 10
48.9979747644
 20
42.4973541929
 10
49.6965165645
 20
42.5875660965
 10
50.3301826929
 20
42.6873090771
 10
50.8804268278
 20
42.7876413391
 10
51.3496993765
 20
42.8835950502
 10
51.7258681125
 20
42.9679740886
 10
52.000194001
 20
43.0343419432
 10
52.1766386537
 20
43.0797840349
 10
52.2709826803
 20
43.105463537
 10
52.2922669695
 20
43.111708844
  0
LINE
  5
22F
100
AcDbEntity
  8
0
100
AcDbLine
 62
7
  6
BYLAYER
 10
39.7239961753
 20
44.5949484103
 11
39.6532854972
 21
44.5949484103
  0
LINE
  5
230
100
AcDbEntity
  8
0
100
AcDbLine
 62
7
  6
BYLAYER
 10
38.4354226768
 20
45.0901233043
 11
38.3647119987
 21
45.0901233043
  0
LWPOLYLINE
  5
231
100
AcDbEntity
  8
0
100
AcDbPolyline
 62
7
  6
BYLAYER
 90
8
 70
0
 10
38.4345284505
 20
45.1151620788
 10
38.5526706027
 20
45.102846045
 10
38.7768292464
 20
45.0426256455
 10
39.047587711
 20
44.9362732067
 10
39.3321449992
 20
44.8012505994
 10
39.6291023319
 20
44.6447396755
 10
39.9408275304
 20
44.4703827767
 10
40.6590969061
 20
44.0573543473
  0
LINE
  5
232
100
AcDbEntity
  8
0
100
AcDbLine
 62
7
  6
BYLAYER
 10
33.9294306244
 20
41.9086261886
 11
33.9294306244
 21
52.8086261886
  0
LWPOLYLINE
  5
233
100
AcDbEntity
  8
0
100
AcDbPolyline
 62
7
  6
BYLAYER
 90
12
 70
0
 10
42.7554478177
 20
48.350072609
 10
44.0782187122
 20
48.6045685406
 10
45.6440963773
 20
48.7819983874
 10
47.53452638
 20
48.8716026342
 10
49.5576831126
 20
48.8566767949
 10
51.2160022597
 20
48.7769421603
 10
52.6161347054
 20
48.6689618078
 10
53.7929714435
 20
48.5514047879
 10
54.7483861205
 20
48.4379210741
 10
55.4212044351
 20
48.3473544341
 10
55.8186891022
 20
48.2886404807
 10
55.9528377287
 20
48.2673710817
  0
LWPOLYLINE
  5
234
100
AcDbEntity
  8
0
100
AcDbPolyline
 62
7
  6
BYLAYER
 90
30
 70
0
 10
38.0850058735
 20
46.9160649279
 10
38.8784420862
 20
47.0282701714
 10
39.5862292438
 20
47.2504750614
 10
40.1885523498
 20
47.4949066464
 10
40.7068908701
 20
47.7339974192
 10
41.162694313
 20
47.961426704
 10
41.5708431604
 20
48.1764722049
 10
41.9414331665
 20
48.3798588378
 10
42.2814908648
 20
48.5726175457
 10
42.596110707
 20
48.7557758174
 10
42.8889625133
 20
48.9301813172
 10
43.1630932075
 20
49.0967262277
 10
43.4203355584
 20
49.2558407146
 10
43.6626339613
 20
49.4082169194
 10
43.890457246
 20
49.5537633455
 10
44.1037055148
 20
49.69211741
 10
44.3000317267
 20
49.8215183272
 10
44.4714185929
 20
49.9364072951
 10
44.6067826616
 20
50.0289109388
 10
44.6994752809
 20
50.0938074487
 10
44.7598050545
 20
50.1376595571
 10
44.8148586528
 20
50.1810767098
 10
44.9023695937
 20
50.2653958853
 10
44.9994850252
 20
50.3968229683
 10
45.0752675423
 20
50.5617955103
 10
45.1147297419
 20
50.7492673357
 10
45.1092097968
 20
50.9507844272
 10
45.051821553
 20
51.1542153202
 10
44.9393586061
 20
51.3445920421
 10
44.7730612912
 20
51.504774729
  0
LINE
  5
235
100
AcDbEntity
  8
0
100
AcDbLine
 62
7
  6
BYLAYER
 10
40.3349964801
 20
47.802152548
 11
40.8045604616
 21
47.8440061569
  0
LWPOLYLINE
  5
236
100
AcDbEntity
  8
0
100
AcDbPolyline
 62
7
  6
BYLAYER
 90
5
 70
0
 10
55.9528377287
 20
48.2673710817
 10
56.373022967
 20
48.2979173357
 10
56.7348093951
 20
48.5178465435
 10
56.9559654004
 20
48.8786716412
 10
56.9881735717
 20
49.2980284217
  0
LINE
  5
237
100
AcDbEntity
  8
0
100
AcDbLine
 62
7
  6
BYLAYER
 10
40.6855642022
 20
45.9548109551
 11
40.6148535241
 21
45.9548109551
  0
LINE
  5
238
100
AcDbEntity
  8
0
100
AcDbLine
 62
7
  6
BYLAYER
 10
46.7294306251
 20
46.0586214262
 11
49.7294306244
 21
46.0586214262
  0
LINE
  5
239
100
AcDbEntity
  8
0
100
AcDbLine
 62
7
  6
BYLAYER
 10
38.0814328839
 20
46.9321671659
 11
38.0107222058
 21
46.9321671659
  0
LINE
  5
23A
100
AcDbEntity
  8
0
100
AcDbLine
 62
7
  6
BYLAYER
 10
38.4354226768
 20
46.9401233043
 11
38.3647119987
 21
46.9401233043
  0
LWPOLYLINE
  5
23B
100
AcDbEntity
  8
0
100
AcDbPolyline
 62
7
  6
BYLAYER
 90
4
 70
0
 10
39.9554270853
 20
46.2519240892
 10
40.4518092727
 20
46.2401481946
 10
41.0267933891
 20
46.2222012032
 10
41.6578779278
 20
46.1993828894
  0
LWPOLYLINE
  5
23C
100
AcDbEntity
  8
0
100
AcDbPolyline
 62
7
  6
BYLAYER
 90
4
 70
0
 10
43.5013781939
 20
46.1288534004
 10
44.7355733492
 20
46.0890115177
 10
45.8090836417
 20
46.0658408345
 10
46.7294306251
 20
46.0586278987
  0
LWPOLYLINE
  5
23D
100
AcDbEntity
  8
0
100
AcDbPolyline
 62
7
  6
BYLAYER
 90
9
 70
0
 10
43.3695704737
 20
51.2433769738
 10
43.0029881075
 20
51.0144168177
 10
42.7992262141
 20
50.8890580688
 10
42.5830555665
 20
50.7576377746
 10
42.3535596791
 20
50.61995691
 10
42.1096431373
 20
50.4757939854
 10
41.8495246339
 20
50.3246455405
 10
41.5706580081
 20
50.1657582303
 10
41.2696776688
 20
49.9982115987
  0
LWPOLYLINE
  5
23E
100
AcDbEntity
  8
0
100
AcDbPolyline
 62
7
  6
BYLAYER
 90
7
 70
0
 10
40.4404138537
 20
49.5611294457
 10
40.0164466716
 20
49.3545719053
 10
39.5450674248
 20
49.1423882671
 10
39.0702339469
 20
48.9531676043
 10
38.6487883331
 20
48.8148950701
 10
38.2979583459
 20
48.7344902232
 10
38.0885755679
 20
48.7159515845
  0
LWPOLYLINE
  5
23F
100
AcDbEntity
  8
0
100
AcDbPolyline
 62
7
  6
BYLAYER
 90
4
 70
0
 10
39.7344341628
 20
48.4068144342
 10
39.9279034284
 20
48.4732121277
 10
40.1129319752
 20
48.5451593372
 10
40.2891890521
 20
48.6174253422
  0
LWPOLYLINE
  5
240
100
AcDbEntity
  8
0
100
AcDbPolyline
 62
7
  6
BYLAYER
 90
4
 70
0
 10
40.9152333561
 20
49.7107973773
 10
40.6647189948
 20
49.6496257531
 10
40.4569215774
 20
49.6118529008
 10
40.3348901271
 20
49.6021061652
  0
LINE
  5
241
100
AcDbEntity
  8
0
100
AcDbLine
 62
7
  6
BYLAYER
 10
40.3354226768
 20
47.7771290728
 11
40.2647119987
 21
47.7771290728
  0
LINE
  5
242
100
AcDbEntity
  8
0
100
AcDbLine
 62
7
  6
BYLAYER
 10
40.6855642022
 20
47.8048109551
 11
40.6148535241
 21
47.8048109551
  0
LINE
  5
243
100
AcDbEntity
  8
0
100
AcDbLine
 62
7
  6
BYLAYER
 10
46.7294306237
 20
48.2586309509
 11
49.7294306244
 21
48.2586309509
  0
LINE
  5
244
100
AcDbEntity
  8
0
100
AcDbLine
 62
7
  6
BYLAYER
 10
38.0814328839
 20
48.6998993784
 11
38.0107222058
 21
48.6998993784
  0
LWPOLYLINE
  5
245
100
AcDbEntity
  8
0
100
AcDbPolyline
 62
7
  6
BYLAYER
 90
5
 70
0
 10
46.7294306236
 20
48.2586244784
 10
45.8914694507
 20
48.2648687772
 10
44.9273312623
 20
48.2846580232
 10
43.7923115864
 20
48.3198700943
 10
42.7366748011
 20
48.3592665419
  0
LWPOLYLINE
  5
246
100
AcDbEntity
  8
0
100
AcDbPolyline
 62
7
  6
BYLAYER
 90
4
 70
0
 10
41.0586214053
 20
48.4223764415
 10
40.5115397783
 20
48.4393286549
 10
40.030960008
 20
48.4508640332
 10
39.6118162008
 20
48.4571309911
  0
LINE
  5
247
100
AcDbEntity
  8
0
100
AcDbLine
 62
7
  6
BYLAYER
 10
40.6590969061
 20
44.0573543473
 11
41.0300038567
 21
43.8503305501
  0
LINE
  5
248
100
AcDbEntity
  8
0
100
AcDbLine
 62
7
  6
BYLAYER
 10
43.7443517375
 20
51.4707549457
 11
43.6968100198
 21
51.4365908982
  0
LINE
  5
249
100
AcDbEntity
  8
0
100
AcDbLine
 62
7
  6
BYLAYER
 10
44.634858402
 20
50.0620873595
 11
44.6670971189
 21
50.0829552413
  0
LWPOLYLINE
  5
24A
100
AcDbEntity
  8
0
100
AcDbPolyline
 62
7
  6
BYLAYER
 90
9
 70
0
 10
44.6670971189
 20
50.0829552413
 10
44.6905361405
 20
50.0978084896
 10
44.6575347215
 20
50.079816499
 10
44.5618898344
 20
50.038561457
 10
44.4221539077
 20
50.0018002091
 10
44.2679625427
 20
49.9898736098
 10
44.1050675888
 20
50.0083360436
 10
43.9423260391
 20
50.0611687562
 10
43.7884960942
 20
50.1496239434
  0
LINE
  5
24B
100
AcDbEntity
  8
0
100
AcDbLine
 62
7
  6
BYLAYER
 10
40.3354226768
 20
49.6271290728
 11
40.2647119987
 21
49.6271290728
  0
LINE
  5
24C
100
AcDbEntity
  8
0
100
AcDbLine
 62
7
  6
BYLAYER
 10
39.0619870262
 20
50.1277462389
 11
38.9912763481
 21
50.1277462389
  0
LINE
  5
24D
100
AcDbEntity
  8
0
100
AcDbLine
 62
7
  6
BYLAYER
 10
32.4794306244
 20
51.0586261886
 11
30.8286731066
 21
51.0586261886
  0
LINE
  5
24E
100
AcDbEntity
  8
0
100
AcDbLine
 62
7
  6
BYLAYER
 10
30.8286731066
 20
51.0586261886
 11
10.5620110131
 21
51.0586261886
  0
LINE
  5
24F
100
AcDbEntity
  8
0
100
AcDbLine
 62
7
  6
BYLAYER
 10
32.4794306244
 20
51.0586261886
 11
39.3147119987
 21
51.0586261886
  0
LWPOLYLINE
  5
250
100
AcDbEntity
  8
0
100
AcDbPolyline
 62
7
  6
BYLAYER
 90
3
 70
0
 10
41.3401993959
 20
47.6357768128
 10
41.0071936594
 20
47.744483512
 10
40.6858383875
 20
47.7797698255
  0
LWPOLYLINE
  5
251
100
AcDbEntity
  8
0
100
AcDbPolyline
 62
7
  6
BYLAYER
 90
4
 70
0
 10
41.8194754303
 20
45.4051076248
 10
41.1915271035
 20
45.8456431072
 10
40.610842166
 20
46.1921546188
 10
40.0425605921
 20
46.3890256611
  0
LWPOLYLINE
  5
252
100
AcDbEntity
  8
0
100
AcDbPolyline
 62
7
  6
BYLAYER
 90
47
 70
0
 10
41.3956393824
 20
45.4075046083
 10
41.5107781402
 20
45.3150219367
 10
41.6311472252
 20
45.2207332162
 10
41.7580084413
 20
45.1249274404
 10
41.8914684687
 20
45.0285892048
 10
42.0317124672
 20
44.9321770718
 10
42.1798648391
 20
44.835335131
 10
42.3363572553
 20
44.7383031027
 10
42.5017003482
 20
44.6412943155
 10
42.6761798394
 20
44.5446871151
 10
42.8596180959
 20
44.4491069302
 10
43.0517615214
 20
44.3551638252
 10
43.2523623923
 20
44.263405847
 10
43.461299227
 20
44.1742735439
 10
43.6784622511
 20
44.0881679668
 10
43.9037113643
 20
44.0054655963
 10
44.1368735381
 20
43.9265161909
 10
44.377756017
 20
43.8516417603
 10
44.6264148351
 20
43.7810591574
 10
44.8832896584
 20
43.7148809503
 10
45.1488562146
 20
43.6532475979
 10
45.423577836
 20
43.5963321108
 10
45.7079033883
 20
43.544338373
 10
46.0023123585
 20
43.4974932499
 10
46.3073343641
 20
43.4560422127
 10
46.6234910046
 20
43.4202733381
 10
46.9512782466
 20
43.3905066415
 10
47.2912469309
 20
43.3670783942
 10
47.6442712964
 20
43.3503352266
 10
48.0113044565
 20
43.3406867742
 10
48.3932530459
 20
43.3386153692
 10
48.7911741442
 20
43.3446581223
 10
49.2065409418
 20
43.3594328372
 10
49.6407951816
 20
43.3836689724
 10
50.0954960026
 20
43.4182113052
 10
50.5730965896
 20
43.4641046645
 10
51.0760587471
 20
43.5225934207
 10
51.6070110524
 20
43.5951562451
 10
52.1690666754
 20
43.6835837279
 10
52.765859603
 20
43.7900868581
 10
53.4044265776
 20
43.9180113757
 10
54.0843949274
 20
44.0698309936
 10
54.7968791437
 20
44.2462420327
 10
55.5407804179
 20
44.4502776669
 10
56.0845956751
 20
44.6141084494
 10
56.3564465934
 20
44.7023072468
 10
56.428920241
 20
44.7272907047
  0
LINE
  5
253
100
AcDbEntity
  8
0
100
AcDbLine
 62
7
  6
BYLAYER
 10
41.0746891439
 20
45.6691794
 11
41.3956393824
 21
45.4075046083
  0
LWPOLYLINE
  5
254
100
AcDbEntity
  8
0
100
AcDbPolyline
 62
7
  6
BYLAYER
 90
11
 70
0
 10
41.03055306
 20
46.184423748
 10
40.9035103442
 20
46.0607213634
 10
40.803672438
 20
45.9993148137
 10
40.7302415623
 20
45.9810224178
 10
40.6336417436
 20
45.9838949256
 10
40.6195455719
 20
45.9863246442
 10
40.6812261976
 20
45.9551798843
 10
40.7736273923
 20
45.8970310434
 10
40.870367131
 20
45.8282384906
 10
40.9713274352
 20
45.7513074229
 10
41.0746891439
 20
45.6691794
  0
LINE
  5
255
100
AcDbEntity
  8
0
100
AcDbLine
 62
7
  6
BYLAYER
 10
40.8750064968
 20
46.0206161292
 11
40.924864372
 21
46.0457742452
  0
LINE
  5
256
100
AcDbEntity
  8
0
100
AcDbLine
 62
7
  6
BYLAYER
 10
31.8622401953
 20
51.8586261886
 11
32.4794306244
 21
51.8586261886
  0
LINE
  5
257
100
AcDbEntity
  8
0
100
AcDbLine
 62
7
  6
BYLAYER
 10
30.7794306244
 20
52.6586261886
 11
31.8622401953
 21
52.6586261886
  0
LINE
  5
258
100
AcDbEntity
  8
0
100
AcDbLine
 62
7
  6
BYLAYER
 10
33.9294306244
 20
52.8086261886
 11
57.6294306244
 21
52.8086261886
  0
LWPOLYLINE
  5
259
100
AcDbEntity
  8
0
100
AcDbPolyline
 62
7
  6
BYLAYER
 90
8
 70
0
 10
50.4255915063
 20
50.0995995099
 10
50.6164463134
 20
50.0775521943
 10
50.7951272466
 20
50.0596070902
 10
50.9449276245
 20
50.0430051102
 10
51.053740816
 20
50.023940194
 10
51.1607476352
 20
49.9984823037
 10
51.2899249884
 20
49.9708166219
 10
51.4126799056
 20
49.9521152273
  0
LWPOLYLINE
  5
25A
100
AcDbEntity
  8
0
100
AcDbPolyline
 62
7
  6
BYLAYER
 90
27
 70
0
 10
51.4126799056
 20
49.9521152273
 10
51.5829574569
 20
49.9312066643
 10
51.6281615557
 20
49.9242343621
 10
51.6391443185
 20
49.9221513491
 10
51.6116773372
 20
49.9304598888
 10
51.5859413411
 20
49.9402663133
 10
51.6055681783
 20
49.9320404859
 10
51.6624973594
 20
49.9108989006
 10
51.7305609323
 20
49.890929295
 10
51.8059240506
 20
49.8751361949
 10
51.8868431037
 20
49.8651090402
 10
51.971671749
 20
49.8620405059
 10
52.0581288646
 20
49.8666992495
 10
52.1470057253
 20
49.8799830218
 10
52.2383492673
 20
49.9032674876
 10
52.3314710306
 20
49.9381055761
 10
52.4239008056
 20
49.9855272104
 10
52.5122414667
 20
50.045452699
 10
52.5943685819
 20
50.1173422148
 10
52.6695858109
 20
50.2016663569
 10
52.7358012753
 20
50.2977842728
 10
52.7912661446
 20
50.4039499088
 10
52.8344133323
 20
50.5152534832
 10
52.8624330779
 20
50.6091098553
 10
52.8789991045
 20
50.6682613403
 10
52.9007874256
 20
50.7410736174
 10
52.9410031996
 20
50.8712725815
  0
LINE
  5
25B
100
AcDbEntity
  8
0
100
AcDbLine
 62
7
  6
BYLAYER
 10
49.7828731123
 20
50.1802450768
 11
50.4255915063
 21
50.0995995099
  0
LINE
  5
25C
100
AcDbEntity
  8
0
100
AcDbLine
 62
7
  6
BYLAYER
 10
55.9305479077
 20
48.2710448961
 11
55.9528908498
 21
48.2673504294
  0
LINE
  5
25D
100
AcDbEntity
  8
0
100
AcDbLine
 62
7
  6
BYLAYER
 10
44.093595948
 20
49.9810478408
 11
44.100623922
 21
49.9786373874
  0
LWPOLYLINE
  5
25E
100
AcDbEntity
  8
0
100
AcDbPolyline
 62
7
  6
BYLAYER
 90
8
 70
0
 10
41.2990276687
 20
46.6101084915
 10
41.273987168
 20
46.5507190027
 10
41.2423968682
 20
46.488395951
 10
41.2066247548
 20
46.426072028
 10
41.1661202239
 20
46.3623772623
 10
41.1224589165
 20
46.2997597853
 10
41.0769583258
 20
46.2400217281
 10
41.0305778346
 20
46.1844520295
  0
LINE
  5
25F
100
AcDbEntity
  8
0
100
AcDbLine
 62
7
  6
BYLAYER
 10
51.8056075164
 20
44.8445549034
 11
51.7888011904
 21
44.8395738866
  0
LINE
  5
260
100
AcDbEntity
  8
0
100
AcDbLine
 62
7
  6
BYLAYER
 10
51.7744374388
 20
44.8360570852
 11
51.7284910925
 21
44.822874671
  0
LINE
  5
261
100
AcDbEntity
  8
0
100
AcDbLine
 62
7
  6
BYLAYER
 10
32.4794306244
 20
53.4586261886
 11
31.7794306244
 21
53.4586261886
  0
LINE
  5
262
100
AcDbEntity
  8
0
100
AcDbLine
 62
7
  6
BYLAYER
 10
30.7794306244
 20
54.2586261886
 11
60.7794306244
 21
54.2586261886
  0
LWPOLYLINE
  5
263
100
AcDbEntity
  8
0
100
AcDbPolyline
 62
7
  6
BYLAYER
 90
9
 70
0
 10
56.2462792631
 20
50.0432513327
 10
56.0998862775
 20
50.0665032011
 10
55.6894463524
 20
50.1272591415
 10
55.0202630175
 20
50.2177364837
 10
54.0925853044
 20
50.3291243221
 10
52.9647051801
 20
50.4445666013
 10
51.8045295197
 20
50.5407186435
 10
50.806393018
 20
50.6044114514
 10
49.8983436806
 20
50.646065426
  0
LINE
  5
264
100
AcDbEntity
  8
0
100
AcDbLine
 62
7
  6
BYLAYER
 10
56.2422526841
 20
50.0438979296
 11
56.2283130566
 21
50.0462075285
  0
LWPOLYLINE
  5
265
100
AcDbEntity
  8
0
100
AcDbPolyline
 62
7
  6
BYLAYER
 90
29
 70
0
 10
44.100623922
 20
49.9786373874
 10
44.0942798852
 20
49.981325942
 10
44.0870752844
 20
49.9846542895
 10
44.080670092
 20
49.9878170313
 10
44.0749302026
 20
49.9908001463
 10
44.068507112
 20
49.99429608
 10
44.0614221003
 20
49.9983373773
 10
44.0541362089
 20
50.0026881504
 10
44.046619725
 20
50.0073767849
 10
44.0388758965
 20
50.0124134
 10
44.030920609
 20
50.0177992908
 10
44.0227465776
 20
50.0235507853
 10
44.0143277295
 20
50.0296989822
 10
44.0056905598
 20
50.0362379881
 10
43.9968565413
 20
50.04316442
 10
43.9878573512
 20
50.0504640366
 10
43.9787243089
 20
50.0581191301
 10
43.9694832435
 20
50.066113103
 10
43.9601420594
 20
50.0744425175
 10
43.9507075732
 20
50.0831038594
 10
43.9411863511
 20
50.092092931
 10
43.9315842826
 20
50.1014053582
 10
43.9219065294
 20
50.1110367849
 10
43.9121575122
 20
50.1209830365
 10
43.9023409379
 20
50.1312402384
 10
43.8924598661
 20
50.1418048861
 10
43.8825168116
 20
50.1526738604
 10
43.872513881
 20
50.1638443884
 10
43.8624529369
 20
50.1753139489
  0
LWPOLYLINE
  5
266
100
AcDbEntity
  8
0
100
AcDbPolyline
 62
7
  6
BYLAYER
 90
21
 70
0
 10
43.8267998192
 20
50.1048312388
 10
43.844251522
 20
50.093622948
 10
43.8613720167
 20
50.0831483979
 10
43.8780590199
 20
50.0734113926
 10
43.8942120783
 20
50.0644098095
 10
43.9097865986
 20
50.0561086193
 10
43.9247914872
 20
50.0484479926
 10
43.9392405908
 20
50.0413718626
 10
43.9531401012
 20
50.0348333674
 10
43.9664476512
 20
50.0288116085
 10
43.9791076769
 20
50.0232921272
 10
43.9911343257
 20
50.0182318281
 10
44.0026455929
 20
50.0135503367
 10
44.0137784514
 20
50.0091689239
 10
44.0245551414
 20
50.0050598888
 10
44.0348113554
 20
50.0012636116
 10
44.0444288744
 20
49.9977980716
 10
44.0532312228
 20
49.9946993983
 10
44.0612355743
 20
49.9919355544
 10
44.068759604
 20
49.9893771601
 10
44.093595948
 20
49.9810478408
  0
LWPOLYLINE
  5
267
100
AcDbEntity
  8
0
100
AcDbPolyline
 62
7
  6
BYLAYER
 90
12
 70
0
 10
39.6481099042
 20
49.5490879359
 10
39.6545077231
 20
49.5251287068
 10
39.6602233298
 20
49.501376701
 10
39.6654783613
 20
49.4779546577
 10
39.6700503794
 20
49.4564808667
 10
39.6741387452
 20
49.4363853762
 10
39.6780869827
 20
49.4160429128
 10
39.6818021487
 20
49.3958243594
 10
39.6849038182
 20
49.3778364492
 10
39.6877462983
 20
49.360010159
 10
39.6902202332
 20
49.3426539018
 10
39.6909766003
 20
49.336684253
  0
LWPOLYLINE
  5
268
100
AcDbEntity
  8
0
100
AcDbPolyline
 62
7
  6
BYLAYER
 90
45
 70
0
 10
43.4277156939
 20
50.9626004902
 10
43.4269439413
 20
50.9532560877
 10
43.4261920694
 20
50.9433724799
 10
43.4254782836
 20
50.9329246526
 10
43.4248178032
 20
50.9218038138
 10
43.4242268774
 20
50.909799589
 10
43.423736072
 20
50.896793114
 10
43.4233861536
 20
50.8828171985
 10
43.4232193393
 20
50.8680100633
 10
43.4232724906
 20
50.8525634388
 10
43.423573154
 20
50.8366666141
 10
43.4241418315
 20
50.8204267578
 10
43.4249996261
 20
50.8038394479
 10
43.426169533
 20
50.7868912588
 10
43.4276766519
 20
50.7695675772
 10
43.4295485023
 20
50.7518527504
 10
43.4318153581
 20
50.7337302906
 10
43.4345105933
 20
50.7151831568
 10
43.4376710222
 20
50.6961942031
 10
43.4413451438
 20
50.6767062495
 10
43.4456165764
 20
50.6565301251
 10
43.4505918653
 20
50.635464447
 10
43.4563450144
 20
50.6135195658
 10
43.4628915121
 20
50.5909174915
 10
43.4702258092
 20
50.5678877793
 10
43.4783221639
 20
50.5446561851
 10
43.4871455789
 20
50.5214133678
 10
43.4966974644
 20
50.4982172323
 10
43.5069905129
 20
50.475092496
 10
43.5180389798
 20
50.4520616052
 10
43.5298590148
 20
50.4291453444
 10
43.5424688691
 20
50.4063635815
 10
43.5558890032
 20
50.3837360479
 10
43.5701407701
 20
50.3612824661
 10
43.5852421165
 20
50.3390200082
 10
43.6012108543
 20
50.3169667592
 10
43.6180661463
 20
50.2951429612
 10
43.6358278529
 20
50.2735720165
 10
43.6545155417
 20
50.2522815814
 10
43.6741470476
 20
50.2313047592
 10
43.6947364353
 20
50.2106813951
 10
43.7162911955
 20
50.1904594347
 10
43.738808514
 20
50.1706962427
 10
43.7622768393
 20
50.1514546715
 10
43.7867205339
 20
50.132768122
  0
LWPOLYLINE
  5
269
100
AcDbEntity
  8
0
100
AcDbPolyline
 62
7
  6
BYLAYER
 90
3
 70
0
 10
43.4305881257
 20
50.9942822425
 10
43.4292258345
 20
50.979497767
 10
43.4277156939
 20
50.9626004902
  0
LINE
  5
26A
100
AcDbEntity
  8
0
100
AcDbLine
 62
7
  6
BYLAYER
 10
55.8150190195
 20
46.419609915
 11
55.778461374
 21
46.4067508309
  0
LWPOLYLINE
  5
26B
100
AcDbEntity
  8
0
100
AcDbPolyline
 62
7
  6
BYLAYER
 90
12
 70
0
 10
55.8397614872
 20
46.4281235545
 10
55.7688771601
 20
46.403658531
 10
55.4636780735
 20
46.3057887388
 10
54.8167159236
 20
46.1156920834
 10
53.8009019862
 20
45.8524592224
 10
52.4261352266
 20
45.5576555326
 10
50.6575410611
 20
45.2847359444
 10
48.6119698625
 20
45.1411081958
 10
46.9584329122
 20
45.1962914567
 10
45.5900154032
 20
45.39932342
 10
44.4533737979
 20
45.7203543614
 10
43.5157246687
 20
46.1368589846
  0
LWPOLYLINE
  5
26C
100
AcDbEntity
  8
0
100
AcDbPolyline
 62
7
  6
BYLAYER
 90
4
 70
0
 10
52.2303688448
 20
43.0943773252
 10
52.2637649999
 20
43.1039634456
 10
52.2772816077
 20
43.1077339193
 10
52.2922669695
 20
43.111708844
  0
LWPOLYLINE
  5
26D
100
AcDbEntity
  8
0
100
AcDbPolyline
 62
7
  6
BYLAYER
 90
31
 70
0
 10
52.1801209106
 20
51.6362395034
 10
51.9878765925
 20
51.6736704341
 10
51.620366267
 20
51.7389459286
 10
51.063893727
 20
51.826642934
 10
50.3152140867
 20
51.9267224999
 10
49.4486641217
 20
52.0185052377
 10
48.5974566797
 20
52.0834225609
 10
47.8288978291
 20
52.1195278766
 10
47.1238854066
 20
52.1325301571
 10
46.4691470385
 20
52.1259387346
 10
45.8612116873
 20
52.102264228
 10
45.2952186709
 20
52.0635847045
 10
44.7656188898
 20
52.0114071698
 10
44.2685637848
 20
51.9469464054
 10
43.8014164449
 20
51.8712552391
 10
43.3615859217
 20
51.7851646574
 10
42.9471257162
 20
51.6894338768
 10
42.5562095624
 20
51.5846933827
 10
42.1876945813
 20
51.4716287985
 10
41.8402515011
 20
51.3508033738
 10
41.5112298535
 20
51.2221263461
 10
41.2009089337
 20
51.086742848
 10
40.9098512099
 20
50.9483587915
 10
40.6320979879
 20
50.808294101
 10
40.3638667776
 20
50.6682686517
 10
40.1050706896
 20
50.5318521003
 10
39.8538857511
 20
50.4020292915
 10
39.6002825253
 20
50.2789384842
 10
39.3516110757
 20
50.1746023182
 10
39.1468944463
 20
50.1133406192
 10
39.0609672727
 20
50.1026883674
  0
LINE
  5
26E
100
AcDbEntity
  8
0
100
AcDbLine
 62
7
  6
BYLAYER
 10
52.2312387615
 20
51.6253943237
 11
52.2178241592
 21
51.6280301886
  0
LINE
  5
26F
100
AcDbEntity
  8
0
100
AcDbLine
 62
7
  6
BYLAYER
 10
52.2312387615
 20
51.6253943237
 11
52.1710592791
 21
51.6379833281
  0
LWPOLYLINE
  5
270
100
AcDbEntity
  8
0
100
AcDbPolyline
 62
7
  6
BYLAYER
 90
4
 70
0
 10
55.9528908498
 20
48.2673504294
 10
55.6048271473
 20
48.4034946649
 10
55.3432317444
 20
48.6674845567
 10
55.2109385133
 20
49.0125948849
  0
LWPOLYLINE
  5
271
100
AcDbEntity
  8
0
100
AcDbPolyline
 62
7
  6
BYLAYER
 90
10
 70
0
 10
44.7730613094
 20
51.5047747157
 10
44.6304613864
 20
51.588162968
 10
44.468638715
 20
51.6433709579
 10
44.3008656263
 20
51.6644264371
 10
44.1416508285
 20
51.6531120827
 10
44.0045380106
 20
51.6179013721
 10
43.8995127836
 20
51.5732175059
 10
43.8401444949
 20
51.5404731088
 10
43.7968300273
 20
51.5140161852
 10
43.3695704737
 20
51.2433769738
  0
LWPOLYLINE
  5
272
100
AcDbEntity
  8
0
100
AcDbPolyline
 62
7
  6
BYLAYER
 90
6
 70
0
 10
43.7385879569
 20
50.170897076
 10
43.7563832843
 20
50.1561647907
 10
43.7741564781
 20
50.1422070506
 10
43.7918533167
 20
50.1290092006
 10
43.809419362
 20
50.1165559166
 10
43.8267998192
 20
50.1048312388
  0
LWPOLYLINE
  5
273
100
AcDbEntity
  8
0
100
AcDbPolyline
 62
7
  6
BYLAYER
 90
15
 70
0
 10
43.7941103977
 20
50.1455807987
 10
43.6689513056
 20
50.2553395537
 10
43.5704457095
 20
50.3835107389
 10
43.5002039282
 20
50.5238403061
 10
43.4581368915
 20
50.6702329206
 10
43.4434157862
 20
50.8173061921
 10
43.4539945077
 20
50.9602676887
 10
43.4873811455
 20
51.0950472972
 10
43.5405287421
 20
51.2185560537
 10
43.6101164227
 20
51.3285217661
 10
43.6880601453
 20
51.418407516
 10
43.7444462447
 20
51.469695464
 10
43.7617397968
 20
51.4834759974
 10
43.7584937679
 20
51.4810764288
 10
43.7443517375
 20
51.4707549457
  0
LWPOLYLINE
  5
274
100
AcDbEntity
  8
0
100
AcDbPolyline
 62
7
  6
BYLAYER
 90
4
 70
0
 10
43.8659830685
 20
50.171263657
 10
43.8498840729
 20
50.189966092
 10
43.8342613786
 20
50.2086673014
 10
43.8190899853
 20
50.2273319072
  0
LWPOLYLINE
  5
275
100
AcDbEntity
  8
0
100
AcDbPolyline
 62
7
  6
BYLAYER
 90
3
 70
0
 10
43.8523357871
 20
50.1870801257
 10
43.8421644466
 20
50.1991403467
 10
43.831942585
 20
50.2114901436
  0
LWPOLYLINE
  5
276
100
AcDbEntity
  8
0
100
AcDbPolyline
 62
7
  6
BYLAYER
 90
3
 70
0
 10
43.821671823
 20
50.2241276158
 10
43.8043424313
 20
50.2459374733
 10
43.789990191
 20
50.2644718596
  0
LINE
  5
277
100
AcDbEntity
  8
0
100
AcDbLine
 62
7
  6
BYLAYER
 10
43.8113515812
 20
50.2370539007
 11
43.8009812303
 21
50.2502707029
  0
LWPOLYLINE
  5
278
100
AcDbEntity
  8
0
100
AcDbPolyline
 62
7
  6
BYLAYER
 90
24
 70
0
 10
43.516631649
 20
44.3341370654
 10
43.6092276263
 20
44.5053180587
 10
43.7292653857
 20
44.6459264475
 10
43.8640003397
 20
44.7516036931
 10
43.997042088
 20
44.821865093
 10
44.0898505874
 20
44.854921622
 10
44.1095365482
 20
44.8601833494
 10
44.0850481423
 20
44.8552944541
 10
44.0284686852
 20
44.8459673126
 10
43.9423963811
 20
44.8349977434
 10
43.8269910542
 20
44.8251787609
 10
43.6782515999
 20
44.8202322458
 10
43.4885159294
 20
44.8271041322
 10
43.2436390281
 20
44.8620983591
 10
42.9387555009
 20
44.9471292724
 10
42.6118538576
 20
45.0737509872
 10
42.2706676058
 20
45.2326068619
 10
41.9106516755
 20
45.4203633174
 10
41.5223376317
 20
45.6371803187
 10
41.0901074929
 20
45.8860882122
 10
40.589170264
 20
46.1709492614
 10
39.9669424743
 20
46.4946829185
 10
39.2033531121
 20
46.795155203
 10
38.4355707494
 20
46.9150849059
  0
LINE
  5
279
100
AcDbEntity
  8
0
100
AcDbLine
 62
7
  6
BYLAYER
 10
55.8390235967
 20
46.4277658883
 11
55.8397614872
 21
46.4281235545
  0
LWPOLYLINE
  5
27A
100
AcDbEntity
  8
0
100
AcDbPolyline
 62
7
  6
BYLAYER
 90
6
 70
0
 10
52.2922669695
 20
43.111708844
 10
52.4439323826
 20
43.1694483855
 10
52.5875009184
 20
43.2571335265
 10
52.7199413749
 20
43.3783650328
 10
52.8302609136
 20
43.531576559
 10
52.9090847299
 20
43.7133175535
  0
LINE
  5
27B
100
AcDbEntity
  8
0
100
AcDbLine
 62
7
  6
BYLAYER
 10
56.3803991666
 20
44.710501295
 11
56.4068613758
 21
44.7198122199
  0
LINE
  5
27C
100
AcDbEntity
  8
0
100
AcDbLine
 62
7
  6
BYLAYER
 10
56.4171753581
 20
44.7233710505
 11
56.428920241
 21
44.7272907047
  0
LINE
  5
27D
100
AcDbEntity
  8
0
100
AcDbLine
 62
7
  6
BYLAYER
 10
43.7905601343
 20
50.2637802988
 11
43.77600463
 21
50.2829310565
  0
LINE
  5
27E
100
AcDbEntity
  8
0
100
AcDbLine
 62
7
  6
BYLAYER
 10
43.78008775
 20
50.2775854671
 11
43.7623576712
 21
50.3013174082
  0
LWPOLYLINE
  5
27F
100
AcDbEntity
  8
0
100
AcDbPolyline
 62
7
  6
BYLAYER
 90
3
 70
0
 10
43.7695637389
 20
50.2916893985
 10
43.7490222538
 20
50.3196381764
 10
43.7359726511
 20
50.3379043791
  0
LINE
  5
280
100
AcDbEntity
  8
0
100
AcDbLine
 62
7
  6
BYLAYER
 10
43.7589881007
 20
50.3060955726
 11
43.7483613159
 21
50.3208076166
  0
LINE
  5
281
100
AcDbEntity
  8
0
100
AcDbLine
 62
7
  6
BYLAYER
 10
43.7376845097
 20
50.3358291309
 11
43.7231847019
 21
50.3561298416
  0
LINE
  5
282
100
AcDbEntity
  8
0
100
AcDbLine
 62
7
  6
BYLAYER
 10
43.7269596364
 20
50.3511634782
 11
43.7106359942
 21
50.3743304037
  0
LINE
  5
283
100
AcDbEntity
  8
0
100
AcDbLine
 62
7
  6
BYLAYER
 10
43.7161896913
 20
50.3668135269
 11
43.6983060302
 21
50.3925232326
  0
LINE
  5
284
100
AcDbEntity
  8
0
100
AcDbLine
 62
7
  6
BYLAYER
 10
43.7053797121
 20
50.3827802096
 11
43.6861774994
 21
50.4107245334
  0
LINE
  5
285
100
AcDbEntity
  8
0
100
AcDbLine
 62
7
  6
BYLAYER
 10
43.6945370599
 20
50.3990620432
 11
43.6742511493
 21
50.4289262174
  0
LINE
  5
286
100
AcDbEntity
  8
0
100
AcDbLine
 62
7
  6
BYLAYER
 10
43.6836699025
 20
50.4156573878
 11
43.6625403593
 21
50.4471020736
  0
LINE
  5
287
100
AcDbEntity
  8
0
100
AcDbLine
 62
7
  6
BYLAYER
 10
43.6727871806
 20
50.432564635
 11
43.6510579557
 21
50.4652268434
  0
LWPOLYLINE
  5
288
100
AcDbEntity
  8
0
100
AcDbPolyline
 62
7
  6
BYLAYER
 90
49
 70
0
 10
43.6510579557
 20
50.4652268434
 10
43.6398151747
 20
50.4832762489
 10
43.6288221774
 20
50.5012271914
 10
43.6180886332
 20
50.5190577319
 10
43.6076238521
 20
50.5367468301
 10
43.597436888
 20
50.5542740978
 10
43.5875366123
 20
50.5716195738
 10
43.5779317597
 20
50.5887635209
 10
43.5686309441
 20
50.6056862522
 10
43.5596426421
 20
50.6223679887
 10
43.5509751432
 20
50.6387887558
 10
43.5426367028
 20
50.6549278612
 10
43.5346704435
 20
50.6706937188
 10
43.5271912934
 20
50.6858394532
 10
43.5203110172
 20
50.7001010451
 10
43.5140670327
 20
50.7133484877
 10
43.5083584237
 20
50.7257436279
 10
43.5030831471
 20
50.7374667311
 10
43.4981535765
 20
50.7486818018
 10
43.4934891143
 20
50.7595512762
 10
43.489022711
 20
50.7702208204
 10
43.4847344748
 20
50.7807340709
 10
43.4806203621
 20
50.7910989267
 10
43.4766765361
 20
50.8013236231
 10
43.4728996592
 20
50.8114160149
 10
43.469286943
 20
50.8213834085
 10
43.4658361794
 20
50.8312324135
 10
43.4625457537
 20
50.8409688144
 10
43.4594146408
 20
50.8505974585
 10
43.4564423844
 20
50.8601221618
 10
43.4536290602
 20
50.8695456309
 10
43.4509752225
 20
50.8788694017
 10
43.4484818355
 20
50.8880937942
 10
43.4461501902
 20
50.8972178836
 10
43.4439818063
 20
50.9062394873
 10
43.4419783224
 20
50.9151551672
 10
43.4401428689
 20
50.9239528374
 10
43.4384857636
 20
50.9325800454
 10
43.4370032493
 20
50.9410534056
 10
43.4356966504
 20
50.9493643945
 10
43.4345703045
 20
50.9574778344
 10
43.4336291008
 20
50.9653310554
 10
43.4328749097
 20
50.9728420028
 10
43.4322973004
 20
50.9800106268
 10
43.4318855741
 20
50.9868421377
 10
43.4316344028
 20
50.9931843504
 10
43.431525413
 20
50.9993195808
 10
43.4312012698
 20
51.0013916645
 10
43.4305881257
 20
50.9942822425
  0
LINE
  5
289
100
AcDbEntity
  8
0
100
AcDbLine
 62
7
  6
BYLAYER
 10
46.7294306251
 20
46.0586214262
 11
46.7294306237
 21
48.2586309509
  0
LWPOLYLINE
  5
28A
100
AcDbEntity
  8
0
100
AcDbPolyline
 62
7
  6
BYLAYER
 90
14
 70
0
 10
45.1833802698
 20
43.6545017491
 10
45.2429553892
 20
43.8822230756
 10
45.2427773608
 20
44.1080389927
 10
45.1897494399
 20
44.318246066
 10
45.0928405702
 20
44.502517798
 10
44.9623006822
 20
44.6541178536
 10
44.8081048432
 20
44.7691662768
 10
44.639741415
 20
44.8466524328
 10
44.4681474591
 20
44.8868353944
 10
44.3127681317
 20
44.894133915
 10
44.2057413868
 20
44.8839444506
 10
44.1400185388
 20
44.8725077545
 10
44.0670708073
 20
44.857025625
 10
43.9606698478
 20
44.8315795078
  0
LINE
  5
28B
100
AcDbEntity
  8
0
100
AcDbLine
 62
7
  6
BYLAYER
 10
51.8056075164
 20
44.8445549034
 11
51.8059988274
 21
44.8448266726
  0
LWPOLYLINE
  5
28C
100
AcDbEntity
  8
0
100
AcDbPolyline
 62
7
  6
BYLAYER
 90
5
 70
0
 10
56.428920241
 20
44.7272907047
 10
56.6063071406
 20
44.8114310509
 10
56.7712441433
 20
44.9420564641
 10
56.9087561114
 20
45.1196583252
 10
57.0018975788
 20
45.3393888657
  0
LINE
  5
28D
100
AcDbEntity
  8
0
100
AcDbLine
 62
7
  6
BYLAYER
 10
49.7294306244
 20
46.0586214262
 11
49.7294306244
 21
48.2586309509
  0
LWPOLYLINE
  5
28E
100
AcDbEntity
  8
0
100
AcDbPolyline
 62
7
  6
BYLAYER
 90
5
 70
0
 10
51.1557126262
 20
50.6127400276
 10
51.196928013
 20
51.043042089
 10
51.4466135925
 20
51.4159511081
 10
51.8336423826
 20
51.6192185162
 10
52.2312387615
 20
51.6253943237
  0
LWPOLYLINE
  5
28F
100
AcDbEntity
  8
0
100
AcDbPolyline
 62
7
  6
BYLAYER
 90
12
 70
0
 10
52.8573726592
 20
50.6781789194
 10
52.8475642555
 20
50.6238843459
 10
52.8245399545
 20
50.54939891
 10
52.7653521909
 20
50.4077030268
 10
52.6496181341
 20
50.2149316317
 10
52.4713881023
 20
50.0380710465
 10
52.2436841556
 20
49.9233305253
 10
51.9633180595
 20
49.8939069124
 10
51.6652599637
 20
49.9876763768
 10
51.4373981958
 20
50.1760640221
 10
51.2748810695
 20
50.3996864128
 10
51.1518449267
 20
50.6121852508
  0
LWPOLYLINE
  5
290
100
AcDbEntity
  8
0
100
AcDbPolyline
 62
7
  6
BYLAYER
 90
6
 70
0
 10
51.1886228399
 20
44.2428942996
 10
51.267461334
 20
44.4246607986
 10
51.3778077154
 20
44.5778916965
 10
51.5103044692
 20
44.6991468475
 10
51.653828737
 20
44.7867770286
 10
51.8056075164
 20
44.8445549034
  0
LWPOLYLINE
  5
291
100
AcDbEntity
  8
0
100
AcDbPolyline
 62
7
  6
BYLAYER
 90
6
 70
0
 10
52.9090847575
 20
43.7133176431
 10
52.9415292298
 20
44.0932040475
 10
52.812687402
 20
44.454154674
 10
52.5447146248
 20
44.7291746823
 10
52.1869846052
 20
44.8673979499
 10
51.8056075164
 20
44.8445549034
  0
LWPOLYLINE
  5
292
100
AcDbEntity
  8
0
100
AcDbPolyline
 62
7
  6
BYLAYER
 90
5
 70
0
 10
55.2660371102
 20
45.8156689969
 10
55.3591747268
 20
46.0353885392
 10
55.4966847077
 20
46.212988325
 10
55.6616309531
 20
46.3436169532
 10
55.8390235967
 20
46.4277658883
  0
LWPOLYLINE
  5
293
100
AcDbEntity
  8
0
100
AcDbPolyline
 62
7
  6
BYLAYER
 90
4
 70
0
 10
52.9371225353
 20
50.870836226
 10
52.812449016
 20
51.2164517317
 10
52.5627007575
 20
51.481577572
 10
52.2312387615
 20
51.6253943237
  0
LWPOLYLINE
  5
294
100
AcDbEntity
  8
0
100
AcDbPolyline
 62
7
  6
BYLAYER
 90
5
 70
0
 10
55.2109385137
 20
49.0125948829
 10
55.2431473474
 20
49.431953604
 10
55.4642850508
 20
49.79275907
 10
55.8260525109
 20
50.0126940877
 10
56.2462792631
 20
50.0432513327
  0
LWPOLYLINE
  5
295
100
AcDbEntity
  8
0
100
AcDbPolyline
 62
7
  6
BYLAYER
 90
4
 70
0
 10
56.988173571
 20
49.2980284261
 10
56.8558825255
 20
49.6431353552
 10
56.5942896996
 20
49.9071255714
 10
56.2462792631
 20
50.0432513327
  0
LINE
  5
296
100
AcDbEntity
  8
0
100
AcDbLine
 62
7
  6
BYLAYER
 10
57.6294306244
 20
52.8086261886
 11
57.6294306244
 21
41.9086261886
  0
LWPOLYLINE
  5
297
100
AcDbEntity
  8
0
100
AcDbPolyline
 62
7
  6
BYLAYER
 90
6
 70
0
 10
57.001894809
 20
45.3393787699
 10
57.0217976025
 20
45.724945275
 10
56.8774390303
 20
46.0846469426
 10
56.5944027425
 20
46.350755194
 10
56.2252073086
 20
46.4728220658
 10
55.8390235967
 20
46.4277658883
  0
LINE
  5
298
100
AcDbEntity
  8
0
100
AcDbLine
 62
7
  6
BYLAYER
 10
59.7794306244
 20
40.4586261886
 11
59.7794306244
 21
54.2586261886
  0
LINE
  5
299
100
AcDbEntity
  8
0
100
AcDbLine
 62
7
  6
BYLAYER
 10
60.7794306244
 20
40.4586261886
 11
60.7794306244
 21
54.2586261886
  0
ARC
  5
29A
100
AcDbEntity
  8
0
100
AcDbCircle
 62
7
  6
BYLAYER
 10
39.3762614336
 20
73.4139275621
 40
24.9587822557
100
AcDbArc
 50
270.0004334122
 51
270.1629831023
  0
ARC
  5
29B
100
AcDbEntity
  8
0
100
AcDbCircle
 62
7
  6
BYLAYER
 10
38.897077053
 20
37.4756038677
 40
10.8116266583
100
AcDbArc
 50
89.614768835
 51
89.9958805019
  0
ARC
  5
29C
100
AcDbEntity
  8
0
100
AcDbCircle
 62
7
  6
BYLAYER
 10
39.7392760581
 20
40.8414365225
 40
5.5955022647
100
AcDbArc
 50
89.2512330202
 51
90.0010154331
  0
ARC
  5
29D
100
AcDbEntity
  8
0
100
AcDbCircle
 62
7
  6
BYLAYER
 10
38.6185493329
 20
43.9955756168
 40
2.8719223694
100
AcDbArc
 50
88.5544623046
 51
89.9957731707
  0
ARC
  5
29E
100
AcDbEntity
  8
0
100
AcDbCircle
 62
7
  6
BYLAYER
 10
38.9681358585
 20
48.3272295931
 40
1.9528801861
100
AcDbArc
 50
269.9798238353
 51
272.0439594201
  0
ARC
  5
29F
100
AcDbEntity
  8
0
100
AcDbCircle
 62
7
  6
BYLAYER
 10
40.1604526819
 20
47.3590568767
 40
1.5516707597
100
AcDbArc
 50
180.6344006256
 51
181.6757797804
  0
ARC
  5
2A0
100
AcDbEntity
  8
0
100
AcDbCircle
 62
7
  6
BYLAYER
 10
38.6319949745
 20
47.3573023883
 40
1.5362412204
100
AcDbArc
 50
1.6891840836
 51
3.1443809717
  0
ARC
  5
2A1
100
AcDbEntity
  8
0
100
AcDbCircle
 62
7
  6
BYLAYER
 10
38.8395317496
 20
47.40585861
 40
1.3225616867
100
AcDbArc
 50
19.4740108659
 51
21.0990917617
  0
ARC
  5
2A2
100
AcDbEntity
  8
0
100
AcDbCircle
 62
7
  6
BYLAYER
 10
39.9332245763
 20
47.3065954494
 40
1.3178523712
100
AcDbArc
 50
199.5047197013
 51
201.1602829042
  0
ARC
  5
2A3
100
AcDbEntity
  8
0
100
AcDbCircle
 62
7
  6
BYLAYER
 10
39.9003197571
 20
47.4230340343
 40
1.2826951277
100
AcDbArc
 50
157.619823879
 51
158.8025220682
  0
ARC
  5
2A4
100
AcDbEntity
  8
0
100
AcDbCircle
 62
7
  6
BYLAYER
 10
38.9201758449
 20
47.2783115478
 40
1.2357624386
100
AcDbArc
 50
334.7480712574
 51
336.4257699697
  0
ARC
  5
2A5
100
AcDbEntity
  8
0
100
AcDbCircle
 62
7
  6
BYLAYER
 10
39.6630008689
 20
49.5202031084
 40
1.1772992442
100
AcDbArc
 50
269.9501141948
 51
273.3640039518
  0
ARC
  5
2A6
100
AcDbEntity
  8
0
100
AcDbCircle
 62
7
  6
BYLAYER
 10
38.5365732183
 20
48.3736078246
 40
1.03426226
100
AcDbArc
 50
270.0250567345
 51
274.0087396824
  0
ARC
  5
2A7
100
AcDbEntity
  8
0
100
AcDbCircle
 62
7
  6
BYLAYER
 10
40.0103725378
 20
46.8785652658
 40
0.9711882301
100
AcDbArc
 50
85.5081630329
 51
89.9828760285
  0
ARC
  5
2A8
100
AcDbEntity
  8
0
100
AcDbCircle
 62
7
  6
BYLAYER
 10
38.6338055092
 20
46.9925732027
 40
0.8970448369
100
AcDbArc
 50
85.4855662462
 51
90.0169443059
  0
ARC
  5
2A9
100
AcDbEntity
  8
0
100
AcDbCircle
 62
7
  6
BYLAYER
 10
39.2687830349
 20
47.0295305388
 40
0.8045179027
100
AcDbArc
 50
310.2315492705
 51
312.5087809311
  0
ARC
  5
2AA
100
AcDbEntity
  8
0
100
AcDbCircle
 62
7
  6
BYLAYER
 10
39.4986341693
 20
47.6979155403
 40
0.7916451279
100
AcDbArc
 50
129.5969515107
 51
131.9173660775
  0
ARC
  5
2AB
100
AcDbEntity
  8
0
100
AcDbCircle
 62
7
  6
BYLAYER
 10
39.4646849449
 20
46.9762863867
 40
0.7369365601
100
AcDbArc
 50
232.1522696178
 51
234.5996355306
  0
ARC
  5
2AC
100
AcDbEntity
  8
0
100
AcDbCircle
 62
7
  6
BYLAYER
 10
39.3126995744
 20
47.7432001246
 40
0.7334609926
100
AcDbArc
 50
52.7144170459
 51
55.1249738209
  0
ARC
  5
2AD
100
AcDbEntity
  8
0
100
AcDbCircle
 62
7
  6
BYLAYER
 10
39.8634524366
 20
45.7477064797
 40
0.7169583961
100
AcDbArc
 50
134.491072571
 51
139.9834660786
  0
ARC
  5
2AE
100
AcDbEntity
  8
0
100
AcDbCircle
 62
7
  6
BYLAYER
 10
39.3872662501
 20
47.908809229
 40
0.5497204546
100
AcDbArc
 50
83.7346614931
 51
86.7007062955
  0
ARC
  5
2AF
100
AcDbEntity
  8
0
100
AcDbCircle
 62
7
  6
BYLAYER
 10
39.3871910518
 20
46.8068084479
 40
0.5482782972
100
AcDbArc
 50
264.3035917158
 51
267.262936592
  0
ARC
  5
2B0
100
AcDbEntity
  8
0
100
AcDbCircle
 62
7
  6
BYLAYER
 10
38.9909993325
 20
49.6602525378
 40
0.4674966379
100
AcDbArc
 50
78.438050047
 51
89.9660491189
  0
ARC
  5
2B1
100
AcDbEntity
  8
0
100
AcDbCircle
 62
7
  6
BYLAYER
 10
39.6535005812
 20
45.0616677377
 40
0.4667214167
100
AcDbArc
 50
259.3684582956
 51
269.9735956804
  0
SPLINE
  5
2B2
100
AcDbEntity
  8
0
100
AcDbSpline
 62
7
  6
BYLAYER
 70
0
 71
3
 72
23
 73
19
 74
0
 42
0.0000001
 43
0.0000001
 44
0.0000000001
 40
0.0
 40
0.0
 40
0.0
 40
0.0
 40
0.0725417103
 40
0.1437823549
 40
0.2123614819
 40
0.2769531289
 40
0.3378776999
 40
0.3948311113
 40
0.4483641929
 40
0.4998845019
 40
0.5513356585
 40
0.6046586842
 40
0.6613364448
 40
0.7220819669
 40
0.7867066896
 40
0.8555054638
 40
0.9270941379
 40
1.0
 40
1.0
 40
1.0
 40
1.0
 10
41.931007089
 20
47.3586261886
 30
0.0
 10
41.931007089
 20
47.5999174344
 30
0.0
 10
41.8979799592
 20
48.0788563721
 30
0.0
 10
41.7506389956
 20
48.7720694839
 30
0.0
 10
41.5113546203
 20
49.4114418342
 30
0.0
 10
41.1886683154
 20
49.9742523032
 30
0.0
 10
40.7933813858
 20
50.4399712213
 30
0.0
 10
40.3374496727
 20
50.790450094
 30
0.0
 10
39.8381622788
 20
51.0086209217
 30
0.0
 10
39.3161099374
 20
51.0829460471
 30
0.0
 10
38.7946672544
 20
51.0094702084
 30
0.0
 10
38.2966907346
 20
50.7930512129
 30
0.0
 10
37.841625916
 20
50.4451487203
 30
0.0
 10
37.4459251438
 20
49.9816326282
 30
0.0
 10
37.1216922896
 20
49.4194022549
 30
0.0
 10
36.8805146607
 20
48.778568226
 30
0.0
 10
36.7317737291
 20
48.0824469147
 30
0.0
 10
36.6984169083
 20
47.601128691
 30
0.0
 10
36.6984169083
 20
47.3586261886
 30
0.0
  0
SPLINE
  5
2B3
100
AcDbEntity
  8
0
100
AcDbSpline
 62
7
  6
BYLAYER
 70
0
 71
3
 72
23
 73
19
 74
0
 42
0.0000001
 43
0.0000001
 44
0.0000000001
 40
0.0
 40
0.0
 40
0.0
 40
0.0
 40
0.0725417103
 40
0.1437823549
 40
0.2123614819
 40
0.2769531289
 40
0.3378776999
 40
0.3948311113
 40
0.4483641929
 40
0.4998845019
 40
0.5513356585
 40
0.6046586842
 40
0.6613364448
 40
0.7220819669
 40
0.7867066896
 40
0.8555054638
 40
0.9270941379
 40
1.0
 40
1.0
 40
1.0
 40
1.0
 10
36.6984169083
 20
47.3586261886
 30
0.0
 10
36.6984169083
 20
47.1173349427
 30
0.0
 10
36.7314440382
 20
46.6383960051
 30
0.0
 10
36.8787850017
 20
45.9451828932
 30
0.0
 10
37.118069377
 20
45.3058105429
 30
0.0
 10
37.4407556819
 20
44.7430000739
 30
0.0
 10
37.8360426115
 20
44.2772811558
 30
0.0
 10
38.2919743246
 20
43.9268022831
 30
0.0
 10
38.7912617185
 20
43.7086314554
 30
0.0
 10
39.3133140599
 20
43.6343063301
 30
0.0
 10
39.8347567429
 20
43.7077821687
 30
0.0
 10
40.3327332627
 20
43.9242011642
 30
0.0
 10
40.7877980813
 20
44.2721036568
 30
0.0
 10
41.1834988535
 20
44.7356197489
 30
0.0
 10
41.5077317077
 20
45.2978501222
 30
0.0
 10
41.7489093366
 20
45.9386841511
 30
0.0
 10
41.8976502682
 20
46.6348054624
 30
0.0
 10
41.931007089
 20
47.1161236861
 30
0.0
 10
41.931007089
 20
47.3586261886
 30
0.0
  0
SPLINE
  5
2B4
100
AcDbEntity
  8
0
100
AcDbSpline
 62
7
  6
BYLAYER
 70
0
 71
3
 72
11
 73
7
 74
0
 42
0.0000001
 43
0.0000001
 44
0.0000000001
 40
0.0
 40
0.0
 40
0.0
 40
0.0
 40
0.2783662878
 40
0.5352886908
 40
0.7732945588
 40
1.0
 40
1.0
 40
1.0
 40
1.0
 10
40.0907118978
 20
47.4331427824
 30
0.0
 10
40.1198792371
 20
47.4884001016
 30
0.0
 10
40.1864018661
 20
47.5897234971
 30
0.0
 10
40.3136723763
 20
47.7103780777
 30
0.0
 10
40.4589489545
 20
47.7870338653
 30
0.0
 10
40.5639666175
 20
47.8048109551
 30
0.0
 10
40.6148535241
 20
47.8048109551
 30
0.0
  0
SPLINE
  5
2B5
100
AcDbEntity
  8
0
100
AcDbSpline
 62
7
  6
BYLAYER
 70
0
 71
3
 72
12
 73
8
 74
0
 42
0.0000001
 43
0.0000001
 44
0.0000000001
 40
0.0
 40
0.0
 40
0.0
 40
0.0
 40
0.1326161015
 40
0.2666507966
 40
0.6304932048
 40
0.8147893225
 40
1.0
 40
1.0
 40
1.0
 40
1.0
 10
40.0106627967
 20
47.8497541518
 30
0.0
 10
40.0169308256
 20
47.8320092659
 30
0.0
 10
40.028777109
 20
47.7960724398
 30
0.0
 10
40.0532408389
 20
47.7100109562
 30
0.0
 10
40.072649851
 20
47.6149679313
 30
0.0
 10
40.0855841927
 20
47.5116964424
 30
0.0
 10
40.0894398312
 20
47.459396723
 30
0.0
 10
40.0907118978
 20
47.4331427824
 30
0.0
  0
SPLINE
  5
2B6
100
AcDbEntity
  8
0
100
AcDbSpline
 62
7
  6
BYLAYER
 70
0
 71
3
 72
10
 73
6
 74
0
 42
0.0000001
 43
0.0000001
 44
0.0000000001
 40
0.0
 40
0.0
 40
0.0
 40
0.0
 40
0.3260690103
 40
0.6577625133
 40
1.0
 40
1.0
 40
1.0
 40
1.0
 10
40.2647119987
 20
47.7771290728
 30
0.0
 10
40.2356795406
 20
47.7771290728
 30
0.0
 10
40.1769657745
 20
47.7827036966
 30
0.0
 10
40.0909840773
 20
47.8075003479
 30
0.0
 10
40.0368373338
 20
47.8341515804
 30
0.0
 10
40.0106627967
 20
47.8497541518
 30
0.0
  0
SPLINE
  5
2B7
100
AcDbEntity
  8
0
100
AcDbSpline
 62
7
  6
BYLAYER
 70
0
 71
3
 72
14
 73
10
 74
0
 42
0.0000001
 43
0.0000001
 44
0.0000000001
 40
0.0
 40
0.0
 40
0.0
 40
0.0
 40
0.1598408615
 40
0.3210720032
 40
0.4779000051
 40
0.6254054664
 40
0.7606536424
 40
0.883962099
 40
1.0
 40
1.0
 40
1.0
 40
1.0
 10
40.8674481702
 20
49.0613549281
 30
0.0
 10
40.8919265884
 20
48.979211464
 30
0.0
 10
40.9230510131
 20
48.8083921171
 30
0.0
 10
40.9184817452
 20
48.5506184847
 30
0.0
 10
40.8647192041
 20
48.3050151952
 30
0.0
 10
40.7656208561
 20
48.0888721379
 30
0.0
 10
40.6270025296
 20
47.9173670619
 30
0.0
 10
40.4564598895
 20
47.8042945966
 30
0.0
 10
40.3269362152
 20
47.7771290728
 30
0.0
 10
40.2647119987
 20
47.7771290728
 30
0.0
  0
SPLINE
  5
2B8
100
AcDbEntity
  8
0
100
AcDbSpline
 62
7
  6
BYLAYER
 70
0
 71
3
 72
12
 73
8
 74
0
 42
0.0000001
 43
0.0000001
 44
0.0000000001
 40
0.0
 40
0.0
 40
0.0
 40
0.0
 40
0.1747731766
 40
0.3578791112
 40
0.5555258707
 40
0.7699676015
 40
1.0
 40
1.0
 40
1.0
 40
1.0
 10
40.2647119987
 20
49.6271290728
 30
0.0
 10
40.3161411748
 20
49.6271290728
 30
0.0
 10
40.4221801701
 20
49.6089745737
 30
0.0
 10
40.5684615853
 20
49.5309653018
 30
0.0
 10
40.6962413092
 20
49.4084385286
 30
0.0
 10
40.7997378594
 20
49.248708292
 30
0.0
 10
40.848116928
 20
49.1262257537
 30
0.0
 10
40.8674481702
 20
49.0613549281
 30
0.0
  0
SPLINE
  5
2B9
100
AcDbEntity
  8
0
100
AcDbSpline
 62
7
  6
BYLAYER
 70
0
 71
3
 72
14
 73
10
 74
0
 42
0.0000001
 43
0.0000001
 44
0.0000000001
 40
0.0
 40
0.0
 40
0.0
 40
0.0
 40
0.1598408615
 40
0.3210720032
 40
0.4779000051
 40
0.6254054664
 40
0.7606536424
 40
0.883962099
 40
1.0
 40
1.0
 40
1.0
 40
1.0
 10
39.6619758271
 20
48.3429032175
 30
0.0
 10
39.6374974089
 20
48.4250466816
 30
0.0
 10
39.6063729842
 20
48.5958660286
 30
0.0
 10
39.6109422521
 20
48.8536396609
 30
0.0
 10
39.6647047932
 20
49.0992429504
 30
0.0
 10
39.7638031412
 20
49.3153860077
 30
0.0
 10
39.9024214677
 20
49.4868910838
 30
0.0
 10
40.0729641078
 20
49.5999635491
 30
0.0
 10
40.2024877822
 20
49.6271290728
 30
0.0
 10
40.2647119987
 20
49.6271290728
 30
0.0
  0
SPLINE
  5
2BA
100
AcDbEntity
  8
0
100
AcDbSpline
 62
7
  6
BYLAYER
 70
0
 71
3
 72
13
 73
9
 74
0
 42
0.0000001
 43
0.0000001
 44
0.0000000001
 40
0.0
 40
0.0
 40
0.0
 40
0.0
 40
0.2216091638
 40
0.44634619
 40
0.6755990709
 40
0.9105913894
 40
0.9551742966
 40
1.0
 40
1.0
 40
1.0
 40
1.0
 10
39.3764502335
 20
48.4551453052
 30
0.0
 10
39.3992219835
 20
48.452579023
 30
0.0
 10
39.4447227268
 20
48.4445180669
 30
0.0
 10
39.511653373
 20
48.4241645077
 30
0.0
 10
39.5770241625
 20
48.395650841
 30
0.0
 10
39.6226685774
 20
48.3693485274
 30
0.0
 10
39.650597456
 20
48.3508292433
 30
0.0
 10
39.6581930251
 20
48.3455745784
 30
0.0
 10
39.6619758271
 20
48.3429032175
 30
0.0
  0
SPLINE
  5
2BB
100
AcDbEntity
  8
0
100
AcDbSpline
 62
7
  6
BYLAYER
 70
0
 71
3
 72
16
 73
12
 74
0
 42
0.0000001
 43
0.0000001
 44
0.0000000001
 40
0.0
 40
0.0
 40
0.0
 40
0.0
 40
0.0908865531
 40
0.1892064468
 40
0.2967230393
 40
0.4125635759
 40
0.5340163369
 40
0.6573067307
 40
0.7783497422
 40
0.8934311308
 40
1.0
 40
1.0
 40
1.0
 40
1.0
 10
39.0846983001
 20
50.1182623107
 30
0.0
 10
39.1430026453
 20
50.106363217
 30
0.0
 10
39.2603071274
 20
50.0579927699
 30
0.0
 10
39.408736027
 20
49.9286031843
 30
0.0
 10
39.5269095045
 20
49.7517614777
 30
0.0
 10
39.6083924914
 20
49.5394967189
 30
0.0
 10
39.6487312712
 20
49.3054577259
 30
0.0
 10
39.6455039819
 20
49.0646516709
 30
0.0
 10
39.598758877
 20
48.8325256164
 30
0.0
 10
39.5112774589
 20
48.6242417629
 30
0.0
 10
39.4250430144
 20
48.5052165916
 30
0.0
 10
39.3764502335
 20
48.4551453052
 30
0.0
  0
SPLINE
  5
2BC
100
AcDbEntity
  8
0
100
AcDbSpline
 62
7
  6
BYLAYER
 70
0
 71
3
 72
18
 73
14
 74
0
 42
0.0000001
 43
0.0000001
 44
0.0000000001
 40
0.0
 40
0.0
 40
0.0
 40
0.0
 40
0.077247696
 40
0.161146615
 40
0.2531429873
 40
0.3522419989
 40
0.4557752349
 40
0.560181801
 40
0.6617437745
 40
0.7572809646
 40
0.8449147416
 40
0.92486101
 40
1.0
 40
1.0
 40
1.0
 40
1.0
 10
38.897854396
 20
48.287230167
 30
0.0
 10
38.8373684418
 20
48.2995744963
 30
0.0
 10
38.7155920164
 20
48.3508263829
 30
0.0
 10
38.5632576497
 20
48.4882831687
 30
0.0
 10
38.4441083823
 20
48.6756167704
 30
0.0
 10
38.36503591
 20
48.8992478704
 30
0.0
 10
38.3306149193
 20
49.1437408693
 30
0.0
 10
38.3430019853
 20
49.3922644783
 30
0.0
 10
38.4013967152
 20
49.6277021581
 30
0.0
 10
38.5021869922
 20
49.8338793139
 30
0.0
 10
38.6396934984
 20
49.9964108202
 30
0.0
 10
38.8062098957
 20
50.102512393
 30
0.0
 10
38.9312287719
 20
50.1277462389
 30
0.0
 10
38.9912763481
 20
50.1277462389
 30
0.0
  0
SPLINE
  5
2BD
100
AcDbEntity
  8
0
100
AcDbSpline
 62
7
  6
BYLAYER
 70
0
 71
3
 72
13
 73
9
 74
0
 42
0.0000001
 43
0.0000001
 44
0.0000000001
 40
0.0
 40
0.0
 40
0.0
 40
0.0
 40
0.1694631266
 40
0.3353312619
 40
0.4973020684
 40
0.6551366765
 40
0.8303221158
 40
1.0
 40
1.0
 40
1.0
 40
1.0
 10
38.6335402225
 20
47.8896181193
 30
0.0
 10
38.6434350934
 20
47.9149629078
 30
0.0
 10
38.6645922957
 20
47.9645161293
 30
0.0
 10
38.7007553479
 20
48.0357637305
 30
0.0
 10
38.740790302
 20
48.1027538241
 30
0.0
 10
38.786466454
 20
48.1678742383
 30
0.0
 10
38.8382304147
 20
48.2299531063
 30
0.0
 10
38.8775700012
 20
48.2690154045
 30
0.0
 10
38.897854396
 20
48.287230167
 30
0.0
  0
SPLINE
  5
2BE
100
AcDbEntity
  8
0
100
AcDbSpline
 62
7
  6
BYLAYER
 70
0
 71
3
 72
13
 73
9
 74
0
 42
0.0000001
 43
0.0000001
 44
0.0000000001
 40
0.0
 40
0.0
 40
0.0
 40
0.0
 40
0.1397275437
 40
0.2868621153
 40
0.4465249629
 40
0.620144734
 40
0.8059771953
 40
1.0
 40
1.0
 40
1.0
 40
1.0
 10
38.0107222058
 20
48.6998993784
 30
0.0
 10
38.062756615
 20
48.6998993784
 30
0.0
 10
38.1703923274
 20
48.6803242133
 30
0.0
 10
38.3171550682
 20
48.5968142228
 30
0.0
 10
38.4429883689
 20
48.4667957479
 30
0.0
 10
38.5417520303
 20
48.2988210985
 30
0.0
 10
38.6086428083
 20
48.1025846727
 30
0.0
 10
38.6292793147
 20
47.9617462889
 30
0.0
 10
38.6335402225
 20
47.8896181193
 30
0.0
  0
SPLINE
  5
2BF
100
AcDbEntity
  8
0
100
AcDbSpline
 62
7
  6
BYLAYER
 70
0
 71
3
 72
11
 73
7
 74
0
 42
0.0000001
 43
0.0000001
 44
0.0000000001
 40
0.0
 40
0.0
 40
0.0
 40
0.0
 40
0.2806509372
 40
0.538619848
 40
0.7757115793
 40
1.0
 40
1.0
 40
1.0
 40
1.0
 10
37.484418888
 20
48.2927186287
 30
0.0
 10
37.5114708848
 20
48.3524542822
 30
0.0
 10
37.5749924944
 20
48.4624659143
 30
0.0
 10
37.7016404816
 20
48.5949476141
 30
0.0
 10
37.8496892361
 20
48.6799963146
 30
0.0
 10
37.9583160137
 20
48.6998993784
 30
0.0
 10
38.0107222058
 20
48.6998993784
 30
0.0
  0
SPLINE
  5
2C0
100
AcDbEntity
  8
0
100
AcDbSpline
 62
7
  6
BYLAYER
 70
0
 71
3
 72
15
 73
11
 74
0
 42
0.0000001
 43
0.0000001
 44
0.0000000001
 40
0.0
 40
0.0
 40
0.0
 40
0.0
 40
0.1004876812
 40
0.2071266962
 40
0.3237680547
 40
0.4509038259
 40
0.5863285398
 40
0.7261196145
 40
0.8655636066
 40
1.0
 40
1.0
 40
1.0
 40
1.0
 10
38.0107222058
 20
46.9321671659
 30
0.0
 10
37.95445484
 20
46.9321671659
 30
0.0
 10
37.837490356
 20
46.9552867214
 30
0.0
 10
37.680917256
 20
47.0527822015
 30
0.0
 10
37.550552296
 20
47.2026279509
 30
0.0
 10
37.4534803875
 20
47.3934817801
 30
0.0
 10
37.3950166507
 20
47.6125914023
 30
0.0
 10
37.3787752503
 20
47.845597392
 30
0.0
 10
37.4058705288
 20
48.0769378364
 30
0.0
 10
37.4533648779
 20
48.224145813
 30
0.0
 10
37.484418888
 20
48.2927186287
 30
0.0
  0
SPLINE
  5
2C1
100
AcDbEntity
  8
0
100
AcDbSpline
 62
7
  6
BYLAYER
 70
0
 71
3
 72
11
 73
7
 74
0
 42
0.0000001
 43
0.0000001
 44
0.0000000001
 40
0.0
 40
0.0
 40
0.0
 40
0.0
 40
0.2806509372
 40
0.538619848
 40
0.7757115793
 40
1.0
 40
1.0
 40
1.0
 40
1.0
 10
38.5370255235
 20
47.3393479155
 30
0.0
 10
38.5099735268
 20
47.279612262
 30
0.0
 10
38.4464519172
 20
47.16960063
 30
0.0
 10
38.3198039299
 20
47.0371189302
 30
0.0
 10
38.1717551755
 20
46.9520702296
 30
0.0
 10
38.0631283979
 20
46.9321671659
 30
0.0
 10
38.0107222058
 20
46.9321671659
 30
0.0
  0
SPLINE
  5
2C2
100
AcDbEntity
  8
0
100
AcDbSpline
 62
7
  6
BYLAYER
 70
0
 71
3
 72
12
 73
8
 74
0
 42
0.0000001
 43
0.0000001
 44
0.0000000001
 40
0.0
 40
0.0
 40
0.0
 40
0.0
 40
0.1173884779
 40
0.2360326596
 40
0.614945693
 40
0.8070676598
 40
1.0
 40
1.0
 40
1.0
 40
1.0
 10
38.6187612006
 20
46.8674982253
 30
0.0
 10
38.6124928035
 20
46.8852436663
 30
0.0
 10
38.6006468883
 20
46.9211799373
 30
0.0
 10
38.5736922178
 20
47.0160063238
 30
0.0
 10
38.55255168
 20
47.1248628024
 30
0.0
 10
38.5400471584
 20
47.2467254164
 30
0.0
 10
38.5374238095
 20
47.3084139345
 30
0.0
 10
38.5370255235
 20
47.3393479155
 30
0.0
  0
SPLINE
  5
2C3
100
AcDbEntity
  8
0
100
AcDbSpline
 62
7
  6
BYLAYER
 70
0
 71
3
 72
10
 73
6
 74
0
 42
0.0000001
 43
0.0000001
 44
0.0000000001
 40
0.0
 40
0.0
 40
0.0
 40
0.0
 40
0.3260690103
 40
0.6577625133
 40
1.0
 40
1.0
 40
1.0
 40
1.0
 10
38.3647119987
 20
46.9401233043
 30
0.0
 10
38.3937444567
 20
46.9401233043
 30
0.0
 10
38.4524582228
 20
46.9345486806
 30
0.0
 10
38.53843992
 20
46.9097520292
 30
0.0
 10
38.5925866635
 20
46.8831007967
 30
0.0
 10
38.6187612006
 20
46.8674982253
 30
0.0
  0
SPLINE
  5
2C4
100
AcDbEntity
  8
0
100
AcDbSpline
 62
7
  6
BYLAYER
 70
0
 71
3
 72
14
 73
10
 74
0
 42
0.0000001
 43
0.0000001
 44
0.0000000001
 40
0.0
 40
0.0
 40
0.0
 40
0.0
 40
0.1598408615
 40
0.3210720032
 40
0.4779000051
 40
0.6254054664
 40
0.7606536424
 40
0.883962099
 40
1.0
 40
1.0
 40
1.0
 40
1.0
 10
37.7619758271
 20
45.655897449
 30
0.0
 10
37.7374974089
 20
45.7380409131
 30
0.0
 10
37.7063729842
 20
45.9088602601
 30
0.0
 10
37.7109422521
 20
46.1666338924
 30
0.0
 10
37.7647047932
 20
46.4122371819
 30
0.0
 10
37.8638031412
 20
46.6283802392
 30
0.0
 10
38.0024214677
 20
46.7998853153
 30
0.0
 10
38.1729641078
 20
46.9129577806
 30
0.0
 10
38.3024877822
 20
46.9401233043
 30
0.0
 10
38.3647119987
 20
46.9401233043
 30
0.0
  0
SPLINE
  5
2C5
100
AcDbEntity
  8
0
100
AcDbSpline
 62
7
  6
BYLAYER
 70
0
 71
3
 72
12
 73
8
 74
0
 42
0.0000001
 43
0.0000001
 44
0.0000000001
 40
0.0
 40
0.0
 40
0.0
 40
0.0
 40
0.1747731766
 40
0.3578791112
 40
0.5555258707
 40
0.7699676015
 40
1.0
 40
1.0
 40
1.0
 40
1.0
 10
38.3647119987
 20
45.0901233043
 30
0.0
 10
38.3132828225
 20
45.0901233043
 30
0.0
 10
38.2072438272
 20
45.1082778034
 30
0.0
 10
38.060962412
 20
45.1862870753
 30
0.0
 10
37.9331826881
 20
45.3088138485
 30
0.0
 10
37.8296861379
 20
45.4685440851
 30
0.0
 10
37.7813070693
 20
45.5910266235
 30
0.0
 10
37.7619758271
 20
45.655897449
 30
0.0
  0
SPLINE
  5
2C6
100
AcDbEntity
  8
0
100
AcDbSpline
 62
7
  6
BYLAYER
 70
0
 71
3
 72
14
 73
10
 74
0
 42
0.0000001
 43
0.0000001
 44
0.0000000001
 40
0.0
 40
0.0
 40
0.0
 40
0.0
 40
0.1598408615
 40
0.3210720032
 40
0.4779000051
 40
0.6254054664
 40
0.7606536424
 40
0.883962099
 40
1.0
 40
1.0
 40
1.0
 40
1.0
 10
38.9674481702
 20
46.3743491596
 30
0.0
 10
38.9919265884
 20
46.2922056955
 30
0.0
 10
39.0230510131
 20
46.1213863486
 30
0.0
 10
39.0184817452
 20
45.8636127162
 30
0.0
 10
38.9647192041
 20
45.6180094267
 30
0.0
 10
38.8656208561
 20
45.4018663694
 30
0.0
 10
38.7270025296
 20
45.2303612934
 30
0.0
 10
38.5564598895
 20
45.117288828
 30
0.0
 10
38.4269362152
 20
45.0901233043
 30
0.0
 10
38.3647119987
 20
45.0901233043
 30
0.0
  0
SPLINE
  5
2C7
100
AcDbEntity
  8
0
100
AcDbSpline
 62
7
  6
BYLAYER
 70
0
 71
3
 72
13
 73
9
 74
0
 42
0.0000001
 43
0.0000001
 44
0.0000000001
 40
0.0
 40
0.0
 40
0.0
 40
0.0
 40
0.2221898756
 40
0.44746947
 40
0.6773422435
 40
0.9131274771
 40
0.9564457839
 40
1.0
 40
1.0
 40
1.0
 40
1.0
 10
39.2619879912
 20
46.2611619583
 30
0.0
 10
39.2384474712
 20
46.2634218168
 30
0.0
 10
39.1913801771
 20
46.2710764985
 30
0.0
 10
39.1221040094
 20
46.2914074012
 30
0.0
 10
39.054460809
 20
46.320464387
 30
0.0
 10
39.0074162258
 20
46.3474656598
 30
0.0
 10
38.9788265413
 20
46.3664231339
 30
0.0
 10
38.9712309914
 20
46.3716777909
 30
0.0
 10
38.9674481702
 20
46.3743491596
 30
0.0
  0
SPLINE
  5
2C8
100
AcDbEntity
  8
0
100
AcDbSpline
 62
7
  6
BYLAYER
 70
0
 71
3
 72
16
 73
12
 74
0
 42
0.0000001
 43
0.0000001
 44
0.0000000001
 40
0.0
 40
0.0
 40
0.0
 40
0.0
 40
0.0906882364
 40
0.1886702744
 40
0.2958386476
 40
0.4114225896
 40
0.5327745416
 40
0.6561488445
 40
0.7774568335
 40
0.892947985
 40
1.0
 40
1.0
 40
1.0
 40
1.0
 10
39.5673941034
 20
44.6029585865
 30
0.0
 10
39.5090683582
 20
44.6138849445
 30
0.0
 10
39.3913957794
 20
44.6602670374
 30
0.0
 10
39.2417976331
 20
44.7872923698
 30
0.0
 10
39.1221455248
 20
44.9622656752
 30
0.0
 10
39.0389344408
 20
45.1732305363
 30
0.0
 10
38.9967036411
 20
45.4066142588
 30
0.0
 10
38.9979846275
 20
45.6474555116
 30
0.0
 10
39.0428455048
 20
45.8803062607
 30
0.0
 10
39.1286186879
 20
46.0899567698
 30
0.0
 10
39.2138196277
 20
46.2103043868
 30
0.0
 10
39.2619879912
 20
46.2611619583
 30
0.0
  0
SPLINE
  5
2C9
100
AcDbEntity
  8
0
100
AcDbSpline
 62
7
  6
BYLAYER
 70
0
 71
3
 72
18
 73
14
 74
0
 42
0.0000001
 43
0.0000001
 44
0.0000000001
 40
0.0
 40
0.0
 40
0.0
 40
0.0
 40
0.07709557
 40
0.1607598542
 40
0.2525523027
 40
0.3515402768
 40
0.4550713551
 40
0.559568773
 40
0.6612799176
 40
0.7569821925
 40
0.8447580913
 40
0.9248012083
 40
1.0
 40
1.0
 40
1.0
 40
1.0
 10
39.7391768909
 20
46.4369382341
 30
0.0
 10
39.7999258785
 20
46.425557922
 30
0.0
 10
39.9225983456
 20
46.3760538462
 30
0.0
 10
40.0766060499
 20
46.2401127561
 30
0.0
 10
40.1974142597
 20
46.0534886362
 30
0.0
 10
40.2780193354
 20
45.8298538068
 30
0.0
 10
40.3137348731
 20
45.5847609587
 30
0.0
 10
40.3023092198
 20
45.335202456
 30
0.0
 10
40.2444858032
 20
45.0984911938
 30
0.0
 10
40.1438662618
 20
44.8910071466
 30
0.0
 10
40.0061578521
 20
44.7273251563
 30
0.0
 10
39.8391169263
 20
44.6203963252
 30
0.0
 10
39.7135706456
 20
44.5949484103
 30
0.0
 10
39.6532854972
 20
44.5949484103
 30
0.0
  0
SPLINE
  5
2CA
100
AcDbEntity
  8
0
100
AcDbSpline
 62
7
  6
BYLAYER
 70
0
 71
3
 72
11
 73
7
 74
0
 42
0.0000001
 43
0.0000001
 44
0.0000000001
 40
0.0
 40
0.0
 40
0.0
 40
0.0
 40
0.3090292934
 40
0.6064984006
 40
0.8061898381
 40
1.0
 40
1.0
 40
1.0
 40
1.0
 10
39.9664446912
 20
46.7583326812
 30
0.0
 10
39.9493586771
 20
46.7213196911
 30
0.0
 10
39.9122230465
 20
46.6501613366
 30
0.0
 10
39.8528687497
 20
46.5615586596
 30
0.0
 10
39.794576498
 20
46.4912545594
 30
0.0
 10
39.7580100459
 20
46.4542815759
 30
0.0
 10
39.7391768909
 20
46.4369382341
 30
0.0
  0
SPLINE
  5
2CB
100
AcDbEntity
  8
0
100
AcDbSpline
 62
7
  6
BYLAYER
 70
0
 71
3
 72
12
 73
8
 74
0
 42
0.0000001
 43
0.0000001
 44
0.0000000001
 40
0.0
 40
0.0
 40
0.0
 40
0.0
 40
0.1691524514
 40
0.3499400392
 40
0.5493783898
 40
0.767680266
 40
1.0
 40
1.0
 40
1.0
 40
1.0
 10
40.6148535241
 20
45.9548109551
 30
0.0
 10
40.5515009679
 20
45.9548109551
 30
0.0
 10
40.419209558
 20
45.9831017637
 30
0.0
 10
40.2456486402
 20
46.1008340292
 30
0.0
 10
40.1055441346
 20
46.2795838756
 30
0.0
 10
40.0072809053
 20
46.5046454712
 30
0.0
 10
39.9745598033
 20
46.6717013822
 30
0.0
 10
39.9664446912
 20
46.7583326812
 30
0.0
  0
SPLINE
  5
2CC
100
AcDbEntity
  8
0
100
AcDbSpline
 62
7
  6
BYLAYER
 70
0
 71
3
 72
11
 73
7
 74
0
 42
0.0000001
 43
0.0000001
 44
0.0000000001
 40
0.0
 40
0.0
 40
0.0
 40
0.0
 40
0.2783662878
 40
0.5352886908
 40
0.7732945588
 40
1.0
 40
1.0
 40
1.0
 40
1.0
 10
41.1389951504
 20
46.3264791278
 30
0.0
 10
41.109827811
 20
46.2712218086
 30
0.0
 10
41.043305182
 20
46.1698984131
 30
0.0
 10
40.9160346718
 20
46.0492438325
 30
0.0
 10
40.7707580936
 20
45.972588045
 30
0.0
 10
40.6657404307
 20
45.9548109551
 30
0.0
 10
40.6148535241
 20
45.9548109551
 30
0.0
  0
SPLINE
  5
2CD
100
AcDbEntity
  8
0
100
AcDbSpline
 62
7
  6
BYLAYER
 70
0
 71
3
 72
15
 73
11
 74
0
 42
0.0000001
 43
0.0000001
 44
0.0000000001
 40
0.0
 40
0.0
 40
0.0
 40
0.0
 40
0.1004753989
 40
0.2074713127
 40
0.3249101093
 40
0.4530389642
 40
0.5892387887
 40
0.7291409235
 40
0.8676689041
 40
1.0
 40
1.0
 40
1.0
 40
1.0
 10
40.6148535241
 20
47.8048109551
 30
0.0
 10
40.6757483405
 20
47.8048109551
 30
0.0
 10
40.8026088942
 20
47.7788165998
 30
0.0
 10
40.9709154658
 20
47.669825994
 30
0.0
 10
41.1090910593
 20
47.5033163427
 30
0.0
 10
41.2092983691
 20
47.2925406753
 30
0.0
 10
41.265728534
 20
47.0524206517
 30
0.0
 10
41.274652314
 20
46.7996948236
 30
0.0
 10
41.2353738138
 20
46.5523426206
 30
0.0
 10
41.1764336612
 20
46.397406123
 30
0.0
 10
41.1389951504
 20
46.3264791278
 30
0.0
  0
SPLINE
  5
2CE
100
AcDbEntity
  8
0
100
AcDbSpline
 62
7
  6
BYLAYER
 70
0
 71
3
 72
23
 73
19
 74
0
 42
0.0000001
 43
0.0000001
 44
0.0000000001
 40
0.0
 40
0.0
 40
0.0
 40
0.0
 40
0.0725125904
 40
0.1436522423
 40
0.2121827066
 40
0.2771463858
 40
0.338014309
 40
0.3948364803
 40
0.4483559497
 40
0.5
 40
0.5516440503
 40
0.6051635197
 40
0.661985691
 40
0.7228536142
 40
0.7878172934
 40
0.8563477577
 40
0.9274874096
 40
1.0
 40
1.0
 40
1.0
 40
1.0
 10
38.5099432194
 20
47.3586261886
 30
0.0
 10
38.5099432194
 20
47.1174319811
 30
0.0
 10
38.4769595768
 20
46.6389271943
 30
0.0
 10
38.3298530109
 20
45.9462809675
 30
0.0
 10
38.0905353902
 20
45.3061416668
 30
0.0
 10
37.7673991592
 20
44.7425106349
 30
0.0
 10
37.3714644578
 20
44.2765384194
 30
0.0
 10
36.9159795301
 20
43.9266246886
 30
0.0
 10
36.416765544
 20
43.7084773467
 30
0.0
 10
35.893648129
 20
43.6341451164
 30
0.0
 10
35.370530714
 20
43.7084773467
 30
0.0
 10
34.8713167279
 20
43.9266246886
 30
0.0
 10
34.4158318002
 20
44.2765384194
 30
0.0
 10
34.0198970988
 20
44.7425106349
 30
0.0
 10
33.6967608679
 20
45.3061416668
 30
0.0
 10
33.4574432472
 20
45.9462809675
 30
0.0
 10
33.3103366812
 20
46.6389271943
 30
0.0
 10
33.2773530386
 20
47.1174319811
 30
0.0
 10
33.2773530386
 20
47.3586261886
 30
0.0
  0
SPLINE
  5
2CF
100
AcDbEntity
  8
0
100
AcDbSpline
 62
7
  6
BYLAYER
 70
0
 71
3
 72
23
 73
19
 74
0
 42
0.0000001
 43
0.0000001
 44
0.0000000001
 40
0.0
 40
0.0
 40
0.0
 40
0.0
 40
0.0805340126
 40
0.1587821378
 40
0.2326205425
 40
0.3002655841
 40
0.3604934552
 40
0.4129447479
 40
0.4585570161
 40
0.5
 40
0.5414429839
 40
0.5870552521
 40
0.6395065448
 40
0.6997344159
 40
0.7673794575
 40
0.8412178622
 40
0.9194659874
 40
1.0
 40
1.0
 40
1.0
 40
1.0
 10
19.5721954587
 20
47.3586261886
 30
0.0
 10
19.5721954587
 20
47.1177164822
 30
0.0
 10
19.54886298
 20
46.6423830099
 30
0.0
 10
19.4447069608
 20
45.9531358474
 30
0.0
 10
19.2754971445
 20
45.3164192513
 30
0.0
 10
19.0474462805
 20
44.7557032136
 30
0.0
 10
18.7683050226
 20
44.2909533989
 30
0.0
 10
18.4460542628
 20
43.9384424109
 30
0.0
 10
18.0870587068
 20
43.7125978882
 30
0.0
 10
17.700961076
 20
43.6329327556
 30
0.0
 10
17.3148634451
 20
43.7125978882
 30
0.0
 10
16.9558678892
 20
43.9384424109
 30
0.0
 10
16.6336171294
 20
44.2909533989
 30
0.0
 10
16.3544758714
 20
44.7557032136
 30
0.0
 10
16.1264250074
 20
45.3164192513
 30
0.0
 10
15.9572151911
 20
45.9531358474
 30
0.0
 10
15.8530591719
 20
46.6423830099
 30
0.0
 10
15.8297266933
 20
47.1177164822
 30
0.0
 10
15.8297266933
 20
47.3586261886
 30
0.0
  0
SPLINE
  5
2D0
100
AcDbEntity
  8
0
100
AcDbSpline
 62
7
  6
BYLAYER
 70
0
 71
3
 72
23
 73
19
 74
0
 42
0.0000001
 43
0.0000001
 44
0.0000000001
 40
0.0
 40
0.0
 40
0.0
 40
0.0
 40
0.0725125904
 40
0.1436522423
 40
0.2121827066
 40
0.2771463858
 40
0.338014309
 40
0.3948364803
 40
0.4483559497
 40
0.5
 40
0.5516440503
 40
0.6051635197
 40
0.661985691
 40
0.7228536142
 40
0.7878172934
 40
0.8563477577
 40
0.9274874096
 40
1.0
 40
1.0
 40
1.0
 40
1.0
 10
33.2773530386
 20
47.3586261886
 30
0.0
 10
33.2773530386
 20
47.599820396
 30
0.0
 10
33.3103366812
 20
48.0783251828
 30
0.0
 10
33.4574432472
 20
48.7709714096
 30
0.0
 10
33.6967608679
 20
49.4111107103
 30
0.0
 10
34.0198970988
 20
49.9747417422
 30
0.0
 10
34.4158318002
 20
50.4407139577
 30
0.0
 10
34.8713167279
 20
50.7906276886
 30
0.0
 10
35.370530714
 20
51.0087750304
 30
0.0
 10
35.893648129
 20
51.0831072607
 30
0.0
 10
36.416765544
 20
51.0087750304
 30
0.0
 10
36.9159795301
 20
50.7906276886
 30
0.0
 10
37.3714644578
 20
50.4407139577
 30
0.0
 10
37.7673991592
 20
49.9747417422
 30
0.0
 10
38.0905353902
 20
49.4111107103
 30
0.0
 10
38.3298530109
 20
48.7709714096
 30
0.0
 10
38.4769595768
 20
48.0783251828
 30
0.0
 10
38.5099432194
 20
47.599820396
 30
0.0
 10
38.5099432194
 20
47.3586261886
 30
0.0
  0
SPLINE
  5
2D1
100
AcDbEntity
  8
0
100
AcDbSpline
 62
7
  6
BYLAYER
 70
0
 71
3
 72
23
 73
19
 74
0
 42
0.0000001
 43
0.0000001
 44
0.0000000001
 40
0.0
 40
0.0
 40
0.0
 40
0.0
 40
0.0805340126
 40
0.1587821378
 40
0.2326205425
 40
0.3002655841
 40
0.3604934552
 40
0.4129447479
 40
0.4585570161
 40
0.5
 40
0.5414429839
 40
0.5870552521
 40
0.6395065448
 40
0.6997344159
 40
0.7673794575
 40
0.8412178622
 40
0.9194659874
 40
1.0
 40
1.0
 40
1.0
 40
1.0
 10
15.8297266933
 20
47.3586261886
 30
0.0
 10
15.8297266933
 20
47.5995358949
 30
0.0
 10
15.8530591719
 20
48.0748693672
 30
0.0
 10
15.9572151911
 20
48.7641165297
 30
0.0
 10
16.1264250074
 20
49.4008331258
 30
0.0
 10
16.3544758714
 20
49.9615491635
 30
0.0
 10
16.6336171294
 20
50.4262989782
 30
0.0
 10
16.9558678892
 20
50.7788099662
 30
0.0
 10
17.3148634451
 20
51.0046544889
 30
0.0
 10
17.700961076
 20
51.0843196215
 30
0.0
 10
18.0870587068
 20
51.0046544889
 30
0.0
 10
18.4460542628
 20
50.7788099662
 30
0.0
 10
18.7683050226
 20
50.4262989782
 30
0.0
 10
19.0474462805
 20
49.9615491635
 30
0.0
 10
19.2754971445
 20
49.4008331258
 30
0.0
 10
19.4447069608
 20
48.7641165297
 30
0.0
 10
19.54886298
 20
48.0748693672
 30
0.0
 10
19.5721954587
 20
47.5995358949
 30
0.0
 10
19.5721954587
 20
47.3586261886
 30
0.0
  0
SPLINE
  5
2D2
100
AcDbEntity
  8
0
100
AcDbSpline
 62
7
  6
BYLAYER
 70
0
 71
3
 72
23
 73
19
 74
0
 42
0.0000001
 43
0.0000001
 44
0.0000000001
 40
0.0
 40
0.0
 40
0.0
 40
0.0
 40
0.0669609182
 40
0.1333463432
 40
0.1984801182
 40
0.2615897276
 40
0.3233234662
 40
0.3834401971
 40
0.442100492
 40
0.4998704792
 40
0.5575665726
 40
0.6160107539
 40
0.6758641625
 40
0.7374515429
 40
0.8006239219
 40
0.865985146
 40
0.9327021397
 40
1.0
 40
1.0
 40
1.0
 40
1.0
 10
13.7539511574
 20
47.3586261886
 30
0.0
 10
13.7539511574
 20
47.6002019487
 30
0.0
 10
13.7132127745
 20
48.0822865525
 30
0.0
 10
13.5317578452
 20
48.7784932453
 30
0.0
 10
13.2371771749
 20
49.4200759612
 30
0.0
 10
12.8403076951
 20
49.9837632127
 30
0.0
 10
12.3552360271
 20
50.4484649199
 30
0.0
 10
11.7985504234
 20
50.7957611879
 30
0.0
 10
11.1931675979
 20
51.0100337314
 30
0.0
 10
10.5636957151
 20
51.082535063
 30
0.0
 10
9.9349341078
 20
51.0108582413
 30
0.0
 10
9.3311237472
 20
50.7982852045
 30
0.0
 10
8.7755591412
 20
50.4535599151
 30
0.0
 10
8.2900666133
 20
49.9911363614
 30
0.0
 10
7.8913318049
 20
49.428103696
 30
0.0
 10
7.5944149758
 20
48.7850767103
 30
0.0
 10
7.4112204592
 20
48.085929245
 30
0.0
 10
7.3700708688
 20
47.6014175391
 30
0.0
 10
7.3700708688
 20
47.3586261886
 30
0.0
  0
SPLINE
  5
2D3
100
AcDbEntity
  8
0
100
AcDbSpline
 62
7
  6
BYLAYER
 70
0
 71
3
 72
23
 73
19
 74
0
 42
0.0000001
 43
0.0000001
 44
0.0000000001
 40
0.0
 40
0.0
 40
0.0
 40
0.0
 40
0.0669609182
 40
0.1333463432
 40
0.1984801182
 40
0.2615897276
 40
0.3233234662
 40
0.3834401971
 40
0.442100492
 40
0.4998704792
 40
0.5575665726
 40
0.6160107539
 40
0.6758641625
 40
0.7374515429
 40
0.8006239219
 40
0.865985146
 40
0.9327021397
 40
1.0
 40
1.0
 40
1.0
 40
1.0
 10
7.3700708688
 20
47.3586261886
 30
0.0
 10
7.3700708688
 20
47.1170504284
 30
0.0
 10
7.4108092517
 20
46.6349658246
 30
0.0
 10
7.592264181
 20
45.9387591318
 30
0.0
 10
7.8868448513
 20
45.2971764159
 30
0.0
 10
8.2837143311
 20
44.7334891644
 30
0.0
 10
8.7687859991
 20
44.2687874572
 30
0.0
 10
9.3254716028
 20
43.9214911892
 30
0.0
 10
9.9308544283
 20
43.7072186457
 30
0.0
 10
10.5603263111
 20
43.6347173141
 30
0.0
 10
11.1890879184
 20
43.7063941358
 30
0.0
 10
11.792898279
 20
43.9189671727
 30
0.0
 10
12.348462885
 20
44.263692462
 30
0.0
 10
12.8339554129
 20
44.7261160157
 30
0.0
 10
13.2326902213
 20
45.2891486811
 30
0.0
 10
13.5296070504
 20
45.9321756668
 30
0.0
 10
13.712801567
 20
46.6313231321
 30
0.0
 10
13.7539511574
 20
47.115834838
 30
0.0
 10
13.7539511574
 20
47.3586261886
 30
0.0
  0
SPLINE
  5
2D4
100
AcDbEntity
  8
0
100
AcDbSpline
 62
7
  6
BYLAYER
 70
0
 71
3
 72
10
 73
6
 74
0
 42
0.0000001
 43
0.0000001
 44
0.0000000001
 40
0.0
 40
0.0
 40
0.0
 40
0.0
 40
0.3333448947
 40
0.6658409596
 40
1.0
 40
1.0
 40
1.0
 40
1.0
 10
40.0907118978
 20
47.4331427824
 30
0.0
 10
40.0991372442
 20
47.4331427825
 30
0.0
 10
40.1159737444
 20
47.4337470263
 30
0.0
 10
40.1411158233
 20
47.4365436247
 30
0.0
 10
40.1576905592
 20
47.4396832266
 30
0.0
 10
40.1659233398
 20
47.4415686861
 30
0.0
  0
SPLINE
  5
2D5
100
AcDbEntity
  8
0
100
AcDbSpline
 62
7
  6
BYLAYER
 70
0
 71
3
 72
10
 73
6
 74
0
 42
0.0000001
 43
0.0000001
 44
0.0000000001
 40
0.0
 40
0.0
 40
0.0
 40
0.0
 40
0.3278124563
 40
0.6605940543
 40
1.0
 40
1.0
 40
1.0
 40
1.0
 10
40.037849825
 20
46.7511362831
 30
0.0
 10
40.0301626052
 20
46.7527491391
 30
0.0
 10
40.0145485422
 20
46.7554411637
 30
0.0
 10
39.9906891027
 20
46.7578266382
 30
0.0
 10
39.974577073
 20
46.7583326812
 30
0.0
 10
39.9664446912
 20
46.7583326812
 30
0.0
  0
SPLINE
  5
2D6
100
AcDbEntity
  8
0
100
AcDbSpline
 62
7
  6
BYLAYER
 70
0
 71
3
 72
22
 73
18
 74
0
 42
0.0000001
 43
0.0000001
 44
0.0000000001
 40
0.0
 40
0.0
 40
0.0
 40
0.0
 40
0.0400936895
 40
0.0886490501
 40
0.1445648465
 40
0.2059248765
 40
0.2710429124
 40
0.3388108274
 40
0.4795292161
 40
0.5522120138
 40
0.6270462694
 40
0.7053760033
 40
0.7895408909
 40
0.8823272541
 40
0.9321728121
 40
0.9834685933
 40
1.0
 40
1.0
 40
1.0
 40
1.0
 10
46.7294306248
 20
47.1763169189
 30
0.0
 10
46.6359064085
 20
47.1763309063
 30
0.0
 10
46.4291243782
 20
47.1773690084
 30
0.0
 10
46.0919375335
 20
47.1818997356
 30
0.0
 10
45.7051936969
 20
47.1896338487
 30
0.0
 10
45.2798752717
 20
47.2004333932
 30
0.0
 10
44.8269812808
 20
47.2141369269
 30
0.0
 10
44.1891358236
 20
47.2357944731
 30
0.0
 10
43.533753522
 20
47.2608027973
 30
0.0
 10
42.8619255871
 20
47.287044902
 30
0.0
 10
42.3355075013
 20
47.3074214276
 30
0.0
 10
41.7822949817
 20
47.3280181016
 30
0.0
 10
41.1871778389
 20
47.348562886
 30
0.0
 10
40.6583909622
 20
47.3646232658
 30
0.0
 10
40.2061869052
 20
47.3764278063
 30
0.0
 10
39.9317725872
 20
47.3826650757
 30
0.0
 10
39.7735903371
 20
47.385851193
 30
0.0
 10
39.7350363525
 20
47.3866024572
 30
0.0
  0
SPLINE
  5
2D7
100
AcDbEntity
  8
0
100
AcDbSpline
 62
7
  6
BYLAYER
 70
0
 71
3
 72
34
 73
30
 74
0
 42
0.0000001
 43
0.0000001
 44
0.0000000001
 40
0.0
 40
0.0
 40
0.0
 40
0.0
 40
0.0726168298
 40
0.1481139475
 40
0.2202492477
 40
0.2863599892
 40
0.3464329621
 40
0.400212588
 40
0.4478720315
 40
0.4895701961
 40
0.5253774631
 40
0.555416948
 40
0.5797752693
 40
0.5981614097
 40
0.6109519758
 40
0.6188190291
 40
0.6234328456
 40
0.6287623483
 40
0.6380052777
 40
0.6521095845
 40
0.6714629131
 40
0.6959100699
 40
0.7254186827
 40
0.759952381
 40
0.7994102285
 40
0.8434497263
 40
0.8915752238
 40
0.9436170374
 40
1.0
 40
1.0
 40
1.0
 40
1.0
 10
39.3610093389
 20
46.2591556711
 30
0.0
 10
39.4007657943
 20
46.2591453933
 30
0.0
 10
39.4818556817
 20
46.2588494233
 30
0.0
 10
39.6024337083
 20
46.2577414596
 30
0.0
 10
39.7194438428
 20
46.2561493287
 30
0.0
 10
39.8280048614
 20
46.2543246428
 30
0.0
 10
39.9265144073
 20
46.252481712
 30
0.0
 10
40.0149232675
 20
46.25078211
 30
0.0
 10
40.0932755517
 20
46.2493850166
 30
0.0
 10
40.1617965269
 20
46.248443226
 30
0.0
 10
40.2206716171
 20
46.2481428002
 30
0.0
 10
40.2700701028
 20
46.2485932485
 30
0.0
 10
40.3098667798
 20
46.2501057655
 30
0.0
 10
40.3402690783
 20
46.2523744249
 30
0.0
 10
40.3612147004
 20
46.2563680493
 30
0.0
 10
40.3747361285
 20
46.2600898258
 30
0.0
 10
40.3814563204
 20
46.2692158767
 30
0.0
 10
40.3745537691
 20
46.279221734
 30
0.0
 10
40.3621553266
 20
46.2879852967
 30
0.0
 10
40.3414203842
 20
46.2994388907
 30
0.0
 10
40.3124997713
 20
46.3122038947
 30
0.0
 10
40.2749957816
 20
46.3266452093
 30
0.0
 10
40.2291038038
 20
46.3421618539
 30
0.0
 10
40.174791465
 20
46.3583769011
 30
0.0
 10
40.1122185516
 20
46.3745703089
 30
0.0
 10
40.0417582133
 20
46.389785194
 30
0.0
 10
39.9638528516
 20
46.4028002633
 30
0.0
 10
39.8786245253
 20
46.4122913683
 30
0.0
 10
39.8192678699
 20
46.4150198176
 30
0.0
 10
39.7884006972
 20
46.4153264359
 30
0.0
  0
SPLINE
  5
2D8
100
AcDbEntity
  8
0
100
AcDbSpline
 62
7
  6
BYLAYER
 70
0
 71
3
 72
42
 73
38
 74
0
 42
0.0000001
 43
0.0000001
 44
0.0000000001
 40
0.0
 40
0.0
 40
0.0
 40
0.0
 40
0.0594577903
 40
0.1195918606
 40
0.1794868261
 40
0.2375287845
 40
0.2911794904
 40
0.3391323237
 40
0.3815106826
 40
0.41871891
 40
0.451195657
 40
0.4793222814
 40
0.5034496367
 40
0.5238888229
 40
0.5408645897
 40
0.5545463055
 40
0.5651149147
 40
0.572654277
 40
0.5780993974
 40
0.5830282876
 40
0.5891288738
 40
0.5973024804
 40
0.6081246005
 40
0.621734836
 40
0.6381733944
 40
0.6574075224
 40
0.6795083526
 40
0.7046294837
 40
0.7330740022
 40
0.7651123273
 40
0.8011648484
 40
0.8417261975
 40
0.8820241899
 40
0.916828169
 40
0.9461949844
 40
0.9729393741
 40
1.0
 40
1.0
 40
1.0
 40
1.0
 10
38.7042317113
 20
46.8308737708
 30
0.0
 10
38.7555930455
 20
46.8293797656
 30
0.0
 10
38.8588067434
 20
46.8221541342
 30
0.0
 10
39.0125292563
 20
46.8007245949
 30
0.0
 10
39.1634558998
 20
46.7702253761
 30
0.0
 10
39.3070157694
 20
46.7328207978
 30
0.0
 10
39.4387251516
 20
46.6915958021
 30
0.0
 10
39.5558884276
 20
46.6496159361
 30
0.0
 10
39.6583179141
 20
46.6088659332
 30
0.0
 10
39.7471840922
 20
46.570339359
 30
0.0
 10
39.8237561107
 20
46.5345111567
 30
0.0
 10
39.8891562472
 20
46.5015536216
 30
0.0
 10
39.9443186184
 20
46.471467402
 30
0.0
 10
39.9899856768
 20
46.4441720527
 30
0.0
 10
40.026671604
 20
46.4195493721
 30
0.0
 10
40.0547393582
 20
46.3975232272
 30
0.0
 10
40.0742226632
 20
46.3780146407
 30
0.0
 10
40.0856217556
 20
46.3608909358
 30
0.0
 10
40.0884919071
 20
46.3448158931
 30
0.0
 10
40.0814286186
 20
46.3314879602
 30
0.0
 10
40.0673824755
 20
46.322024939
 30
0.0
 10
40.0469860864
 20
46.3144319646
 30
0.0
 10
40.0193623839
 20
46.3085093223
 30
0.0
 10
39.9842799728
 20
46.3042179868
 30
0.0
 10
39.9417468164
 20
46.3016434076
 30
0.0
 10
39.8918142122
 20
46.3008420386
 30
0.0
 10
39.8343835407
 20
46.3019333801
 30
0.0
 10
39.7690632435
 20
46.3051503333
 30
0.0
 10
39.6952972386
 20
46.310880668
 30
0.0
 10
39.6123282332
 20
46.3197024156
 30
0.0
 10
39.5192701198
 20
46.3323197677
 30
0.0
 10
39.4195526804
 20
46.3486434144
 30
0.0
 10
39.3211955441
 20
46.3664388466
 30
0.0
 10
39.2322057681
 20
46.3816976873
 30
0.0
 10
39.1542260424
 20
46.3916524341
 30
0.0
 10
39.0824152841
 20
46.3958740484
 30
0.0
 10
39.0358807351
 20
46.3953449192
 30
0.0
 10
39.0125151288
 20
46.3943774455
 30
0.0
  0
SPLINE
  5
2D9
100
AcDbEntity
  8
0
100
AcDbSpline
 62
7
  6
BYLAYER
 70
0
 71
3
 72
14
 73
10
 74
0
 42
0.0000001
 43
0.0000001
 44
0.0000000001
 40
0.0
 40
0.0
 40
0.0
 40
0.0
 40
0.1439432879
 40
0.2777215471
 40
0.4021248785
 40
0.5190861449
 40
0.7362859427
 40
0.9340881147
 40
1.0
 40
1.0
 40
1.0
 40
1.0
 10
46.7294306232
 20
47.1409354582
 30
0.0
 10
46.4909752371
 20
47.1409546049
 30
0.0
 10
46.0309066409
 20
47.1430495003
 30
0.0
 10
45.3647999954
 20
47.1514323854
 30
0.0
 10
44.7434592145
 20
47.1635702398
 30
0.0
 10
43.9840542965
 20
47.182986561
 30
0.0
 10
43.1032660535
 20
47.2115101027
 30
0.0
 10
42.3071621273
 20
47.241650139
 30
0.0
 10
41.8706303963
 20
47.2586884812
 30
0.0
 10
41.7615254968
 20
47.2629579498
 30
0.0
  0
SPLINE
  5
2DA
100
AcDbEntity
  8
0
100
AcDbSpline
 62
7
  6
BYLAYER
 70
0
 71
3
 72
56
 73
52
 74
0
 42
0.0000001
 43
0.0000001
 44
0.0000000001
 40
0.0
 40
0.0
 40
0.0
 40
0.0
 40
0.0131671601
 40
0.0258849093
 40
0.0388595572
 40
0.0528896418
 40
0.0685092429
 40
0.0859700258
 40
0.1051928716
 40
0.1264553252
 40
0.1503013574
 40
0.1772500848
 40
0.2075492484
 40
0.2411516741
 40
0.2784375199
 40
0.3167992695
 40
0.3519462105
 40
0.3828885032
 40
0.4106022231
 40
0.4354500311
 40
0.4577758111
 40
0.4778222618
 40
0.4958150124
 40
0.5119215601
 40
0.5262325145
 40
0.5387915225
 40
0.5496093354
 40
0.558604716
 40
0.5656359479
 40
0.5707304171
 40
0.5740493882
 40
0.5756740472
 40
0.5762819755
 40
0.5784678542
 40
0.5826107717
 40
0.5886786408
 40
0.5966383961
 40
0.6065120627
 40
0.6183784072
 40
0.6323568294
 40
0.6486256105
 40
0.6674395445
 40
0.6891266302
 40
0.7141091784
 40
0.7429363591
 40
0.7763343636
 40
0.8152080412
 40
0.860386896
 40
0.9085468591
 40
0.9557958062
 40
1.0
 40
1.0
 40
1.0
 40
1.0
 10
40.0734180628
 20
47.881982469
 30
0.0
 10
40.0944719258
 20
47.88015314
 30
0.0
 10
40.1358401913
 20
47.8762885283
 30
0.0
 10
40.1977640783
 20
47.8687562245
 30
0.0
 10
40.2607813315
 20
47.859052523
 30
0.0
 10
40.3282799453
 20
47.8479195741
 30
0.0
 10
40.403121059
 20
47.8370717591
 30
0.0
 10
40.4866695645
 20
47.8285284369
 30
0.0
 10
40.5796638365
 20
47.8247013658
 30
0.0
 10
40.6829679256
 20
47.8279648342
 30
0.0
 10
40.7980068094
 20
47.8411615086
 30
0.0
 10
40.9257082484
 20
47.8670974498
 30
0.0
 10
41.066021012
 20
47.9072045146
 30
0.0
 10
41.2193396106
 20
47.9609235243
 30
0.0
 10
41.3829977052
 20
48.0238735784
 30
0.0
 10
41.5489750015
 20
48.0877011753
 30
0.0
 10
41.7066746126
 20
48.1446330562
 30
0.0
 10
41.8496483584
 20
48.1918634943
 30
0.0
 10
41.9780658121
 20
48.2302806927
 30
0.0
 10
42.0941441435
 20
48.2615200465
 30
0.0
 10
42.1990516633
 20
48.2867555685
 30
0.0
 10
42.2938160875
 20
48.3069680349
 30
0.0
 10
42.3792389224
 20
48.322982546
 30
0.0
 10
42.45594102
 20
48.3354516095
 30
0.0
 10
42.5242659183
 20
48.3448830153
 30
0.0
 10
42.5844067767
 20
48.3517149191
 30
0.0
 10
42.6360759299
 20
48.3562260957
 30
0.0
 10
42.6793570544
 20
48.3589070832
 30
0.0
 10
42.7125577917
 20
48.3595761675
 30
0.0
 10
42.7389682315
 20
48.3598577426
 30
0.0
 10
42.751856197
 20
48.3574236032
 30
0.0
 10
42.7653860028
 20
48.357532581
 30
0.0
 10
42.7621012517
 20
48.3495058972
 30
0.0
 10
42.7490914997
 20
48.3500454022
 30
0.0
 10
42.7307929349
 20
48.3450949324
 30
0.0
 10
42.7010890334
 20
48.3433181849
 30
0.0
 10
42.6630613881
 20
48.3405789658
 30
0.0
 10
42.6153216333
 20
48.3390071107
 30
0.0
 10
42.5580322576
 20
48.3380636322
 30
0.0
 10
42.49042551
 20
48.3382144346
 30
0.0
 10
42.4116960877
 20
48.3395962739
 30
0.0
 10
42.3206233349
 20
48.3425096401
 30
0.0
 10
42.2156272903
 20
48.3472461835
 30
0.0
 10
42.0946477523
 20
48.3541134372
 30
0.0
 10
41.9549881931
 20
48.3634216537
 30
0.0
 10
41.7931658486
 20
48.3753805794
 30
0.0
 10
41.605217384
 20
48.3898808059
 30
0.0
 10
41.3935863254
 20
48.4054310701
 30
0.0
 10
41.1683309455
 20
48.4188837409
 30
0.0
 10
40.9443537415
 20
48.426600795
 30
0.0
 10
40.7975265799
 20
48.4264372875
 30
0.0
 10
40.7265979814
 20
48.4248049574
 30
0.0
  0
SPLINE
  5
2DB
100
AcDbEntity
  8
0
100
AcDbSpline
 62
7
  6
BYLAYER
 70
0
 71
3
 72
49
 73
45
 74
0
 42
0.0000001
 43
0.0000001
 44
0.0000000001
 40
0.0
 40
0.0
 40
0.0
 40
0.0
 40
0.0493879981
 40
0.1000034756
 40
0.1481898431
 40
0.1908496202
 40
0.2274223937
 40
0.2589963145
 40
0.2861489267
 40
0.3094694256
 40
0.329426097
 40
0.346368294
 40
0.3606043557
 40
0.3724215551
 40
0.3820957694
 40
0.3900490741
 40
0.3969075053
 40
0.403523949
 40
0.4106597717
 40
0.4190326099
 40
0.4291890849
 40
0.4415397941
 40
0.4561441136
 40
0.4730538084
 40
0.4923249612
 40
0.5141353466
 40
0.5387586459
 40
0.5665442522
 40
0.5979660953
 40
0.6336009806
 40
0.6734983279
 40
0.7162748435
 40
0.7575320595
 40
0.7948064015
 40
0.827734779
 40
0.8571020749
 40
0.8834903594
 40
0.9070890669
 40
0.9280101229
 40
0.9462516495
 40
0.9621392186
 40
0.9760343806
 40
0.988458347
 40
1.0
 40
1.0
 40
1.0
 40
1.0
 10
39.7350363525
 20
47.3866024572
 30
0.0
 10
39.8045731331
 20
47.4047237119
 30
0.0
 10
39.9441362356
 20
47.4462720605
 30
0.0
 10
40.1471345592
 20
47.5191859359
 30
0.0
 10
40.3376586788
 20
47.5972051885
 30
0.0
 10
40.5066941559
 20
47.6734236147
 30
0.0
 10
40.6516207633
 20
47.7441093664
 30
0.0
 10
40.7743932326
 20
47.8086044418
 30
0.0
 10
40.8782067608
 20
47.8675940153
 30
0.0
 10
40.9652882778
 20
47.9216711419
 30
0.0
 10
41.0374360024
 20
47.971462947
 30
0.0
 10
41.0959763191
 20
48.0174818474
 30
0.0
 10
41.1418685302
 20
48.0601334119
 30
0.0
 10
41.1757866024
 20
48.0997302327
 30
0.0
 10
41.1981720473
 20
48.1365635063
 30
0.0
 10
41.2092721648
 20
48.170893603
 30
0.0
 10
41.2090834596
 20
48.2026986485
 30
0.0
 10
41.1981037967
 20
48.2312474285
 30
0.0
 10
41.1775304703
 20
48.2565230116
 30
0.0
 10
41.1476981614
 20
48.2793750179
 30
0.0
 10
41.1078087466
 20
48.300380497
 30
0.0
 10
41.0572069897
 20
48.3195069968
 30
0.0
 10
40.9956391046
 20
48.3365664908
 30
0.0
 10
40.9231998071
 20
48.3513689878
 30
0.0
 10
40.8397154692
 20
48.3638249539
 30
0.0
 10
40.7446173721
 20
48.37384453
 30
0.0
 10
40.6368603642
 20
48.3812315789
 30
0.0
 10
40.5149382221
 20
48.3854715696
 30
0.0
 10
40.3769127595
 20
48.3854979325
 30
0.0
 10
40.2213685866
 20
48.3792484896
 30
0.0
 10
40.0498559039
 20
48.3634590643
 30
0.0
 10
39.8716179716
 20
48.3351252518
 30
0.0
 10
39.6996354366
 20
48.2947344633
 30
0.0
 10
39.5446341835
 20
48.2466365018
 30
0.0
 10
39.4090644717
 20
48.1953558251
 30
0.0
 10
39.2906821583
 20
48.1439206554
 30
0.0
 10
39.1865863107
 20
48.0939232519
 30
0.0
 10
39.0947841531
 20
48.0468326144
 30
0.0
 10
39.0138506478
 20
48.0045438446
 30
0.0
 10
38.9422894443
 20
47.9685417118
 30
0.0
 10
38.8785228315
 20
47.9398778392
 30
0.0
 10
38.820443805
 20
47.9195239048
 30
0.0
 10
38.7660856676
 20
47.9090471683
 30
0.0
 10
38.7309145606
 20
47.9094282441
 30
0.0
 10
38.7142401644
 20
47.9114207796
 30
0.0
  0
SPLINE
  5
2DC
100
AcDbEntity
  8
0
100
AcDbSpline
 62
7
  6
BYLAYER
 70
0
 71
3
 72
15
 73
11
 74
0
 42
0.0000001
 43
0.0000001
 44
0.0000000001
 40
0.0
 40
0.0
 40
0.0
 40
0.0
 40
0.0849830585
 40
0.1762349021
 40
0.2774896127
 40
0.3933039454
 40
0.5267375053
 40
0.6756611531
 40
0.8354437996
 40
1.0
 40
1.0
 40
1.0
 40
1.0
 10
38.60944474
 20
47.3137088154
 30
0.0
 10
38.6414120491
 20
47.3166751072
 30
0.0
 10
38.7079843448
 20
47.3202378126
 30
0.0
 10
38.8128410918
 20
47.317274359
 30
0.0
 10
38.9290446605
 20
47.3093960706
 30
0.0
 10
39.061303429
 20
47.3025027573
 30
0.0
 10
39.2118376851
 20
47.3030017966
 30
0.0
 10
39.3785379456
 20
47.3159421933
 30
0.0
 10
39.555351454
 20
47.3435267739
 30
0.0
 10
39.6748799439
 20
47.3709257233
 30
0.0
 10
39.7350363525
 20
47.3866024572
 30
0.0
  0
SPLINE
  5
2DD
100
AcDbEntity
  8
0
100
AcDbSpline
 62
7
  6
BYLAYER
 70
0
 71
3
 72
114
 73
110
 74
0
 42
0.0000001
 43
0.0000001
 44
0.0000000001
 40
0.0
 40
0.0
 40
0.0
 40
0.0
 40
0.0005413013
 40
0.0010109297
 40
0.0017148281
 40
0.0023474934
 40
0.0031307306
 40
0.004090046
 40
0.0052173156
 40
0.0064344027
 40
0.0076780137
 40
0.0089649188
 40
0.0102302338
 40
0.0114072772
 40
0.0128447063
 40
0.014134267
 40
0.0151887812
 40
0.0160370138
 40
0.0167146066
 40
0.0172552581
 40
0.0178954213
 40
0.0185559025
 40
0.0192305739
 40
0.0198222124
 40
0.0205994295
 40
0.0216618785
 40
0.0224793689
 40
0.0233307257
 40
0.0243441285
 40
0.0255501066
 40
0.0269833611
 40
0.0285615843
 40
0.0293172166
 40
0.0301564802
 40
0.0310828477
 40
0.0320997033
 40
0.0332102811
 40
0.0344176071
 40
0.0357244467
 40
0.0371332562
 40
0.0386461397
 40
0.0402648106
 40
0.0419905622
 40
0.0438242417
 40
0.0457662258
 40
0.0478164026
 40
0.0499741576
 40
0.0522383649
 40
0.0546073818
 40
0.057079049
 40
0.0596506932
 40
0.0623191522
 40
0.0650809782
 40
0.067932387
 40
0.0708691412
 40
0.0738865616
 40
0.0769795449
 40
0.0801425821
 40
0.0833697797
 40
0.0866548823
 40
0.0899913403
 40
0.0933726422
 40
0.0967921472
 40
0.1002429349
 40
0.1037178227
 40
0.1072093866
 40
0.1107099812
 40
0.1142117605
 40
0.1177066986
 40
0.1211866105
 40
0.1246431723
 40
0.1280679422
 40
0.1314523796
 40
0.133882904
 40
0.1357691562
 40
0.1377524883
 40
0.1399178555
 40
0.1423522042
 40
0.1451448383
 40
0.1483879095
 40
0.152176998
 40
0.1566117564
 40
0.1617968801
 40
0.1678429944
 40
0.1748672454
 40
0.1829938894
 40
0.1923546646
 40
0.203088833
 40
0.2153427652
 40
0.229268922
 40
0.2450246024
 40
0.262773947
 40
0.2826851901
 40
0.3049257639
 40
0.3296578063
 40
0.3570397737
 40
0.3872266304
 40
0.4203573916
 40
0.4565593406
 40
0.4959591676
 40
0.5386685296
 40
0.5818960346
 40
0.6289551212
 40
0.6821586108
 40
0.743429284
 40
0.8105055505
 40
0.8793739367
 40
0.9439039891
 40
1.0
 40
1.0
 40
1.0
 40
1.0
 10
43.5364261527
 20
50.4258344525
 30
0.0
 10
43.5370611046
 20
50.4247283055
 30
0.0
 10
43.5390764862
 20
50.4231226951
 30
0.0
 10
43.5430596561
 20
50.4222707519
 30
0.0
 10
43.5473361999
 20
50.4222257044
 30
0.0
 10
43.5523103988
 20
50.422697894
 30
0.0
 10
43.5578433705
 20
50.4235598423
 30
0.0
 10
43.5644722612
 20
50.4249026088
 30
0.0
 10
43.5720420327
 20
50.4267236092
 30
0.0
 10
43.5801999079
 20
50.4289456896
 30
0.0
 10
43.5886598507
 20
50.431478895
 30
0.0
 10
43.5971674209
 20
50.4342402548
 30
0.0
 10
43.6054792769
 20
50.4370912914
 30
0.0
 10
43.6140966819
 20
50.4401430494
 30
0.0
 10
43.6227440391
 20
50.4432796708
 30
0.0
 10
43.6311352998
 20
50.4462777161
 30
0.0
 10
43.6382747728
 20
50.4486451539
 30
0.0
 10
43.6441324485
 20
50.4502992944
 30
0.0
 10
43.6488764055
 20
50.4513579497
 30
0.0
 10
43.6532552174
 20
50.4519704205
 30
0.0
 10
43.6574302464
 20
50.4521958933
 30
0.0
 10
43.6627847887
 20
50.4506334065
 30
0.0
 10
43.6622629264
 20
50.4451270102
 30
0.0
 10
43.6599441637
 20
50.4410675078
 30
0.0
 10
43.6566612894
 20
50.4362987372
 30
0.0
 10
43.652618889
 20
50.4315324806
 30
0.0
 10
43.6482632739
 20
50.426789208
 30
0.0
 10
43.6438530385
 20
50.4222625615
 30
0.0
 10
43.6386877017
 20
50.417194881
 30
0.0
 10
43.6324228892
 20
50.4112931337
 30
0.0
 10
43.6250706371
 20
50.4046070587
 30
0.0
 10
43.61841711
 20
50.3987315254
 30
0.0
 10
43.6127711226
 20
50.3938302248
 30
0.0
 10
43.6082650005
 20
50.3899589335
 30
0.0
 10
43.6032707485
 20
50.3857114252
 30
0.0
 10
43.5977671666
 20
50.3810761626
 30
0.0
 10
43.5917340746
 20
50.3760420797
 30
0.0
 10
43.5851526266
 20
50.3705988137
 30
0.0
 10
43.578005629
 20
50.3647368996
 30
0.0
 10
43.5702778386
 20
50.358447932
 30
0.0
 10
43.5619561468
 20
50.3517248147
 30
0.0
 10
43.5530300877
 20
50.3445615372
 30
0.0
 10
43.5434904038
 20
50.3369553112
 30
0.0
 10
43.5333293926
 20
50.3289064806
 30
0.0
 10
43.5225421391
 20
50.320417242
 30
0.0
 10
43.5111263543
 20
50.3114920604
 30
0.0
 10
43.4990825558
 20
50.3021375988
 30
0.0
 10
43.4864141152
 20
50.2923627644
 30
0.0
 10
43.4731273216
 20
50.2821786827
 30
0.0
 10
43.4592313829
 20
50.2715987057
 30
0.0
 10
43.4447384998
 20
50.2606382062
 30
0.0
 10
43.4296630642
 20
50.249314739
 30
0.0
 10
43.4140236481
 20
50.237644688
 30
0.0
 10
43.397841988
 20
50.2256444169
 30
0.0
 10
43.3811421408
 20
50.2133320037
 30
0.0
 10
43.3639509368
 20
50.2007269817
 30
0.0
 10
43.3462977981
 20
50.1878503909
 30
0.0
 10
43.3282146446
 20
50.1747246802
 30
0.0
 10
43.309735766
 20
50.1613736326
 30
0.0
 10
43.29089758
 20
50.1478222503
 30
0.0
 10
43.2717378941
 20
50.1340960762
 30
0.0
 10
43.2522948657
 20
50.1202217044
 30
0.0
 10
43.2326073766
 20
50.1062262096
 30
0.0
 10
43.2127157672
 20
50.0921373319
 30
0.0
 10
43.1926620066
 20
50.0779836954
 30
0.0
 10
43.1724895877
 20
50.0637947158
 30
0.0
 10
43.1522434037
 20
50.0496005255
 30
0.0
 10
43.1319696259
 20
50.0354318931
 30
0.0
 10
43.1117155801
 20
50.0213201454
 30
0.0
 10
43.0915296226
 20
50.0072970883
 30
0.0
 10
43.0714610161
 20
49.993394931
 30
0.0
 10
43.0515598079
 20
49.9796462106
 30
0.0
 10
43.0336325468
 20
49.9672935661
 30
0.0
 10
43.0186799177
 20
49.9570129683
 30
0.0
 10
43.0064414427
 20
49.9486118108
 30
0.0
 10
42.9947127941
 20
49.9405719114
 30
0.0
 10
42.9819128851
 20
49.9318106724
 30
0.0
 10
42.9675319684
 20
49.9219832018
 30
0.0
 10
42.9510450175
 20
49.9107369215
 30
0.0
 10
42.931908603
 20
49.8977101483
 30
0.0
 10
42.9095571269
 20
49.8825304588
 30
0.0
 10
42.8833980611
 20
49.8648125188
 30
0.0
 10
42.852806272
 20
49.8441559842
 30
0.0
 10
42.8171184066
 20
49.8201435591
 30
0.0
 10
42.7756280017
 20
49.792339611
 30
0.0
 10
42.7275813048
 20
49.7602899424
 30
0.0
 10
42.6721740124
 20
49.7235225669
 30
0.0
 10
42.6085497357
 20
49.6815502292
 30
0.0
 10
42.5358009373
 20
49.6338752195
 30
0.0
 10
42.4529720902
 20
49.579996479
 30
0.0
 10
42.359057687
 20
49.5194143395
 30
0.0
 10
42.2530027008
 20
49.4516392177
 30
0.0
 10
42.1337104815
 20
49.3762049736
 30
0.0
 10
42.0000627429
 20
49.292692222
 30
0.0
 10
41.8509301622
 20
49.2007479282
 30
0.0
 10
41.6851713517
 20
49.1001019746
 30
0.0
 10
41.5016471414
 20
48.990596119
 30
0.0
 10
41.2992326884
 20
48.872206575
 30
0.0
 10
41.0767888725
 20
48.7450872158
 30
0.0
 10
40.8331176824
 20
48.609660441
 30
0.0
 10
40.5729971187
 20
48.469804979
 30
0.0
 10
40.2945725133
 20
48.3259658971
 30
0.0
 10
39.9912566744
 20
48.1765475501
 30
0.0
 10
39.6457262826
 20
48.01683172
 30
0.0
 10
39.251662858
 20
47.8501060111
 30
0.0
 10
38.8157415406
 20
47.6885725573
 30
0.0
 10
38.3634387702
 20
47.5510037875
 30
0.0
 10
37.9270477358
 20
47.4543469058
 30
0.0
 10
37.6440813708
 20
47.4202855869
 30
0.0
 10
37.5120549416
 20
47.4140159813
 30
0.0
  0
SPLINE
  5
2DE
100
AcDbEntity
  8
0
100
AcDbSpline
 62
7
  6
BYLAYER
 70
0
 71
3
 72
76
 73
72
 74
0
 42
0.0000001
 43
0.0000001
 44
0.0000000001
 40
0.0
 40
0.0
 40
0.0
 40
0.0
 40
0.0532192182
 40
0.1020074367
 40
0.1468835885
 40
0.1881536617
 40
0.2260133809
 40
0.2607813331
 40
0.2927548099
 40
0.3221985847
 40
0.3493375818
 40
0.3743608322
 40
0.3974443147
 40
0.4186720227
 40
0.4379183961
 40
0.4547280197
 40
0.4754317535
 40
0.4990185572
 40
0.5248507424
 40
0.552872143
 40
0.5811217785
 40
0.6344014452
 40
0.6770322265
 40
0.6926539389
 40
0.7007724897
 40
0.7121581929
 40
0.7249384139
 40
0.7379549048
 40
0.750427613
 40
0.7619198491
 40
0.7722278265
 40
0.7812985451
 40
0.7891697236
 40
0.7959265123
 40
0.8016705664
 40
0.80649955
 40
0.8105410587
 40
0.8169316616
 40
0.8225380702
 40
0.82368769
 40
0.8287487844
 40
0.8351524844
 40
0.8400317733
 40
0.8418138425
 40
0.8463999614
 40
0.8483018606
 40
0.851375485
 40
0.853461897
 40
0.8550460346
 40
0.8565536417
 40
0.857996312
 40
0.8592241611
 40
0.8602717087
 40
0.8611061378
 40
0.861700143
 40
0.8629418026
 40
0.8643342429
 40
0.8663173609
 40
0.8689729962
 40
0.872388738
 40
0.8766641134
 40
0.8819123147
 40
0.8882620594
 40
0.8958596851
 40
0.9048715268
 40
0.915481535
 40
0.9278803246
 40
0.9422785805
 40
0.9589134046
 40
0.978046159
 40
1.0
 40
1.0
 40
1.0
 40
1.0
 10
43.5364261527
 20
50.4258344525
 30
0.0
 10
43.5416831964
 20
50.4154242748
 30
0.0
 10
43.5522171765
 20
50.3956951597
 30
0.0
 10
43.568870999
 20
50.3681350723
 30
0.0
 10
43.5852666918
 20
50.3435219381
 30
0.0
 10
43.6008143542
 20
50.3212332936
 30
0.0
 10
43.6155695893
 20
50.3010987435
 30
0.0
 10
43.6296625808
 20
50.2830168721
 30
0.0
 10
43.6430826734
 20
50.2667602815
 30
0.0
 10
43.6558324633
 20
50.2521274538
 30
0.0
 10
43.667915635
 20
50.2389425011
 30
0.0
 10
43.6793128156
 20
50.2270239894
 30
0.0
 10
43.6901382058
 20
50.21635929
 30
0.0
 10
43.7001190324
 20
50.2066519258
 30
0.0
 10
43.7103661727
 20
50.1991919982
 30
0.0
 10
43.7174201799
 20
50.1887374409
 30
0.0
 10
43.728263341
 20
50.1806783772
 30
0.0
 10
43.7397739562
 20
50.1705327749
 30
0.0
 10
43.7525281288
 20
50.1593570813
 30
0.0
 10
43.7666874585
 20
50.1480939869
 30
0.0
 10
43.7852864571
 20
50.1337022307
 30
0.0
 10
43.8101204472
 20
50.1160636424
 30
0.0
 10
43.8229696806
 20
50.1071671823
 30
0.0
 10
43.8453868657
 20
50.0929040983
 30
0.0
 10
43.8358952329
 20
50.098902432
 30
0.0
 10
43.8308369792
 20
50.1021815032
 30
0.0
 10
43.8237337919
 20
50.1068398527
 30
0.0
 10
43.8168503392
 20
50.1114580945
 30
0.0
 10
43.8101397267
 20
50.1160456597
 30
0.0
 10
43.8039828073
 20
50.1203365116
 30
0.0
 10
43.7984634003
 20
50.1242506486
 30
0.0
 10
43.793619657
 20
50.1277422891
 30
0.0
 10
43.7894272758
 20
50.1308080993
 30
0.0
 10
43.7858447187
 20
50.1334696559
 30
0.0
 10
43.7828009837
 20
50.1357466985
 30
0.0
 10
43.7802778159
 20
50.1377026516
 30
0.0
 10
43.7775461782
 20
50.1396957101
 30
0.0
 10
43.7752626433
 20
50.1421663199
 30
0.0
 10
43.7717836355
 20
50.1432348292
 30
0.0
 10
43.7720422206
 20
50.1463336663
 30
0.0
 10
43.7757004739
 20
50.1426991784
 30
0.0
 10
43.7781685586
 20
50.1426640145
 30
0.0
 10
43.7814010282
 20
50.1395738899
 30
0.0
 10
43.7827764282
 20
50.1424469757
 30
0.0
 10
43.7795853036
 20
50.1436697994
 30
0.0
 10
43.7817062211
 20
50.1454574832
 30
0.0
 10
43.7831907971
 20
50.144869022
 30
0.0
 10
43.7848302314
 20
50.1452240524
 30
0.0
 10
43.7852874108
 20
50.1463303833
 30
0.0
 10
43.7858511504
 20
50.1471658503
 30
0.0
 10
43.7866865887
 20
50.1476015442
 30
0.0
 10
43.7872407965
 20
50.1481927225
 30
0.0
 10
43.7877751938
 20
50.148654197
 30
0.0
 10
43.7880987318
 20
50.1490076902
 30
0.0
 10
43.7886851416
 20
50.1495565291
 30
0.0
 10
43.7873955431
 20
50.1493614482
 30
0.0
 10
43.7867535468
 20
50.1488503735
 30
0.0
 10
43.7855023272
 20
50.1482084373
 30
0.0
 10
43.7840314342
 20
50.1472945088
 30
0.0
 10
43.7820851223
 20
50.1461063202
 30
0.0
 10
43.7796912934
 20
50.1445955176
 30
0.0
 10
43.7767561772
 20
50.1427255904
 30
0.0
 10
43.7732202781
 20
50.1404481923
 30
0.0
 10
43.7689985847
 20
50.1377109604
 30
0.0
 10
43.7640014181
 20
50.1344542717
 30
0.0
 10
43.7581291938
 20
50.1306131746
 30
0.0
 10
43.7512777089
 20
50.1261129664
 30
0.0
 10
43.7433331052
 20
50.1208721458
 30
0.0
 10
43.7341693949
 20
50.1147995853
 30
0.0
 10
43.7236407337
 20
50.1077895143
 30
0.0
 10
43.716157602
 20
50.1027828142
 30
0.0
 10
43.7121620407
 20
50.1001032472
 30
0.0
  0
SPLINE
  5
2DF
100
AcDbEntity
  8
0
100
AcDbSpline
 62
7
  6
BYLAYER
 70
0
 71
3
 72
15
 73
11
 74
0
 42
0.0000001
 43
0.0000001
 44
0.0000000001
 40
0.0
 40
0.0
 40
0.0
 40
0.0
 40
0.1580475182
 40
0.3068921382
 40
0.4456425175
 40
0.5699051891
 40
0.6821242887
 40
0.7878811281
 40
0.8930667108
 40
1.0
 40
1.0
 40
1.0
 40
1.0
 10
43.7089523333
 20
50.1691746286
 30
0.0
 10
43.7524402751
 20
50.1905856906
 30
0.0
 10
43.8364023552
 20
50.2331792529
 30
0.0
 10
43.9554327879
 20
50.3004560743
 30
0.0
 10
44.0616382124
 20
50.3690815734
 30
0.0
 10
44.1522679863
 20
50.4402828329
 30
0.0
 10
44.2269050223
 20
50.5147009499
 30
0.0
 10
44.2856366251
 20
50.5945917958
 30
0.0
 10
44.3352453007
 20
50.6797861062
 30
0.0
 10
44.3482334732
 20
50.7441914269
 30
0.0
 10
44.3570509042
 20
50.7757802383
 30
0.0
  0
SPLINE
  5
2E0
100
AcDbEntity
  8
0
100
AcDbSpline
 62
7
  6
BYLAYER
 70
0
 71
3
 72
30
 73
26
 74
0
 42
0.0000001
 43
0.0000001
 44
0.0000000001
 40
0.0
 40
0.0
 40
0.0
 40
0.0
 40
0.1103131998
 40
0.208474759
 40
0.2962277381
 40
0.3749012339
 40
0.4453944733
 40
0.5084511225
 40
0.5647463856
 40
0.6148841687
 40
0.6593701176
 40
0.6987168638
 40
0.7333995276
 40
0.763754564
 40
0.7900529649
 40
0.8124889378
 40
0.8314633395
 40
0.8479234064
 40
0.8633337776
 40
0.8789986266
 40
0.8963543684
 40
0.9166603957
 40
0.9408154558
 40
0.9689803267
 40
1.0
 40
1.0
 40
1.0
 40
1.0
 10
42.431337456
 20
49.0033594784
 30
0.0
 10
42.510625618
 20
49.027966824
 30
0.0
 10
42.6592606253
 20
49.0784578957
 30
0.0
 10
42.8667824576
 20
49.1600864112
 30
0.0
 10
43.0489500591
 20
49.2406203386
 30
0.0
 10
43.2091834572
 20
49.3189187327
 30
0.0
 10
43.3500434475
 20
49.3942725701
 30
0.0
 10
43.4735104226
 20
49.4662293255
 30
0.0
 10
43.5812031645
 20
49.534646121
 30
0.0
 10
43.6744383886
 20
49.5995747779
 30
0.0
 10
43.7543316005
 20
49.6611505545
 30
0.0
 10
43.8217592431
 20
49.719625452
 30
0.0
 10
43.8773767894
 20
49.7752180419
 30
0.0
 10
43.9215645842
 20
49.8280190529
 30
0.0
 10
43.9543650476
 20
49.8778898862
 30
0.0
 10
43.9757462831
 20
49.9244176477
 30
0.0
 10
43.9860349634
 20
49.9670841038
 30
0.0
 10
43.9860173285
 20
50.0057592666
 30
0.0
 10
43.9763589145
 20
50.040675536
 30
0.0
 10
43.9571910363
 20
50.0721841103
 30
0.0
 10
43.9281082136
 20
50.1003722943
 30
0.0
 10
43.8882997958
 20
50.1250058494
 30
0.0
 10
43.8373416998
 20
50.1453512313
 30
0.0
 10
43.7763586672
 20
50.1606271323
 30
0.0
 10
43.7321733342
 20
50.1667754896
 30
0.0
 10
43.7089523333
 20
50.1691746286
 30
0.0
  0
SPLINE
  5
2E1
100
AcDbEntity
  8
0
100
AcDbSpline
 62
7
  6
BYLAYER
 70
0
 71
3
 72
13
 73
9
 74
0
 42
0.0000001
 43
0.0000001
 44
0.0000000001
 40
0.0
 40
0.0
 40
0.0
 40
0.0
 40
0.1249628891
 40
0.2655132472
 40
0.4221202816
 40
0.5952291921
 40
0.786455686
 40
1.0
 40
1.0
 40
1.0
 40
1.0
 10
39.3752984478
 20
48.4176461913
 30
0.0
 10
39.4673113213
 20
48.4109049959
 30
0.0
 10
39.6647767228
 20
48.4198235351
 30
0.0
 10
39.969593536
 20
48.4903668838
 30
0.0
 10
40.2944727171
 20
48.6147462763
 30
0.0
 10
40.6424678288
 20
48.7788504091
 30
0.0
 10
41.022407625
 20
48.9726679569
 30
0.0
 10
41.2811039253
 20
49.1240644904
 30
0.0
 10
41.4257031909
 20
49.1868922128
 30
0.0
  0
SPLINE
  5
2E2
100
AcDbEntity
  8
0
100
AcDbSpline
 62
7
  6
BYLAYER
 70
0
 71
3
 72
13
 73
9
 74
0
 42
0.0000001
 43
0.0000001
 44
0.0000000001
 40
0.0
 40
0.0
 40
0.0
 40
0.0
 40
0.1939982153
 40
0.3798514825
 40
0.5535049026
 40
0.7131860047
 40
0.8603082274
 40
1.0
 40
1.0
 40
1.0
 40
1.0
 10
38.7044121546
 20
47.8868354624
 30
0.0
 10
38.7003032579
 20
47.9591427599
 30
0.0
 10
38.6799080854
 20
48.1003742839
 30
0.0
 10
38.6132128538
 20
48.2972345788
 30
0.0
 10
38.5144722523
 20
48.4658180181
 30
0.0
 10
38.3885038909
 20
48.5963568909
 30
0.0
 10
38.2414703591
 20
48.6802321653
 30
0.0
 10
38.1335830015
 20
48.6998993784
 30
0.0
 10
38.0814328839
 20
48.6998993784
 30
0.0
  0
SPLINE
  5
2E3
100
AcDbEntity
  8
0
100
AcDbSpline
 62
7
  6
BYLAYER
 70
0
 71
3
 72
11
 73
7
 74
0
 42
0.0000001
 43
0.0000001
 44
0.0000000001
 40
0.0
 40
0.0
 40
0.0
 40
0.0
 40
0.2448720791
 40
0.4937796034
 40
0.7458087264
 40
1.0
 40
1.0
 40
1.0
 40
1.0
 10
38.6508107483
 20
48.2180505609
 30
0.0
 10
38.6593392982
 20
48.1938750188
 30
0.0
 10
38.6748080059
 20
48.1445304862
 30
0.0
 10
38.6930871202
 20
48.0685876188
 30
0.0
 10
38.706560408
 20
47.9906624159
 30
0.0
 10
38.7122294717
 20
47.9379505739
 30
0.0
 10
38.7142401644
 20
47.9114207796
 30
0.0
  0
SPLINE
  5
2E4
100
AcDbEntity
  8
0
100
AcDbSpline
 62
7
  6
BYLAYER
 70
0
 71
3
 72
32
 73
28
 74
0
 42
0.0000001
 43
0.0000001
 44
0.0000000001
 40
0.0
 40
0.0
 40
0.0
 40
0.0
 40
0.034858382
 40
0.0703343907
 40
0.1062691414
 40
0.1424966082
 40
0.2151144396
 40
0.2868463771
 40
0.3563820802
 40
0.4226660639
 40
0.4849748628
 40
0.5146132747
 40
0.5432465303
 40
0.5709539433
 40
0.5978752797
 40
0.624181158
 40
0.6500728205
 40
0.6757871178
 40
0.7015753542
 40
0.72767317
 40
0.7542992
 40
0.8097784315
 40
0.8691045863
 40
0.9003710051
 40
0.9326584461
 40
0.9658980322
 40
1.0
 40
1.0
 40
1.0
 40
1.0
 10
37.5120543739
 20
47.4140159796
 30
0.0
 10
37.5026631528
 20
47.4406445333
 30
0.0
 10
37.4858073715
 20
47.4950897017
 30
0.0
 10
37.4664950192
 20
47.5790174052
 30
0.0
 10
37.453027705
 20
47.6651975412
 30
0.0
 10
37.4430858499
 20
47.7820811455
 30
0.0
 10
37.4460493838
 20
47.9287663876
 30
0.0
 10
37.4733130245
 20
48.1003541959
 30
0.0
 10
37.5238144844
 20
48.2613094034
 30
0.0
 10
37.5952398503
 20
48.4057299806
 30
0.0
 10
37.6719069901
 20
48.5094360799
 30
0.0
 10
37.7412794686
 20
48.5783532754
 30
0.0
 10
37.7957752452
 20
48.6219136373
 30
0.0
 10
37.8531332296
 20
48.6576452628
 30
0.0
 10
37.9127452778
 20
48.6852760522
 30
0.0
 10
37.9740286257
 20
48.7045622574
 30
0.0
 10
38.0364033775
 20
48.7152552069
 30
0.0
 10
38.0992464806
 20
48.7171012047
 30
0.0
 10
38.1618966233
 20
48.7102085474
 30
0.0
 10
38.2237450418
 20
48.6946962169
 30
0.0
 10
38.3053793952
 20
48.6622729204
 30
0.0
 10
38.4026472986
 20
48.5996041406
 30
0.0
 10
38.4862144133
 20
48.5147019653
 30
0.0
 10
38.5451804237
 20
48.4344274896
 30
0.0
 10
38.5857369556
 20
48.3672406424
 30
0.0
 10
38.6214793227
 20
48.2948282441
 30
0.0
 10
38.6416111063
 20
48.2440854649
 30
0.0
 10
38.6508105086
 20
48.2180505647
 30
0.0
  0
SPLINE
  5
2E5
100
AcDbEntity
  8
0
100
AcDbSpline
 62
7
  6
BYLAYER
 70
0
 71
3
 72
26
 73
22
 74
0
 42
0.0000001
 43
0.0000001
 44
0.0000000001
 40
0.0
 40
0.0
 40
0.0
 40
0.0
 40
0.0335291523
 40
0.066449861
 40
0.1672033162
 40
0.2151286864
 40
0.2614287154
 40
0.3062316539
 40
0.3497635039
 40
0.3923001564
 40
0.4341670208
 40
0.4757470857
 40
0.5174467111
 40
0.5596469282
 40
0.6027012702
 40
0.6924113
 40
0.7883418197
 40
0.8388996881
 40
0.891108553
 40
0.9448570396
 40
1.0
 40
1.0
 40
1.0
 40
1.0
 10
38.60944474
 20
47.3137088154
 30
0.0
 10
38.6022314612
 20
47.2985369451
 30
0.0
 10
38.5871911345
 20
47.2688490523
 30
0.0
 10
38.5454097188
 20
47.1962795387
 30
0.0
 10
38.4909520572
 20
47.1226232778
 30
0.0
 10
38.4215868096
 20
47.0537145382
 30
0.0
 10
38.3670897033
 20
47.0101525888
 30
0.0
 10
38.3097320859
 20
46.9744213682
 30
0.0
 10
38.2501199711
 20
46.9467904749
 30
0.0
 10
38.1888366674
 20
46.9275042964
 30
0.0
 10
38.1264619304
 20
46.9168113399
 30
0.0
 10
38.0636188487
 20
46.914965344
 30
0.0
 10
38.0009687245
 20
46.9218580009
 30
0.0
 10
37.9391203239
 20
46.9373703317
 30
0.0
 10
37.8574859912
 20
46.969793629
 30
0.0
 10
37.7602181109
 20
47.0324624105
 30
0.0
 10
37.6766510159
 20
47.117364584
 30
0.0
 10
37.6176850164
 20
47.1976390581
 30
0.0
 10
37.5771284901
 20
47.2648259049
 30
0.0
 10
37.5413861265
 20
47.3372383028
 30
0.0
 10
37.5212543439
 20
47.3879810813
 30
0.0
 10
37.5120549416
 20
47.4140159813
 30
0.0
  0
SPLINE
  5
2E6
100
AcDbEntity
  8
0
100
AcDbSpline
 62
7
  6
BYLAYER
 70
0
 71
3
 72
11
 73
7
 74
0
 42
0.0000001
 43
0.0000001
 44
0.0000000001
 40
0.0
 40
0.0
 40
0.0
 40
0.0
 40
0.2241758524
 40
0.4612273644
 40
0.7192470999
 40
1.0
 40
1.0
 40
1.0
 40
1.0
 10
38.0814328839
 20
46.9321671659
 30
0.0
 10
38.1340184748
 20
46.9321671659
 30
0.0
 10
38.24304005
 20
46.9522151626
 30
0.0
 10
38.3915165722
 20
47.0378440712
 30
0.0
 10
38.5183801076
 20
47.1711614254
 30
0.0
 10
38.5818773602
 20
47.2818085272
 30
0.0
 10
38.6088770455
 20
47.3418765401
 30
0.0
  0
SPLINE
  5
2E7
100
AcDbEntity
  8
0
100
AcDbSpline
 62
7
  6
BYLAYER
 70
0
 71
3
 72
13
 73
9
 74
0
 42
0.0000001
 43
0.0000001
 44
0.0000000001
 40
0.0
 40
0.0
 40
0.0
 40
0.0
 40
0.1939982153
 40
0.3798514825
 40
0.5535049026
 40
0.7131860047
 40
0.8603082274
 40
1.0
 40
1.0
 40
1.0
 40
1.0
 10
37.4584536131
 20
47.7452310819
 30
0.0
 10
37.4625625099
 20
47.6729237843
 30
0.0
 10
37.4829576823
 20
47.5316922604
 30
0.0
 10
37.549652914
 20
47.3348319655
 30
0.0
 10
37.6483935154
 20
47.1662485262
 30
0.0
 10
37.7743618769
 20
47.0357096534
 30
0.0
 10
37.9213954086
 20
46.951834379
 30
0.0
 10
38.0292827663
 20
46.9321671659
 30
0.0
 10
38.0814328839
 20
46.9321671659
 30
0.0
  0
SPLINE
  5
2E8
100
AcDbEntity
  8
0
100
AcDbSpline
 62
7
  6
BYLAYER
 70
0
 71
3
 72
13
 73
9
 74
0
 42
0.0000001
 43
0.0000001
 44
0.0000000001
 40
0.0
 40
0.0
 40
0.0
 40
0.0
 40
0.137666238
 40
0.2841251005
 40
0.4448124316
 40
0.6202887263
 40
0.8072722757
 40
1.0
 40
1.0
 40
1.0
 40
1.0
 10
38.0814328839
 20
48.6998993784
 30
0.0
 10
38.0235786947
 20
48.6998993784
 30
0.0
 10
37.9031207913
 20
48.6753680648
 30
0.0
 10
37.7430511561
 20
48.5724203499
 30
0.0
 10
37.6112513803
 20
48.4149270897
 30
0.0
 10
37.5151191627
 20
48.2150768323
 30
0.0
 10
37.4602900331
 20
47.9867272723
 30
0.0
 10
37.4538585171
 20
47.8260943878
 30
0.0
 10
37.4584536131
 20
47.7452310819
 30
0.0
  0
SPLINE
  5
2E9
100
AcDbEntity
  8
0
100
AcDbSpline
 62
7
  6
BYLAYER
 70
0
 71
3
 72
46
 73
42
 74
0
 42
0.0000001
 43
0.0000001
 44
0.0000000001
 40
0.0
 40
0.0
 40
0.0
 40
0.0
 40
0.0599258677
 40
0.1077438854
 40
0.1432739293
 40
0.1562431702
 40
0.1614887238
 40
0.1658929739
 40
0.1694417271
 40
0.1721096906
 40
0.1731046531
 40
0.173869006
 40
0.1743994389
 40
0.1745760365
 40
0.1746932879
 40
0.174751939
 40
0.1747724924
 40
0.1748421784
 40
0.1749721897
 40
0.17516383
 40
0.1754177779
 40
0.1761146959
 40
0.1770668396
 40
0.1782778602
 40
0.1797513443
 40
0.1814908515
 40
0.1857857217
 40
0.1912088531
 40
0.197810222
 40
0.2056398092
 40
0.2251835793
 40
0.2502401725
 40
0.2811957147
 40
0.3183802459
 40
0.4127033841
 40
0.5345709686
 40
0.6805892588
 40
0.7611504084
 40
0.8456092543
 40
0.9219797744
 40
1.0
 40
1.0
 40
1.0
 40
1.0
 10
44.6466992805
 20
51.4171491794
 30
0.0
 10
44.6611587466
 20
51.4271434321
 30
0.0
 10
44.6871299602
 20
51.4451508067
 30
0.0
 10
44.7216799348
 20
51.4690755204
 30
0.0
 10
44.7449459695
 20
51.4851017758
 30
0.0
 10
44.7579262781
 20
51.4940477346
 30
0.0
 10
44.7633807648
 20
51.497824556
 30
0.0
 10
44.766558586
 20
51.5000362239
 30
0.0
 10
44.769106983
 20
51.5018266836
 30
0.0
 10
44.7708320112
 20
51.5030541897
 30
0.0
 10
44.7718787768
 20
51.5038183112
 30
0.0
 10
44.7724223598
 20
51.5042210783
 30
0.0
 10
44.7727529257
 20
51.5044831711
 30
0.0
 10
44.7729521126
 20
51.504641154
 30
0.0
 10
44.7730081294
 20
51.5047073645
 30
0.0
 10
44.7730769298
 20
51.5047565804
 30
0.0
 10
44.773035649
 20
51.5047893766
 30
0.0
 10
44.7729729659
 20
51.504742228
 30
0.0
 10
44.772871073
 20
51.504707347
 30
0.0
 10
44.7727216669
 20
51.5046201895
 30
0.0
 10
44.7724305515
 20
51.5044587922
 30
0.0
 10
44.7719511173
 20
51.5041695522
 30
0.0
 10
44.7712367279
 20
51.5037312814
 30
0.0
 10
44.7703329515
 20
51.5031640778
 30
0.0
 10
44.7692374335
 20
51.5024687828
 30
0.0
 10
44.767383062
 20
51.5012808419
 30
0.0
 10
44.7645619559
 20
51.4994544954
 30
0.0
 10
44.7605555062
 20
51.4968349993
 30
0.0
 10
44.7556932221
 20
51.4936299726
 30
0.0
 10
44.7473905015
 20
51.4881186677
 30
0.0
 10
44.7346159285
 20
51.4795562006
 30
0.0
 10
44.716264429
 20
51.4671313772
 30
0.0
 10
44.6936848626
 20
51.4517224025
 30
0.0
 10
44.6542797425
 20
51.4249252866
 30
0.0
 10
44.5924967059
 20
51.3836143824
 30
0.0
 10
44.5033859482
 20
51.3257606537
 30
0.0
 10
44.4176213192
 20
51.2701692942
 30
0.0
 10
44.3412391835
 20
51.2202764098
 30
0.0
 10
44.2820585963
 20
51.1814059997
 30
0.0
 10
44.2235969563
 20
51.1427990774
 30
0.0
 10
44.1858047141
 20
51.1178484295
 30
0.0
 10
44.1666895741
 20
51.1052657616
 30
0.0
  0
SPLINE
  5
2EA
100
AcDbEntity
  8
0
100
AcDbSpline
 62
7
  6
BYLAYER
 70
0
 71
3
 72
22
 73
18
 74
0
 42
0.0000001
 43
0.0000001
 44
0.0000000001
 40
0.0
 40
0.0
 40
0.0
 40
0.0
 40
0.3009145975
 40
0.3215552355
 40
0.4885670089
 40
0.5915830955
 40
0.601711726
 40
0.6179992742
 40
0.6404177443
 40
0.6540671604
 40
0.6732524589
 40
0.6960788433
 40
0.7234244125
 40
0.7628117733
 40
0.8183934701
 40
0.8952932717
 40
1.0
 40
1.0
 40
1.0
 40
1.0
 10
43.793858153
 20
50.1180234514
 30
0.0
 10
43.816415091
 20
50.1334335719
 30
0.0
 10
43.8881591899
 20
50.1601417976
 30
0.0
 10
43.8409071206
 20
50.1697071505
 30
0.0
 10
43.8185981143
 20
50.1457559274
 30
0.0
 10
43.8010078919
 20
50.1346979477
 30
0.0
 10
43.7851068627
 20
50.1328665157
 30
0.0
 10
43.7906759894
 20
50.1380461484
 30
0.0
 10
43.7924038595
 20
50.1404751809
 30
0.0
 10
43.7957806588
 20
50.1469616031
 30
0.0
 10
43.7879610261
 20
50.1444069321
 30
0.0
 10
43.7833524517
 20
50.1420535289
 30
0.0
 10
43.7757501493
 20
50.1381552595
 30
0.0
 10
43.7662289106
 20
50.1327911525
 30
0.0
 10
43.7526678896
 20
50.124916892
 30
0.0
 10
43.7342518384
 20
50.1138228233
 30
0.0
 10
43.7202215489
 20
50.1051433712
 30
0.0
 10
43.7121620445
 20
50.1001032498
 30
0.0
  0
SPLINE
  5
2EB
100
AcDbEntity
  8
0
100
AcDbSpline
 62
7
  6
BYLAYER
 70
0
 71
3
 72
13
 73
9
 74
0
 42
0.0000001
 43
0.0000001
 44
0.0000000001
 40
0.0
 40
0.0
 40
0.0
 40
0.0
 40
0.103635405
 40
0.2822605559
 40
0.5140058254
 40
0.7305690176
 40
0.90245193
 40
1.0
 40
1.0
 40
1.0
 40
1.0
 10
43.851540797
 20
50.1862955525
 30
0.0
 10
43.8490497226
 20
50.1844279466
 30
0.0
 10
43.8428072397
 20
50.1786581351
 30
0.0
 10
43.8318110158
 20
50.1678119951
 30
0.0
 10
43.8192293848
 20
50.1538490682
 30
0.0
 10
43.8065932697
 20
50.1399303334
 30
0.0
 10
43.7981383689
 20
50.1284914994
 30
0.0
 10
43.7937078705
 20
50.1209501424
 30
0.0
 10
43.793858153
 20
50.1180234514
 30
0.0
  0
SPLINE
  5
2EC
100
AcDbEntity
  8
0
100
AcDbSpline
 62
7
  6
BYLAYER
 70
0
 71
3
 72
37
 73
33
 74
0
 42
0.0000001
 43
0.0000001
 44
0.0000000001
 40
0.0
 40
0.0
 40
0.0
 40
0.0
 40
0.0003854919
 40
0.001411194
 40
0.0029765529
 40
0.0050737738
 40
0.0076949812
 40
0.0108299471
 40
0.0144591206
 40
0.023112544
 40
0.0334810619
 40
0.0453941323
 40
0.0732156197
 40
0.10548135
 40
0.1413889018
 40
0.2215316497
 40
0.3096834158
 40
0.4030142454
 40
0.4994869295
 40
0.5978927043
 40
0.647725274
 40
0.6981066793
 40
0.7491688761
 40
0.8009076021
 40
0.8531543302
 40
0.8792186853
 40
0.904991652
 40
0.93023915
 40
0.954671923
 40
0.978004324
 40
0.989183333
 40
1.0
 40
1.0
 40
1.0
 40
1.0
 10
43.8515411838
 20
50.1862950832
 30
0.0
 10
43.8508196326
 20
50.1857604309
 30
0.0
 10
43.8481536646
 20
50.1838379405
 30
0.0
 10
43.842390157
 20
50.1799823358
 30
0.0
 10
43.8332847032
 20
50.1739561254
 30
0.0
 10
43.8210231735
 20
50.1659640714
 30
0.0
 10
43.8056723174
 20
50.1560176621
 30
0.0
 10
43.7873005251
 20
50.1441716016
 30
0.0
 10
43.7571050883
 20
50.124736181
 30
0.0
 10
43.7127431866
 20
50.0961812146
 30
0.0
 10
43.6522199674
 20
50.0570862384
 30
0.0
 10
43.5539918344
 20
49.9940819804
 30
0.0
 10
43.4120310037
 20
49.9048020086
 30
0.0
 10
43.2219422532
 20
49.7870856459
 30
0.0
 10
42.9269919392
 20
49.6072507067
 30
0.0
 10
42.5182229069
 20
49.3640709155
 30
0.0
 10
41.989264916
 20
49.0614686914
 30
0.0
 10
41.4206820849
 20
48.7517736438
 30
0.0
 10
40.8230948574
 20
48.4458010401
 30
0.0
 10
40.3073181972
 20
48.2028738668
 30
0.0
 10
39.8825571826
 20
48.0194982703
 30
0.0
 10
39.5554977991
 20
47.888313408
 30
0.0
 10
39.2204731124
 20
47.7654308493
 30
0.0
 10
38.8769863187
 20
47.6536519478
 30
0.0
 10
38.5850147876
 20
47.5725004134
 30
0.0
 10
38.348956496
 20
47.5171679159
 30
0.0
 10
38.1729547163
 20
47.4815320399
 30
0.0
 10
37.9995700285
 20
47.4526129943
 30
0.0
 10
37.8308349497
 20
47.4310857669
 30
0.0
 10
37.6939583562
 20
47.4197470391
 30
0.0
 10
37.5884775207
 20
47.4150157452
 30
0.0
 10
37.5372501295
 20
47.4140990973
 30
0.0
 10
37.5120543739
 20
47.4140159796
 30
0.0
  0
SPLINE
  5
2ED
100
AcDbEntity
  8
0
100
AcDbSpline
 62
7
  6
BYLAYER
 70
0
 71
3
 72
16
 73
12
 74
0
 42
0.0000001
 43
0.0000001
 44
0.0000000001
 40
0.0
 40
0.0
 40
0.0
 40
0.0
 40
0.0563199803
 40
0.1110873616
 40
0.358151586
 40
0.4655835083
 40
0.5615762564
 40
0.7186606002
 40
0.8342864284
 40
0.9217805258
 40
1.0
 40
1.0
 40
1.0
 40
1.0
 10
39.375377405
 20
48.4176771513
 30
0.0
 10
39.3621815575
 20
48.4125024108
 30
0.0
 10
39.3361246444
 20
48.402371328
 30
0.0
 10
39.251917919
 20
48.3702217357
 30
0.0
 10
39.1550390924
 20
48.3351748551
 30
0.0
 10
39.0473865861
 20
48.2995922802
 30
0.0
 10
38.9606824098
 20
48.2728573038
 30
0.0
 10
38.8711346781
 20
48.2483754781
 30
0.0
 10
38.7824547744
 20
48.2293298988
 30
0.0
 10
38.7122300839
 20
48.2195336263
 30
0.0
 10
38.6705372258
 20
48.2177216979
 30
0.0
 10
38.6508105086
 20
48.2180505647
 30
0.0
  0
SPLINE
  5
2EE
100
AcDbEntity
  8
0
100
AcDbSpline
 62
7
  6
BYLAYER
 70
0
 71
3
 72
32
 73
28
 74
0
 42
0.0000001
 43
0.0000001
 44
0.0000000001
 40
0.0
 40
0.0
 40
0.0
 40
0.0
 40
0.0862694564
 40
0.1704928702
 40
0.2489961122
 40
0.3213159873
 40
0.3872569848
 40
0.4466867002
 40
0.4997187567
 40
0.5460869545
 40
0.5855713837
 40
0.6179412838
 40
0.6427875552
 40
0.6604710724
 40
0.6722260081
 40
0.6793537879
 40
0.6835792546
 40
0.6895172365
 40
0.7004767844
 40
0.7175231068
 40
0.7407018494
 40
0.7700355648
 40
0.8053011237
 40
0.8461696357
 40
0.8922882605
 40
0.9435642046
 40
1.0
 40
1.0
 40
1.0
 40
1.0
 10
38.993796108
 20
48.3034083602
 30
0.0
 10
39.028363937
 20
48.3060082544
 30
0.0
 10
39.0967106841
 20
48.3107115045
 30
0.0
 10
39.1965421804
 20
48.3174439073
 30
0.0
 10
39.2905746237
 20
48.3264414113
 30
0.0
 10
39.3770501225
 20
48.3369295453
 30
0.0
 10
39.4556905296
 20
48.3481945465
 30
0.0
 10
39.5264362916
 20
48.3598080545
 30
0.0
 10
39.589181319
 20
48.3715089662
 30
0.0
 10
39.6437880063
 20
48.3830714443
 30
0.0
 10
39.6899747426
 20
48.394169203
 30
0.0
 10
39.7274884857
 20
48.4044362708
 30
0.0
 10
39.7560683307
 20
48.4136957496
 30
0.0
 10
39.7766040056
 20
48.4215226554
 30
0.0
 10
39.7893069099
 20
48.4284763491
 30
0.0
 10
39.7974943119
 20
48.4337662005
 30
0.0
 10
39.7987723718
 20
48.4417778301
 30
0.0
 10
39.7899761661
 20
48.4463069038
 30
0.0
 10
39.7773943161
 20
48.4494883181
 30
0.0
 10
39.75663856
 20
48.4522837398
 30
0.0
 10
39.7289027433
 20
48.4543014431
 30
0.0
 10
39.6936013275
 20
48.4557577754
 30
0.0
 10
39.6512505897
 20
48.4567042135
 30
0.0
 10
39.6021222031
 20
48.4572690461
 30
0.0
 10
39.5465669614
 20
48.4575848937
 30
0.0
 10
39.4847528151
 20
48.4575459559
 30
0.0
 10
39.4414718377
 20
48.4578885618
 30
0.0
 10
39.4187944105
 20
48.45784505
 30
0.0
  0
SPLINE
  5
2EF
100
AcDbEntity
  8
0
100
AcDbSpline
 62
7
  6
BYLAYER
 70
0
 71
3
 72
10
 73
6
 74
0
 42
0.0000001
 43
0.0000001
 44
0.0000000001
 40
0.0
 40
0.0
 40
0.0
 40
0.0
 40
0.3510414644
 40
0.6853228869
 40
1.0
 40
1.0
 40
1.0
 40
1.0
 10
39.0477319595
 20
48.7715685009
 30
0.0
 10
38.9866671509
 20
48.7626831979
 30
0.0
 10
38.8679850079
 20
48.7416847168
 30
0.0
 10
38.6930790789
 20
48.7231633026
 30
0.0
 10
38.5792118232
 20
48.7155743756
 30
0.0
 10
38.5239301811
 20
48.7136379989
 30
0.0
  0
SPLINE
  5
2F0
100
AcDbEntity
  8
0
100
AcDbSpline
 62
7
  6
BYLAYER
 70
0
 71
3
 72
19
 73
15
 74
0
 42
0.0000001
 43
0.0000001
 44
0.0000000001
 40
0.0
 40
0.0
 40
0.0
 40
0.0
 40
0.1423882823
 40
0.2682905865
 40
0.3785938203
 40
0.4737304327
 40
0.5530024629
 40
0.6181283399
 40
0.6739797391
 40
0.7269495394
 40
0.7826777559
 40
0.8454850601
 40
0.9181397986
 40
1.0
 40
1.0
 40
1.0
 40
1.0
 10
39.375688174
 20
48.4176138625
 30
0.0
 10
39.346171952
 20
48.4197969367
 30
0.0
 10
39.2906650596
 20
48.4260704288
 30
0.0
 10
39.2136232866
 20
48.4428175798
 30
0.0
 10
39.1482421105
 20
48.4649957798
 30
0.0
 10
39.0950542536
 20
48.4914626648
 30
0.0
 10
39.0546368555
 20
48.5210220172
 30
0.0
 10
39.026221008
 20
48.5518160203
 30
0.0
 10
39.0075827076
 20
48.5831243247
 30
0.0
 10
38.996934955
 20
48.6159125269
 30
0.0
 10
38.9939179638
 20
48.6518264341
 30
0.0
 10
39.0003332189
 20
48.6911801001
 30
0.0
 10
39.01352909
 20
48.7350704359
 30
0.0
 10
39.0352498273
 20
48.7600046516
 30
0.0
 10
39.0477319595
 20
48.7715685009
 30
0.0
  0
SPLINE
  5
2F1
100
AcDbEntity
  8
0
100
AcDbSpline
 62
7
  6
BYLAYER
 70
0
 71
3
 72
26
 73
22
 74
0
 42
0.0000001
 43
0.0000001
 44
0.0000000001
 40
0.0
 40
0.0
 40
0.0
 40
0.0
 40
0.0079038251
 40
0.010932178
 40
0.0212231218
 40
0.0390516594
 40
0.0663408054
 40
0.1056935168
 40
0.1590771066
 40
0.2133732099
 40
0.2829616547
 40
0.3677549092
 40
0.4454193631
 40
0.5290104668
 40
0.6166405407
 40
0.702083699
 40
0.7789631832
 40
0.8499461896
 40
0.9125772065
 40
0.9641216261
 40
1.0
 40
1.0
 40
1.0
 40
1.0
 10
51.0976978217
 20
50.6231445204
 30
0.0
 10
51.1152683878
 20
50.6187503324
 30
0.0
 10
51.1733407877
 20
50.6086970507
 30
0.0
 10
51.1066107533
 20
50.6188075865
 30
0.0
 10
51.048131498
 20
50.6271547432
 30
0.0
 10
50.9164074912
 20
50.6546733602
 30
0.0
 10
50.7290978025
 20
50.6854802808
 30
0.0
 10
50.4571070351
 20
50.7368926376
 30
0.0
 10
50.1234128081
 20
50.7793779626
 30
0.0
 10
49.7202490781
 20
50.8305712084
 30
0.0
 10
49.2443908346
 20
50.8776279488
 30
0.0
 10
48.7144434482
 20
50.9216628013
 30
0.0
 10
48.1516960471
 20
50.957219479
 30
0.0
 10
47.5816698864
 20
50.9778923376
 30
0.0
 10
46.9934965367
 20
50.9837573873
 30
0.0
 10
46.4206982526
 20
50.9754647322
 30
0.0
 10
45.8866201188
 20
50.9488728447
 30
0.0
 10
45.4058913234
 20
50.9084428263
 30
0.0
 10
44.9839845127
 20
50.8636932607
 30
0.0
 10
44.6416588798
 20
50.8306269356
 30
0.0
 10
44.444046921
 20
50.7956056683
 30
0.0
 10
44.3640948073
 20
50.776446403
 30
0.0
  0
SPLINE
  5
2F2
100
AcDbEntity
  8
0
100
AcDbSpline
 62
7
  6
BYLAYER
 70
0
 71
3
 72
18
 73
14
 74
0
 42
0.0000001
 43
0.0000001
 44
0.0000000001
 40
0.0
 40
0.0
 40
0.0
 40
0.0
 40
0.1012702812
 40
0.1951025731
 40
0.2834042857
 40
0.3701484021
 40
0.4572230857
 40
0.5438766481
 40
0.6303617284
 40
0.7164279867
 40
0.8042684909
 40
0.8981859097
 40
1.0
 40
1.0
 40
1.0
 40
1.0
 10
52.8597245912
 20
50.8892630451
 30
0.0
 10
52.8613080111
 20
50.7953343762
 30
0.0
 10
52.8648536471
 20
50.6125885052
 30
0.0
 10
52.781520385
 20
50.358110249
 30
0.0
 10
52.6395633984
 20
50.1497148677
 30
0.0
 10
52.4526215248
 20
49.9895997338
 30
0.0
 10
52.2304287915
 20
49.8869813304
 30
0.0
 10
51.9889915922
 20
49.8487793125
 30
0.0
 10
51.7471068166
 20
49.8779984186
 30
0.0
 10
51.5219645544
 20
49.9737271571
 30
0.0
 10
51.3254557069
 20
50.1305311307
 30
0.0
 10
51.173227447
 20
50.351284459
 30
0.0
 10
51.1252835422
 20
50.5283693797
 30
0.0
 10
51.101306714
 20
50.619721707
 30
0.0
  0
SPLINE
  5
2F3
100
AcDbEntity
  8
0
100
AcDbSpline
 62
7
  6
BYLAYER
 70
0
 71
3
 72
102
 73
98
 74
0
 42
0.0000001
 43
0.0000001
 44
0.0000000001
 40
0.0
 40
0.0
 40
0.0
 40
0.0
 40
0.0005703164
 40
0.0009958195
 40
0.0012942655
 40
0.0015258061
 40
0.0017041615
 40
0.0018782687
 40
0.0021009737
 40
0.0025244528
 40
0.0027538707
 40
0.0029547451
 40
0.0031902679
 40
0.0034630761
 40
0.0037787742
 40
0.004144332
 40
0.0045671193
 40
0.0050558951
 40
0.0056207208
 40
0.0062679682
 40
0.0070076203
 40
0.007853896
 40
0.0088236641
 40
0.009926126
 40
0.0105215699
 40
0.0111173255
 40
0.01178273
 40
0.0125345272
 40
0.0133899605
 40
0.0143686577
 40
0.0154933981
 40
0.0167900089
 40
0.0182883418
 40
0.0200229173
 40
0.0220276777
 40
0.0243376059
 40
0.0269028473
 40
0.0290907355
 40
0.0315140899
 40
0.0341556444
 40
0.0365409058
 40
0.0385976421
 40
0.0407714486
 40
0.0430720637
 40
0.0455087363
 40
0.0480908581
 40
0.0508295485
 40
0.0537375111
 40
0.0568279455
 40
0.060113201
 40
0.0636077104
 40
0.0673266657
 40
0.0712836698
 40
0.0754945311
 40
0.0799745825
 40
0.0847386568
 40
0.0898057526
 40
0.0951967968
 40
0.1009338428
 40
0.1070384819
 40
0.1135285186
 40
0.1204211586
 40
0.1277303469
 40
0.1354609848
 40
0.14333236
 40
0.1506183975
 40
0.1584177158
 40
0.1668737092
 40
0.1761341354
 40
0.1863497494
 40
0.1976784243
 40
0.2102869061
 40
0.224351322
 40
0.240061532
 40
0.2576194491
 40
0.2771968718
 40
0.2989026893
 40
0.3228464929
 40
0.3492593135
 40
0.3783528991
 40
0.4102231675
 40
0.4463513161
 40
0.4859228308
 40
0.5284205813
 40
0.5736616549
 40
0.6213678902
 40
0.6711533265
 40
0.7266595417
 40
0.7842175623
 40
0.8381291776
 40
0.8853480347
 40
0.9241936515
 40
0.9540279062
 40
0.9764263115
 40
0.9903566323
 40
0.9941843803
 40
1.0
 40
1.0
 40
1.0
 40
1.0
 10
39.598563036
 20
49.6909265783
 30
0.0
 10
39.6011729801
 20
49.6911439937
 30
0.0
 10
39.6057377139
 20
49.691345015
 30
0.0
 10
39.6117115925
 20
49.6912451218
 30
0.0
 10
39.6160188382
 20
49.6906698379
 30
0.0
 10
39.6193714761
 20
49.6903602286
 30
0.0
 10
39.6214633406
 20
49.6884556061
 30
0.0
 10
39.6242791592
 20
49.6884365068
 30
0.0
 10
39.6277515766
 20
49.6899020678
 30
0.0
 10
39.6315320236
 20
49.6912741985
 30
0.0
 10
39.6351621356
 20
49.6927562071
 30
0.0
 10
39.6379940054
 20
49.6939088834
 30
0.0
 10
39.6410038423
 20
49.6951529612
 30
0.0
 10
39.6444965667
 20
49.6966090225
 30
0.0
 10
39.6485307567
 20
49.6983179956
 30
0.0
 10
39.6531894969
 20
49.7003181454
 30
0.0
 10
39.6585691739
 20
49.7026536248
 30
0.0
 10
39.6647789716
 20
49.7053747273
 30
0.0
 10
39.6719249573
 20
49.708527519
 30
0.0
 10
39.6801111053
 20
49.7121766557
 30
0.0
 10
39.6894627946
 20
49.7163853764
 30
0.0
 10
39.7001486287
 20
49.7212383169
 30
0.0
 10
39.7123328757
 20
49.7268208668
 30
0.0
 10
39.7234543644
 20
49.7319575002
 30
0.0
 10
39.7330048784
 20
49.7363992269
 30
0.0
 10
39.7407288977
 20
49.7400088316
 30
0.0
 10
39.7490958411
 20
49.7439385438
 30
0.0
 10
39.7585320668
 20
49.7483965932
 30
0.0
 10
39.7692619465
 20
49.7534843458
 30
0.0
 10
39.7815300126
 20
49.7593253947
 30
0.0
 10
39.7956146369
 20
49.7660638748
 30
0.0
 10
39.8118348818
 20
49.7738675728
 30
0.0
 10
39.8305559537
 20
49.7829325387
 30
0.0
 10
39.8521879305
 20
49.7934476153
 30
0.0
 10
39.8771523447
 20
49.8056321185
 30
0.0
 10
39.9055170064
 20
49.8195465753
 30
0.0
 10
39.9345998964
 20
49.8339061382
 30
0.0
 10
39.9641195757
 20
49.8485573639
 30
0.0
 10
39.9939274634
 20
49.8634160806
 30
0.0
 10
40.024507554
 20
49.8787571114
 30
0.0
 10
40.0535512689
 20
49.8934058934
 30
0.0
 10
40.0806552272
 20
49.9071307299
 30
0.0
 10
40.1073867506
 20
49.9207305175
 30
0.0
 10
40.1356442151
 20
49.935178516
 30
0.0
 10
40.165540407
 20
49.9505401225
 30
0.0
 10
40.1971927548
 20
49.9668855265
 30
0.0
 10
40.2307333502
 20
49.9842910381
 30
0.0
 10
40.2663084749
 20
50.0028435639
 30
0.0
 10
40.304065449
 20
50.022640073
 30
0.0
 10
40.3441798086
 20
50.0437408569
 30
0.0
 10
40.3868159592
 20
50.0662472683
 30
0.0
 10
40.4321388221
 20
50.0902718347
 30
0.0
 10
40.4803302739
 20
50.1159084398
 30
0.0
 10
40.5316237046
 20
50.1431557767
 30
0.0
 10
40.5862183202
 20
50.1720887431
 30
0.0
 10
40.6443289727
 20
50.2027841386
 30
0.0
 10
40.7063020622
 20
50.235123032
 30
0.0
 10
40.7724592926
 20
50.2690984638
 30
0.0
 10
40.8431287722
 20
50.3047134825
 30
0.0
 10
40.9187053022
 20
50.3417956813
 30
0.0
 10
40.9994304109
 20
50.3804220742
 30
0.0
 10
41.085609612
 20
50.4204527581
 30
0.0
 10
41.1774646451
 20
50.4617700952
 30
0.0
 10
41.2739119056
 20
50.5038173117
 30
0.0
 10
41.3707479097
 20
50.5446889642
 30
0.0
 10
41.468303719
 20
50.58464787
 30
0.0
 10
41.5686796895
 20
50.6247959216
 30
0.0
 10
41.6779572543
 20
50.6670845613
 30
0.0
 10
41.7980550527
 20
50.7121394332
 30
0.0
 10
41.9311074382
 20
50.7601936545
 30
0.0
 10
42.0793637425
 20
50.8113722472
 30
0.0
 10
42.2452803709
 20
50.8654889583
 30
0.0
 10
42.4314739947
 20
50.9222169084
 30
0.0
 10
42.6407253736
 20
50.9810950206
 30
0.0
 10
42.8758629955
 20
51.0412134704
 30
0.0
 10
43.1392747651
 20
51.1015411647
 30
0.0
 10
43.4324499866
 20
51.1629693636
 30
0.0
 10
43.7573322551
 20
51.2260469618
 30
0.0
 10
44.1174181324
 20
51.2851592152
 30
0.0
 10
44.5150836509
 20
51.3389831976
 30
0.0
 10
44.9582863787
 20
51.3880078432
 30
0.0
 10
45.4505715888
 20
51.4295951491
 30
0.0
 10
45.9925402048
 20
51.4605118688
 30
0.0
 10
46.5769761797
 20
51.4780001319
 30
0.0
 10
47.1990187689
 20
51.4807232819
 30
0.0
 10
47.8544063672
 20
51.4675113213
 30
0.0
 10
48.5563471244
 20
51.4359142044
 30
0.0
 10
49.3024445987
 20
51.3830622958
 30
0.0
 10
50.0654850516
 20
51.3082291006
 30
0.0
 10
50.7897793874
 20
51.2231751135
 30
0.0
 10
51.4246404706
 20
51.1320524444
 30
0.0
 10
51.955227995
 20
51.0540591222
 30
0.0
 10
52.3581266008
 20
50.9909713796
 30
0.0
 10
52.6800791157
 20
50.9236731666
 30
0.0
 10
52.8192784664
 20
50.9088957451
 30
0.0
 10
52.978390272
 20
50.8600559337
 30
0.0
 10
52.8890431164
 20
50.8850775417
 30
0.0
 10
52.8633625583
 20
50.8924078232
 30
0.0
  0
SPLINE
  5
2F4
100
AcDbEntity
  8
0
100
AcDbSpline
 62
7
  6
BYLAYER
 70
0
 71
3
 72
16
 73
12
 74
0
 42
0.0000001
 43
0.0000001
 44
0.0000000001
 40
0.0
 40
0.0
 40
0.0
 40
0.0
 40
0.108216583
 40
0.2254282322
 40
0.3485738172
 40
0.473308682
 40
0.595003331
 40
0.709619374
 40
0.814688111
 40
0.9103163492
 40
1.0
 40
1.0
 40
1.0
 40
1.0
 10
39.4472588842
 20
48.4552462784
 30
0.0
 10
39.4989223217
 20
48.5085023843
 30
0.0
 10
39.5897446271
 20
48.6362817737
 30
0.0
 10
39.6784781147
 20
48.8601191237
 30
0.0
 10
39.721003265
 20
49.1085418019
 30
0.0
 10
39.714518691
 20
49.3634420839
 30
0.0
 10
39.6596404701
 20
49.6065881225
 30
0.0
 10
39.559953035
 20
49.8206201318
 30
0.0
 10
39.4213104857
 20
49.9900761036
 30
0.0
 10
39.2516811813
 20
50.101200279
 30
0.0
 10
39.1234779316
 20
50.1277462389
 30
0.0
 10
39.0619870262
 20
50.1277462389
 30
0.0
  0
SPLINE
  5
2F5
100
AcDbEntity
  8
0
100
AcDbSpline
 62
7
  6
BYLAYER
 70
0
 71
3
 72
13
 73
9
 74
0
 42
0.0000001
 43
0.0000001
 44
0.0000000001
 40
0.0
 40
0.0
 40
0.0
 40
0.0
 40
0.1681253636
 40
0.3424852504
 40
0.517781103
 40
0.6886230224
 40
0.8503597726
 40
1.0
 40
1.0
 40
1.0
 40
1.0
 10
39.5975555266
 20
49.6889174516
 30
0.0
 10
39.625403282
 20
49.6207087072
 30
0.0
 10
39.6764379736
 20
49.4786284636
 30
0.0
 10
39.7039981847
 20
49.2517360543
 30
0.0
 10
39.6926810662
 20
49.0228791786
 30
0.0
 10
39.6405226179
 20
48.8050666882
 30
0.0
 10
39.5513987626
 20
48.6118391238
 30
0.0
 10
39.4661145715
 20
48.5031276703
 30
0.0
 10
39.4189036052
 20
48.4576184892
 30
0.0
  0
SPLINE
  5
2F6
100
AcDbEntity
  8
0
100
AcDbSpline
 62
7
  6
BYLAYER
 70
0
 71
3
 72
18
 73
14
 74
0
 42
0.0000001
 43
0.0000001
 44
0.0000000001
 40
0.0
 40
0.0
 40
0.0
 40
0.0
 40
0.1014444338
 40
0.2065682434
 40
0.3109498659
 40
0.411343609
 40
0.5050750077
 40
0.5899179814
 40
0.6675556484
 40
0.742150849
 40
0.8198942305
 40
0.9055739319
 40
1.0
 40
1.0
 40
1.0
 40
1.0
 10
38.526429288
 20
48.7165531687
 30
0.0
 10
38.4925367963
 20
48.7911447562
 30
0.0
 10
38.4419575575
 20
48.9518395177
 30
0.0
 10
38.4171908891
 20
49.2033220112
 30
0.0
 10
38.4422018345
 20
49.4540584299
 30
0.0
 10
38.5150526206
 20
49.6858238302
 30
0.0
 10
38.6312300917
 20
49.881643436
 30
0.0
 10
38.7839041368
 20
50.0261261533
 30
0.0
 10
38.9634737766
 20
50.1049359202
 30
0.0
 10
39.1545692979
 20
50.1062601609
 30
0.0
 10
39.3358557602
 20
50.0292045989
 30
0.0
 10
39.4905267575
 20
49.8848354275
 30
0.0
 10
39.5660402778
 20
49.7583631884
 30
0.0
 10
39.5975555266
 20
49.6889174516
 30
0.0
  0
SPLINE
  5
2F7
100
AcDbEntity
  8
0
100
AcDbSpline
 62
7
  6
BYLAYER
 70
0
 71
3
 72
11
 73
7
 74
0
 42
0.0000001
 43
0.0000001
 44
0.0000000001
 40
0.0
 40
0.0
 40
0.0
 40
0.0
 40
0.2247739483
 40
0.4637333876
 40
0.7219265183
 40
1.0
 40
1.0
 40
1.0
 40
1.0
 10
38.9940529868
 20
48.3079154929
 30
0.0
 10
38.9467517872
 20
48.3179860083
 30
0.0
 10
38.8491550982
 20
48.3448032743
 30
0.0
 10
38.7203648069
 20
48.4355862391
 30
0.0
 10
38.6066085343
 20
48.5598924719
 30
0.0
 10
38.5551773141
 20
48.664083534
 30
0.0
 10
38.526429288
 20
48.7165531687
 30
0.0
  0
SPLINE
  5
2F8
100
AcDbEntity
  8
0
100
AcDbSpline
 62
7
  6
BYLAYER
 70
0
 71
3
 72
16
 73
12
 74
0
 42
0.0000001
 43
0.0000001
 44
0.0000000001
 40
0.0
 40
0.0
 40
0.0
 40
0.0
 40
0.10658987
 40
0.2216976434
 40
0.3427663963
 40
0.4660747778
 40
0.587531539
 40
0.7033587218
 40
0.8108466077
 40
0.9091326474
 40
1.0
 40
1.0
 40
1.0
 40
1.0
 10
38.6767151682
 20
49.9502461993
 30
0.0
 10
38.628095971
 20
49.9001281808
 30
0.0
 10
38.5418271284
 20
49.7809876356
 30
0.0
 10
38.4543553795
 20
49.5725119917
 30
0.0
 10
38.4076809271
 20
49.340190957
 30
0.0
 10
38.404585972
 20
49.0992181696
 30
0.0
 10
38.4451123515
 20
48.865071335
 30
0.0
 10
38.5268260616
 20
48.6527845322
 30
0.0
 10
38.6452581666
 20
48.4760283216
 30
0.0
 10
38.7939567382
 20
48.3468508322
 30
0.0
 10
38.9114146277
 20
48.2987387684
 30
0.0
 10
38.9697690411
 20
48.2869860702
 30
0.0
  0
SPLINE
  5
2F9
100
AcDbEntity
  8
0
100
AcDbSpline
 62
7
  6
BYLAYER
 70
0
 71
3
 72
10
 73
6
 74
0
 42
0.0000001
 43
0.0000001
 44
0.0000000001
 40
0.0
 40
0.0
 40
0.0
 40
0.0
 40
0.3170830041
 40
0.647263658
 40
1.0
 40
1.0
 40
1.0
 40
1.0
 10
39.0619870262
 20
50.1277462389
 30
0.0
 10
39.0160476584
 20
50.1277462389
 30
0.0
 10
38.921724901
 20
50.1133924635
 30
0.0
 10
38.7891350824
 20
50.050988975
 30
0.0
 10
38.7122991162
 20
49.986927121
 30
0.0
 10
38.6767151682
 20
49.9502461993
 30
0.0
  0
SPLINE
  5
2FA
100
AcDbEntity
  8
0
100
AcDbSpline
 62
7
  6
BYLAYER
 70
0
 71
3
 72
138
 73
134
 74
0
 42
0.0000001
 43
0.0000001
 44
0.0000000001
 40
0.0
 40
0.0
 40
0.0
 40
0.0
 40
0.0060912485
 40
0.0125791086
 40
0.0301504277
 40
0.058907486
 40
0.0985259968
 40
0.1495489809
 40
0.2090379669
 40
0.2708077806
 40
0.3339742483
 40
0.3907185246
 40
0.4405328792
 40
0.4854541116
 40
0.5256201566
 40
0.5613503643
 40
0.5930703549
 40
0.621258361
 40
0.6464407856
 40
0.6691876215
 40
0.6900806146
 40
0.7080827174
 40
0.7124353527
 40
0.7167839313
 40
0.7211275378
 40
0.725466264
 40
0.7298000066
 40
0.7341284898
 40
0.7384515084
 40
0.7427694333
 40
0.7470825392
 40
0.7513904421
 40
0.7556936307
 40
0.7599925183
 40
0.7642867287
 40
0.768576723
 40
0.7728628337
 40
0.7771447365
 40
0.7814228867
 40
0.7856975684
 40
0.789968508
 40
0.7942360825
 40
0.7985005729
 40
0.8027617339
 40
0.807019365
 40
0.8112734662
 40
0.8155239059
 40
0.8197698803
 40
0.824011772
 40
0.8282493149
 40
0.8324790098
 40
0.8367011773
 40
0.8409155515
 40
0.8451155312
 40
0.8492976207
 40
0.8534687032
 40
0.857631001
 40
0.8617725906
 40
0.8658828191
 40
0.8699664242
 40
0.8740252965
 40
0.8780547779
 40
0.8820504687
 40
0.8860111831
 40
0.8899363193
 40
0.8938238256
 40
0.8976730582
 40
0.9014829462
 40
0.905251777
 40
0.9089793265
 40
0.9126637617
 40
0.9163024807
 40
0.9198950922
 40
0.9234402328
 40
0.9269351255
 40
0.9303776692
 40
0.9337666146
 40
0.937100531
 40
0.9403768738
 40
0.943594703
 40
0.9467531897
 40
0.9498496159
 40
0.9528828134
 40
0.955851784
 40
0.9587533365
 40
0.9615833477
 40
0.9643380254
 40
0.9670141894
 40
0.9696070009
 40
0.9721123342
 40
0.9738723659
 40
0.974965458
 40
0.9760378017
 40
0.9770887641
 40
0.9781179777
 40
0.9791264807
 40
0.9801134827
 40
0.981077833
 40
0.9820184318
 40
0.9829342464
 40
0.983824328
 40
0.9846890467
 40
0.9855288875
 40
0.9863434133
 40
0.9871322191
 40
0.9878949332
 40
0.9886312179
 40
0.9893406327
 40
0.9900228128
 40
0.9906783772
 40
0.9913080356
 40
0.9919124188
 40
0.992492074
 40
0.9930473735
 40
0.9935768407
 40
0.9940806538
 40
0.9945597731
 40
0.995014988
 40
0.9954469156
 40
0.995855998
 40
0.9962417772
 40
0.9966034925
 40
0.9969418317
 40
0.9975627863
 40
0.9983129078
 40
0.9987833582
 40
0.999098864
 40
0.9993242027
 40
0.9994722515
 40
0.9995540111
 40
0.9995936227
 40
0.9996268966
 40
1.0
 40
1.0
 40
1.0
 40
1.0
 10
52.855501254
 20
50.8912234293
 30
0.0
 10
52.8826459744
 20
50.8846411363
 30
0.0
 10
52.9868895821
 20
50.8584669259
 30
0.0
 10
52.7581821155
 20
50.9140435352
 30
0.0
 10
52.5885213999
 20
50.9418076437
 30
0.0
 10
52.1627507011
 20
51.0206245326
 30
0.0
 10
51.6377053014
 20
51.0977170483
 30
0.0
 10
50.9501772007
 20
51.1987673093
 30
0.0
 10
50.1681617406
 20
51.2949573959
 30
0.0
 10
49.3258717801
 20
51.3783548367
 30
0.0
 10
48.4948690808
 20
51.4367184419
 30
0.0
 10
47.7171199757
 20
51.46893313
 30
0.0
 10
47.0225070421
 20
51.4787017937
 30
0.0
 10
46.4038891813
 20
51.4712831011
 30
0.0
 10
45.8502184541
 20
51.4502954379
 30
0.0
 10
45.3576789443
 20
51.4191212483
 30
0.0
 10
44.920774559
 20
51.3807051492
 30
0.0
 10
44.5329561968
 20
51.3375272644
 30
0.0
 10
44.1869731769
 20
51.2912614355
 30
0.0
 10
43.8751335465
 20
51.242626003
 30
0.0
 10
43.596853076
 20
51.1929473891
 30
0.0
 10
43.4023288092
 20
51.1543183203
 30
0.0
 10
43.2824700615
 20
51.129270386
 30
0.0
 10
43.2239696563
 20
51.1167884982
 30
0.0
 10
43.1655878417
 20
51.1040595261
 30
0.0
 10
43.1073258235
 20
51.0911028533
 30
0.0
 10
43.0491915258
 20
51.0778939261
 30
0.0
 10
42.9911954329
 20
51.0644053043
 30
0.0
 10
42.9333351559
 20
51.050655979
 30
0.0
 10
42.8756136066
 20
51.0366309505
 30
0.0
 10
42.8180348644
 20
51.0223152972
 30
0.0
 10
42.7605974236
 20
51.007714771
 30
0.0
 10
42.7033016607
 20
50.992824892
 30
0.0
 10
42.6461478214
 20
50.9776419375
 30
0.0
 10
42.5891356999
 20
50.9621645353
 30
0.0
 10
42.5322661475
 20
50.9463889799
 30
0.0
 10
42.475539766
 20
50.9303118477
 30
0.0
 10
42.418956785
 20
50.9139313107
 30
0.0
 10
42.3625182001
 20
50.8972438517
 30
0.0
 10
42.3062248734
 20
50.8802458326
 30
0.0
 10
42.2500779586
 20
50.862934142
 30
0.0
 10
42.1940776633
 20
50.8453089211
 30
0.0
 10
42.1382255003
 20
50.827365755
 30
0.0
 10
42.0825272119
 20
50.8090962729
 30
0.0
 10
42.0269822892
 20
50.7905154025
 30
0.0
 10
41.971594179
 20
50.7716238024
 30
0.0
 10
41.916375492
 20
50.7524045796
 30
0.0
 10
41.8613232388
 20
50.7328806813
 30
0.0
 10
41.8064423126
 20
50.7130534987
 30
0.0
 10
41.751756429
 20
50.6929095062
 30
0.0
 10
41.697274642
 20
50.6724761106
 30
0.0
 10
41.643015606
 20
50.651754187
 30
0.0
 10
41.5890142332
 20
50.6307426875
 30
0.0
 10
41.5353104326
 20
50.609476197
 30
0.0
 10
41.481915019
 20
50.5879726946
 30
0.0
 10
41.4288181006
 20
50.5661934152
 30
0.0
 10
41.3760446717
 20
50.5441185214
 30
0.0
 10
41.3236637805
 20
50.5218314022
 30
0.0
 10
41.2717398851
 20
50.4993939872
 30
0.0
 10
41.2203137912
 20
50.4767637736
 30
0.0
 10
41.1693689233
 20
50.4539622467
 30
0.0
 10
41.1189242754
 20
50.4310321547
 30
0.0
 10
41.0690322546
 20
50.4079765464
 30
0.0
 10
41.0197127589
 20
50.3848250887
 30
0.0
 10
40.9709719707
 20
50.3616103322
 30
0.0
 10
40.9228177211
 20
50.3383547712
 30
0.0
 10
40.8752621109
 20
50.3150765831
 30
0.0
 10
40.8283113485
 20
50.2918021292
 30
0.0
 10
40.7819632536
 20
50.2685694003
 30
0.0
 10
40.7362390977
 20
50.2453769576
 30
0.0
 10
40.6911415007
 20
50.2222693193
 30
0.0
 10
40.6466586899
 20
50.1993191769
 30
0.0
 10
40.6028222524
 20
50.1765099133
 30
0.0
 10
40.5596288611
 20
50.1538941179
 30
0.0
 10
40.5170661831
 20
50.1315573152
 30
0.0
 10
40.475166033
 20
50.1094994455
 30
0.0
 10
40.4339363997
 20
50.0877525452
 30
0.0
 10
40.3933811056
 20
50.0663607262
 30
0.0
 10
40.3535083938
 20
50.0453566836
 30
0.0
 10
40.3143395597
 20
50.0247424622
 30
0.0
 10
40.2758989866
 20
50.0045159007
 30
0.0
 10
40.2381850387
 20
49.9847265931
 30
0.0
 10
40.2012203958
 20
49.9653796618
 30
0.0
 10
40.165031545
 20
49.9464775288
 30
0.0
 10
40.1296378221
 20
49.9280656533
 30
0.0
 10
40.0950861279
 20
49.9101645055
 30
0.0
 10
40.0614232196
 20
49.8927946392
 30
0.0
 10
40.0286886324
 20
49.875997866
 30
0.0
 10
39.9969325024
 20
49.8597989324
 30
0.0
 10
39.9688820366
 20
49.8455806561
 30
0.0
 10
39.9469338517
 20
49.8345343355
 30
0.0
 10
39.9308387515
 20
49.8264748335
 30
0.0
 10
39.9176401113
 20
49.819892848
 30
0.0
 10
39.9046925286
 20
49.8134638302
 30
0.0
 10
39.8919961482
 20
49.8071871923
 30
0.0
 10
39.879549673
 20
49.8010669161
 30
0.0
 10
39.8673570017
 20
49.7951046055
 30
0.0
 10
39.8554306639
 20
49.7893065357
 30
0.0
 10
39.8437849507
 20
49.7836779069
 30
0.0
 10
39.8324334227
 20
49.7782232871
 30
0.0
 10
39.8213839002
 20
49.7729436062
 30
0.0
 10
39.8106367124
 20
49.767839312
 30
0.0
 10
39.8001901009
 20
49.7629098073
 30
0.0
 10
39.7900464503
 20
49.7581540443
 30
0.0
 10
39.7802114561
 20
49.7535731517
 30
0.0
 10
39.770690475
 20
49.7491678952
 30
0.0
 10
39.7614889831
 20
49.744939161
 30
0.0
 10
39.7526125133
 20
49.7408876198
 30
0.0
 10
39.7440620327
 20
49.7370133777
 30
0.0
 10
39.7358341053
 20
49.733313489
 30
0.0
 10
39.7279213776
 20
49.7297825776
 30
0.0
 10
39.7203166493
 20
49.7264157164
 30
0.0
 10
39.7130141901
 20
49.7232084625
 30
0.0
 10
39.7060167354
 20
49.7201611281
 30
0.0
 10
39.6993299496
 20
49.7172715138
 30
0.0
 10
39.692955924
 20
49.7145388304
 30
0.0
 10
39.6868869121
 20
49.7119588665
 30
0.0
 10
39.6811132933
 20
49.7095266812
 30
0.0
 10
39.6756276229
 20
49.7072382928
 30
0.0
 10
39.6704274577
 20
49.7050926041
 30
0.0
 10
39.6655169778
 20
49.703089063
 30
0.0
 10
39.6609008314
 20
49.7012228974
 30
0.0
 10
39.6552765063
 20
49.6989734073
 30
0.0
 10
39.6479825354
 20
49.6961026503
 30
0.0
 10
39.6400889086
 20
49.6931018763
 30
0.0
 10
39.6334810038
 20
49.6906639948
 30
0.0
 10
39.6291174912
 20
49.6890912319
 30
0.0
 10
39.6261258268
 20
49.688081981
 30
0.0
 10
39.6241501918
 20
49.6873985783
 30
0.0
 10
39.6229607272
 20
49.6870778998
 30
0.0
 10
39.6223056323
 20
49.6867735246
 30
0.0
 10
39.6201963897
 20
49.6869243896
 30
0.0
 10
39.6193350111
 20
49.6894688766
 30
0.0
 10
39.6176686641
 20
49.6898566158
 30
0.0
  0
SPLINE
  5
2FB
100
AcDbEntity
  8
0
100
AcDbSpline
 62
7
  6
BYLAYER
 70
0
 71
3
 72
11
 73
7
 74
0
 42
0.0000001
 43
0.0000001
 44
0.0000000001
 40
0.0
 40
0.0
 40
0.0
 40
0.0
 40
0.2772674905
 40
0.5345328997
 40
0.7706500452
 40
1.0
 40
1.0
 40
1.0
 40
1.0
 10
44.1666895741
 20
51.1052657616
 30
0.0
 10
44.1983796575
 20
51.0865824058
 30
0.0
 10
44.2558160856
 20
51.0435392424
 30
0.0
 10
44.3189645351
 20
50.9612170948
 30
0.0
 10
44.3518358698
 20
50.8695719111
 30
0.0
 10
44.3544147547
 20
50.8067994713
 30
0.0
 10
44.3511992429
 20
50.7765398753
 30
0.0
  0
SPLINE
  5
2FC
100
AcDbEntity
  8
0
100
AcDbSpline
 62
7
  6
BYLAYER
 70
0
 71
3
 72
34
 73
30
 74
0
 42
0.0000001
 43
0.0000001
 44
0.0000000001
 40
0.0
 40
0.0
 40
0.0
 40
0.0
 40
0.015079541
 40
0.0328626114
 40
0.0538464946
 40
0.078282019
 40
0.1065068714
 40
0.1389807544
 40
0.1760425062
 40
0.2180246476
 40
0.2651308161
 40
0.3174815045
 40
0.3749030871
 40
0.4380946045
 40
0.5059654248
 40
0.5719898207
 40
0.63107506
 40
0.6833219545
 40
0.7303350167
 40
0.7724996809
 40
0.8102852451
 40
0.8439265881
 40
0.8736710471
 40
0.9003172175
 40
0.9247682064
 40
0.9470337441
 40
0.9670168686
 40
0.9846936488
 40
1.0
 40
1.0
 40
1.0
 40
1.0
 10
39.0498060918
 20
48.7755033852
 30
0.0
 10
39.0682694256
 20
48.7977047575
 30
0.0
 10
39.1129521492
 20
48.8423753489
 30
0.0
 10
39.1935338073
 20
48.9068793859
 30
0.0
 10
39.2938931446
 20
48.9747052948
 30
0.0
 10
39.4150396643
 20
49.0469777007
 30
0.0
 10
39.5583235792
 20
49.1247977409
 30
0.0
 10
39.7251438186
 20
49.2097623472
 30
0.0
 10
39.9168339779
 20
49.3038725481
 30
0.0
 10
40.1341312548
 20
49.409390121
 30
0.0
 10
40.3771856147
 20
49.5288884383
 30
0.0
 10
40.6452769091
 20
49.6644414066
 30
0.0
 10
40.9386984563
 20
49.8180911373
 30
0.0
 10
41.256095718
 20
49.9899411787
 30
0.0
 10
41.5859185648
 20
50.1733808746
 30
0.0
 10
41.9074930284
 20
50.3554445957
 30
0.0
 10
42.2022555308
 20
50.5241300194
 30
0.0
 10
42.4652659314
 20
50.6750041127
 30
0.0
 10
42.7011090004
 20
50.8081200465
 30
0.0
 10
42.9151175652
 20
50.9235361373
 30
0.0
 10
43.1103467055
 20
51.019627018
 30
0.0
 10
43.2891458061
 20
51.0946369355
 30
0.0
 10
43.4532989848
 20
51.1481012297
 30
0.0
 10
43.604779417
 20
51.1813334174
 30
0.0
 10
43.7447996973
 20
51.1961411408
 30
0.0
 10
43.8728500596
 20
51.1939318059
 30
0.0
 10
43.98667721
 20
51.1767448851
 30
0.0
 10
44.0841461261
 20
51.1474687867
 30
0.0
 10
44.1414411068
 20
51.1201513677
 30
0.0
 10
44.1666895741
 20
51.1052657616
 30
0.0
  0
SPLINE
  5
2FD
100
AcDbEntity
  8
0
100
AcDbSpline
 62
7
  6
BYLAYER
 70
0
 71
3
 72
25
 73
21
 74
0
 42
0.0000001
 43
0.0000001
 44
0.0000000001
 40
0.0
 40
0.0
 40
0.0
 40
0.0
 40
0.0630132518
 40
0.1258317129
 40
0.188206186
 40
0.2503747773
 40
0.3123783049
 40
0.3742851245
 40
0.4361774727
 40
0.4671854171
 40
0.4982169619
 40
0.5603242875
 40
0.6226267659
 40
0.6538953612
 40
0.6852220129
 40
0.7479470842
 40
0.8108353254
 40
0.8738187676
 40
0.9369441598
 40
1.0
 40
1.0
 40
1.0
 40
1.0
 10
52.855501254
 20
50.8912234293
 30
0.0
 10
52.8473691584
 20
50.9495520475
 30
0.0
 10
52.8196774075
 20
51.0644816192
 30
0.0
 10
52.7459687644
 20
51.2251854728
 30
0.0
 10
52.6425011441
 20
51.3675873276
 30
0.0
 10
52.5138864891
 20
51.4866582169
 30
0.0
 10
52.3644751554
 20
51.5774829668
 30
0.0
 10
52.2004094366
 20
51.637110985
 30
0.0
 10
52.0564111413
 20
51.658359577
 30
0.0
 10
51.9405708929
 20
51.6581374311
 30
0.0
 10
51.8251080504
 20
51.6464055452
 30
0.0
 10
51.6836214875
 20
51.6099543736
 30
0.0
 10
51.551773066
 20
51.5465242722
 30
0.0
 10
51.4552279803
 20
51.4808726036
 30
0.0
 10
51.3652450405
 20
51.4058841001
 30
0.0
 10
51.2667802228
 20
51.2960517154
 30
0.0
 10
51.176495216
 20
51.143673022
 30
0.0
 10
51.1166737391
 20
50.9765380526
 30
0.0
 10
51.0903189028
 20
50.800827381
 30
0.0
 10
51.09538361
 20
50.6824205909
 30
0.0
 10
51.1036374657
 20
50.6240539201
 30
0.0
  0
SPLINE
  5
2FE
100
AcDbEntity
  8
0
100
AcDbSpline
 62
7
  6
BYLAYER
 70
0
 71
3
 72
13
 73
9
 74
0
 42
0.0000001
 43
0.0000001
 44
0.0000000001
 40
0.0
 40
0.0
 40
0.0
 40
0.0
 40
0.1522882461
 40
0.3095375468
 40
0.4726824099
 40
0.6423887719
 40
0.8180172735
 40
1.0
 40
1.0
 40
1.0
 40
1.0
 10
39.7570276879
 20
48.3267560792
 30
0.0
 10
39.8064019086
 20
48.3302691171
 30
0.0
 10
39.9066545096
 20
48.3392657683
 30
0.0
 10
40.0588434335
 20
48.3605245964
 30
0.0
 10
40.2163663415
 20
48.3842211663
 30
0.0
 10
40.3804308148
 20
48.4044793059
 30
0.0
 10
40.5512899455
 20
48.4186459564
 30
0.0
 10
40.6674628646
 20
48.4234440396
 30
0.0
 10
40.7265979999
 20
48.4248049584
 30
0.0
  0
SPLINE
  5
2FF
100
AcDbEntity
  8
0
100
AcDbSpline
 62
7
  6
BYLAYER
 70
0
 71
3
 72
51
 73
47
 74
0
 42
0.0000001
 43
0.0000001
 44
0.0000000001
 40
0.0
 40
0.0
 40
0.0
 40
0.0
 40
0.0013443985
 40
0.0026273383
 40
0.0052738038
 40
0.009329589
 40
0.0148268596
 40
0.0217819279
 40
0.0301611456
 40
0.0399016917
 40
0.0508742362
 40
0.0759136262
 40
0.1040842928
 40
0.1344901364
 40
0.166611811
 40
0.2002373207
 40
0.2352329474
 40
0.2715266138
 40
0.3476995193
 40
0.42786149
 40
0.5108318341
 40
0.5952531564
 40
0.637560326
 40
0.6796854234
 40
0.7214449709
 40
0.7626550852
 40
0.8031363813
 40
0.8427128799
 40
0.8812149723
 40
0.9000131198
 40
0.9184835352
 40
0.927534648
 40
0.9362305855
 40
0.9523555835
 40
0.9664843766
 40
0.972670544
 40
0.9782024024
 40
0.9830345708
 40
0.9871440566
 40
0.9905280828
 40
0.9932417127
 40
0.9953732683
 40
0.9970866609
 40
0.9985656505
 40
0.9992764027
 40
1.0
 40
1.0
 40
1.0
 40
1.0
 10
56.9643147722
 20
49.3020109592
 30
0.0
 10
56.9846181973
 20
49.2986221093
 30
0.0
 10
56.9928564745
 20
49.2972541471
 30
0.0
 10
56.9541319867
 20
49.303701569
 30
0.0
 10
56.9174648237
 20
49.3096030157
 30
0.0
 10
56.8492558016
 20
49.3204283403
 30
0.0
 10
56.7622438361
 20
49.3338436254
 30
0.0
 10
56.6503033196
 20
49.3507248904
 30
0.0
 10
56.5162812573
 20
49.3707189742
 30
0.0
 10
56.3605166856
 20
49.3938591908
 30
0.0
 10
56.1155418995
 20
49.4294070811
 30
0.0
 10
55.7714527705
 20
49.4765761632
 30
0.0
 10
55.3226895672
 20
49.5341209829
 30
0.0
 10
54.8356177688
 20
49.5942031198
 30
0.0
 10
54.3190308234
 20
49.6560706986
 30
0.0
 10
53.777328137
 20
49.7170092384
 30
0.0
 10
53.2125660517
 20
49.7746590775
 30
0.0
 10
52.4180231327
 20
49.8479514903
 30
0.0
 10
51.3788030187
 20
49.9289342484
 30
0.0
 10
50.0858846185
 20
50.0019987775
 30
0.0
 10
48.7468621772
 20
50.0432426423
 30
0.0
 10
47.6119624887
 20
50.0439626595
 30
0.0
 10
46.6985842093
 20
50.019545168
 30
0.0
 10
46.0164685696
 20
49.9875241996
 30
0.0
 10
45.3411498547
 20
49.9406945062
 30
0.0
 10
44.6760412851
 20
49.8779664468
 30
0.0
 10
44.0246330469
 20
49.7982597424
 30
0.0
 10
43.390487764
 20
49.7005260129
 30
0.0
 10
42.875444723
 20
49.6022685239
 30
0.0
 10
42.4751627406
 20
49.5134807719
 30
0.0
 10
42.2316245076
 20
49.4541624164
 30
0.0
 10
42.0421420561
 20
49.4041416036
 30
0.0
 10
41.8653554136
 20
49.3557834838
 30
0.0
 10
41.6627000111
 20
49.2979055107
 30
0.0
 10
41.4733731128
 20
49.242834966
 30
0.0
 10
41.3388728894
 20
49.2045030293
 30
0.0
 10
41.2525883753
 20
49.1805295722
 30
0.0
 10
41.1769066005
 20
49.1603845164
 30
0.0
 10
41.112226
 20
49.1441120481
 30
0.0
 10
41.0584195875
 20
49.1316345537
 30
0.0
 10
41.0148201894
 20
49.122569263
 30
0.0
 10
40.9798757393
 20
49.116339447
 30
0.0
 10
40.9513324429
 20
49.112397943
 30
0.0
 10
40.9302951407
 20
49.1104162039
 30
0.0
 10
40.9145455555
 20
49.1096870521
 30
0.0
 10
40.9067839535
 20
49.1095701843
 30
0.0
 10
40.9028684986
 20
49.1095729077
 30
0.0
  0
SPLINE
  5
300
100
AcDbEntity
  8
0
100
AcDbSpline
 62
7
  6
BYLAYER
 70
0
 71
3
 72
121
 73
117
 74
0
 42
0.0000001
 43
0.0000001
 44
0.0000000001
 40
0.0
 40
0.0
 40
0.0
 40
0.0
 40
0.0097744017
 40
0.0184015315
 40
0.0260129836
 40
0.0327468041
 40
0.0387102685
 40
0.0439807041
 40
0.0486263893
 40
0.0527131574
 40
0.0563105325
 40
0.0594837992
 40
0.0622927938
 40
0.0647873311
 40
0.0670034813
 40
0.0689785485
 40
0.0707408803
 40
0.0723114661
 40
0.0737113106
 40
0.0749608315
 40
0.0760923982
 40
0.0771479671
 40
0.0781757698
 40
0.0792271158
 40
0.0803381506
 40
0.0815400899
 40
0.0828686687
 40
0.084372998
 40
0.0860884468
 40
0.0880287467
 40
0.0901828607
 40
0.0925697037
 40
0.0952172306
 40
0.0981554828
 40
0.1014286269
 40
0.105073649
 40
0.1091303079
 40
0.1136472175
 40
0.1186825554
 40
0.1243051893
 40
0.1305929004
 40
0.1376254988
 40
0.145474643
 40
0.1542555183
 40
0.1640894874
 40
0.1751181987
 40
0.1874663349
 40
0.2012638879
 40
0.2166521364
 40
0.2338457441
 40
0.2530273022
 40
0.2743812558
 40
0.2980636647
 40
0.3244489654
 40
0.3541884762
 40
0.385556791
 40
0.4143026965
 40
0.4395256719
 40
0.4621012838
 40
0.482392485
 40
0.5007305426
 40
0.5172866572
 40
0.5322171128
 40
0.5456693626
 40
0.5577581121
 40
0.5685998074
 40
0.5783019773
 40
0.5869675256
 40
0.594697079
 40
0.6015790239
 40
0.6077072582
 40
0.6131698644
 40
0.6180211409
 40
0.6223088493
 40
0.6260757318
 40
0.6293575157
 40
0.6321840622
 40
0.6346021786
 40
0.6366543372
 40
0.6383709318
 40
0.6398143527
 40
0.6410805499
 40
0.6422958825
 40
0.6435741025
 40
0.6450189279
 40
0.6467467075
 40
0.6488327869
 40
0.6513003818
 40
0.6541455342
 40
0.6573954619
 40
0.6610721564
 40
0.6651963612
 40
0.6697969538
 40
0.6749069997
 40
0.6805657846
 40
0.6868166799
 40
0.6937147125
 40
0.7013457606
 40
0.7097903367
 40
0.7191284983
 40
0.7294392597
 40
0.7407970731
 40
0.7532945944
 40
0.7670429083
 40
0.7821946155
 40
0.7989457839
 40
0.8174877677
 40
0.8380652502
 40
0.8609729731
 40
0.8861767734
 40
0.9110893422
 40
0.933513705
 40
0.9530653721
 40
0.9703435521
 40
0.985848258
 40
1.0
 40
1.0
 40
1.0
 40
1.0
 10
41.4235769695
 20
49.1920994619
 30
0.0
 10
41.3631387118
 20
49.1656586164
 30
0.0
 10
41.2493714468
 20
49.1158170651
 30
0.0
 10
41.0863064949
 20
49.050667613
 30
0.0
 10
40.9448155845
 20
48.9872258811
 30
0.0
 10
40.8191053339
 20
48.9325971139
 30
0.0
 10
40.7068867044
 20
48.8865847206
 30
0.0
 10
40.6059151616
 20
48.850466884
 30
0.0
 10
40.5147693382
 20
48.8251016392
 30
0.0
 10
40.4328801962
 20
48.8096917222
 30
0.0
 10
40.359865313
 20
48.8025456995
 30
0.0
 10
40.2951668072
 20
48.8012404951
 30
0.0
 10
40.23798317
 20
48.8041807192
 30
0.0
 10
40.1875731733
 20
48.8104571999
 30
0.0
 10
40.1433301117
 20
48.8195999378
 30
0.0
 10
40.1048336885
 20
48.8313422469
 30
0.0
 10
40.0718082394
 20
48.8454241168
 30
0.0
 10
40.0440834033
 20
48.8614620931
 30
0.0
 10
40.0214769012
 20
48.8789342485
 30
0.0
 10
40.0036022747
 20
48.8972633091
 30
0.0
 10
39.9898236091
 20
48.9160107252
 30
0.0
 10
39.979383502
 20
48.93510098
 30
0.0
 10
39.9716394794
 20
48.9548468385
 30
0.0
 10
39.9662589991
 20
48.975747855
 30
0.0
 10
39.963236287
 20
48.9983045161
 30
0.0
 10
39.9628153309
 20
49.0229318325
 30
0.0
 10
39.9654219483
 20
49.0500942797
 30
0.0
 10
39.9716700512
 20
49.0802086391
 30
0.0
 10
39.9822436562
 20
49.1134505943
 30
0.0
 10
39.9976046709
 20
49.1495854204
 30
0.0
 10
40.0181560205
 20
49.1882586961
 30
0.0
 10
40.0444262063
 20
49.2291112189
 30
0.0
 10
40.077119388
 20
49.2719216528
 30
0.0
 10
40.1171572583
 20
49.3164146297
 30
0.0
 10
40.1655331161
 20
49.3621772705
 30
0.0
 10
40.2231232891
 20
49.4088655027
 30
0.0
 10
40.2907613471
 20
49.4561542777
 30
0.0
 10
40.3693911633
 20
49.5037427309
 30
0.0
 10
40.4601596391
 20
49.5513216758
 30
0.0
 10
40.5646591382
 20
49.5979838336
 30
0.0
 10
40.6844282687
 20
49.6429189471
 30
0.0
 10
40.820776765
 20
49.6858046915
 30
0.0
 10
40.9750972937
 20
49.7270509417
 30
0.0
 10
41.1489099454
 20
49.768213173
 30
0.0
 10
41.3441364375
 20
49.8119674936
 30
0.0
 10
41.5630880561
 20
49.8599446636
 30
0.0
 10
41.8087029982
 20
49.911185895
 30
0.0
 10
42.0841151175
 20
49.9635271572
 30
0.0
 10
42.3928659307
 20
50.0151496084
 30
0.0
 10
42.7379424684
 20
50.0696891012
 30
0.0
 10
43.1227902381
 20
50.1304392281
 30
0.0
 10
43.5511836857
 20
50.1965394993
 30
0.0
 10
44.0299136543
 20
50.2533744685
 30
0.0
 10
44.5649850788
 20
50.3150721748
 30
0.0
 10
45.1524693533
 20
50.3751129012
 30
0.0
 10
45.7568918959
 20
50.4247936141
 30
0.0
 10
46.3312854793
 20
50.4671687934
 30
0.0
 10
46.8466966146
 20
50.5023928551
 30
0.0
 10
47.3053149104
 20
50.5316294539
 30
0.0
 10
47.7176161543
 20
50.5570007047
 30
0.0
 10
48.0893676306
 20
50.5798755348
 30
0.0
 10
48.4249961417
 20
50.600702465
 30
0.0
 10
48.7277670898
 20
50.6186093853
 30
0.0
 10
49.000543238
 20
50.6329207772
 30
0.0
 10
49.2458862307
 20
50.6432093842
 30
0.0
 10
49.4660545253
 20
50.6492842592
 30
0.0
 10
49.6631988757
 20
50.6511052861
 30
0.0
 10
49.8393351049
 20
50.648689496
 30
0.0
 10
49.996327465
 20
50.6423089871
 30
0.0
 10
50.135972922
 20
50.6323525068
 30
0.0
 10
50.2599855626
 20
50.6192577052
 30
0.0
 10
50.3698527196
 20
50.6034376849
 30
0.0
 10
50.4667265962
 20
50.5851499624
 30
0.0
 10
50.5514165376
 20
50.564593914
 30
0.0
 10
50.624580646
 20
50.5420187448
 30
0.0
 10
50.6867085645
 20
50.5176853908
 30
0.0
 10
50.7382452411
 20
50.4918618204
 30
0.0
 10
50.7795767826
 20
50.4648364082
 30
0.0
 10
50.8109435937
 20
50.4369836521
 30
0.0
 10
50.8325325098
 20
50.4088703892
 30
0.0
 10
50.8447494252
 20
50.3812433265
 30
0.0
 10
50.8485468263
 20
50.3546760291
 30
0.0
 10
50.8449371628
 20
50.3292359032
 30
0.0
 10
50.834334525
 20
50.3045655324
 30
0.0
 10
50.816335618
 20
50.2802379568
 30
0.0
 10
50.7899529274
 20
50.2562185601
 30
0.0
 10
50.7542845065
 20
50.2330279058
 30
0.0
 10
50.7091220849
 20
50.2114561326
 30
0.0
 10
50.6545545473
 20
50.1921625911
 30
0.0
 10
50.5906323274
 20
50.1756500811
 30
0.0
 10
50.5171892959
 20
50.1623322354
 30
0.0
 10
50.4340063634
 20
50.152621342
 30
0.0
 10
50.3407640916
 20
50.1469348307
 30
0.0
 10
50.2370051047
 20
50.1456897757
 30
0.0
 10
50.1221597385
 20
50.1491753323
 30
0.0
 10
49.9954833945
 20
50.1576540565
 30
0.0
 10
49.855880504
 20
50.1712572107
 30
0.0
 10
49.7019459703
 20
50.1899310961
 30
0.0
 10
49.5320375634
 20
50.2134344275
 30
0.0
 10
49.3444764723
 20
50.2412214701
 30
0.0
 10
49.1375509218
 20
50.2724528843
 30
0.0
 10
48.9095429825
 20
50.3068785169
 30
0.0
 10
48.6585368103
 20
50.344389246
 30
0.0
 10
48.3818736909
 20
50.3834285839
 30
0.0
 10
48.0761177038
 20
50.4216018427
 30
0.0
 10
47.7372691788
 20
50.4551373996
 30
0.0
 10
47.3610612893
 20
50.4815500906
 30
0.0
 10
46.9426886958
 20
50.4981149313
 30
0.0
 10
46.4790213508
 20
50.5013810308
 30
0.0
 10
45.9862497981
 20
50.4879417564
 30
0.0
 10
45.4975088074
 20
50.4575165322
 30
0.0
 10
45.04807365
 20
50.4140090462
 30
0.0
 10
44.6515319029
 20
50.3616668261
 30
0.0
 10
44.3025091406
 20
50.3074549158
 30
0.0
 10
43.9906403832
 20
50.2511418453
 30
0.0
 10
43.7970237722
 20
50.1990066239
 30
0.0
 10
43.7061526272
 20
50.1695952033
 30
0.0
  0
SPLINE
  5
301
100
AcDbEntity
  8
0
100
AcDbSpline
 62
7
  6
BYLAYER
 70
0
 71
3
 72
26
 73
22
 74
0
 42
0.0000001
 43
0.0000001
 44
0.0000000001
 40
0.0
 40
0.0
 40
0.0
 40
0.0
 40
0.1073898494
 40
0.2046545392
 40
0.2927626032
 40
0.3725751529
 40
0.444807349
 40
0.5100860332
 40
0.5689516574
 40
0.62187822
 40
0.6693755996
 40
0.7119690339
 40
0.7500029929
 40
0.7833644987
 40
0.8129185711
 40
0.8400670199
 40
0.8670063791
 40
0.8951020397
 40
0.9260782022
 40
0.9606283352
 40
1.0
 40
1.0
 40
1.0
 40
1.0
 10
42.431337456
 20
49.0033594784
 30
0.0
 10
42.3873717775
 20
48.9897145835
 30
0.0
 10
42.3031893992
 20
48.9649620606
 30
0.0
 10
42.1816694621
 20
48.9335232663
 30
0.0
 10
42.0706297654
 20
48.909053576
 30
0.0
 10
41.9692470785
 20
48.8910016994
 30
0.0
 10
41.8768381546
 20
48.8789110204
 30
0.0
 10
41.7928650563
 20
48.8724022393
 30
0.0
 10
41.7169144356
 20
48.8711998202
 30
0.0
 10
41.6486716422
 20
48.8750729055
 30
0.0
 10
41.587903411
 20
48.8838519421
 30
0.0
 10
41.5345586333
 20
48.8974401763
 30
0.0
 10
41.4890376692
 20
48.9156792912
 30
0.0
 10
41.4518246902
 20
48.9382193334
 30
0.0
 10
41.4231519815
 20
48.9645080115
 30
0.0
 10
41.402683094
 20
48.9943517992
 30
0.0
 10
41.3902690644
 20
49.0277008905
 30
0.0
 10
41.3859852276
 20
49.0646474798
 30
0.0
 10
41.3900321599
 20
49.1048362627
 30
0.0
 10
41.4024773969
 20
49.1482577153
 30
0.0
 10
41.4158340252
 20
49.1771031327
 30
0.0
 10
41.4235769695
 20
49.1920994619
 30
0.0
  0
SPLINE
  5
302
100
AcDbEntity
  8
0
100
AcDbSpline
 62
7
  6
BYLAYER
 70
0
 71
3
 72
55
 73
51
 74
0
 42
0.0000001
 43
0.0000001
 44
0.0000000001
 40
0.0
 40
0.0
 40
0.0
 40
0.0
 40
0.0003479722
 40
0.0006302427
 40
0.0010040555
 40
0.0011341947
 40
0.0012350297
 40
0.0015537729
 40
0.0020762809
 40
0.0027881138
 40
0.00367483
 40
0.0047224619
 40
0.0059189396
 40
0.0072526676
 40
0.0087120503
 40
0.0119752405
 40
0.0156850227
 40
0.0198504133
 40
0.0245541054
 40
0.0298996841
 40
0.0360012425
 40
0.0429666185
 40
0.0508682311
 40
0.0597610776
 40
0.0696653447
 40
0.092487085
 40
0.1190885609
 40
0.1491392742
 40
0.182242724
 40
0.2179988587
 40
0.2560539138
 40
0.3377508577
 40
0.4249361057
 40
0.5154825439
 40
0.5614094684
 40
0.6074701213
 40
0.6534516159
 40
0.6991546909
 40
0.7443938682
 40
0.7890000709
 40
0.832824138
 40
0.8544041823
 40
0.8757438184
 40
0.8863799294
 40
0.8972191052
 40
0.9195361751
 40
0.9427117999
 40
0.9668014996
 40
0.9918171885
 40
1.0
 40
1.0
 40
1.0
 40
1.0
 10
55.1945464774
 20
49.015241413
 30
0.0
 10
55.1959933142
 20
49.0149956731
 30
0.0
 10
55.1992537927
 20
49.0144568392
 30
0.0
 10
55.2043258528
 20
49.0136271097
 30
0.0
 10
55.2068958861
 20
49.013198644
 30
0.0
 10
55.2118316763
 20
49.0124447305
 30
0.0
 10
55.2077902671
 20
49.0131524424
 30
0.0
 10
55.2043028686
 20
49.0136886067
 30
0.0
 10
55.1962308978
 20
49.0149911073
 30
0.0
 10
55.1862615978
 20
49.016557812
 30
0.0
 10
55.1734145692
 20
49.0185790098
 30
0.0
 10
55.1583568775
 20
49.0209347363
 30
0.0
 10
55.1411005279
 20
49.0236287307
 30
0.0
 10
55.1218724489
 20
49.0266236958
 30
0.0
 10
55.092676372
 20
49.0311649005
 30
0.0
 10
55.0520251171
 20
49.0374664232
 30
0.0
 10
54.9982792791
 20
49.0454783167
 30
0.0
 10
54.9375058948
 20
49.0539907724
 30
0.0
 10
54.8688118286
 20
49.0634812727
 30
0.0
 10
54.7907877469
 20
49.0744574159
 30
0.0
 10
54.7018442998
 20
49.0870175475
 30
0.0
 10
54.6005434648
 20
49.1012496026
 30
0.0
 10
54.4856969861
 20
49.1169408846
 30
0.0
 10
54.3565474253
 20
49.1338459137
 30
0.0
 10
54.1550621271
 20
49.1589259134
 30
0.0
 10
53.8674921942
 20
49.1917501495
 30
0.0
 10
53.4819467666
 20
49.2327289698
 30
0.0
 10
53.0462833589
 20
49.2767148425
 30
0.0
 10
52.5658232471
 20
49.3214978521
 30
0.0
 10
52.0460396875
 20
49.3649342512
 30
0.0
 10
51.2894008424
 20
49.4203023493
 30
0.0
 10
50.2813266819
 20
49.4767313637
 30
0.0
 10
49.0161423854
 20
49.5154994548
 30
0.0
 10
47.9247906759
 20
49.5159225256
 30
0.0
 10
47.0345638717
 20
49.4921114867
 30
0.0
 10
46.3621664621
 20
49.4605567804
 30
0.0
 10
45.6917200768
 20
49.4140767371
 30
0.0
 10
45.0266131689
 20
49.3513047528
 30
0.0
 10
44.3701477426
 20
49.270873784
 30
0.0
 10
43.7255605138
 20
49.1713758555
 30
0.0
 10
43.1981875807
 20
49.071053743
 30
0.0
 10
42.785057794
 20
48.979235198
 30
0.0
 10
42.5312919149
 20
48.9169574865
 30
0.0
 10
42.3292499227
 20
48.8639600089
 30
0.0
 10
42.1232205975
 20
48.8074227649
 30
0.0
 10
41.858993015
 20
48.731857046
 30
0.0
 10
41.5330140644
 20
48.637144612
 30
0.0
 10
41.1936847206
 20
48.54121475
 30
0.0
 10
40.9232046675
 20
48.4706559587
 30
0.0
 10
40.7655262296
 20
48.4336543625
 30
0.0
 10
40.7265979814
 20
48.4248049574
 30
0.0
  0
SPLINE
  5
303
100
AcDbEntity
  8
0
100
AcDbSpline
 62
7
  6
BYLAYER
 70
0
 71
3
 72
10
 73
6
 74
0
 42
0.0000001
 43
0.0000001
 44
0.0000000001
 40
0.0
 40
0.0
 40
0.0
 40
0.0
 40
0.3419008565
 40
0.6736511378
 40
1.0
 40
1.0
 40
1.0
 40
1.0
 10
40.0864333608
 20
47.8467732164
 30
0.0
 10
40.1121653686
 20
47.8317923287
 30
0.0
 10
40.1653287797
 20
47.8062239645
 30
0.0
 10
40.2495506482
 20
47.7824670404
 30
0.0
 10
40.3070018459
 20
47.7771290728
 30
0.0
 10
40.3354226768
 20
47.7771290728
 30
0.0
  0
SPLINE
  5
304
100
AcDbEntity
  8
0
100
AcDbSpline
 62
7
  6
BYLAYER
 70
0
 71
3
 72
28
 73
24
 74
0
 42
0.0000001
 43
0.0000001
 44
0.0000000001
 40
0.0
 40
0.0
 40
0.0
 40
0.0
 40
0.0443383155
 40
0.0894759793
 40
0.1352117797
 40
0.1813351602
 40
0.2738354004
 40
0.3652669952
 40
0.4539546244
 40
0.5385406457
 40
0.618084201
 40
0.6559245045
 40
0.6924794105
 40
0.7278458831
 40
0.7621980712
 40
0.7957497936
 40
0.8287544502
 40
0.8615118097
 40
0.8943417667
 40
0.9275456182
 40
0.9614040589
 40
0.9805443642
 40
1.0
 40
1.0
 40
1.0
 40
1.0
 10
40.9028685001
 20
49.1095729036
 30
0.0
 10
40.9123880164
 20
49.0830306109
 30
0.0
 10
40.9295053592
 20
49.0287390813
 30
0.0
 10
40.9492170984
 20
48.9449967218
 30
0.0
 10
40.963094605
 20
48.858946424
 30
0.0
 10
40.973594583
 20
48.7421403392
 30
0.0
 10
40.971324295
 20
48.5954069688
 30
0.0
 10
40.9448729766
 20
48.4235673868
 30
0.0
 10
40.8951364943
 20
48.2621446042
 30
0.0
 10
40.8244023117
 20
48.117061078
 30
0.0
 10
40.7482442593
 20
48.0126474469
 30
0.0
 10
40.6792080858
 20
47.9430751579
 30
0.0
 10
40.624925113
 20
47.8989979192
 30
0.0
 10
40.5677432444
 20
47.8627210034
 30
0.0
 10
40.508268842
 20
47.8345220628
 30
0.0
 10
40.4470830149
 20
47.8146502308
 30
0.0
 10
40.3847634536
 20
47.8033598607
 30
0.0
 10
40.3219314022
 20
47.8009107262
 30
0.0
 10
40.2592464835
 20
47.807203514
 30
0.0
 10
40.1973283614
 20
47.822119343
 30
0.0
 10
40.1460669431
 20
47.8419555834
 30
0.0
 10
40.1049412129
 20
47.8627634769
 30
0.0
 10
40.0838391044
 20
47.8753164619
 30
0.0
 10
40.0734180628
 20
47.881982469
 30
0.0
  0
SPLINE
  5
305
100
AcDbEntity
  8
0
100
AcDbSpline
 62
7
  6
BYLAYER
 70
0
 71
3
 72
31
 73
27
 74
0
 42
0.0000001
 43
0.0000001
 44
0.0000000001
 40
0.0
 40
0.0
 40
0.0
 40
0.0
 40
0.0319663409
 40
0.0644093066
 40
0.1302141894
 40
0.2038674704
 40
0.276669843
 40
0.3472873339
 40
0.4146389213
 40
0.4779754469
 40
0.5081057741
 40
0.5372126041
 40
0.5653731444
 40
0.5927260611
 40
0.6194416073
 40
0.6457215526
 40
0.6718045876
 40
0.6979454284
 40
0.7243839825
 40
0.751343753
 40
0.8074885723
 40
0.867512188
 40
0.8991494204
 40
0.9318251048
 40
0.9654716508
 40
1.0
 40
1.0
 40
1.0
 40
1.0
 10
39.7570276879
 20
48.3267560792
 30
0.0
 10
39.7491592903
 20
48.3510460598
 30
0.0
 10
39.7349888508
 20
48.4005078904
 30
0.0
 10
39.7129869377
 20
48.5021779662
 30
0.0
 10
39.6968902436
 20
48.6388652982
 30
0.0
 10
39.6995210945
 20
48.8088398885
 30
0.0
 10
39.7259723677
 20
48.9806936737
 30
0.0
 10
39.7757088616
 20
49.1421128073
 30
0.0
 10
39.8464430413
 20
49.287197252
 30
0.0
 10
39.9226010942
 20
49.3916106777
 30
0.0
 10
39.9916372679
 20
49.4611829913
 30
0.0
 10
40.04592024
 20
49.5052602259
 30
0.0
 10
40.1031021111
 20
49.5415371412
 30
0.0
 10
40.1625765045
 20
49.5697360873
 30
0.0
 10
40.2237623639
 20
49.5896078983
 30
0.0
 10
40.2860818079
 20
49.6008983453
 30
0.0
 10
40.3489142926
 20
49.6033471959
 30
0.0
 10
40.4115975867
 20
49.5970554721
 30
0.0
 10
40.4735218826
 20
49.5821355998
 30
0.0
 10
40.555299768
 20
49.5504992315
 30
0.0
 10
40.6528786743
 20
49.488760073
 30
0.0
 10
40.736864265
 20
49.4046415045
 30
0.0
 10
40.7962115029
 20
49.3249313004
 30
0.0
 10
40.8370885237
 20
49.2581307977
 30
0.0
 10
40.8731758159
 20
49.186059283
 30
0.0
 10
40.8935463602
 20
49.1355156971
 30
0.0
 10
40.9028684986
 20
49.1095729077
 30
0.0
  0
SPLINE
  5
306
100
AcDbEntity
  8
0
100
AcDbSpline
 62
7
  6
BYLAYER
 70
0
 71
3
 72
14
 73
10
 74
0
 42
0.0000001
 43
0.0000001
 44
0.0000000001
 40
0.0
 40
0.0
 40
0.0
 40
0.0
 40
0.1160453777
 40
0.2393464563
 40
0.3745702701
 40
0.5220457991
 40
0.6788561145
 40
0.8401004228
 40
1.0
 40
1.0
 40
1.0
 40
1.0
 10
40.3354226768
 20
49.6271290728
 30
0.0
 10
40.2732757211
 20
49.6271290728
 30
0.0
 10
40.1439230617
 20
49.6000357279
 30
0.0
 10
39.9735436184
 20
49.4872365057
 30
0.0
 10
39.8349799784
 20
49.3161043303
 30
0.0
 10
39.7358137303
 20
49.100379258
 30
0.0
 10
39.6818520396
 20
48.8551775146
 30
0.0
 10
39.6769558828
 20
48.5977206893
 30
0.0
 10
39.7077777473
 20
48.4270428642
 30
0.0
 10
39.7320838844
 20
48.3449322038
 30
0.0
  0
SPLINE
  5
307
100
AcDbEntity
  8
0
100
AcDbSpline
 62
7
  6
BYLAYER
 70
0
 71
3
 72
10
 73
6
 74
0
 42
0.0000001
 43
0.0000001
 44
0.0000000001
 40
0.0
 40
0.0
 40
0.0
 40
0.0
 40
0.3419008565
 40
0.6736511378
 40
1.0
 40
1.0
 40
1.0
 40
1.0
 10
40.5844119927
 20
49.5574849292
 30
0.0
 10
40.5586799849
 20
49.5724658169
 30
0.0
 10
40.5055165739
 20
49.5980341811
 30
0.0
 10
40.4212947053
 20
49.6217911053
 30
0.0
 10
40.3638435076
 20
49.6271290728
 30
0.0
 10
40.3354226768
 20
49.6271290728
 30
0.0
  0
SPLINE
  5
308
100
AcDbEntity
  8
0
100
AcDbSpline
 62
7
  6
BYLAYER
 70
0
 71
3
 72
17
 73
13
 74
0
 42
0.0000001
 43
0.0000001
 44
0.0000000001
 40
0.0
 40
0.0
 40
0.0
 40
0.0
 40
0.0819062705
 40
0.1688837608
 40
0.2640903549
 40
0.3677194925
 40
0.4777117717
 40
0.5906499571
 40
0.7025593667
 40
0.8096514361
 40
0.9091096813
 40
1.0
 40
1.0
 40
1.0
 40
1.0
 10
40.3354226768
 20
47.7771290728
 30
0.0
 10
40.3963254645
 20
47.7771290728
 30
0.0
 10
40.523020238
 20
47.8030933177
 30
0.0
 10
40.6908921423
 20
47.9116907614
 30
0.0
 10
40.8285523811
 20
48.0770789332
 30
0.0
 10
40.9285405217
 20
48.2859874887
 30
0.0
 10
40.9853705521
 20
48.5237493733
 30
0.0
 10
40.9955441403
 20
48.7740380999
 30
0.0
 10
40.9583430761
 20
49.0196182991
 30
0.0
 10
40.8757395328
 20
49.2435310511
 30
0.0
 10
40.7526562382
 20
49.4298762582
 30
0.0
 10
40.6428178585
 20
49.5234816861
 30
0.0
 10
40.5844119927
 20
49.5574849292
 30
0.0
  0
SPLINE
  5
309
100
AcDbEntity
  8
0
100
AcDbSpline
 62
7
  6
BYLAYER
 70
0
 71
3
 72
23
 73
19
 74
0
 42
0.0000001
 43
0.0000001
 44
0.0000000001
 40
0.0
 40
0.0
 40
0.0
 40
0.0
 40
0.0625917606
 40
0.1251370424
 40
0.1876286094
 40
0.2500680465
 40
0.3124642522
 40
0.3748332544
 40
0.4371949133
 40
0.4995703031
 40
0.5619785617
 40
0.6244334011
 40
0.6869419869
 40
0.749502645
 40
0.8121064209
 40
0.8747372983
 40
0.9373754857
 40
1.0
 40
1.0
 40
1.0
 40
1.0
 10
55.1945464774
 20
49.015241413
 30
0.0
 10
55.2038046772
 20
48.9571248392
 30
0.0
 10
55.2338240312
 20
48.8427564036
 30
0.0
 10
55.3110490847
 20
48.6831729809
 30
0.0
 10
55.418091353
 20
48.5420221807
 30
0.0
 10
55.5503134548
 20
48.424334754
 30
0.0
 10
55.7030771591
 20
48.3351360884
 30
0.0
 10
55.8701740964
 20
48.277286911
 30
0.0
 10
56.045394304
 20
48.2536432318
 30
0.0
 10
56.2219077016
 20
48.2644551396
 30
0.0
 10
56.3928837954
 20
48.3099674417
 30
0.0
 10
56.5519192506
 20
48.3877823664
 30
0.0
 10
56.6926109385
 20
48.4954993534
 30
0.0
 10
56.8099596005
 20
48.6284460249
 30
0.0
 10
56.8989645256
 20
48.7819504333
 30
0.0
 10
56.9567844309
 20
48.9497820954
 30
0.0
 10
56.9805770427
 20
49.1257128015
 30
0.0
 10
56.9735745258
 20
49.2438600809
 30
0.0
 10
56.9643147729
 20
49.3020109547
 30
0.0
  0
SPLINE
  5
30A
100
AcDbEntity
  8
0
100
AcDbSpline
 62
7
  6
BYLAYER
 70
0
 71
3
 72
23
 73
19
 74
0
 42
0.0000001
 43
0.0000001
 44
0.0000000001
 40
0.0
 40
0.0
 40
0.0
 40
0.0
 40
0.0625917611
 40
0.1251370434
 40
0.18762861
 40
0.2500680466
 40
0.312464252
 40
0.3748332538
 40
0.4371949123
 40
0.4995703017
 40
0.5619785599
 40
0.624433399
 40
0.6869419843
 40
0.749502642
 40
0.8121064175
 40
0.8747372946
 40
0.9373754839
 40
1.0
 40
1.0
 40
1.0
 40
1.0
 10
56.9643147722
 20
49.3020109592
 30
0.0
 10
56.9550565726
 20
49.3601275338
 30
0.0
 10
56.9250372186
 20
49.4744959713
 30
0.0
 10
56.8478121646
 20
49.6340793956
 30
0.0
 10
56.7407698958
 20
49.7752301964
 30
0.0
 10
56.608547794
 20
49.8929176231
 30
0.0
 10
56.4557840897
 20
49.9821162887
 30
0.0
 10
56.2886871525
 20
50.0399654661
 30
0.0
 10
56.1134669449
 20
50.0636091453
 30
0.0
 10
55.9369535472
 20
50.0527972376
 30
0.0
 10
55.7659774534
 20
50.0072849354
 30
0.0
 10
55.6069419983
 20
49.9294700107
 30
0.0
 10
55.4662503103
 20
49.8217530237
 30
0.0
 10
55.3489016483
 20
49.6888063522
 30
0.0
 10
55.2598967233
 20
49.5353019438
 30
0.0
 10
55.2020768172
 20
49.3674702797
 30
0.0
 10
55.1782842054
 20
49.1915395692
 30
0.0
 10
55.1852867239
 20
49.0733922855
 30
0.0
 10
55.1945464779
 20
49.0152414097
 30
0.0
  0
SPLINE
  5
30B
100
AcDbEntity
  8
0
100
AcDbSpline
 62
7
  6
BYLAYER
 70
0
 71
3
 72
26
 73
22
 74
0
 42
0.0000001
 43
0.0000001
 44
0.0000000001
 40
0.0
 40
0.0
 40
0.0
 40
0.0
 40
0.0631642014
 40
0.1259648477
 40
0.1883498993
 40
0.2194296418
 40
0.2504122778
 40
0.3120706913
 40
0.3735300898
 40
0.4042712608
 40
0.4350267665
 40
0.496566739
 40
0.558375459
 40
0.6205535342
 40
0.651834427
 40
0.6832233542
 40
0.7462142054
 40
0.8095251386
 40
0.8730292844
 40
0.9365739328
 40
1.0
 40
1.0
 40
1.0
 40
1.0
 10
43.7121620407
 20
50.1001032472
 30
0.0
 10
43.7556167223
 20
50.0678485201
 30
0.0
 10
43.8484996359
 20
50.0118236207
 30
0.0
 10
44.0007484262
 20
49.9559995034
 30
0.0
 10
44.1338245674
 20
49.9353522156
 30
0.0
 10
44.2404607272
 20
49.9346764846
 30
0.0
 10
44.3460303556
 20
49.9445241451
 30
0.0
 10
44.4748802951
 20
49.9767200013
 30
0.0
 10
44.5945439539
 20
50.0338914183
 30
0.0
 10
44.6815314702
 20
50.0933725585
 30
0.0
 10
44.7621062859
 20
50.1613724277
 30
0.0
 10
44.8495973334
 20
50.2613607381
 30
0.0
 10
44.928300283
 20
50.400413642
 30
0.0
 10
44.9700633425
 20
50.5275383486
 30
0.0
 10
44.987991972
 20
50.6330098147
 30
0.0
 10
44.9956273589
 20
50.7404114959
 30
0.0
 10
44.9856331997
 20
50.8759020898
 30
0.0
 10
44.9424371683
 20
51.033474265
 30
0.0
 10
44.8702788865
 20
51.1806111801
 30
0.0
 10
44.771393297
 20
51.3114132771
 30
0.0
 10
44.6903236861
 20
51.3847242571
 30
0.0
 10
44.6466992752
 20
51.4171491757
 30
0.0
  0
SPLINE
  5
30C
100
AcDbEntity
  8
0
100
AcDbSpline
 62
7
  6
BYLAYER
 70
0
 71
3
 72
26
 73
22
 74
0
 42
0.0000001
 43
0.0000001
 44
0.0000000001
 40
0.0
 40
0.0
 40
0.0
 40
0.0
 40
0.0631642014
 40
0.1259648476
 40
0.1883498993
 40
0.2194296417
 40
0.2504122778
 40
0.3120706913
 40
0.3735300898
 40
0.4042712609
 40
0.4350267666
 40
0.4965667391
 40
0.5583754591
 40
0.6205535343
 40
0.6518344271
 40
0.6832233543
 40
0.7462142055
 40
0.8095251387
 40
0.8730292845
 40
0.9365739328
 40
1.0
 40
1.0
 40
1.0
 40
1.0
 10
44.6466992805
 20
51.4171491794
 30
0.0
 10
44.6032445988
 20
51.4494039064
 30
0.0
 10
44.5103616851
 20
51.5054288059
 30
0.0
 10
44.3581128948
 20
51.5612529231
 30
0.0
 10
44.2250367535
 20
51.5819002108
 30
0.0
 10
44.1184005936
 20
51.5825759418
 30
0.0
 10
44.0128309651
 20
51.5727282812
 30
0.0
 10
43.8839810255
 20
51.5405324249
 30
0.0
 10
43.7643173665
 20
51.4833610078
 30
0.0
 10
43.6773298501
 20
51.4238798676
 30
0.0
 10
43.5967550343
 20
51.3558799983
 30
0.0
 10
43.5092639867
 20
51.2558916879
 30
0.0
 10
43.430561037
 20
51.1168387838
 30
0.0
 10
43.3887979774
 20
50.9897140771
 30
0.0
 10
43.3708693477
 20
50.884242611
 30
0.0
 10
43.3632339608
 20
50.7768409297
 30
0.0
 10
43.3732281199
 20
50.6413503358
 30
0.0
 10
43.4164241513
 20
50.4837781605
 30
0.0
 10
43.4885824331
 20
50.3366412454
 30
0.0
 10
43.5874680227
 20
50.2058391483
 30
0.0
 10
43.6685376336
 20
50.1325281684
 30
0.0
 10
43.7121620445
 20
50.1001032498
 30
0.0
  0
SPLINE
  5
30D
100
AcDbEntity
  8
0
100
AcDbSpline
 62
7
  6
BYLAYER
 70
0
 71
3
 72
22
 73
18
 74
0
 42
0.0000001
 43
0.0000001
 44
0.0000000001
 40
0.0
 40
0.0
 40
0.0
 40
0.0
 40
0.0143320689
 40
0.0630236204
 40
0.110934505
 40
0.158489515
 40
0.2061333575
 40
0.2543254777
 40
0.3034811684
 40
0.3539400946
 40
0.4059800853
 40
0.4598187724
 40
0.515560789
 40
0.632639002
 40
0.7568255186
 40
0.8865880708
 40
1.0
 40
1.0
 40
1.0
 40
1.0
 10
40.8750065148
 20
46.0206161286
 30
0.0
 10
40.8692643643
 20
46.0180813095
 30
0.0
 10
40.8438084904
 20
46.0074032479
 30
0.0
 10
40.7974356271
 20
45.9923832136
 30
0.0
 10
40.7351156995
 20
45.9811524276
 30
0.0
 10
40.6722918017
 20
45.978585878
 30
0.0
 10
40.6095928886
 20
45.9847628503
 30
0.0
 10
40.5476813251
 20
45.999737153
 30
0.0
 10
40.4871620005
 20
46.02321
 30
0.0
 10
40.4285996171
 20
46.0548936174
 30
0.0
 10
40.3725644671
 20
46.0945060384
 30
0.0
 10
40.3196516862
 20
46.1417359182
 30
0.0
 10
40.2527683661
 20
46.2152850371
 30
0.0
 10
40.1798312565
 20
46.3239634386
 30
0.0
 10
40.1134404134
 20
46.4730105578
 30
0.0
 10
40.0707836362
 20
46.6287438423
 30
0.0
 10
40.0565544288
 20
46.7345806911
 30
0.0
 10
40.0528156783
 20
46.784108699
 30
0.0
  0
SPLINE
  5
30E
100
AcDbEntity
  8
0
100
AcDbSpline
 62
7
  6
BYLAYER
 70
0
 71
3
 72
9
 73
5
 74
0
 42
0.0000001
 43
0.0000001
 44
0.0000000001
 40
0.0
 40
0.0
 40
0.0
 40
0.0
 40
0.5152251951
 40
1.0
 40
1.0
 40
1.0
 40
1.0
 10
41.0790129567
 20
46.1724241054
 30
0.0
 10
41.049653423
 20
46.1397645368
 30
0.0
 10
40.9867302973
 20
46.0813754042
 30
0.0
 10
40.9128078425
 20
46.0373031741
 30
0.0
 10
40.8750065148
 20
46.0206161286
 30
0.0
  0
SPLINE
  5
30F
100
AcDbEntity
  8
0
100
AcDbSpline
 62
7
  6
BYLAYER
 70
0
 71
3
 72
10
 73
6
 74
0
 42
0.0000001
 43
0.0000001
 44
0.0000000001
 40
0.0
 40
0.0
 40
0.0
 40
0.0
 40
0.3458809143
 40
0.6795156747
 40
1.0
 40
1.0
 40
1.0
 40
1.0
 10
41.2313843195
 20
46.4170439202
 30
0.0
 10
41.2183538842
 20
46.3863328037
 30
0.0
 10
41.1897893513
 20
46.327191125
 30
0.0
 10
41.1388605611
 20
46.245085166
 30
0.0
 10
41.0996898255
 20
46.1953934532
 30
0.0
 10
41.0790086227
 20
46.1724192843
 30
0.0
  0
SPLINE
  5
310
100
AcDbEntity
  8
0
100
AcDbSpline
 62
7
  6
BYLAYER
 70
0
 71
3
 72
11
 73
7
 74
0
 42
0.0000001
 43
0.0000001
 44
0.0000000001
 40
0.0
 40
0.0
 40
0.0
 40
0.0
 40
0.2585755892
 40
0.5115881547
 40
0.7587845531
 40
1.0
 40
1.0
 40
1.0
 40
1.0
 10
40.1675686058
 20
47.4025870206
 30
0.0
 10
40.1762486627
 20
47.4197664082
 30
0.0
 10
40.1944340549
 20
47.4532551801
 30
0.0
 10
40.224464808
 20
47.5011335804
 30
0.0
 10
40.2568130971
 20
47.5459021279
 30
0.0
 10
40.2801130927
 20
47.5738424999
 30
0.0
 10
40.2921197817
 20
47.5872026259
 30
0.0
  0
SPLINE
  5
311
100
AcDbEntity
  8
0
100
AcDbSpline
 62
7
  6
BYLAYER
 70
0
 71
3
 72
11
 73
7
 74
0
 42
0.0000001
 43
0.0000001
 44
0.0000000001
 40
0.0
 40
0.0
 40
0.0
 40
0.0
 40
0.227097084
 40
0.4652595717
 40
0.7220200391
 40
1.0
 40
1.0
 40
1.0
 40
1.0
 10
40.6855642022
 20
47.8048109551
 30
0.0
 10
40.6353074995
 20
47.8048109551
 30
0.0
 10
40.5316611851
 20
47.787494532
 30
0.0
 10
40.3879607691
 20
47.7127247168
 30
0.0
 10
40.2616187567
 20
47.5948522239
 30
0.0
 10
40.1951751216
 20
47.4956860406
 30
0.0
 10
40.1659233398
 20
47.4415686861
 30
0.0
  0
SPLINE
  5
312
100
AcDbEntity
  8
0
100
AcDbSpline
 62
7
  6
BYLAYER
 70
0
 71
3
 72
12
 73
8
 74
0
 42
0.0000001
 43
0.0000001
 44
0.0000000001
 40
0.0
 40
0.0
 40
0.0
 40
0.0
 40
0.232335608
 40
0.4505447217
 40
0.6499084491
 40
0.8307244761
 40
1.0
 40
1.0
 40
1.0
 40
1.0
 10
41.3332785794
 20
47.0084856271
 30
0.0
 10
41.3247324789
 20
47.0945232611
 30
0.0
 10
41.2913758481
 20
47.2603053927
 30
0.0
 10
41.1927482705
 20
47.4834221495
 30
0.0
 10
41.0528683281
 20
47.6604200801
 30
0.0
 10
40.8800531781
 20
47.7768624001
 30
0.0
 10
40.7485581481
 20
47.8048109551
 30
0.0
 10
40.6855642022
 20
47.8048109551
 30
0.0
  0
SPLINE
  5
313
100
AcDbEntity
  8
0
100
AcDbSpline
 62
7
  6
BYLAYER
 70
0
 71
3
 72
13
 73
9
 74
0
 42
0.0000001
 43
0.0000001
 44
0.0000000001
 40
0.0
 40
0.0
 40
0.0
 40
0.0
 40
0.1370643981
 40
0.2834434111
 40
0.4446409707
 40
0.6208235697
 40
0.8080842835
 40
1.0
 40
1.0
 40
1.0
 40
1.0
 10
40.6855642022
 20
45.9548109551
 30
0.0
 10
40.7483295846
 20
45.9548109551
 30
0.0
 10
40.8793280231
 20
45.9825429836
 30
0.0
 10
41.0516277005
 20
46.0981544074
 30
0.0
 10
41.1912334865
 20
46.2738301054
 30
0.0
 10
41.2899376204
 20
46.4952325385
 30
0.0
 10
41.3415701897
 20
46.7460123358
 30
0.0
 10
41.3419652555
 20
46.9210327515
 30
0.0
 10
41.3332785794
 20
47.0084856271
 30
0.0
  0
SPLINE
  5
314
100
AcDbEntity
  8
0
100
AcDbSpline
 62
7
  6
BYLAYER
 70
0
 71
3
 72
12
 73
8
 74
0
 42
0.0000001
 43
0.0000001
 44
0.0000000001
 40
0.0
 40
0.0
 40
0.0
 40
0.0
 40
0.232335608
 40
0.4505447217
 40
0.6499084491
 40
0.8307244761
 40
1.0
 40
1.0
 40
1.0
 40
1.0
 10
40.037849825
 20
46.7511362831
 30
0.0
 10
40.0463959255
 20
46.6650986491
 30
0.0
 10
40.0797525563
 20
46.4993165175
 30
0.0
 10
40.1783801338
 20
46.2761997607
 30
0.0
 10
40.3182600763
 20
46.0992018302
 30
0.0
 10
40.4910752263
 20
45.9827595102
 30
0.0
 10
40.6225702562
 20
45.9548109551
 30
0.0
 10
40.6855642022
 20
45.9548109551
 30
0.0
  0
SPLINE
  5
315
100
AcDbEntity
  8
0
100
AcDbSpline
 62
7
  6
BYLAYER
 70
0
 71
3
 72
24
 73
20
 74
0
 42
0.0000001
 43
0.0000001
 44
0.0000000001
 40
0.0
 40
0.0
 40
0.0
 40
0.0
 40
0.0761668351
 40
0.1533981687
 40
0.2315693887
 40
0.31062092
 40
0.3899503081
 40
0.4676001552
 40
0.5412563359
 40
0.6080023371
 40
0.6674351746
 40
0.7212853928
 40
0.7712314379
 40
0.8183225407
 40
0.862478658
 40
0.9027935187
 40
0.9390122556
 40
0.9710790886
 40
1.0
 40
1.0
 40
1.0
 40
1.0
 10
42.6517051574
 20
46.2146925492
 30
0.0
 10
42.5823831882
 20
46.2142655589
 30
0.0
 10
42.4427806214
 20
46.2116651049
 30
0.0
 10
42.2321304625
 20
46.2047766811
 30
0.0
 10
42.0188528562
 20
46.1978657885
 30
0.0
 10
41.8035484353
 20
46.194880267
 30
0.0
 10
41.5887070436
 20
46.2004503824
 30
0.0
 10
41.3794111814
 20
46.2186127523
 30
0.0
 10
41.1833598105
 20
46.2508480639
 30
0.0
 10
41.006773737
 20
46.2952904939
 30
0.0
 10
40.8514572628
 20
46.3479778174
 30
0.0
 10
40.7143881639
 20
46.4055496265
 30
0.0
 10
40.5912115412
 20
46.4664401411
 30
0.0
 10
40.4792619127
 20
46.5296670332
 30
0.0
 10
40.378166032
 20
46.5939149624
 30
0.0
 10
40.2878433488
 20
46.6564704066
 30
0.0
 10
40.2074806337
 20
46.7139567292
 30
0.0
 10
40.1312886315
 20
46.7595810908
 30
0.0
 10
40.0784043601
 20
46.7779372177
 30
0.0
 10
40.0528156783
 20
46.784108699
 30
0.0
  0
SPLINE
  5
316
100
AcDbEntity
  8
0
100
AcDbSpline
 62
7
  6
BYLAYER
 70
0
 71
3
 72
67
 73
63
 74
0
 42
0.0000001
 43
0.0000001
 44
0.0000000001
 40
0.0
 40
0.0
 40
0.0
 40
0.0
 40
0.0014073843
 40
0.0019784562
 40
0.0024634562
 40
0.0028641407
 40
0.0031822654
 40
0.003310917
 40
0.0034195878
 40
0.0035084978
 40
0.0035778683
 40
0.0036279228
 40
0.0036588927
 40
0.0036710678
 40
0.0036779918
 40
0.0037031662
 40
0.0037465419
 40
0.0038079189
 40
0.0038870842
 40
0.0040979151
 40
0.0043772974
 40
0.0047234889
 40
0.0051347464
 40
0.0056094502
 40
0.0061464712
 40
0.0067448012
 40
0.0074034306
 40
0.0088975453
 40
0.010620727
 40
0.0147302338
 40
0.0197087617
 40
0.0255477211
 40
0.0322637549
 40
0.039883418
 40
0.0484468631
 40
0.0579945057
 40
0.0685536879
 40
0.0801437759
 40
0.09276529
 40
0.1210369826
 40
0.153093391
 40
0.1885978539
 40
0.2271483371
 40
0.311736793
 40
0.3569839324
 40
0.4036977808
 40
0.4515252856
 40
0.5001370326
 40
0.5492242672
 40
0.5985053342
 40
0.6477263007
 40
0.6966688202
 40
0.7451536187
 40
0.7930516347
 40
0.8402934241
 40
0.8868820104
 40
0.9329065666
 40
0.9557666145
 40
0.967171647
 40
0.9785665164
 40
0.9899597186
 40
1.0
 40
1.0
 40
1.0
 40
1.0
 10
55.2206002901
 20
45.8001100326
 30
0.0
 10
55.2263852849
 20
45.8021609557
 30
0.0
 10
55.2345231236
 20
45.8050286169
 30
0.0
 10
55.2446706941
 20
45.8085571679
 30
0.0
 10
55.2506773294
 20
45.8106260298
 30
0.0
 10
55.2556474296
 20
45.812318858
 30
0.0
 10
55.2591497443
 20
45.8134956449
 30
0.0
 10
55.2614512716
 20
45.8142571494
 30
0.0
 10
55.2627996731
 20
45.8146979712
 30
0.0
 10
55.2639189274
 20
45.8150578095
 30
0.0
 10
55.2647574224
 20
45.8153216731
 30
0.0
 10
55.2654500632
 20
45.8155317369
 30
0.0
 10
55.265721978
 20
45.8156058285
 30
0.0
 10
55.2660928017
 20
45.8157039972
 30
0.0
 10
55.265861258
 20
45.8155579921
 30
0.0
 10
55.2656014875
 20
45.81548078
 30
0.0
 10
55.2650457453
 20
45.8152490566
 30
0.0
 10
55.2643054189
 20
45.8149835213
 30
0.0
 10
55.2628579902
 20
45.8144559308
 30
0.0
 10
55.2605201112
 20
45.8136358032
 30
0.0
 10
55.257070302
 20
45.812442958
 30
0.0
 10
55.2527899009
 20
45.8109882503
 30
0.0
 10
55.247695123
 20
45.8092788007
 30
0.0
 10
55.2418046004
 20
45.8073261959
 30
0.0
 10
55.2351340061
 20
45.8051336045
 30
0.0
 10
55.2276969561
 20
45.8027042447
 30
0.0
 10
55.2162872254
 20
45.7989940777
 30
0.0
 10
55.2002046621
 20
45.7937905171
 30
0.0
 10
55.169794968
 20
45.7839795698
 30
0.0
 10
55.1249168667
 20
45.7695227957
 30
0.0
 10
55.0629339173
 20
45.7496245449
 30
0.0
 10
54.9900939324
 20
45.726356457
 30
0.0
 10
54.9061424962
 20
45.7000218227
 30
0.0
 10
54.8106343921
 20
45.6708386154
 30
0.0
 10
54.703059296
 20
45.6388991751
 30
0.0
 10
54.5829077541
 20
45.6042921487
 30
0.0
 10
54.4497878939
 20
45.5670337635
 30
0.0
 10
54.3034739752
 20
45.5271928269
 30
0.0
 10
54.0822320106
 20
45.468527515
 30
0.0
 10
53.7739070173
 20
45.3900558947
 30
0.0
 10
53.367330088
 20
45.293190074
 30
0.0
 10
52.9153429124
 20
45.193766445
 30
0.0
 10
52.2370126904
 20
45.057459134
 30
0.0
 10
51.5127616456
 20
44.9344032434
 30
0.0
 10
50.7495726541
 20
44.8320524411
 30
0.0
 10
50.1433656527
 20
44.7667504869
 30
0.0
 10
49.5209043577
 20
44.7175695519
 30
0.0
 10
48.8868476123
 20
44.6873881099
 30
0.0
 10
48.2457605793
 20
44.6790766906
 30
0.0
 10
47.6021365102
 20
44.6954613301
 30
0.0
 10
46.9603927082
 20
44.7393737679
 30
0.0
 10
46.324880544
 20
44.8135419553
 30
0.0
 10
45.6998800108
 20
44.9207152053
 30
0.0
 10
45.0895880581
 20
45.0635652359
 30
0.0
 10
44.4981089244
 20
45.2447914736
 30
0.0
 10
43.9294136055
 20
45.4669633919
 30
0.0
 10
43.4767303201
 20
45.6891875815
 30
0.0
 10
43.1733304096
 20
45.8642059661
 30
0.0
 10
43.0043012006
 20
45.96950574
 30
0.0
 10
42.8795468363
 20
46.0512178633
 30
0.0
 10
42.761760189
 20
46.1326457723
 30
0.0
 10
42.6866588303
 20
46.1883194289
 30
0.0
 10
42.6517051574
 20
46.2146925492
 30
0.0
  0
SPLINE
  5
317
100
AcDbEntity
  8
0
100
AcDbSpline
 62
7
  6
BYLAYER
 70
0
 71
3
 72
97
 73
93
 74
0
 42
0.0000001
 43
0.0000001
 44
0.0000000001
 40
0.0
 40
0.0
 40
0.0
 40
0.0
 40
0.0002999688
 40
0.0007630271
 40
0.0013258198
 40
0.0019104757
 40
0.0021851241
 40
0.0024344486
 40
0.0026483577
 40
0.0028166836
 40
0.0029297868
 40
0.0029802727
 40
0.0030952848
 40
0.0032737435
 40
0.0035363899
 40
0.003883669
 40
0.0043160703
 40
0.004834127
 40
0.0054384156
 40
0.0069081788
 40
0.008726467
 40
0.0108770936
 40
0.0133392617
 40
0.016092034
 40
0.019114925
 40
0.0223894559
 40
0.0296211594
 40
0.0376492441
 40
0.0463637227
 40
0.050947398
 40
0.0556711036
 40
0.0605270018
 40
0.0654987084
 40
0.0705610746
 40
0.0756607898
 40
0.0858281704
 40
0.0959887444
 40
0.1061437921
 40
0.1264484244
 40
0.1671145299
 40
0.2079923544
 40
0.2491691324
 40
0.2906763173
 40
0.3324971445
 40
0.3745737805
 40
0.4168151768
 40
0.4591013236
 40
0.5012912701
 40
0.5432257992
 40
0.5847340759
 40
0.6657344842
 40
0.7428003359
 40
0.7793816898
 40
0.8144001686
 40
0.8476412634
 40
0.8788317584
 40
0.8935630577
 40
0.9076443601
 40
0.9210066433
 40
0.9335659324
 40
0.9452317842
 40
0.9559033219
 40
0.9654795853
 40
0.9738698874
 40
0.9809910859
 40
0.9840556005
 40
0.9867795782
 40
0.9891564508
 40
0.9911828536
 40
0.9920638227
 40
0.9928562033
 40
0.9935596685
 40
0.9941738901
 40
0.994698635
 40
0.9951340555
 40
0.9954804005
 40
0.9957379191
 40
0.9958334468
 40
0.9959068623
 40
0.9959581982
 40
0.9959874908
 40
0.9959948246
 40
0.9960096049
 40
0.9960463197
 40
0.9961049566
 40
0.9962878834
 40
0.996558147
 40
0.9969155017
 40
0.9973597009
 40
0.9978904975
 40
0.9985076443
 40
1.0
 40
1.0
 40
1.0
 40
1.0
 10
41.0790129567
 20
46.1724241054
 30
0.0
 10
41.0773301846
 20
46.1724240938
 30
0.0
 10
41.0730516428
 20
46.1726750951
 30
0.0
 10
41.0656658576
 20
46.1736158561
 30
0.0
 10
41.0568347402
 20
46.175563263
 30
0.0
 10
41.0491415604
 20
46.177700112
 30
0.0
 10
41.0432292013
 20
46.17960915
 30
0.0
 10
41.0393040463
 20
46.1809805225
 30
0.0
 10
41.0360320301
 20
46.1821928168
 30
0.0
 10
41.033319033
 20
46.1832677565
 30
0.0
 10
41.0318601377
 20
46.1838658815
 30
0.0
 10
41.0298669698
 20
46.1847445784
 30
0.0
 10
41.0331657017
 20
46.1830150619
 30
0.0
 10
41.0350423991
 20
46.1819254713
 30
0.0
 10
41.039269298
 20
46.1795308033
 30
0.0
 10
41.044148405
 20
46.1766409919
 30
0.0
 10
41.0504310161
 20
46.1728342741
 30
0.0
 10
41.0578082218
 20
46.1682241139
 30
0.0
 10
41.0700505555
 20
46.1603580257
 30
0.0
 10
41.0881702335
 20
46.1481797782
 30
0.0
 10
41.1130687351
 20
46.1305384198
 30
0.0
 10
41.1421491631
 20
46.1091861588
 30
0.0
 10
41.1751308467
 20
46.0842940303
 30
0.0
 10
41.211716444
 20
46.0560597058
 30
0.0
 10
41.2516221523
 20
46.0246720121
 30
0.0
 10
41.3109503447
 20
45.9773387801
 30
0.0
 10
41.3917086685
 20
45.9118481019
 30
0.0
 10
41.4957077704
 20
45.8265716245
 30
0.0
 10
41.5883753996
 20
45.7509030941
 30
0.0
 10
41.6670554181
 20
45.6874156682
 30
0.0
 10
41.7292433192
 20
45.6379618389
 30
0.0
 10
41.7936420181
 20
45.5877962263
 30
0.0
 10
41.8601867283
 20
45.5373029107
 30
0.0
 10
41.9285954865
 20
45.4870197753
 30
0.0
 10
42.0212609281
 20
45.4205402407
 30
0.0
 10
42.1382226999
 20
45.3388671883
 30
0.0
 10
42.2807549889
 20
45.2443503034
 30
0.0
 10
42.4738238869
 20
45.1232700455
 30
0.0
 10
42.8195690971
 20
44.9238210029
 30
0.0
 10
43.3338101695
 20
44.6730076293
 30
0.0
 10
43.9758043227
 20
44.4225769659
 30
0.0
 10
44.6390543306
 20
44.2191632688
 30
0.0
 10
45.3194356845
 20
44.0592876735
 30
0.0
 10
46.0130646535
 20
43.9396234783
 30
0.0
 10
46.716134971
 20
43.8568929692
 30
0.0
 10
47.4249192147
 20
43.8079381519
 30
0.0
 10
48.1357443416
 20
43.7896125287
 30
0.0
 10
48.8449846322
 20
43.7988945755
 30
0.0
 10
49.5490802491
 20
43.8327680043
 30
0.0
 10
50.4687773417
 20
43.9061769636
 30
0.0
 10
51.5805831791
 20
44.0424361771
 30
0.0
 10
52.657427257
 20
44.2253981267
 30
0.0
 10
53.4750273722
 20
44.3901286289
 30
0.0
 10
54.0494014472
 20
44.5167711295
 30
0.0
 10
54.5921977034
 20
44.6457933842
 30
0.0
 10
55.0226002814
 20
44.7552798295
 30
0.0
 10
55.3478121679
 20
44.8421312509
 30
0.0
 10
55.575954479
 20
44.9048095893
 30
0.0
 10
55.7919559916
 20
44.9656653812
 30
0.0
 10
55.9945752564
 20
45.024037791
 30
0.0
 10
56.1824034375
 20
45.0792152184
 30
0.0
 10
56.3539143381
 20
45.1305574585
 30
0.0
 10
56.5075814855
 20
45.177425398
 30
0.0
 10
56.6419449112
 20
45.219305737
 30
0.0
 10
56.7411849783
 20
45.251102423
 30
0.0
 10
56.8100089119
 20
45.2736436652
 30
0.0
 10
56.85347978
 20
45.2880835725
 30
0.0
 10
56.8913682736
 20
45.3008539831
 30
0.0
 10
56.9194192285
 20
45.3104402741
 30
0.0
 10
56.9390383123
 20
45.3172123306
 30
0.0
 10
56.9516340321
 20
45.3215861272
 30
0.0
 10
56.9628096072
 20
45.325488079
 30
0.0
 10
56.9725623742
 20
45.3289095912
 30
0.0
 10
56.9808934533
 20
45.331843514
 30
0.0
 10
56.987801982
 20
45.3342863841
 30
0.0
 10
56.9932985815
 20
45.3362428305
 30
0.0
 10
56.9969843245
 20
45.337560924
 30
0.0
 10
56.9992444616
 20
45.3383843518
 30
0.0
 10
57.0003842116
 20
45.3387943353
 30
0.0
 10
57.001239243
 20
45.3391297486
 30
0.0
 10
57.0016255701
 20
45.3392527584
 30
0.0
 10
57.0019839658
 20
45.339432994
 30
0.0
 10
57.001412144
 20
45.3392486422
 30
0.0
 10
57.0010152709
 20
45.3391258526
 30
0.0
 10
56.9993879895
 20
45.3385821035
 30
0.0
 10
56.9967891333
 20
45.337697718
 30
0.0
 10
56.9924290247
 20
45.3361953025
 30
0.0
 10
56.9867738522
 20
45.3342315895
 30
0.0
 10
56.9797080671
 20
45.3317647996
 30
0.0
 10
56.9712827415
 20
45.3288105625
 30
0.0
 10
56.9573096243
 20
45.323893187
 30
0.0
 10
56.9461536019
 20
45.3199473143
 30
0.0
 10
56.9382629686
 20
45.317149845
 30
0.0
  0
SPLINE
  5
318
100
AcDbEntity
  8
0
100
AcDbSpline
 62
7
  6
BYLAYER
 70
0
 71
3
 72
104
 73
100
 74
0
 42
0.0000001
 43
0.0000001
 44
0.0000000001
 40
0.0
 40
0.0
 40
0.0
 40
0.0
 40
0.0432659032
 40
0.0866604183
 40
0.1255795809
 40
0.1597940517
 40
0.1903823103
 40
0.2178502607
 40
0.2426148715
 40
0.265055045
 40
0.2854073533
 40
0.3038666211
 40
0.3206260427
 40
0.3358629905
 40
0.349737732
 40
0.3623808396
 40
0.3738885592
 40
0.3843619956
 40
0.3938974466
 40
0.4025740317
 40
0.4104601882
 40
0.4176198229
 40
0.4241091831
 40
0.4299842283
 40
0.4352992653
 40
0.4401018522
 40
0.4444255699
 40
0.4483086412
 40
0.4517924661
 40
0.4548776413
 40
0.4576028649
 40
0.4599908222
 40
0.4621316029
 40
0.4641327632
 40
0.4661022118
 40
0.4682006786
 40
0.4705353564
 40
0.4732009759
 40
0.4762010125
 40
0.4795799843
 40
0.4833821984
 40
0.4876694564
 40
0.4924966509
 40
0.4979176471
 40
0.5039961623
 40
0.5108016512
 40
0.5184144553
 40
0.5269311775
 40
0.5364586044
 40
0.5471052143
 40
0.5589926718
 40
0.5722598745
 40
0.5870720811
 40
0.6036235774
 40
0.6221030677
 40
0.6427356348
 40
0.6657778555
 40
0.6915302264
 40
0.7200737553
 40
0.7483574695
 40
0.7732699098
 40
0.7952674624
 40
0.8148477426
 40
0.8323947719
 40
0.8481885985
 40
0.8624184625
 40
0.8752965115
 40
0.8870009403
 40
0.8976453835
 40
0.9073356001
 40
0.9161631987
 40
0.9242134787
 40
0.9315586588
 40
0.9382653698
 40
0.944391877
 40
0.9499910858
 40
0.9551103054
 40
0.9597917493
 40
0.9640736304
 40
0.9679901912
 40
0.9715721345
 40
0.9748471291
 40
0.9778400684
 40
0.9805733364
 40
0.9830670357
 40
0.9853391884
 40
0.9874058465
 40
0.9892812056
 40
0.9909775919
 40
0.9925055604
 40
0.9938749001
 40
0.995093244
 40
0.9961684506
 40
0.9971086626
 40
0.997906516
 40
0.9985653274
 40
0.9990876609
 40
0.9995308976
 40
1.0
 40
1.0
 40
1.0
 40
1.0
 10
43.4349603764
 20
44.5650268639
 30
0.0
 10
43.6782184949
 20
44.5001070655
 30
0.0
 10
44.1696378292
 20
44.3849978525
 30
0.0
 10
44.8913882733
 20
44.267221346
 30
0.0
 10
45.566260647
 20
44.1979216175
 30
0.0
 10
46.1691438046
 20
44.1653500806
 30
0.0
 10
46.7061346478
 20
44.1573833894
 30
0.0
 10
47.1880790802
 20
44.1656451013
 30
0.0
 10
47.622246601
 20
44.1844089247
 30
0.0
 10
48.0145904842
 20
44.2095470154
 30
0.0
 10
48.3698968297
 20
44.2380226356
 30
0.0
 10
48.6919298568
 20
44.2675262715
 30
0.0
 10
48.9841245917
 20
44.2963317788
 30
0.0
 10
49.2496999664
 20
44.3232089903
 30
0.0
 10
49.4914834477
 20
44.3472822352
 30
0.0
 10
49.7117980863
 20
44.3679256317
 30
0.0
 10
49.9125861474
 20
44.3847231253
 30
0.0
 10
50.0955534247
 20
44.3974375625
 30
0.0
 10
50.2622718365
 20
44.4059818666
 30
0.0
 10
50.4140954014
 20
44.4103235985
 30
0.0
 10
50.5521598948
 20
44.4105081719
 30
0.0
 10
50.6774429042
 20
44.4066909579
 30
0.0
 10
50.7908295353
 20
44.3990609798
 30
0.0
 10
50.8931289399
 20
44.3878242523
 30
0.0
 10
50.9850758573
 20
44.3731774553
 30
0.0
 10
51.0672419163
 20
44.3553027068
 30
0.0
 10
51.1400608483
 20
44.3343696527
 30
0.0
 10
51.2038540016
 20
44.310504163
 30
0.0
 10
51.2586877117
 20
44.2839446498
 30
0.0
 10
51.3045478714
 20
44.2550234478
 30
0.0
 10
51.3412744487
 20
44.2243072327
 30
0.0
 10
51.3690922483
 20
44.1922862959
 30
0.0
 10
51.3885094233
 20
44.1593502796
 30
0.0
 10
51.4001129874
 20
44.1254576206
 30
0.0
 10
51.4041847588
 20
44.0900995002
 30
0.0
 10
51.4003032434
 20
44.0527547158
 30
0.0
 10
51.3875097436
 20
44.0131904834
 30
0.0
 10
51.3651064481
 20
43.9721159166
 30
0.0
 10
51.3328708943
 20
43.9302870556
 30
0.0
 10
51.2908618732
 20
43.8883189505
 30
0.0
 10
51.2388299916
 20
43.8463641989
 30
0.0
 10
51.1763245487
 20
43.8044717399
 30
0.0
 10
51.1026848171
 20
43.7627219917
 30
0.0
 10
51.0171458898
 20
43.7212448594
 30
0.0
 10
50.9187982662
 20
43.6801996596
 30
0.0
 10
50.8065421352
 20
43.639760574
 30
0.0
 10
50.6790608217
 20
43.6001208011
 30
0.0
 10
50.5347995446
 20
43.5615130616
 30
0.0
 10
50.372034158
 20
43.524192322
 30
0.0
 10
50.1888827315
 20
43.488471925
 30
0.0
 10
49.9832542447
 20
43.4548212357
 30
0.0
 10
49.7527317068
 20
43.4237778021
 30
0.0
 10
49.494477983
 20
43.3959916406
 30
0.0
 10
49.2053711457
 20
43.3722946275
 30
0.0
 10
48.8819500527
 20
43.3538161957
 30
0.0
 10
48.5204174979
 20
43.3420665086
 30
0.0
 10
48.1163752933
 20
43.339082591
 30
0.0
 10
47.6663569888
 20
43.3477433311
 30
0.0
 10
47.1862989273
 20
43.3710439839
 30
0.0
 10
46.7120826622
 20
43.4091144482
 30
0.0
 10
46.2771740497
 20
43.45787534
 30
0.0
 10
45.8940681216
 20
43.5124458209
 30
0.0
 10
45.5549218993
 20
43.5706370269
 30
0.0
 10
45.2528980682
 20
43.6309854401
 30
0.0
 10
44.9829273275
 20
43.6923312299
 30
0.0
 10
44.7409271192
 20
43.7537724756
 30
0.0
 10
44.5234034408
 20
43.8146316069
 30
0.0
 10
44.32731237
 20
43.8744408253
 30
0.0
 10
44.1502281309
 20
43.9328104446
 30
0.0
 10
43.9902235176
 20
43.9893874892
 30
0.0
 10
43.845545735
 20
44.0439228571
 30
0.0
 10
43.7146476789
 20
44.0962431241
 30
0.0
 10
43.5961396895
 20
44.1462426409
 30
0.0
 10
43.4887990732
 20
44.1938589372
 30
0.0
 10
43.3915275003
 20
44.2390742467
 30
0.0
 10
43.3033491551
 20
44.2819007486
 30
0.0
 10
43.2233910981
 20
44.3223752343
 30
0.0
 10
43.1508751041
 20
44.3605537263
 30
0.0
 10
43.0851069334
 20
44.3965057578
 30
0.0
 10
43.0254665704
 20
44.4303109218
 30
0.0
 10
42.9714018433
 20
44.4620553228
 30
0.0
 10
42.922420598
 20
44.4918289091
 30
0.0
 10
42.878084066
 20
44.5197235847
 30
0.0
 10
42.8380018796
 20
44.5458313797
 30
0.0
 10
42.8018275736
 20
44.5702431003
 30
0.0
 10
42.7692550835
 20
44.5930470855
 30
0.0
 10
42.74001605
 20
44.6143280914
 30
0.0
 10
42.7138784339
 20
44.6341658584
 30
0.0
 10
42.6906455048
 20
44.6526339742
 30
0.0
 10
42.6701514724
 20
44.6698022303
 30
0.0
 10
42.6522642354
 20
44.6857349523
 30
0.0
 10
42.6368812328
 20
44.7004975867
 30
0.0
 10
42.6239306604
 20
44.7141644048
 30
0.0
 10
42.6134492073
 20
44.7267554557
 30
0.0
 10
42.6055348042
 20
44.7382883139
 30
0.0
 10
42.6004734582
 20
44.7486738522
 30
0.0
 10
42.5985037728
 20
44.7581606633
 30
0.0
 10
42.6012369423
 20
44.7665715279
 30
0.0
 10
42.6057894693
 20
44.7698440682
 30
0.0
 10
42.6082304982
 20
44.7710660046
 30
0.0
  0
SPLINE
  5
319
100
AcDbEntity
  8
0
100
AcDbSpline
 62
7
  6
BYLAYER
 70
0
 71
3
 72
38
 73
34
 74
0
 42
0.0000001
 43
0.0000001
 44
0.0000000001
 40
0.0
 40
0.0
 40
0.0
 40
0.0
 40
0.0433397113
 40
0.0931363763
 40
0.1505340905
 40
0.2160062677
 40
0.2845299876
 40
0.3480240128
 40
0.4034326861
 40
0.4530104921
 40
0.4972443706
 40
0.5366713371
 40
0.5717763087
 40
0.6027831805
 40
0.6298018487
 40
0.6528564378
 40
0.6719073224
 40
0.6868348517
 40
0.6977898477
 40
0.7051500887
 40
0.7092643136
 40
0.7106436651
 40
0.7140501718
 40
0.7213506781
 40
0.7327077122
 40
0.7481854827
 40
0.7679004583
 40
0.7920506776
 40
0.8210289003
 40
0.8553951819
 40
0.8958952724
 40
0.9436273254
 40
1.0
 40
1.0
 40
1.0
 40
1.0
 10
41.7615254968
 20
47.2629579498
 30
0.0
 10
41.78843741
 20
47.2284478367
 30
0.0
 10
41.8456311495
 20
47.1537928492
 30
0.0
 10
41.9401289729
 20
47.0347018603
 30
0.0
 10
42.0551833354
 20
46.9035482495
 30
0.0
 10
42.1932008461
 20
46.7679496045
 30
0.0
 10
42.3468184203
 20
46.640425787
 30
0.0
 10
42.5014197019
 20
46.5309832151
 30
0.0
 10
42.6465254518
 20
46.4419758542
 30
0.0
 10
42.7792764327
 20
46.370550455
 30
0.0
 10
42.9007395769
 20
46.3125852359
 30
0.0
 10
43.0111097437
 20
46.2655922317
 30
0.0
 10
43.110731607
 20
46.2276688259
 30
0.0
 10
43.1998029056
 20
46.1974555837
 30
0.0
 10
43.2782296032
 20
46.1738573714
 30
0.0
 10
43.3457154496
 20
46.1561124164
 30
0.0
 10
43.401944039
 20
46.1432083073
 30
0.0
 10
43.4464200837
 20
46.1352992945
 30
0.0
 10
43.4799908451
 20
46.1295639087
 30
0.0
 10
43.5019264526
 20
46.1299548483
 30
0.0
 10
43.5160261173
 20
46.1267648702
 30
0.0
 10
43.5230552187
 20
46.1353649592
 30
0.0
 10
43.5054056096
 20
46.1405057249
 30
0.0
 10
43.4888050309
 20
46.1476610018
 30
0.0
 10
43.4530339616
 20
46.1560815245
 30
0.0
 10
43.4079801628
 20
46.1655893748
 30
0.0
 10
43.3484963791
 20
46.175535756
 30
0.0
 10
43.2757562608
 20
46.1855596057
 30
0.0
 10
43.1878681201
 20
46.1951402387
 30
0.0
 10
43.0833618303
 20
46.2036815909
 30
0.0
 10
42.9597300319
 20
46.2104360349
 30
0.0
 10
42.8137599211
 20
46.2146219157
 30
0.0
 10
42.7086273131
 20
46.2150431626
 30
0.0
 10
42.6517051574
 20
46.2146925492
 30
0.0
  0
SPLINE
  5
31A
100
AcDbEntity
  8
0
100
AcDbSpline
 62
7
  6
BYLAYER
 70
0
 71
3
 72
13
 73
9
 74
0
 42
0.0000001
 43
0.0000001
 44
0.0000000001
 40
0.0
 40
0.0
 40
0.0
 40
0.0
 40
0.1765285465
 40
0.3522925492
 40
0.5201041596
 40
0.6762257807
 40
0.8331585376
 40
1.0
 40
1.0
 40
1.0
 40
1.0
 10
40.4944801081
 20
47.5700595836
 30
0.0
 10
40.5707750531
 20
47.6069205685
 30
0.0
 10
40.7299083002
 20
47.6674125719
 30
0.0
 10
40.9781607341
 20
47.7079402841
 30
0.0
 10
41.2204091341
 20
47.6882983354
 30
0.0
 10
41.437506208
 20
47.5985873673
 30
0.0
 10
41.6149708245
 20
47.4475991791
 30
0.0
 10
41.7122786614
 20
47.3261089358
 30
0.0
 10
41.7615254968
 20
47.2629579498
 30
0.0
  0
SPLINE
  5
31B
100
AcDbEntity
  8
0
100
AcDbSpline
 62
7
  6
BYLAYER
 70
0
 71
3
 72
20
 73
16
 74
0
 42
0.0000001
 43
0.0000001
 44
0.0000000001
 40
0.0
 40
0.0
 40
0.0
 40
0.0
 40
0.0432722231
 40
0.0929898912
 40
0.1499409576
 40
0.2141720838
 40
0.2854924173
 40
0.3643416122
 40
0.4503376173
 40
0.5423985074
 40
0.6360125071
 40
0.7269749817
 40
0.8144130433
 40
0.9031990852
 40
1.0
 40
1.0
 40
1.0
 40
1.0
 10
41.2313843195
 20
46.4170439202
 30
0.0
 10
41.2434143263
 20
46.4453971511
 30
0.0
 10
41.2661481607
 20
46.5076558464
 30
0.0
 10
41.2948029786
 20
46.610596614
 30
0.0
 10
41.3153811646
 20
46.7307122473
 30
0.0
 10
41.3246310268
 20
46.8676734474
 30
0.0
 10
41.3175403713
 20
47.0204786254
 30
0.0
 10
41.2884091257
 20
47.1865635857
 30
0.0
 10
41.229934097
 20
47.3606957281
 30
0.0
 10
41.1349299209
 20
47.5307382734
 30
0.0
 10
40.9990252942
 20
47.6766810608
 30
0.0
 10
40.8252079035
 20
47.7716231329
 30
0.0
 10
40.6300735769
 20
47.7900257512
 30
0.0
 10
40.4414467563
 20
47.7252433951
 30
0.0
 10
40.3381822302
 20
47.6384416036
 30
0.0
 10
40.2921197817
 20
47.5872026259
 30
0.0
  0
SPLINE
  5
31C
100
AcDbEntity
  8
0
100
AcDbSpline
 62
7
  6
BYLAYER
 70
0
 71
3
 72
92
 73
88
 74
0
 42
0.0000001
 43
0.0000001
 44
0.0000000001
 40
0.0
 40
0.0
 40
0.0
 40
0.0
 40
0.0014959339
 40
0.0021145604
 40
0.0026466296
 40
0.0030918938
 40
0.0034501053
 40
0.0037210169
 40
0.0039043823
 40
0.0039631597
 40
0.0039999626
 40
0.0040147783
 40
0.0040221297
 40
0.0040514926
 40
0.0041029515
 40
0.004176543
 40
0.0042722998
 40
0.0045304357
 40
0.004877611
 40
0.0053140754
 40
0.0058400783
 40
0.0064557724
 40
0.007160924
 40
0.0079552041
 40
0.0088382851
 40
0.0108695457
 40
0.0132521162
 40
0.0159826237
 40
0.0190544844
 40
0.0261927532
 40
0.0346031679
 40
0.0442023872
 40
0.0548995073
 40
0.0665933265
 40
0.0791827264
 40
0.0925770472
 40
0.1066921127
 40
0.1214587355
 40
0.1527240258
 40
0.1860448397
 40
0.2211473061
 40
0.2578164008
 40
0.3350671082
 40
0.416261823
 40
0.4578696754
 40
0.4999048055
 40
0.5421959686
 40
0.5845835657
 40
0.6269263082
 40
0.6691038986
 40
0.7110250704
 40
0.7526318516
 40
0.7939074378
 40
0.834883358
 40
0.8756470564
 40
0.8960004187
 40
0.9061798385
 40
0.9163647982
 40
0.926556581
 40
0.9316685359
 40
0.9367430522
 40
0.941726691
 40
0.9465942435
 40
0.9513292859
 40
0.9559239619
 40
0.9646593548
 40
0.9727067065
 40
0.9799557658
 40
0.9832381556
 40
0.9862683018
 40
0.9890276812
 40
0.991495759
 40
0.993651548
 40
0.9954742011
 40
0.996947493
 40
0.9975532327
 40
0.9980725335
 40
0.9985059734
 40
0.9988540869
 40
0.9991173646
 40
0.9992962526
 40
0.9994115428
 40
0.9994621488
 40
0.9995755224
 40
0.999660962
 40
0.9997612836
 40
1.0
 40
1.0
 40
1.0
 40
1.0
 10
56.938260273
 20
45.3171397852
 30
0.0
 10
56.9461508976
 20
45.3199372514
 30
0.0
 10
56.9573069077
 20
45.3238831197
 30
0.0
 10
56.9712800094
 20
45.3288004896
 30
0.0
 10
56.9797053254
 20
45.3317547232
 30
0.0
 10
56.9867711024
 20
45.33422151
 30
0.0
 10
56.9924262684
 20
45.3361852206
 30
0.0
 10
56.9967863719
 20
45.3376876341
 30
0.0
 10
56.9993852251
 20
45.3385720185
 30
0.0
 10
57.0010125046
 20
45.3391157669
 30
0.0
 10
57.0014093773
 20
45.3392385563
 30
0.0
 10
57.0019811985
 20
45.3394229078
 30
0.0
 10
57.0016228034
 20
45.3392426724
 30
0.0
 10
57.0012364768
 20
45.3391196628
 30
0.0
 10
57.0003814467
 20
45.3387842499
 30
0.0
 10
56.9992416983
 20
45.338374267
 30
0.0
 10
56.9969815643
 20
45.3375508404
 30
0.0
 10
56.9932958263
 20
45.3362327487
 30
0.0
 10
56.9877992345
 20
45.3342763051
 30
0.0
 10
56.9808907153
 20
45.3318334387
 30
0.0
 10
56.9725596479
 20
45.3288995204
 30
0.0
 10
56.9628068948
 20
45.3254780135
 30
0.0
 10
56.9516313357
 20
45.3215760679
 30
0.0
 10
56.9390356342
 20
45.3172022782
 30
0.0
 10
56.9194165795
 20
45.3104302327
 30
0.0
 10
56.8913656671
 20
45.3008439574
 30
0.0
 10
56.8534772322
 20
45.2880735678
 30
0.0
 10
56.8100064331
 20
45.2736336844
 30
0.0
 10
56.7411826112
 20
45.2510924796
 30
0.0
 10
56.6419427066
 20
45.2192958454
 30
0.0
 10
56.5075794991
 20
45.1774155723
 30
0.0
 10
56.3539125937
 20
45.1305477039
 30
0.0
 10
56.1824019485
 20
45.079205538
 30
0.0
 10
55.9945740269
 20
45.0240281856
 30
0.0
 10
55.7919550181
 20
44.9656558496
 30
0.0
 10
55.5759537522
 20
44.9048001281
 30
0.0
 10
55.3478116743
 20
44.8421218551
 30
0.0
 10
55.0226000641
 20
44.755270509
 30
0.0
 10
54.5921977845
 20
44.6457841396
 30
0.0
 10
54.0494018282
 20
44.5167619554
 30
0.0
 10
53.4750279766
 20
44.390119505
 30
0.0
 10
52.6574280233
 20
44.2253890367
 30
0.0
 10
51.5805840019
 20
44.0424270974
 30
0.0
 10
50.4687781301
 20
43.9061678846
 30
0.0
 10
49.5490809083
 20
43.8327589175
 30
0.0
 10
48.8449851223
 20
43.7988854822
 30
0.0
 10
48.1357446138
 20
43.789603433
 30
0.0
 10
47.4249192181
 20
43.8079290631
 30
0.0
 10
46.716134652
 20
43.8568839014
 30
0.0
 10
46.0130639556
 20
43.939614454
 30
0.0
 10
45.319434548
 20
44.0592787233
 30
0.0
 10
44.639052694
 20
44.2191544354
 30
0.0
 10
43.9758021245
 20
44.4225683058
 30
0.0
 10
43.3338073518
 20
44.6729992144
 30
0.0
 10
42.8195657379
 20
44.9238128608
 30
0.0
 10
42.4738201345
 20
45.1232621307
 30
0.0
 10
42.2807510001
 20
45.2443425335
 30
0.0
 10
42.138218529
 20
45.3388595344
 30
0.0
 10
42.0212566055
 20
45.4205326891
 30
0.0
 10
41.9285910463
 20
45.4870123135
 30
0.0
 10
41.8601822018
 20
45.5372955171
 30
0.0
 10
41.7936374073
 20
45.5877888982
 30
0.0
 10
41.7292386274
 20
45.6379545732
 30
0.0
 10
41.6670506489
 20
45.6874084619
 30
0.0
 10
41.5883705343
 20
45.7508959617
 30
0.0
 10
41.4957027944
 20
45.8265645805
 30
0.0
 10
41.3917035696
 20
45.9118411595
 30
0.0
 10
41.3109451502
 20
45.9773319179
 30
0.0
 10
41.2516168852
 20
46.0246652096
 30
0.0
 10
41.211711125
 20
46.0560529448
 30
0.0
 10
41.1751254773
 20
46.0842873081
 30
0.0
 10
41.1421437443
 20
46.1091794732
 30
0.0
 10
41.1130632697
 20
46.130531768
 30
0.0
 10
41.0881647202
 20
46.1481731591
 30
0.0
 10
41.0700450105
 20
46.1603514291
 30
0.0
 10
41.0578026398
 20
46.1682175399
 30
0.0
 10
41.0504254331
 20
46.1728277044
 30
0.0
 10
41.0441427465
 20
46.1766344596
 30
0.0
 10
41.0392637705
 20
46.1795242149
 30
0.0
 10
41.0350364832
 20
46.1819190602
 30
0.0
 10
41.0331605741
 20
46.1830082979
 30
0.0
 10
41.0298602908
 20
46.1847385145
 30
0.0
 10
41.0318565769
 20
46.1838584096
 30
0.0
 10
41.0329297084
 20
46.1834193077
 30
0.0
 10
41.0345399075
 20
46.1827720107
 30
0.0
 10
41.0367336327
 20
46.1819234203
 30
0.0
 10
41.0385233575
 20
46.1812627966
 30
0.0
 10
41.0397815049
 20
46.1808135375
 30
0.0
  0
SPLINE
  5
31D
100
AcDbEntity
  8
0
100
AcDbSpline
 62
7
  6
BYLAYER
 70
0
 71
3
 72
11
 73
7
 74
0
 42
0.0000001
 43
0.0000001
 44
0.0000000001
 40
0.0
 40
0.0
 40
0.0
 40
0.0
 40
0.2582654569
 40
0.5111895838
 40
0.7585142693
 40
1.0
 40
1.0
 40
1.0
 40
1.0
 10
40.494480093
 20
47.5700595723
 30
0.0
 10
40.4772089973
 20
47.5728906228
 30
0.0
 10
40.4429165593
 20
47.5778563817
 30
0.0
 10
40.3917849173
 20
47.5832306633
 30
0.0
 10
40.3416108062
 20
47.5864646215
 30
0.0
 10
40.3084862189
 20
47.5872012285
 30
0.0
 10
40.2921197754
 20
47.5872026189
 30
0.0
  0
SPLINE
  5
31E
100
AcDbEntity
  8
0
100
AcDbSpline
 62
7
  6
BYLAYER
 70
0
 71
3
 72
14
 73
10
 74
0
 42
0.0000001
 43
0.0000001
 44
0.0000000001
 40
0.0
 40
0.0
 40
0.0
 40
0.0
 40
0.12404102
 40
0.2449902594
 40
0.3715427302
 40
0.5060694481
 40
0.6515453799
 40
0.8144372443
 40
1.0
 40
1.0
 40
1.0
 40
1.0
 10
40.1675686058
 20
47.4025870206
 30
0.0
 10
40.1823229939
 20
47.4063629012
 30
0.0
 10
40.2111563994
 20
47.4151809462
 30
0.0
 10
40.2529521385
 20
47.4337240383
 30
0.0
 10
40.2936520509
 20
47.4571115121
 30
0.0
 10
40.3363204371
 20
47.4830031584
 30
0.0
 10
40.3830304961
 20
47.5108550273
 30
0.0
 10
40.4358744063
 20
47.5406275284
 30
0.0
 10
40.4739653572
 20
47.5601481282
 30
0.0
 10
40.4944800994
 20
47.5700595793
 30
0.0
  0
SPLINE
  5
31F
100
AcDbEntity
  8
0
100
AcDbSpline
 62
7
  6
BYLAYER
 70
0
 71
3
 72
23
 73
19
 74
0
 42
0.0000001
 43
0.0000001
 44
0.0000000001
 40
0.0
 40
0.0
 40
0.0
 40
0.0
 40
0.0627142296
 40
0.125544823
 40
0.1884420926
 40
0.2513455594
 40
0.3141938932
 40
0.3769346831
 40
0.4395303605
 40
0.5019670353
 40
0.5642530679
 40
0.6264217175
 40
0.6885229085
 40
0.7506178224
 40
0.8127685375
 40
0.8750278158
 40
0.9374343634
 40
1.0
 40
1.0
 40
1.0
 40
1.0
 10
55.2206002901
 20
45.8001100326
 30
0.0
 10
55.2054257634
 20
45.7434810578
 30
0.0
 10
55.1862210673
 20
45.6268151331
 30
0.0
 10
55.1914829846
 20
45.4496713925
 30
0.0
 10
55.2311467498
 20
45.2767039574
 30
0.0
 10
55.303067941
 20
45.114473602
 30
0.0
 10
55.4050887972
 20
44.9694444352
 30
0.0
 10
55.5327692377
 20
44.8468088825
 30
0.0
 10
55.6816775886
 20
44.7517576615
 30
0.0
 10
55.8457507909
 20
44.6874006973
 30
0.0
 10
56.0189288292
 20
44.6568470874
 30
0.0
 10
56.1944343035
 20
44.6606376024
 30
0.0
 10
56.3654904131
 20
44.6993016414
 30
0.0
 10
56.5256492161
 20
44.7707073654
 30
0.0
 10
56.6684660863
 20
44.8727001088
 30
0.0
 10
56.7888364438
 20
45.0008224799
 30
0.0
 10
56.8816333955
 20
45.1505064813
 30
0.0
 10
56.9231248897
 20
45.2606549128
 30
0.0
 10
56.9382629686
 20
45.317149845
 30
0.0
  0
SPLINE
  5
320
100
AcDbEntity
  8
0
100
AcDbSpline
 62
7
  6
BYLAYER
 70
0
 71
3
 72
23
 73
19
 74
0
 42
0.0000001
 43
0.0000001
 44
0.0000000001
 40
0.0
 40
0.0
 40
0.0
 40
0.0
 40
0.0627148124
 40
0.1255459911
 40
0.1884433749
 40
0.2513469559
 40
0.3141954038
 40
0.3769363076
 40
0.4395320986
 40
0.5019688868
 40
0.5642550324
 40
0.6264237949
 40
0.6885250986
 40
0.7506201252
 40
0.8127709531
 40
0.8750303444
 40
0.9374356308
 40
1.0
 40
1.0
 40
1.0
 40
1.0
 10
56.938260273
 20
45.3171397852
 30
0.0
 10
56.9534350819
 20
45.3737691382
 30
0.0
 10
56.9726401785
 20
45.490435908
 30
0.0
 10
56.9673783632
 20
45.6675805534
 30
0.0
 10
56.9277144991
 20
45.8405484194
 30
0.0
 10
56.8557933079
 20
46.0027787751
 30
0.0
 10
56.7537724517
 20
46.1478079419
 30
0.0
 10
56.6260920111
 20
46.2704434947
 30
0.0
 10
56.4771836602
 20
46.3654947156
 30
0.0
 10
56.3131104579
 20
46.4298516798
 30
0.0
 10
56.1399324197
 20
46.4604052897
 30
0.0
 10
55.9644269454
 20
46.4566147747
 30
0.0
 10
55.7933708358
 20
46.4179507357
 30
0.0
 10
55.6332120327
 20
46.3465450116
 30
0.0
 10
55.490395163
 20
46.244552269
 30
0.0
 10
55.370025689
 20
46.1164308375
 30
0.0
 10
55.2772298041
 20
45.9667492848
 30
0.0
 10
55.2357385285
 20
45.8566035856
 30
0.0
 10
55.2206002901
 20
45.8001100326
 30
0.0
  0
SPLINE
  5
321
100
AcDbEntity
  8
0
100
AcDbSpline
 62
7
  6
BYLAYER
 70
0
 71
3
 72
11
 73
7
 74
0
 42
0.0000001
 43
0.0000001
 44
0.0000000001
 40
0.0
 40
0.0
 40
0.0
 40
0.0
 40
0.5326373352
 40
0.7671790002
 40
0.8316386747
 40
1.0
 40
1.0
 40
1.0
 40
1.0
 10
39.2228869395
 20
45.5022379297
 30
0.0
 10
39.1832756628
 20
45.5201558425
 30
0.0
 10
39.1255074671
 20
45.5442155929
 30
0.0
 10
39.0623622583
 20
45.5694720795
 30
0.0
 10
39.0253705337
 20
45.5790686808
 30
0.0
 10
39.0061762587
 20
45.5798361924
 30
0.0
 10
38.9924341407
 20
45.5798343678
 30
0.0
  0
SPLINE
  5
322
100
AcDbEntity
  8
0
100
AcDbSpline
 62
7
  6
BYLAYER
 70
0
 71
3
 72
18
 73
14
 74
0
 42
0.0000001
 43
0.0000001
 44
0.0000000001
 40
0.0
 40
0.0
 40
0.0
 40
0.0
 40
0.1405265959
 40
0.264164361
 40
0.3732460118
 40
0.4697478473
 40
0.5546300594
 40
0.6294077329
 40
0.697944123
 40
0.7649863748
 40
0.8349476475
 40
0.911666595
 40
1.0
 40
1.0
 40
1.0
 40
1.0
 10
39.8016274573
 20
46.1296189847
 30
0.0
 10
39.7561713583
 20
46.1236081988
 30
0.0
 10
39.6712495188
 20
46.1073730123
 30
0.0
 10
39.5552207441
 20
46.069282808
 30
0.0
 10
39.4582739312
 20
46.0222314346
 30
0.0
 10
39.3793809044
 20
45.9691227982
 30
0.0
 10
39.3174907821
 20
45.9124568064
 30
0.0
 10
39.2710263097
 20
45.8538574706
 30
0.0
 10
39.2377532129
 20
45.7934527886
 30
0.0
 10
39.2158654833
 20
45.729704416
 30
0.0
 10
39.2050345638
 20
45.6604571479
 30
0.0
 10
39.2062964132
 20
45.583445963
 30
0.0
 10
39.2158738441
 20
45.5301935885
 30
0.0
 10
39.2228869395
 20
45.5022379297
 30
0.0
  0
SPLINE
  5
323
100
AcDbEntity
  8
0
100
AcDbSpline
 62
7
  6
BYLAYER
 70
0
 71
3
 72
24
 73
20
 74
0
 42
0.0000001
 43
0.0000001
 44
0.0000000001
 40
0.0
 40
0.0
 40
0.0
 40
0.0
 40
0.0371743566
 40
0.0767032385
 40
0.1186146363
 40
0.1630657301
 40
0.2103787706
 40
0.2618080688
 40
0.3183965283
 40
0.3790924193
 40
0.4446457703
 40
0.5165696761
 40
0.5936884248
 40
0.6733216683
 40
0.7511365682
 40
0.8231557852
 40
0.888547357
 40
0.947405032
 40
1.0
 40
1.0
 40
1.0
 40
1.0
 10
42.6082304982
 20
44.7710660046
 30
0.0
 10
42.5730027318
 20
44.7892300017
 30
0.0
 10
42.5021984147
 20
44.8304855648
 30
0.0
 10
42.3997299775
 20
44.9049140835
 30
0.0
 10
42.2980165337
 20
44.9926541421
 30
0.0
 10
42.1947222967
 20
45.0908635912
 30
0.0
 10
42.0845058889
 20
45.196522611
 30
0.0
 10
41.9589409004
 20
45.3047208793
 30
0.0
 10
41.8138417388
 20
45.4113184359
 30
0.0
 10
41.6499214964
 20
45.5169601145
 30
0.0
 10
41.4679158931
 20
45.6243531441
 30
0.0
 10
41.2673754101
 20
45.7345732766
 30
0.0
 10
41.0499236543
 20
45.8449695712
 30
0.0
 10
40.8217968986
 20
45.9477711677
 30
0.0
 10
40.5924504557
 20
46.0336181186
 30
0.0
 10
40.3712594723
 20
46.0958973049
 30
0.0
 10
40.1648100265
 20
46.1324537423
 30
0.0
 10
39.9762155613
 20
46.1442855978
 30
0.0
 10
39.8572197459
 20
46.1369700812
 30
0.0
 10
39.8016274573
 20
46.1296189847
 30
0.0
  0
SPLINE
  5
324
100
AcDbEntity
  8
0
100
AcDbSpline
 62
7
  6
BYLAYER
 70
0
 71
3
 72
22
 73
18
 74
0
 42
0.0000001
 43
0.0000001
 44
0.0000000001
 40
0.0
 40
0.0
 40
0.0
 40
0.0
 40
0.1461276054
 40
0.2658219818
 40
0.3648402169
 40
0.4478816046
 40
0.5187101388
 40
0.5796305707
 40
0.631754565
 40
0.6988985148
 40
0.7591565241
 40
0.8064614154
 40
0.8473636302
 40
0.8783913325
 40
0.9090312505
 40
0.9488047589
 40
1.0
 40
1.0
 40
1.0
 40
1.0
 10
43.2369622091
 20
44.7006526903
 30
0.0
 10
43.2015074298
 20
44.7173879706
 30
0.0
 10
43.135785692
 20
44.7452425218
 30
0.0
 10
43.0440530116
 20
44.7794332675
 30
0.0
 10
42.9673775878
 20
44.8054558629
 30
0.0
 10
42.9026219525
 20
44.8257302589
 30
0.0
 10
42.8472387515
 20
44.8416784334
 30
0.0
 10
42.7995079037
 20
44.8541686744
 30
0.0
 10
42.7524158193
 20
44.8651371624
 30
0.0
 10
42.7050996914
 20
44.8742121338
 30
0.0
 10
42.6585312861
 20
44.8801915797
 30
0.0
 10
42.6186113555
 20
44.8805734984
 30
0.0
 10
42.5867131199
 20
44.8764367817
 30
0.0
 10
42.5623478796
 20
44.8573875754
 30
0.0
 10
42.5656454271
 20
44.8272938686
 30
0.0
 10
42.5826811993
 20
44.7996089997
 30
0.0
 10
42.5986865572
 20
44.7809443596
 30
0.0
 10
42.6082304982
 20
44.7710660046
 30
0.0
  0
SPLINE
  5
325
100
AcDbEntity
  8
0
100
AcDbSpline
 62
7
  6
BYLAYER
 70
0
 71
3
 72
12
 73
8
 74
0
 42
0.0000001
 43
0.0000001
 44
0.0000000001
 40
0.0
 40
0.0
 40
0.0
 40
0.0
 40
0.1472621838
 40
0.3199002594
 40
0.5184118234
 40
0.7444550456
 40
1.0
 40
1.0
 40
1.0
 40
1.0
 10
43.4349603764
 20
44.5650268639
 30
0.0
 10
43.4278892177
 20
44.5745686519
 30
0.0
 10
43.4102816801
 20
44.5936288572
 30
0.0
 10
43.3779917524
 20
44.620294164
 30
0.0
 10
43.3380088075
 20
44.6472552225
 30
0.0
 10
43.2903756517
 20
44.6745172321
 30
0.0
 10
43.2555993883
 20
44.6918556134
 30
0.0
 10
43.2369622091
 20
44.7006526903
 30
0.0
  0
SPLINE
  5
326
100
AcDbEntity
  8
0
100
AcDbSpline
 62
7
  6
BYLAYER
 70
0
 71
3
 72
10
 73
6
 74
0
 42
0.0000001
 43
0.0000001
 44
0.0000000001
 40
0.0
 40
0.0
 40
0.0
 40
0.0
 40
0.3341896847
 40
0.6687217435
 40
1.0
 40
1.0
 40
1.0
 40
1.0
 10
44.7604414274
 20
43.5774405661
 30
0.0
 10
44.7703014019
 20
43.6046665137
 30
0.0
 10
44.7855240723
 20
43.6609291309
 30
0.0
 10
44.7929390232
 20
43.7477092458
 30
0.0
 10
44.7870716145
 20
43.8055008162
 30
0.0
 10
44.7815403611
 20
43.8336669454
 30
0.0
  0
SPLINE
  5
327
100
AcDbEntity
  8
0
100
AcDbSpline
 62
7
  6
BYLAYER
 70
0
 71
3
 72
46
 73
42
 74
0
 42
0.0000001
 43
0.0000001
 44
0.0000000001
 40
0.0
 40
0.0
 40
0.0
 40
0.0
 40
0.0759923331
 40
0.1438513726
 40
0.2035016526
 40
0.2548666416
 40
0.2979043127
 40
0.3163294578
 40
0.332714826
 40
0.3470777043
 40
0.3594357184
 40
0.3698070922
 40
0.3782112052
 40
0.3816828729
 40
0.3846744001
 40
0.3871925692
 40
0.3892451785
 40
0.3908421788
 40
0.3919989208
 40
0.392748301
 40
0.3932028144
 40
0.3937116175
 40
0.3945509241
 40
0.3974339173
 40
0.3994986207
 40
0.4019774968
 40
0.4081646338
 40
0.415963619
 40
0.4253364312
 40
0.4362430518
 40
0.4486426592
 40
0.4777554769
 40
0.5123443065
 40
0.5520972754
 40
0.5967797548
 40
0.6461759247
 40
0.7000699465
 40
0.8205797599
 40
0.957053576
 40
0.9783681449
 40
1.0
 40
1.0
 40
1.0
 40
1.0
 10
44.9107913053
 20
43.5969311968
 30
0.0
 10
44.9282398919
 20
43.6012979831
 30
0.0
 10
44.9612984682
 20
43.6094502152
 30
0.0
 10
45.0081542028
 20
43.6206154003
 30
0.0
 10
45.0494168335
 20
43.6300997311
 30
0.0
 10
45.0850216235
 20
43.6379663504
 30
0.0
 10
45.111149688
 20
43.6434921227
 30
0.0
 10
45.1292124077
 20
43.6471337641
 30
0.0
 10
45.1406383438
 20
43.6493509455
 30
0.0
 10
45.1506713494
 20
43.6512059706
 30
0.0
 10
45.1593219464
 20
43.6527060541
 30
0.0
 10
45.1666006729
 20
43.6538580391
 30
0.0
 10
45.1718178837
 20
43.6545760936
 30
0.0
 10
45.1753152143
 20
43.6549680088
 30
0.0
 10
45.177432383
 20
43.655160295
 30
0.0
 10
45.1792193201
 20
43.6552745336
 30
0.0
 10
45.1806784238
 20
43.655308514
 30
0.0
 10
45.1818184422
 20
43.6552785925
 30
0.0
 10
45.1826381591
 20
43.6551579723
 30
0.0
 10
45.1831857034
 20
43.6550192516
 30
0.0
 10
45.1834823721
 20
43.6546572876
 30
0.0
 10
45.1832423228
 20
43.6542299937
 30
0.0
 10
45.1824755964
 20
43.6536211042
 30
0.0
 10
45.1812335133
 20
43.6529815172
 30
0.0
 10
45.1796316815
 20
43.6522734813
 30
0.0
 10
45.1772696067
 20
43.6513315852
 30
0.0
 10
45.1735963469
 20
43.6500313144
 30
0.0
 10
45.1683311934
 20
43.6483404788
 30
0.0
 10
45.1619612479
 20
43.6464445358
 30
0.0
 10
45.1545123153
 20
43.6443596266
 30
0.0
 10
45.1425199924
 20
43.6411770745
 30
0.0
 10
45.125028861
 20
43.6368684065
 30
0.0
 10
45.1011493172
 20
43.6314437616
 30
0.0
 10
45.0735785197
 20
43.6256490115
 30
0.0
 10
45.042491318
 20
43.6195610588
 30
0.0
 10
45.0080392048
 20
43.613253454
 30
0.0
 10
44.9558277554
 20
43.6043057934
 30
0.0
 10
44.8831005578
 20
43.5930827678
 30
0.0
 10
44.8177996017
 20
43.5843953865
 30
0.0
 10
44.775641223
 20
43.5792822459
 30
0.0
 10
44.7655462959
 20
43.5780901421
 30
0.0
 10
44.7604605787
 20
43.5774977564
 30
0.0
  0
SPLINE
  5
328
100
AcDbEntity
  8
0
100
AcDbSpline
 62
7
  6
BYLAYER
 70
0
 71
3
 72
10
 73
6
 74
0
 42
0.0000001
 43
0.0000001
 44
0.0000000001
 40
0.0
 40
0.0
 40
0.0
 40
0.0
 40
0.3423401572
 40
0.6740164327
 40
1.0
 40
1.0
 40
1.0
 40
1.0
 10
38.6909985265
 20
46.8665849711
 30
0.0
 10
38.6646914238
 20
46.88237772
 30
0.0
 10
38.6102492353
 20
46.909360499
 30
0.0
 10
38.52373605
 20
46.9344760398
 30
0.0
 10
38.4646401167
 20
46.9401233043
 30
0.0
 10
38.4354226768
 20
46.9401233043
 30
0.0
  0
SPLINE
  5
329
100
AcDbEntity
  8
0
100
AcDbSpline
 62
7
  6
BYLAYER
 70
0
 71
3
 72
20
 73
16
 74
0
 42
0.0000001
 43
0.0000001
 44
0.0000000001
 40
0.0
 40
0.0
 40
0.0
 40
0.0
 40
0.0776819429
 40
0.1532822909
 40
0.2266230094
 40
0.2975781917
 40
0.4321520357
 40
0.5582196315
 40
0.6189357446
 40
0.6786446746
 40
0.7378722483
 40
0.7971711731
 40
0.896546904
 40
0.9476704042
 40
1.0
 40
1.0
 40
1.0
 40
1.0
 10
37.8784112129
 20
46.4504122408
 30
0.0
 10
37.8883622507
 20
46.475858165
 30
0.0
 10
37.9099549183
 20
46.5253318135
 30
0.0
 10
37.9478035658
 20
46.5955806269
 30
0.0
 10
37.9903116428
 20
46.6603268474
 30
0.0
 10
38.0515945078
 20
46.7370563746
 30
0.0
 10
38.1377001716
 20
46.8170513773
 30
0.0
 10
38.236815404
 20
46.8739146834
 30
0.0
 10
38.3192700609
 20
46.9014477887
 30
0.0
 10
38.3815391345
 20
46.9132847773
 30
0.0
 10
38.4443523579
 20
46.9164523152
 30
0.0
 10
38.5209123891
 20
46.9096659958
 30
0.0
 10
38.5926237686
 20
46.8894913461
 30
0.0
 10
38.657477339
 20
46.8595492555
 30
0.0
 10
38.6888425025
 20
46.8409974985
 30
0.0
 10
38.7042317113
 20
46.8308737708
 30
0.0
  0
SPLINE
  5
32A
100
AcDbEntity
  8
0
100
AcDbSpline
 62
7
  6
BYLAYER
 70
0
 71
3
 72
32
 73
28
 74
0
 42
0.0000001
 43
0.0000001
 44
0.0000000001
 40
0.0
 40
0.0
 40
0.0
 40
0.0
 40
0.0337446904
 40
0.0665851452
 40
0.098444027
 40
0.1292666425
 40
0.1877249216
 40
0.2424881243
 40
0.2688629337
 40
0.2948002272
 40
0.3205284217
 40
0.3462876108
 40
0.3723269389
 40
0.3988729454
 40
0.4261119422
 40
0.4541971291
 40
0.4832493296
 40
0.5133282873
 40
0.5765146972
 40
0.6435660858
 40
0.7136678029
 40
0.7857025983
 40
0.8583319145
 40
0.8944537463
 40
0.9302118344
 40
0.9654448919
 40
1.0
 40
1.0
 40
1.0
 40
1.0
 10
38.9924341407
 20
45.5798343678
 30
0.0
 10
38.9824831032
 20
45.5543884434
 30
0.0
 10
38.9608904353
 20
45.5049147952
 30
0.0
 10
38.9230417872
 20
45.434665982
 30
0.0
 10
38.8805337129
 20
45.3699197599
 30
0.0
 10
38.8192508348
 20
45.2931902403
 30
0.0
 10
38.7331452627
 20
45.2131951848
 30
0.0
 10
38.6340297347
 20
45.156332049
 30
0.0
 10
38.5515756477
 20
45.1287986154
 30
0.0
 10
38.4893048923
 20
45.1169625956
 30
0.0
 10
38.4264979161
 20
45.1137914586
 30
0.0
 10
38.363768901
 20
45.1193631973
 30
0.0
 10
38.3017835499
 20
45.1337410734
 30
0.0
 10
38.2411485657
 20
45.1566319178
 30
0.0
 10
38.1824310672
 20
45.1877534232
 30
0.0
 10
38.1262030574
 20
45.2268288304
 30
0.0
 10
38.0730615549
 20
45.2735522281
 30
0.0
 10
38.0058202773
 20
45.3464646309
 30
0.0
 10
37.9323521308
 20
45.4544643844
 30
0.0
 10
37.8652473655
 20
45.6028819761
 30
0.0
 10
37.8195097469
 20
45.7666143821
 30
0.0
 10
37.79728747
 20
45.9396373964
 30
0.0
 10
37.7986159476
 20
46.0865159941
 30
0.0
 10
37.812004533
 20
46.2028349618
 30
0.0
 10
37.8279984353
 20
46.2881498336
 30
0.0
 10
37.8497663993
 20
46.3708707414
 30
0.0
 10
37.8682283322
 20
46.4243250733
 30
0.0
 10
37.8784064656
 20
46.4504000911
 30
0.0
  0
SPLINE
  5
32B
100
AcDbEntity
  8
0
100
AcDbSpline
 62
7
  6
BYLAYER
 70
0
 71
3
 72
15
 73
11
 74
0
 42
0.0000001
 43
0.0000001
 44
0.0000000001
 40
0.0
 40
0.0
 40
0.0
 40
0.0
 40
0.0805091521
 40
0.1621054134
 40
0.3728970555
 40
0.5854284124
 40
0.6911339656
 40
0.7957750126
 40
0.8988795331
 40
1.0
 40
1.0
 40
1.0
 40
1.0
 10
39.0125151288
 20
46.3943774455
 30
0.0
 10
39.0194742729
 20
46.3732076543
 30
0.0
 10
39.0322101713
 20
46.3301792889
 30
0.0
 10
39.0556968895
 20
46.2296591293
 30
0.0
 10
39.0735605158
 20
46.0905947217
 30
0.0
 10
39.0722290697
 20
45.9437312628
 30
0.0
 10
39.0588404517
 20
45.8274079343
 30
0.0
 10
39.0428455041
 20
45.7420902605
 30
0.0
 10
39.0210761475
 20
45.6593663208
 30
0.0
 10
39.0026129783
 20
45.6059101541
 30
0.0
 10
38.9924341407
 20
45.5798343678
 30
0.0
  0
SPLINE
  5
32C
100
AcDbEntity
  8
0
100
AcDbSpline
 62
7
  6
BYLAYER
 70
0
 71
3
 72
14
 73
10
 74
0
 42
0.0000001
 43
0.0000001
 44
0.0000000001
 40
0.0
 40
0.0
 40
0.0
 40
0.0
 40
0.1160333708
 40
0.239346409
 40
0.3746095711
 40
0.5221334055
 40
0.6789722299
 40
0.8401952328
 40
1.0
 40
1.0
 40
1.0
 40
1.0
 10
38.4354226768
 20
45.0901233043
 30
0.0
 10
38.497694254
 20
45.0901233043
 30
0.0
 10
38.6273227731
 20
45.1173331284
 30
0.0
 10
38.7979653519
 20
45.2305732282
 30
0.0
 10
38.9366170079
 20
45.4023069872
 30
0.0
 10
39.0356734555
 20
45.6187062634
 30
0.0
 10
39.0893135743
 20
45.864555517
 30
0.0
 10
39.0936820978
 20
46.1225229184
 30
0.0
 10
39.0623719348
 20
46.2934285635
 30
0.0
 10
39.0377877857
 20
46.3755918204
 30
0.0
  0
SPLINE
  5
32D
100
AcDbEntity
  8
0
100
AcDbSpline
 62
7
  6
BYLAYER
 70
0
 71
3
 72
10
 73
6
 74
0
 42
0.0000001
 43
0.0000001
 44
0.0000000001
 40
0.0
 40
0.0
 40
0.0
 40
0.0
 40
0.3423401572
 40
0.6740164327
 40
1.0
 40
1.0
 40
1.0
 40
1.0
 10
38.179846827
 20
45.1636616375
 30
0.0
 10
38.2061539298
 20
45.1478688886
 30
0.0
 10
38.2605961183
 20
45.1208861096
 30
0.0
 10
38.3471093035
 20
45.0957705688
 30
0.0
 10
38.4062052369
 20
45.0901233043
 30
0.0
 10
38.4354226768
 20
45.0901233043
 30
0.0
  0
SPLINE
  5
32E
100
AcDbEntity
  8
0
100
AcDbSpline
 62
7
  6
BYLAYER
 70
0
 71
3
 72
17
 73
13
 74
0
 42
0.0000001
 43
0.0000001
 44
0.0000000001
 40
0.0
 40
0.0
 40
0.0
 40
0.0
 40
0.0818491356
 40
0.1687303789
 40
0.2637934895
 40
0.3672574296
 40
0.477105401
 40
0.5899656029
 40
0.7019000357
 40
0.8091361968
 40
0.9088383288
 40
1.0
 40
1.0
 40
1.0
 40
1.0
 10
38.4354226768
 20
46.9401233043
 30
0.0
 10
38.3747687509
 20
46.9401233043
 30
0.0
 10
38.2486244423
 20
46.9143853769
 30
0.0
 10
38.0812915392
 20
46.8066541975
 30
0.0
 10
37.9438299328
 20
46.6424586237
 30
0.0
 10
37.8436537206
 20
46.4348947998
 30
0.0
 10
37.7862237775
 20
46.1984350235
 30
0.0
 10
37.7750506242
 20
45.9491968757
 30
0.0
 10
37.8109113711
 20
45.7042165528
 30
0.0
 10
37.8919256035
 20
45.4802855493
 30
0.0
 10
38.0132912226
 20
45.2931843799
 30
0.0
 10
38.1219271914
 20
45.198432105
 30
0.0
 10
38.179846827
 20
45.1636616375
 30
0.0
  0
SPLINE
  5
32F
100
AcDbEntity
  8
0
100
AcDbSpline
 62
7
  6
BYLAYER
 70
0
 71
3
 72
44
 73
40
 74
0
 42
0.0000001
 43
0.0000001
 44
0.0000000001
 40
0.0
 40
0.0
 40
0.0
 40
0.0
 40
0.0164457209
 40
0.0351036549
 40
0.0557640556
 40
0.0783556523
 40
0.1025945078
 40
0.1289571201
 40
0.1584585952
 40
0.1921593274
 40
0.2301554622
 40
0.2716908682
 40
0.315160032
 40
0.3583799474
 40
0.3987817234
 40
0.4350199574
 40
0.4668472218
 40
0.4950466826
 40
0.5204328754
 40
0.5432871682
 40
0.5639676598
 40
0.5833068987
 40
0.6023967069
 40
0.6226640416
 40
0.6456268101
 40
0.6719914639
 40
0.7015149161
 40
0.7335052119
 40
0.7673249507
 40
0.802460754
 40
0.8365090896
 40
0.8672480532
 40
0.8940837925
 40
0.9176090654
 40
0.9383102844
 40
0.9564768648
 40
0.9725004263
 40
0.9868709356
 40
1.0
 40
1.0
 40
1.0
 40
1.0
 10
39.2228869395
 20
45.5022379297
 30
0.0
 10
39.231652141
 20
45.4672980118
 30
0.0
 10
39.2567215418
 20
45.39425564
 30
0.0
 10
39.3116103866
 20
45.284819714
 30
0.0
 10
39.3859153771
 20
45.1710826437
 30
0.0
 10
39.4781091554
 20
45.0553020854
 30
0.0
 10
39.5871675581
 20
44.9376311743
 30
0.0
 10
39.7137953163
 20
44.816071585
 30
0.0
 10
39.8612339317
 20
44.6865856968
 30
0.0
 10
40.032203246
 20
44.5454666985
 30
0.0
 10
40.2269376113
 20
44.3918348121
 30
0.0
 10
40.4421058732
 20
44.2296481487
 30
0.0
 10
40.6714705717
 20
44.0674423115
 30
0.0
 10
40.9061106194
 20
43.9173684827
 30
0.0
 10
41.1365049806
 20
43.7909531776
 30
0.0
 10
41.3535701197
 20
43.6937172295
 30
0.0
 10
41.5521927838
 20
43.6224304508
 30
0.0
 10
41.7318620391
 20
43.5699985705
 30
0.0
 10
41.894240187
 20
43.5291262895
 30
0.0
 10
42.0408353059
 20
43.4930767122
 30
0.0
 10
42.1737092086
 20
43.4567395181
 30
0.0
 10
42.2967876716
 20
43.4163199274
 30
0.0
 10
42.4163317615
 20
43.3687953123
 30
0.0
 10
42.5403827567
 20
43.3117499907
 30
0.0
 10
42.6774867377
 20
43.2451374988
 30
0.0
 10
42.8350588274
 20
43.174216093
 30
0.0
 10
43.0165096594
 20
43.1091306317
 30
0.0
 10
43.2194220272
 20
43.0583502225
 30
0.0
 10
43.4385331621
 20
43.0260511476
 30
0.0
 10
43.6643876419
 20
43.0163890214
 30
0.0
 10
43.8832289377
 20
43.031166515
 30
0.0
 10
44.0810639395
 20
43.0675985477
 30
0.0
 10
44.2510144215
 20
43.1208273442
 30
0.0
 10
44.3929617135
 20
43.1857129921
 30
0.0
 10
44.5091414198
 20
43.2584677537
 30
0.0
 10
44.6015666998
 20
43.3359872801
 30
0.0
 10
44.6727557877
 20
43.41552136
 30
0.0
 10
44.7254548526
 20
43.4953680296
 30
0.0
 10
44.7506726515
 20
43.5503890166
 30
0.0
 10
44.7604644635
 20
43.577428465
 30
0.0
  0
SPLINE
  5
330
100
AcDbEntity
  8
0
100
AcDbSpline
 62
7
  6
BYLAYER
 70
0
 71
3
 72
71
 73
67
 74
0
 42
0.0000001
 43
0.0000001
 44
0.0000000001
 40
0.0
 40
0.0
 40
0.0
 40
0.0
 40
0.0024323568
 40
0.0044869352
 40
0.0062044439
 40
0.0076257178
 40
0.0087877037
 40
0.0097110856
 40
0.0104123242
 40
0.010684753
 40
0.0109077487
 40
0.0110828764
 40
0.0112099546
 40
0.0113201973
 40
0.0114331308
 40
0.0115659952
 40
0.0117521987
 40
0.0119928814
 40
0.0122891404
 40
0.0130526084
 40
0.0140508733
 40
0.0152920366
 40
0.0167818576
 40
0.0185169728
 40
0.0227009594
 40
0.027793269
 40
0.0337137079
 40
0.0475755835
 40
0.0630137762
 40
0.0708809352
 40
0.0785499502
 40
0.0857763503
 40
0.0923324618
 40
0.0952954606
 40
0.0980016879
 40
0.1004566865
 40
0.102849394
 40
0.1081036769
 40
0.1142712157
 40
0.1216382466
 40
0.1303569144
 40
0.1405127961
 40
0.1520844723
 40
0.1650151323
 40
0.1792046564
 40
0.2109073288
 40
0.2463186154
 40
0.2847054057
 40
0.3254161435
 40
0.3679878603
 40
0.4120395961
 40
0.4573549369
 40
0.5038173998
 40
0.5515461131
 40
0.6007848236
 40
0.6520697936
 40
0.7061734762
 40
0.7638181956
 40
0.8249443676
 40
0.856280575
 40
0.8874913245
 40
0.9179941331
 40
0.9472032531
 40
0.9746099633
 40
0.9875663883
 40
1.0
 40
1.0
 40
1.0
 40
1.0
 10
43.4480683703
 20
44.3203162515
 30
0.0
 10
43.4529395331
 20
44.3215326798
 30
0.0
 10
43.4619282389
 20
44.3237666373
 30
0.0
 10
43.4743797612
 20
44.3267646833
 30
0.0
 10
43.4848264283
 20
44.3291711242
 30
0.0
 10
43.4935066125
 20
44.3310373075
 30
0.0
 10
43.5006137963
 20
44.3324072244
 30
0.0
 10
43.5062908778
 20
44.3333549993
 30
0.0
 10
43.5101640934
 20
44.3338908121
 30
0.0
 10
43.5126305078
 20
44.3341534216
 30
0.0
 10
43.5139882778
 20
44.3342747255
 30
0.0
 10
43.5151269302
 20
44.3343285378
 30
0.0
 10
43.5158378041
 20
44.3343659994
 30
0.0
 10
43.5169876627
 20
44.3342346172
 30
0.0
 10
43.5159206134
 20
44.3337165672
 30
0.0
 10
43.5152119336
 20
44.3335019191
 30
0.0
 10
43.5140478822
 20
44.333145362
 30
0.0
 10
43.5126270591
 20
44.3327726517
 30
0.0
 10
43.5100114009
 20
44.3321197088
 30
0.0
 10
43.5058773562
 20
44.3311744251
 30
0.0
 10
43.4998162742
 20
44.3298597873
 30
0.0
 10
43.4922817803
 20
44.3282878212
 30
0.0
 10
43.4832470595
 20
44.3264516322
 30
0.0
 10
43.4682369558
 20
44.3235212292
 30
0.0
 10
43.4458657037
 20
44.3194900033
 30
0.0
 10
43.4148776547
 20
44.3145982527
 30
0.0
 10
43.3639821802
 20
44.3077730692
 30
0.0
 10
43.2915835295
 20
44.3008451709
 30
0.0
 10
43.2149344268
 20
44.2968602479
 30
0.0
 10
43.1509941485
 20
44.2961023319
 30
0.0
 10
43.1040060635
 20
44.2968910176
 30
0.0
 10
43.059774207
 20
44.2991119404
 30
0.0
 10
43.0253160346
 20
44.3019424649
 30
0.0
 10
43.0002382083
 20
44.3047744731
 30
0.0
 10
42.9836208288
 20
44.3070495097
 30
0.0
 10
42.9682443519
 20
44.3096521657
 30
0.0
 10
42.9477718822
 20
44.3136169368
 30
0.0
 10
42.9198385533
 20
44.319371281
 30
0.0
 10
42.882184135
 20
44.3287106799
 30
0.0
 10
42.8380362126
 20
44.341430254
 30
0.0
 10
42.7864660769
 20
44.3580271584
 30
0.0
 10
42.7271616138
 20
44.3788505006
 30
0.0
 10
42.6602934427
 20
44.4043073713
 30
0.0
 10
42.5864056071
 20
44.4346498962
 30
0.0
 10
42.4750647547
 20
44.4831079697
 30
0.0
 10
42.3230124136
 20
44.554215416
 30
0.0
 10
42.1282847465
 20
44.6517621946
 30
0.0
 10
41.9193539443
 20
44.7623384186
 30
0.0
 10
41.6997094241
 20
44.8841496418
 30
0.0
 10
41.4713978707
 20
45.0143878703
 30
0.0
 10
41.2356277827
 20
45.1507191993
 30
0.0
 10
40.9929342833
 20
45.2911204088
 30
0.0
 10
40.742944416
 20
45.4340660648
 30
0.0
 10
40.484372259
 20
45.5782901879
 30
0.0
 10
40.2147581864
 20
45.7231137581
 30
0.0
 10
39.9295204012
 20
45.8664425684
 30
0.0
 10
39.6243706621
 20
46.0085233089
 30
0.0
 10
39.294384336
 20
46.1447457455
 30
0.0
 10
39.0014766926
 20
46.2464803871
 30
0.0
 10
38.7564728273
 20
46.3183612053
 30
0.0
 10
38.5701737907
 20
46.3653483296
 30
0.0
 10
38.3862054155
 20
46.4028595981
 30
0.0
 10
38.2083799949
 20
46.4301578412
 30
0.0
 10
38.065348644
 20
46.4440284707
 30
0.0
 10
37.9564843549
 20
46.449478257
 30
0.0
 10
37.9040753463
 20
46.4503968256
 30
0.0
 10
37.8784064656
 20
46.4504000911
 30
0.0
  0
SPLINE
  5
331
100
AcDbEntity
  8
0
100
AcDbSpline
 62
7
  6
BYLAYER
 70
0
 71
3
 72
12
 73
8
 74
0
 42
0.0000001
 43
0.0000001
 44
0.0000000001
 40
0.0
 40
0.0
 40
0.0
 40
0.0
 40
0.1985678472
 40
0.393147778
 40
0.7045837589
 40
0.854436504
 40
1.0
 40
1.0
 40
1.0
 40
1.0
 10
39.8016348519
 20
46.1296201612
 30
0.0
 10
39.7702476796
 20
46.1390996538
 30
0.0
 10
39.707706947
 20
46.1565772531
 30
0.0
 10
39.5942634483
 20
46.1825095193
 30
0.0
 10
39.4870889903
 20
46.1992402449
 30
0.0
 10
39.387178814
 20
46.2073275947
 30
0.0
 10
39.3384061449
 20
46.2087124719
 30
0.0
 10
39.3143634528
 20
46.2087169239
 30
0.0
  0
SPLINE
  5
332
100
AcDbEntity
  8
0
100
AcDbSpline
 62
7
  6
BYLAYER
 70
0
 71
3
 72
60
 73
56
 74
0
 42
0.0000001
 43
0.0000001
 44
0.0000000001
 40
0.0
 40
0.0
 40
0.0
 40
0.0
 40
0.0028798432
 40
0.0051629311
 40
0.0068774885
 40
0.0075303905
 40
0.0080517474
 40
0.0084450939
 40
0.0085948717
 40
0.00871398
 40
0.0088028713
 40
0.0088361321
 40
0.0088620192
 40
0.0088806054
 40
0.0088919976
 40
0.0088965513
 40
0.0089005417
 40
0.0089287387
 40
0.0089847914
 40
0.0090683873
 40
0.0091791179
 40
0.0093165559
 40
0.0094802675
 40
0.0096698165
 40
0.0098847653
 40
0.0103891145
 40
0.0109898366
 40
0.0124664986
 40
0.0142869645
 40
0.0164234666
 40
0.0188518605
 40
0.0215623672
 40
0.0245487568
 40
0.0278047743
 40
0.0313271846
 40
0.0351248725
 40
0.0435937414
 40
0.0533163064
 40
0.0644360525
 40
0.0914226952
 40
0.1254061717
 40
0.1666877399
 40
0.2149105585
 40
0.2695165743
 40
0.3297182843
 40
0.3946963455
 40
0.4636943202
 40
0.5359900051
 40
0.610910991
 40
0.6878201852
 40
0.7661348988
 40
0.8453136523
 40
0.9248667085
 40
0.9624616258
 40
1.0
 40
1.0
 40
1.0
 40
1.0
 10
51.1327748813
 20
44.2273532336
 30
0.0
 10
51.1387837605
 20
44.2290950817
 30
0.0
 10
51.1495595162
 20
44.2322073926
 30
0.0
 10
51.1639308285
 20
44.2362936434
 30
0.0
 10
51.1736615618
 20
44.2390111419
 30
0.0
 10
51.1797156214
 20
44.2406647528
 30
0.0
 10
51.1830049411
 20
44.2415465248
 30
0.0
 10
51.1852426089
 20
44.2421309447
 30
0.0
 10
51.1866375033
 20
44.2424821013
 30
0.0
 10
51.1873933613
 20
44.2426654077
 30
0.0
 10
51.1879029513
 20
44.2427831913
 30
0.0
 10
51.1882194682
 20
44.2428489243
 30
0.0
 10
51.1883820079
 20
44.2428811587
 30
0.0
 10
51.1885096357
 20
44.2428987005
 30
0.0
 10
51.1885702615
 20
44.2429087145
 30
0.0
 10
51.1886341108
 20
44.2429025515
 30
0.0
 10
51.188552204
 20
44.2428281996
 30
0.0
 10
51.1883922025
 20
44.2427945902
 30
0.0
 10
51.1880371741
 20
44.242642598
 30
0.0
 10
51.1875271959
 20
44.2424835574
 30
0.0
 10
51.1868385166
 20
44.2422578198
 30
0.0
 10
51.1859850987
 20
44.2419937555
 30
0.0
 10
51.1849651459
 20
44.2416820488
 30
0.0
 10
51.1837829087
 20
44.2413275686
 30
0.0
 10
51.1818896509
 20
44.2407670615
 30
0.0
 10
51.1791360949
 20
44.2399662671
 30
0.0
 10
51.1737432569
 20
44.2384252598
 30
0.0
 10
51.1655866283
 20
44.2361504137
 30
0.0
 10
51.1541955313
 20
44.233054542
 30
0.0
 10
51.1407863125
 20
44.229501729
 30
0.0
 10
51.1254830669
 20
44.225549221
 30
0.0
 10
51.1083754376
 20
44.2212004553
 30
0.0
 10
51.0895147645
 20
44.2164502881
 30
0.0
 10
51.0689387416
 20
44.211289083
 30
0.0
 10
51.0466529914
 20
44.2056998348
 30
0.0
 10
51.0133812989
 20
44.1973618396
 30
0.0
 10
50.9670398539
 20
44.1857669571
 30
0.0
 10
50.9052520842
 20
44.1703717917
 30
0.0
 10
50.8043003923
 20
44.1457711553
 30
0.0
 10
50.6516720868
 20
44.1106311284
 30
0.0
 10
50.4341673332
 20
44.0654337605
 30
0.0
 10
50.1705650908
 20
44.0155487014
 30
0.0
 10
49.8621176272
 20
43.9618875667
 30
0.0
 10
49.5123885152
 20
43.9058716639
 30
0.0
 10
49.1256897205
 20
43.8508174384
 30
0.0
 10
48.7068829417
 20
43.8000542735
 30
0.0
 10
48.2608976433
 20
43.7560351174
 30
0.0
 10
47.7924282866
 20
43.7212025932
 30
0.0
 10
47.3060269939
 20
43.6978644926
 30
0.0
 10
46.8060663612
 20
43.6883208746
 30
0.0
 10
46.2967857064
 20
43.6948759156
 30
0.0
 10
45.782305701
 20
43.7198309502
 30
0.0
 10
45.3573134908
 20
43.7573698186
 30
0.0
 10
45.0236920188
 20
43.7978673896
 30
0.0
 10
44.8621226912
 20
43.8211154129
 30
0.0
 10
44.7815403163
 20
43.8336676154
 30
0.0
  0
SPLINE
  5
333
100
AcDbEntity
  8
0
100
AcDbSpline
 62
7
  6
BYLAYER
 70
0
 71
3
 72
87
 73
83
 74
0
 42
0.0000001
 43
0.0000001
 44
0.0000000001
 40
0.0
 40
0.0
 40
0.0
 40
0.0
 40
0.0019893562
 40
0.0036181239
 40
0.0048820122
 40
0.0053757853
 40
0.0057767288
 40
0.0060843069
 40
0.0062029173
 40
0.006297987
 40
0.0063366739
 40
0.0063694515
 40
0.0063963124
 40
0.00641725
 40
0.0064322596
 40
0.0064413442
 40
0.0064445706
 40
0.0064476075
 40
0.0064713674
 40
0.006519037
 40
0.0065907096
 40
0.0066864593
 40
0.006806356
 40
0.0069504685
 40
0.007118865
 40
0.0073116135
 40
0.0077704342
 40
0.0083274576
 40
0.0097382043
 40
0.0115480374
 40
0.0137611402
 40
0.0163799413
 40
0.0193998535
 40
0.0228145596
 40
0.0266177733
 40
0.0308017677
 40
0.0353529463
 40
0.045496636
 40
0.0569239292
 40
0.0694911646
 40
0.0830535103
 40
0.0974805529
 40
0.1284650764
 40
0.1617196962
 40
0.1968450505
 40
0.2335469824
 40
0.2716517831
 40
0.351451928
 40
0.4349066255
 40
0.5206048978
 40
0.5638672108
 40
0.6071861762
 40
0.650421801
 40
0.693455942
 40
0.7362024838
 40
0.7786105263
 40
0.8206725453
 40
0.8415892753
 40
0.8624433221
 40
0.8832477983
 40
0.8935400442
 40
0.9035542845
 40
0.9226574087
 40
0.9316935526
 40
0.9403422747
 40
0.9563212164
 40
0.9635514254
 40
0.970206905
 40
0.9762354892
 40
0.9815799587
 40
0.986186047
 40
0.9900164085
 40
0.9930502788
 40
0.9953148157
 40
0.9968690362
 40
0.9978517342
 40
0.998432582
 40
0.9988377096
 40
0.9990476693
 40
0.9992956856
 40
0.9996051222
 40
1.0
 40
1.0
 40
1.0
 40
1.0
 10
52.8260863697
 20
43.6898991507
 30
0.0
 10
52.8346093229
 20
43.6923711218
 30
0.0
 10
52.8501146747
 20
43.6968522728
 30
0.0
 10
52.871053984
 20
43.7028374475
 30
0.0
 10
52.8855915859
 20
43.7069436297
 30
0.0
 10
52.8948670208
 20
43.7095296428
 30
0.0
 10
52.9000371536
 20
43.7109560607
 30
0.0
 10
52.9035972837
 20
43.7119249654
 30
0.0
 10
52.9058439646
 20
43.7125249126
 30
0.0
 10
52.9069325472
 20
43.7128108275
 30
0.0
 10
52.9076525148
 20
43.7129956809
 30
0.0
 10
52.9080768238
 20
43.7131028809
 30
0.0
 10
52.9084287132
 20
43.7131885317
 30
0.0
 10
52.9086942377
 20
43.7132526938
 30
0.0
 10
52.908906886
 20
43.713295635
 30
0.0
 10
52.90899755
 20
43.71331793
 30
0.0
 10
52.9091047871
 20
43.7133252662
 30
0.0
 10
52.9089285888
 20
43.7132295265
 30
0.0
 10
52.9086853904
 20
43.7131761393
 30
0.0
 10
52.9080271296
 20
43.7129419716
 30
0.0
 10
52.9071347015
 20
43.7126793112
 30
0.0
 10
52.9058970632
 20
43.7123024046
 30
0.0
 10
52.9043620203
 20
43.71185001
 30
0.0
 10
52.9025094218
 20
43.7113071901
 30
0.0
 10
52.9003452639
 20
43.7106795227
 30
0.0
 10
52.8968302943
 20
43.7096667599
 30
0.0
 10
52.891646181
 20
43.7081868508
 30
0.0
 10
52.8812306771
 20
43.7052386743
 30
0.0
 10
52.8650033578
 20
43.7006956002
 30
0.0
 10
52.8416450759
 20
43.6942216643
 30
0.0
 10
52.8130761205
 20
43.6863719339
 30
0.0
 10
52.7792833238
 20
43.6771605543
 30
0.0
 10
52.7402878219
 20
43.666654604
 30
0.0
 10
52.6961493217
 20
43.6549289275
 30
0.0
 10
52.6469410499
 20
43.6420635882
 30
0.0
 10
52.5927684553
 20
43.6281455983
 30
0.0
 10
52.5111155875
 20
43.607527354
 30
0.0
 10
52.3979540282
 20
43.5797188718
 30
0.0
 10
52.2497741036
 20
43.5445916722
 30
0.0
 10
52.086495595
 20
43.5070608064
 30
0.0
 10
51.9099328164
 20
43.4676044543
 30
0.0
 10
51.6528840281
 20
43.4116229637
 30
0.0
 10
51.309431389
 20
43.3395916682
 30
0.0
 10
50.8745217282
 20
43.2539410783
 30
0.0
 10
50.4131907875
 20
43.1707106331
 30
0.0
 10
49.9289598136
 20
43.0930202077
 30
0.0
 10
49.2459777002
 20
42.9969421005
 30
0.0
 10
48.3528820183
 20
42.898247999
 30
0.0
 10
47.2440422516
 20
42.8287840717
 30
0.0
 10
46.2957590739
 20
42.8245441223
 30
0.0
 10
45.527995639
 20
42.8619316969
 30
0.0
 10
44.9509877129
 20
42.9130091147
 30
0.0
 10
44.3777621447
 20
42.9893239985
 30
0.0
 10
43.8114695999
 20
43.0934325986
 30
0.0
 10
43.2553331486
 20
43.2278952133
 30
0.0
 10
42.7127147517
 20
43.3954166089
 30
0.0
 10
42.2738185627
 20
43.5651559827
 30
0.0
 10
41.9332471211
 20
43.7198285419
 30
0.0
 10
41.6840419739
 20
43.8457928975
 30
0.0
 10
41.4820359132
 20
43.9595119891
 30
0.0
 10
41.3248527601
 20
44.0540056168
 30
0.0
 10
41.1762699604
 20
44.1479920418
 30
0.0
 10
41.0348208538
 20
44.2426899206
 30
0.0
 10
40.899896917
 20
44.3361035716
 30
0.0
 10
40.7770491449
 20
44.4224720549
 30
0.0
 10
40.6613092012
 20
44.5049367472
 30
0.0
 10
40.5525784147
 20
44.5819146179
 30
0.0
 10
40.4797493103
 20
44.6327841807
 30
0.0
 10
40.4132690635
 20
44.6780446433
 30
0.0
 10
40.3538001042
 20
44.7173476294
 30
0.0
 10
40.3019547285
 20
44.750386672
 30
0.0
 10
40.2582502312
 20
44.7770040981
 30
0.0
 10
40.2228828524
 20
44.7972037737
 30
0.0
 10
40.1958304965
 20
44.811449424
 30
0.0
 10
40.1764328368
 20
44.8205657387
 30
0.0
 10
40.1635019903
 20
44.8256932011
 30
0.0
 10
40.1551724951
 20
44.8285161017
 30
0.0
 10
40.1499560083
 20
44.8296619226
 30
0.0
 10
40.1461699712
 20
44.8303623754
 30
0.0
 10
40.1427747123
 20
44.8308163641
 30
0.0
 10
40.1385358367
 20
44.8311244339
 30
0.0
 10
40.1353913888
 20
44.8311795717
 30
0.0
 10
40.1336311871
 20
44.8311826198
 30
0.0
  0
SPLINE
  5
334
100
AcDbEntity
  8
0
100
AcDbSpline
 62
7
  6
BYLAYER
 70
0
 71
3
 72
18
 73
14
 74
0
 42
0.0000001
 43
0.0000001
 44
0.0000000001
 40
0.0
 40
0.0
 40
0.0
 40
0.0
 40
0.1396029501
 40
0.27453595
 40
0.4003404034
 40
0.513294072
 40
0.6118977662
 40
0.6975710411
 40
0.7728140468
 40
0.8391222238
 40
0.8980409202
 40
0.9511732275
 40
1.0
 40
1.0
 40
1.0
 40
1.0
 10
43.4349603764
 20
44.5650268639
 30
0.0
 10
43.5091661782
 20
44.5525652263
 30
0.0
 10
43.6548559574
 20
44.5265168027
 30
0.0
 10
43.8656097262
 20
44.4798393629
 30
0.0
 10
44.059730501
 20
44.4256366657
 30
0.0
 10
44.2311110468
 20
44.3642719137
 30
0.0
 10
44.3766815531
 20
44.2967596747
 30
0.0
 10
44.4968502857
 20
44.2245673451
 30
0.0
 10
44.5934744526
 20
44.1487202939
 30
0.0
 10
44.6684473562
 20
44.0703604387
 30
0.0
 10
44.7236684259
 20
43.991169182
 30
0.0
 10
44.7612615352
 20
43.9126101851
 30
0.0
 10
44.7764688873
 20
43.8594913421
 30
0.0
 10
44.7815402038
 20
43.8336673385
 30
0.0
  0
SPLINE
  5
335
100
AcDbEntity
  8
0
100
AcDbSpline
 62
7
  6
BYLAYER
 70
0
 71
3
 72
16
 73
12
 74
0
 42
0.0000001
 43
0.0000001
 44
0.0000000001
 40
0.0
 40
0.0
 40
0.0
 40
0.0
 40
0.1069963393
 40
0.2224208924
 40
0.3436656775
 40
0.4669969967
 40
0.5883404448
 40
0.7039574177
 40
0.8111949836
 40
0.9092592036
 40
1.0
 40
1.0
 40
1.0
 40
1.0
 10
40.1152219607
 20
44.7786591486
 30
0.0
 10
40.163313081
 20
44.8294206725
 30
0.0
 10
40.2484031025
 20
44.949518317
 30
0.0
 10
40.3341589056
 20
45.1587381696
 30
0.0
 10
40.3791470893
 20
45.3911467873
 30
0.0
 10
40.3806982885
 20
45.6316096773
 30
0.0
 10
40.3388619339
 20
45.8647488993
 30
0.0
 10
40.2561382785
 20
46.0756615213
 30
0.0
 10
40.1370291946
 20
46.2508186878
 30
0.0
 10
39.9879897348
 20
46.3782996437
 30
0.0
 10
39.8706264083
 20
46.425228091
 30
0.0
 10
39.8123985116
 20
46.436460851
 30
0.0
  0
SPLINE
  5
336
100
AcDbEntity
  8
0
100
AcDbSpline
 62
7
  6
BYLAYER
 70
0
 71
3
 72
10
 73
6
 74
0
 42
0.0000001
 43
0.0000001
 44
0.0000000001
 40
0.0
 40
0.0
 40
0.0
 40
0.0
 40
0.3165988011
 40
0.6467166035
 40
1.0
 40
1.0
 40
1.0
 40
1.0
 10
39.7239961753
 20
44.5949484103
 30
0.0
 10
39.7707665119
 20
44.5949484103
 30
0.0
 10
39.8668781106
 20
44.6098507465
 30
0.0
 10
40.0016269992
 20
44.6745378341
 30
0.0
 10
40.0793283084
 20
44.7407723936
 30
0.0
 10
40.1152219607
 20
44.7786591486
 30
0.0
  0
SPLINE
  5
337
100
AcDbEntity
  8
0
100
AcDbSpline
 62
7
  6
BYLAYER
 70
0
 71
3
 72
16
 73
12
 74
0
 42
0.0000001
 43
0.0000001
 44
0.0000000001
 40
0.0
 40
0.0
 40
0.0
 40
0.0
 40
0.1085648202
 40
0.2260061597
 40
0.3492302312
 40
0.4739091344
 40
0.5954591737
 40
0.7099005072
 40
0.8148196955
 40
0.9103571903
 40
1.0
 40
1.0
 40
1.0
 40
1.0
 10
39.3327703898
 20
46.2612376721
 30
0.0
 10
39.2817883652
 20
46.2074247177
 30
0.0
 10
39.19240194
 20
46.079002737
 30
0.0
 10
39.1055210648
 20
45.8550582025
 30
0.0
 10
39.0645799309
 20
45.6072737242
 30
0.0
 10
39.0722516601
 20
45.3535599733
 30
0.0
 10
39.127849581
 20
45.1119108198
 30
0.0
 10
39.2277719973
 20
44.8994340222
 30
0.0
 10
39.3661966019
 20
44.7313579238
 30
0.0
 10
39.535213388
 20
44.6212335638
 30
0.0
 10
39.6627878881
 20
44.5949484103
 30
0.0
 10
39.7239961753
 20
44.5949484103
 30
0.0
  0
SPLINE
  5
338
100
AcDbEntity
  8
0
100
AcDbSpline
 62
7
  6
BYLAYER
 70
0
 71
3
 72
31
 73
27
 74
0
 42
0.0000001
 43
0.0000001
 44
0.0000000001
 40
0.0
 40
0.0
 40
0.0
 40
0.0
 40
0.0300487013
 40
0.0590791326
 40
0.1142831187
 40
0.140810465
 40
0.1668431372
 40
0.1926037456
 40
0.2183299495
 40
0.244272589
 40
0.2706649234
 40
0.2977027745
 40
0.3255503153
 40
0.354340211
 40
0.3841443589
 40
0.446785886
 40
0.5133638073
 40
0.5831194367
 40
0.6549732238
 40
0.7276034362
 40
0.7996220353
 40
0.8697083987
 40
0.9036792612
 40
0.9367713481
 40
0.9688994739
 40
1.0
 40
1.0
 40
1.0
 40
1.0
 10
40.1336311244
 20
44.8311825452
 30
0.0
 10
40.1179479922
 20
44.8125502013
 30
0.0
 10
40.0853782237
 20
44.7774162922
 30
0.0
 10
40.0156112584
 20
44.7164573938
 30
0.0
 10
39.9384268429
 20
44.6687939103
 30
0.0
 10
39.8564742079
 20
44.6382159186
 30
0.0
 10
39.7944514433
 20
44.6240849942
 30
0.0
 10
39.7317291331
 20
44.6185947099
 30
0.0
 10
39.6689153317
 20
44.6218463156
 30
0.0
 10
39.6066741765
 20
44.6339317684
 30
0.0
 10
39.5456225677
 20
44.6545820482
 30
0.0
 10
39.4863357284
 20
44.6835356418
 30
0.0
 10
39.4293924033
 20
44.7205362014
 30
0.0
 10
39.3753966006
 20
44.7652987449
 30
0.0
 10
39.3068133949
 20
44.8357383003
 30
0.0
 10
39.2313384103
 20
44.9410863381
 30
0.0
 10
39.1615293388
 20
45.0870438267
 30
0.0
 10
39.1128153125
 20
45.2490752868
 30
0.0
 10
39.0874468748
 20
45.4212505824
 30
0.0
 10
39.0858370966
 20
45.597099335
 30
0.0
 10
39.1085295485
 20
45.7700302374
 30
0.0
 10
39.1470255467
 20
45.9078992587
 30
0.0
 10
39.1893368891
 20
46.0106809244
 30
0.0
 10
39.225882282
 20
46.0822999883
 30
0.0
 10
39.2671791453
 20
46.148583437
 30
0.0
 10
39.2981533725
 20
46.1894187538
 30
0.0
 10
39.3143634528
 20
46.2087169239
 30
0.0
  0
SPLINE
  5
339
100
AcDbEntity
  8
0
100
AcDbSpline
 62
7
  6
BYLAYER
 70
0
 71
3
 72
24
 73
20
 74
0
 42
0.0000001
 43
0.0000001
 44
0.0000000001
 40
0.0
 40
0.0
 40
0.0
 40
0.0
 40
0.0321230751
 40
0.0648097956
 40
0.0982798011
 40
0.1327185876
 40
0.1697398749
 40
0.2080654018
 40
0.2886169259
 40
0.3742303085
 40
0.4639299457
 40
0.5563276301
 40
0.6497237295
 40
0.7423333478
 40
0.83245828
 40
0.8761413212
 40
0.9186943624
 40
0.9600078659
 40
1.0
 40
1.0
 40
1.0
 40
1.0
 10
39.7884006972
 20
46.4153264359
 30
0.0
 10
39.8084481347
 20
46.4124472129
 30
0.0
 10
39.8484503706
 20
46.4038911099
 30
0.0
 10
39.9069755059
 20
46.3832761266
 30
0.0
 10
39.9638232385
 20
46.3550055245
 30
0.0
 10
40.0192650691
 20
46.3188092288
 30
0.0
 10
40.0725959525
 20
46.274597909
 30
0.0
 10
40.1411788306
 20
46.2041586233
 30
0.0
 10
40.2166539862
 20
46.0988104447
 30
0.0
 10
40.2864629984
 20
45.9528530049
 30
0.0
 10
40.3351770418
 20
45.7908215308
 30
0.0
 10
40.3605454747
 20
45.6186462391
 30
0.0
 10
40.3621552542
 20
45.4427974853
 30
0.0
 10
40.339462802
 20
45.2698665834
 30
0.0
 10
40.3009668914
 20
45.1319978758
 30
0.0
 10
40.2586558379
 20
45.0292167784
 30
0.0
 10
40.2221109692
 20
44.9575984825
 30
0.0
 10
40.1808147351
 20
44.8913156597
 30
0.0
 10
40.1498410043
 20
44.8504806626
 30
0.0
 10
40.1336311871
 20
44.8311826198
 30
0.0
  0
LINE
  5
33A
100
AcDbEntity
  8
0
100
AcDbLine
 62
7
  6
BYLAYER
 10
39.3327703898
 20
46.2612376721
 11
39.2619879912
 21
46.2611619583
  0
SPLINE
  5
33B
100
AcDbEntity
  8
0
100
AcDbSpline
 62
7
  6
BYLAYER
 70
0
 71
3
 72
25
 73
21
 74
0
 42
0.0000001
 43
0.0000001
 44
0.0000000001
 40
0.0
 40
0.0
 40
0.0
 40
0.0
 40
0.0628267063
 40
0.1258118723
 40
0.1888812192
 40
0.2519469427
 40
0.314921731
 40
0.3463904744
 40
0.3778069649
 40
0.440404257
 40
0.5027722778
 40
0.5339101679
 40
0.5650041843
 40
0.6269990668
 40
0.6889083066
 40
0.7508212372
 40
0.8128266604
 40
0.8749978351
 40
0.9373843158
 40
1.0
 40
1.0
 40
1.0
 40
1.0
 10
51.1327748813
 20
44.2273532336
 30
0.0
 10
51.1160075879
 20
44.1711320394
 30
0.0
 10
51.0935278919
 20
44.0552714421
 30
0.0
 10
51.0935671278
 20
43.8780741138
 30
0.0
 10
51.1279304198
 20
43.7040181602
 30
0.0
 10
51.1946333741
 20
43.5396627492
 30
0.0
 10
51.2757102749
 20
43.4160258419
 30
0.0
 10
51.3535768981
 20
43.3280410289
 30
0.0
 10
51.4393355715
 20
43.2482250757
 30
0.0
 10
51.560314641
 20
43.1651093934
 30
0.0
 10
51.694866124
 20
43.1070660322
 30
0.0
 10
51.8073757355
 20
43.0774651518
 30
0.0
 10
51.9218976425
 20
43.0591717714
 30
0.0
 10
52.0674457679
 20
43.0576354238
 30
0.0
 10
52.2386299299
 20
43.0908191679
 30
0.0
 10
52.3999691683
 20
43.1570755752
 30
0.0
 10
52.5449403315
 20
43.2544616114
 30
0.0
 10
52.6683441172
 20
43.3786568416
 30
0.0
 10
52.7649675392
 20
43.5253150103
 30
0.0
 10
52.8093724293
 20
43.6338901749
 30
0.0
 10
52.8260863368
 20
43.6898990403
 30
0.0
  0
SPLINE
  5
33C
100
AcDbEntity
  8
0
100
AcDbSpline
 62
7
  6
BYLAYER
 70
0
 71
3
 72
25
 73
21
 74
0
 42
0.0000001
 43
0.0000001
 44
0.0000000001
 40
0.0
 40
0.0
 40
0.0
 40
0.0
 40
0.0628267027
 40
0.1258118651
 40
0.1888812096
 40
0.2519469309
 40
0.314921717
 40
0.3463904591
 40
0.3778069485
 40
0.4404042383
 40
0.5027722569
 40
0.5339101459
 40
0.5650041611
 40
0.6269990414
 40
0.6889082789
 40
0.7508212073
 40
0.8128266283
 40
0.8749978007
 40
0.9373842986
 40
1.0
 40
1.0
 40
1.0
 40
1.0
 10
52.8260863697
 20
43.6898991507
 30
0.0
 10
52.8428536622
 20
43.7461203439
 30
0.0
 10
52.8653333571
 20
43.8619809388
 30
0.0
 10
52.8652941208
 20
44.0391782645
 30
0.0
 10
52.8309308291
 20
44.2132342169
 30
0.0
 10
52.7642278748
 20
44.377589628
 30
0.0
 10
52.6831509739
 20
44.5012265352
 30
0.0
 10
52.6052843508
 20
44.5892113482
 30
0.0
 10
52.5195256773
 20
44.6690273014
 30
0.0
 10
52.3985466078
 20
44.7521429837
 30
0.0
 10
52.2639951249
 20
44.8101863449
 30
0.0
 10
52.1514855134
 20
44.8397872253
 30
0.0
 10
52.0369636063
 20
44.8580806057
 30
0.0
 10
51.8914154809
 20
44.8596169533
 30
0.0
 10
51.7202313189
 20
44.8264332092
 30
0.0
 10
51.5588920805
 20
44.7601768019
 30
0.0
 10
51.4139209173
 20
44.6627907657
 30
0.0
 10
51.2905171188
 20
44.5385955226
 30
0.0
 10
51.1938936809
 20
44.3919373199
 30
0.0
 10
51.1494887865
 20
44.283362117
 30
0.0
 10
51.1327748808
 20
44.227353232
 30
0.0
  0
SPLINE
  5
33D
100
AcDbEntity
  8
0
100
AcDbSpline
 62
7
  6
BYLAYER
 70
0
 71
3
 72
24
 73
20
 74
0
 42
0.0000001
 43
0.0000001
 44
0.0000000001
 40
0.0
 40
0.0
 40
0.0
 40
0.0
 40
0.0323097785
 40
0.0650291156
 40
0.1313788782
 40
0.1985467263
 40
0.2658518448
 40
0.3325982346
 40
0.3981660109
 40
0.4620720322
 40
0.5240799163
 40
0.5842097991
 40
0.6428063037
 40
0.7004632115
 40
0.7579598188
 40
0.8161041074
 40
0.8755743145
 40
0.9368267371
 40
1.0
 40
1.0
 40
1.0
 40
1.0
 10
43.4480683703
 20
44.3203162515
 30
0.0
 10
43.4394867616
 20
44.2934090928
 30
0.0
 10
43.4247585392
 20
44.2384958306
 30
0.0
 10
43.4050776231
 20
44.1253215654
 30
0.0
 10
43.3990704574
 20
43.9794733905
 30
0.0
 10
43.4218989656
 20
43.8047705241
 30
0.0
 10
43.4732469316
 20
43.6358434658
 30
0.0
 10
43.5517580891
 20
43.4792494785
 30
0.0
 10
43.6540106843
 20
43.3406238075
 30
0.0
 10
43.7767200177
 20
43.2256049597
 30
0.0
 10
43.9149552301
 20
43.1382174486
 30
0.0
 10
44.0638861702
 20
43.0825167353
 30
0.0
 10
44.2176072
 20
43.0603198262
 30
0.0
 10
44.3701310732
 20
43.0733738571
 30
0.0
 10
44.5153371932
 20
43.1206243038
 30
0.0
 10
44.6471468008
 20
43.2007132754
 30
0.0
 10
44.7607194499
 20
43.3097373017
 30
0.0
 10
44.8513284424
 20
43.4436002605
 30
0.0
 10
44.8940179323
 20
43.5444196976
 30
0.0
 10
44.9107929081
 20
43.5969362182
 30
0.0
  0
SPLINE
  5
33E
100
AcDbEntity
  8
0
100
AcDbSpline
 62
7
  6
BYLAYER
 70
0
 71
3
 72
24
 73
20
 74
0
 42
0.0000001
 43
0.0000001
 44
0.0000000001
 40
0.0
 40
0.0
 40
0.0
 40
0.0
 40
0.0323097708
 40
0.0650291
 40
0.131378846
 40
0.1985466966
 40
0.2658518177
 40
0.3325982099
 40
0.3981659887
 40
0.4620720123
 40
0.5240798987
 40
0.5842097837
 40
0.6428062905
 40
0.7004632004
 40
0.7579598099
 40
0.8161041006
 40
0.8755743099
 40
0.9368267348
 40
1.0
 40
1.0
 40
1.0
 40
1.0
 10
44.9107929081
 20
43.5969362182
 30
0.0
 10
44.9193745115
 20
43.6238433703
 30
0.0
 10
44.9341027247
 20
43.6787566187
 30
0.0
 10
44.9537836281
 20
43.7919308532
 30
0.0
 10
44.9597907893
 20
43.937779003
 30
0.0
 10
44.9369622832
 20
44.112481853
 30
0.0
 10
44.8856143173
 20
44.2814089113
 30
0.0
 10
44.8071031598
 20
44.4380028987
 30
0.0
 10
44.7048505646
 20
44.5766285696
 30
0.0
 10
44.5821412311
 20
44.6916474174
 30
0.0
 10
44.4439060188
 20
44.7790349285
 30
0.0
 10
44.2949750786
 20
44.8347356418
 30
0.0
 10
44.1412540489
 20
44.856932551
 30
0.0
 10
43.9887301757
 20
44.8438785201
 30
0.0
 10
43.8435240556
 20
44.7966280734
 30
0.0
 10
43.711714448
 20
44.7165391017
 30
0.0
 10
43.5981417989
 20
44.6075150754
 30
0.0
 10
43.5075328064
 20
44.4736521166
 30
0.0
 10
43.4648433165
 20
44.3728326795
 30
0.0
 10
43.4480683408
 20
44.320316159
 30
0.0
  0
ENDSEC
  0
SECTION
  2
OBJECTS
  0
DICTIONARY
  5
C
100
AcDbDictionary
280
0
281
1
  3
ACAD_GROUP
350
D
  3
ACAD_MLINESTYLE
350
17
  3
ACAD_LAYOUT
350
1A
  3
ACAD_PLOTSETTINGS
350
19
  3
ACAD_PLOTSTYLENAME
350
E
  0
DICTIONARY
  5
D
102
{ACAD_REACTORS
330
C
102
}
100
AcDbDictionary
280
0
281
1
  0
ACDBDICTIONARYWDFLT
  5
E
102
{ACAD_REACTORS
330
C
102
}
100
AcDbDictionary
281
1
  3
Normal
350
F
100
AcDbDictionaryWithDefault
340
F
  0
DICTIONARY
  5
17
102
{ACAD_REACTORS
330
C
102
}
100
AcDbDictionary
280
0
281
1
  3
Standard
350
18
  0
DICTIONARY
  5
19
102
{ACAD_REACTORS
330
C
102
}
100
AcDbDictionary
281
1
  0
DICTIONARY
  5
1A
102
{ACAD_REACTORS
330
C
102
}
100
AcDbDictionary
281
1
  3
Model
350
33F
  3
Layout1
350
340
  0
ACDBPLACEHOLDER
  5
F
102
{ACAD_REACTORS
330
E
102
}
  0
MLINESTYLE
  5
18
102
{ACAD_REACTORS
330
17
102
}
100
AcDbMlineStyle
  2
STANDARD
 70
0
  3

 62
256
 51
90.0
 52
90.0
 71
2
 49
0.5
 62
256
  6
BYLAYER
 49
-0.5
 62
256
  6
BYLAYER
  0
LAYOUT
  5
33F
102
{ACAD_REACTORS
330
1A
102
}
100
AcDbPlotSettings
  1

  2
none_device
  4

  6

 40
0.0
 41
0.0
 42
0.0
 43
0.0
 44
210.0
 45
297.0
 46
0.0
 47
0.0
 48
0.0
 49
0.0
140
0.0
141
0.0
142
1.0
143
1.0
 70
1024
 72
1
 73
0
 74
0
  7

 75
0
147
1.0
148
0.0
149
0.0
100
AcDbLayout
  1
Model
 70
0
 71
0
 10
0.0
 20
0.0
 11
210.0
 21
297.0
 12
0.0
 22
0.0
 32
0.0
 14
0.0
 24
0.0
 34
0.0
 15
0.0
 25
0.0
 35
0.0
146
0.0
 13
0.0
 23
0.0
 33
0.0
 16
1.0
 26
0.0
 36
0.0
 17
0.0
 27
1.0
 37
0.0
 76
0
330
210
345
0
346
0
  0
LAYOUT
  5
340
102
{ACAD_REACTORS
330
1A
102
}
100
AcDbPlotSettings
  1

  2
none_device
  4

  6

 40
0.0
 41
0.0
 42
0.0
 43
0.0
 44
210.0
 45
297.0
 46
0.0
 47
0.0
 48
0.0
 49
0.0
140
0.0
141
0.0
142
1.0
143
1.0
 70
0
 72
1
 73
0
 74
0
  7

 75
0
147
1.0
148
0.0
149
0.0
100
AcDbLayout
  1
Layout1
 70
0
 71
1
 10
0.0
 20
0.0
 11
210.0
 21
297.0
 12
0.0
 22
0.0
 32
0.0
 14
0.0
 24
0.0
 34
0.0
 15
0.0
 25
0.0
 35
0.0
146
0.0
 13
0.0
 23
0.0
 33
0.0
 16
1.0
 26
0.0
 36
0.0
 17
0.0
 27
1.0
 37
0.0
 76
0
330
211
345
0
346
0
  0
ENDSEC
  0
EOF
