999
DXF file: C:\Users\sesa63760\Documents\7-Dev\_Creo\CAD\MCADFD0001429_3D-CAD\drw0001_4.dxf
999
Pro/ENGINEER 2019471 by Parametric Technology Corporation
  0
SECTION
  2
HEADER
  9
$ACADVER
  1
AC1024
  9
$DWGCODEPAGE
  3
ANSI_1252
  9
$EXTMAX
 10
70.9004723494
 20
100.2735251799
 30
0.0
  9
$EXTMIN
 10
0.0
 20
0.0
 30
0.0
  9
$LIMMIN
 10
0.0
 20
0.0
  9
$LIMMAX
 10
70.9004723494
 20
100.2735251799
  9
$VIEWCTR
 10
35.4502361747
 20
50.1367625899
  9
$VIEWSIZE
 40
100.2735251799
  9
$CLAYER
  8
0
  9
$LTSCALE
 40
6.536348308
  9
$CELTYPE
  6
BYLAYER
  9
$DIMSCALE
 40
1.0
  9
$DIMASZ
 40
0.8440532423
  9
$DIMEXO
 40
1.0
  9
$DIMDLI
 40
4.5160224674
  9
$DIMEXE
 40
1.0
  9
$DIMCEN
 40
1.0695842686
  9
$DIMLFAC
 40
1.0
  9
$DIMBLK
  1
_FILLED
  9
$DIMALT
 70
0
  9
$DIMALTF
 40
0.0393700787
  9
$DIMTXT
 40
1.1816745392
  9
$DIMTOL
 70
1
  9
$DIMLIM
 70
0
  9
$DIMTFAC
 40
1.0
  9
$DIMTP
 40
0.01
  9
$DIMTM
 40
0.01
  9
$DIMGAP
 40
0.625
  9
$DIMDSEP
 70
46
  9
$AUNITS
 70
0
  9
$PDMODE
 70
3
  9
$PDSIZE
 40
0.3125
  9
$HANDSEED
  5
2B0
  9
$TILEMODE
 70
1
  9
$MEASUREMENT
 70
1
  9
$INSUNITS
 70
4
  0
ENDSEC
  0
SECTION
  2
CLASSES
  0
CLASS
  1
ACDBDICTIONARYWDFLT
  2
AcDbDictionaryWithDefault
  3
AutoCAD 2000
 90
0
 91
1
280
0
281
0
  0
CLASS
  1
ACDBPLACEHOLDER
  2
AcDbPlaceHolder
  3
AutoCAD 2000
 90
0
 91
1
280
0
281
0
  0
CLASS
  1
LAYOUT
  2
AcDbLayout
  3
AutoCAD 2000
 90
0
 91
0
280
0
281
0
  0
ENDSEC
  0
SECTION
  2
TABLES
  0
TABLE
  2
VPORT
  5
8
100
AcDbSymbolTable
 70
2
  0
VPORT
  5
1F4
100
AcDbSymbolTableRecord
100
AcDbViewportTableRecord
  2
*ACTIVE
 70
0
 10
0.0
 20
0.0
 11
1.0
 21
1.0
 12
35.4502361747
 22
50.1367625899
 13
0.0
 23
0.0
 14
1.0
 24
1.0
 15
0.0
 25
0.0
 16
0.0
 26
0.0
 36
1.0
 17
0.0
 27
0.0
 37
0.0
 40
100.2735251799
 41
0.7070707071
 42
50.0
 43
0.0
 44
0.0
 50
0.0
 51
0.0
 71
0
 72
100
 73
1
 74
1
 75
0
 76
0
 77
0
 78
0
  0
ENDTAB
  0
TABLE
  2
LTYPE
  5
5
100
AcDbSymbolTable
 70
6
  0
LTYPE
  5
14
100
AcDbSymbolTableRecord
100
AcDbLinetypeTableRecord
  2
BYBLOCK
 70
0
  3

 72
65
 73
0
 40
0.0
  0
LTYPE
  5
15
100
AcDbSymbolTableRecord
100
AcDbLinetypeTableRecord
  2
BYLAYER
 70
0
  3

 72
65
 73
0
 40
0.0
  0
LTYPE
  5
16
100
AcDbSymbolTableRecord
100
AcDbLinetypeTableRecord
  2
CONTINUOUS
 70
64
  3
Solid line
 72
65
 73
0
 40
0.0
  0
LTYPE
  5
1F5
100
AcDbSymbolTableRecord
100
AcDbLinetypeTableRecord
  2
CENTER
 70
64
  3
____ _ ____ _ ____ _ ____ _ ____ _ ____ _ ____
 72
65
 73
4
 40
0.6
 49
0.375
 74
0
 49
-0.075
 74
0
 49
0.075
 74
0
 49
-0.075
 74
0
  0
LTYPE
  5
1F6
100
AcDbSymbolTableRecord
100
AcDbLinetypeTableRecord
  2
HIDDEN
 70
64
  3
- - - - - - - - - - - - - - - - - - - -
 72
65
 73
2
 40
0.2
 49
0.1
 74
0
 49
-0.1
 74
0
  0
LTYPE
  5
1F7
100
AcDbSymbolTableRecord
100
AcDbLinetypeTableRecord
  2
PHANTOM
 70
64
  3
_____ _ _ _____ _ _ _____ _ _ _____
 72
65
 73
6
 40
0.8
 49
0.45
 74
0
 49
-0.05
 74
0
 49
0.1
 74
0
 49
-0.05
 74
0
 49
0.1
 74
0
 49
-0.05
 74
0
  0
LTYPE
  5
1F8
100
AcDbSymbolTableRecord
100
AcDbLinetypeTableRecord
  2
DOT
 70
64
  3
. . . . . . . . . . . . . . . . . . . .
 72
65
 73
2
 40
0.2
 49
0.1
 74
0
 49
-0.1
 74
0
  0
LTYPE
  5
1F9
100
AcDbSymbolTableRecord
100
AcDbLinetypeTableRecord
  2
DASHED
 70
64
  3
- - - - - - - - - - - - - - - - - - - -
 72
65
 73
2
 40
0.2
 49
0.1
 74
0
 49
-0.1
 74
0
  0
ENDTAB
  0
TABLE
  2
LAYER
  5
2
100
AcDbSymbolTable
 70
36
  0
LAYER
  5
10
100
AcDbSymbolTableRecord
100
AcDbLayerTableRecord
  2
0
 70
0
 62
7
  6
CONTINUOUS
370
-3
390
F
  0
LAYER
  5
1FA
100
AcDbSymbolTableRecord
100
AcDbLayerTableRecord
  2
DEFAULT_1
 70
0
 62
7
  6
CENTER
370
-3
390
F
  0
LAYER
  5
1FB
100
AcDbSymbolTableRecord
100
AcDbLayerTableRecord
  2
DEFAULT_2
 70
0
 62
8
  6
HIDDEN
370
-3
390
F
  0
LAYER
  5
1FC
100
AcDbSymbolTableRecord
100
AcDbLayerTableRecord
  2
DEFAULT_3
 70
0
 62
7
  6
PHANTOM
370
-3
390
F
  0
LAYER
  5
1FD
100
AcDbSymbolTableRecord
100
AcDbLayerTableRecord
  2
00_COMPONENTS
 70
0
 62
7
  6
CONTINUOUS
370
-3
390
F
  0
LAYER
  5
1FE
100
AcDbSymbolTableRecord
100
AcDbLayerTableRecord
  2
01_1_DEFAULT_DATUMS
 70
0
 62
7
  6
CONTINUOUS
370
-3
390
F
  0
LAYER
  5
1FF
100
AcDbSymbolTableRecord
100
AcDbLayerTableRecord
  2
01_PLANES
 70
0
 62
7
  6
CONTINUOUS
370
-3
390
F
  0
LAYER
  5
200
100
AcDbSymbolTableRecord
100
AcDbLayerTableRecord
  2
02_COORD_SYS
 70
0
 62
7
  6
CONTINUOUS
370
-3
390
F
  0
LAYER
  5
201
100
AcDbSymbolTableRecord
100
AcDbLayerTableRecord
  2
03_AXES
 70
0
 62
7
  6
CONTINUOUS
370
-3
390
F
  0
LAYER
  5
202
100
AcDbSymbolTableRecord
100
AcDbLayerTableRecord
  2
04_POINTS
 70
0
 62
7
  6
CONTINUOUS
370
-3
390
F
  0
LAYER
  5
203
100
AcDbSymbolTableRecord
100
AcDbLayerTableRecord
  2
05_CURVES
 70
0
 62
7
  6
CONTINUOUS
370
-3
390
F
  0
LAYER
  5
204
100
AcDbSymbolTableRecord
100
AcDbLayerTableRecord
  2
06_SURFS
 70
0
 62
7
  6
CONTINUOUS
370
-3
390
F
  0
LAYER
  5
205
100
AcDbSymbolTableRecord
100
AcDbLayerTableRecord
  2
07_COSMETICS
 70
0
 62
7
  6
CONTINUOUS
370
-3
390
F
  0
LAYER
  5
206
100
AcDbSymbolTableRecord
100
AcDbLayerTableRecord
  2
10_NOTES
 70
0
 62
7
  6
CONTINUOUS
370
-3
390
F
  0
LAYER
  5
207
100
AcDbSymbolTableRecord
100
AcDbLayerTableRecord
  2
11_NOTES_PUB
 70
0
 62
7
  6
CONTINUOUS
370
-3
390
F
  0
LAYER
  5
208
100
AcDbSymbolTableRecord
100
AcDbLayerTableRecord
  2
13_REF_GTOL
 70
0
 62
7
  6
CONTINUOUS
370
-3
390
F
  0
LAYER
  5
209
100
AcDbSymbolTableRecord
100
AcDbLayerTableRecord
  2
16_MISC
 70
0
 62
7
  6
CONTINUOUS
370
-3
390
F
  0
LAYER
  5
20A
100
AcDbSymbolTableRecord
100
AcDbLayerTableRecord
  2
17_NO_PRINT
 70
0
 62
7
  6
CONTINUOUS
370
-3
390
F
  0
LAYER
  5
20B
100
AcDbSymbolTableRecord
100
AcDbLayerTableRecord
  2
18_DATUM_CAMS_JOINTS
 70
0
 62
7
  6
CONTINUOUS
370
-3
390
F
  0
LAYER
  5
20C
100
AcDbSymbolTableRecord
100
AcDbLayerTableRecord
  2
19_DATUM_FUNCTIONAL
 70
0
 62
7
  6
CONTINUOUS
370
-3
390
F
  0
LAYER
  5
20D
100
AcDbSymbolTableRecord
100
AcDbLayerTableRecord
  2
20_DATUM_KINEMATIC_SCHEME
 70
0
 62
7
  6
CONTINUOUS
370
-3
390
F
  0
ENDTAB
  0
TABLE
  2
STYLE
  5
3
100
AcDbSymbolTable
 70
1
  0
STYLE
  5
11
100
AcDbSymbolTableRecord
100
AcDbTextStyleTableRecord
  2
STANDARD
 70
0
 40
0.0
 41
0.8
 50
0.0
 71
0
 42
0.2
  3
txt
  4

  0
STYLE
  5
20E
100
AcDbSymbolTableRecord
100
AcDbTextStyleTableRecord
  2
TEXTSTYLE_1
 70
0
 40
0.0
 41
0.8
 50
0.0
 71
0
 42
0.2
  3
gdt
  4

  0
ENDTAB
  0
TABLE
  2
VIEW
  5
6
100
AcDbSymbolTable
 70
0
  0
ENDTAB
  0
TABLE
  2
UCS
  5
7
100
AcDbSymbolTable
 70
0
  0
ENDTAB
  0
TABLE
  2
APPID
  5
9
100
AcDbSymbolTable
 70
1
  0
APPID
  5
20F
100
AcDbSymbolTableRecord
100
AcDbRegAppTableRecord
  2
ACAD
 70
0
  0
ENDTAB
  0
TABLE
  2
BLOCK_RECORD
  5
1
100
AcDbSymbolTable
 70
0
  0
BLOCK_RECORD
  5
210
100
AcDbSymbolTableRecord
100
AcDbBlockTableRecord
  2
*Model_Space
  0
BLOCK_RECORD
  5
211
100
AcDbSymbolTableRecord
100
AcDbBlockTableRecord
  2
*Paper_Space
  0
BLOCK_RECORD
  5
212
100
AcDbSymbolTableRecord
100
AcDbBlockTableRecord
  2
_FILLED
  0
ENDTAB
  0
TABLE
  2
DIMSTYLE
  5
A
100
AcDbSymbolTable
 70
1
100
AcDbDimStyleTable
 71
0
  0
DIMSTYLE
105
213
100
AcDbSymbolTableRecord
100
AcDbDimStyleTableRecord
  2
STANDARD
 70
0
  3

  4

 40
1.0
 41
0.8440532423
 42
1.0
 43
0.38
 44
1.0
 45
0.0
 46
0.0
 47
0.01
 48
0.01
140
1.1816745392
141
0.09
142
0.0
143
25.4
144
1.0
145
0.0
146
1.0
147
0.625
 71
1
 72
0
 73
0
 74
0
 75
0
 76
0
 77
1
 78
8
 79
2
170
0
171
1
172
0
173
0
174
0
175
0
176
0
177
0
178
0
270
2
179
2
271
2
272
2
273
2
274
2
275
0
280
0
281
0
282
0
283
1
284
8
285
0
286
0
287
3
288
0
340
11
278
46
341
212
342
212
343
212
344
212
  0
ENDTAB
  0
ENDSEC
  0
SECTION
  2
BLOCKS
  0
BLOCK
  5
20
100
AcDbEntity
  8
0
100
AcDbBlockBegin
  2
*Model_Space
 70
0
 10
0.0
 20
0.0
 30
0.0
  3
*Model_Space
  1

  0
ENDBLK
  5
21
100
AcDbEntity
  8
0
100
AcDbBlockEnd
  0
BLOCK
  5
1C
100
AcDbEntity
  8
0
100
AcDbBlockBegin
  2
*Paper_Space
 70
0
 10
0.0
 20
0.0
 30
0.0
  3
*Paper_Space
  1

  0
ENDBLK
  5
1D
100
AcDbEntity
  8
0
100
AcDbBlockEnd
  0
BLOCK
  5
214
100
AcDbEntity
  8
0
100
AcDbBlockBegin
  2
_FILLED
 70
64
 10
0.0
 20
0.0
  3
_FILLED
  1

  0
SOLID
  5
215
100
AcDbEntity
  8
0
  6
BYBLOCK
 62
0
100
AcDbTrace
 10
0.0
 20
0.0
 11
-1.0
 21
0.25
 12
-1.0
 22
-0.25
 13
-1.0
 23
-0.25
  0
ENDBLK
  5
216
100
AcDbEntity
  8
0
  6
BYBLOCK
 62
0
100
AcDbBlockEnd
  0
ENDSEC
  0
SECTION
  2
ENTITIES
  0
LINE
  5
217
100
AcDbEntity
  8
0
100
AcDbLine
 62
7
  6
CONTINUOUS
 10
29.8207397718
 20
7.1799280576
 11
38.4207397718
 21
7.1799280576
  0
LINE
  5
218
100
AcDbEntity
  8
0
100
AcDbLine
 62
7
  6
CONTINUOUS
 10
29.8207397718
 20
10.1446518771
 11
38.4207397718
 21
10.1446518771
  0
LINE
  5
219
100
AcDbEntity
  8
0
100
AcDbLine
 62
7
  6
CONTINUOUS
 10
29.8207397718
 20
11.1799280576
 11
31.0682606332
 21
11.1799280576
  0
LINE
  5
21A
100
AcDbEntity
  8
0
100
AcDbLine
 62
7
  6
CONTINUOUS
 10
37.1732189104
 20
11.1799280576
 11
38.4207397718
 21
11.1799280576
  0
LINE
  5
21B
100
AcDbEntity
  8
0
100
AcDbLine
 62
7
  6
CONTINUOUS
 10
29.8207397718
 20
11.6799280576
 11
30.8207397718
 21
11.6799280576
  0
LINE
  5
21C
100
AcDbEntity
  8
0
100
AcDbLine
 62
7
  6
CONTINUOUS
 10
37.4207397718
 20
11.6799280576
 11
41.4825455844
 21
11.6799280576
  0
LINE
  5
21D
100
AcDbEntity
  8
0
100
AcDbLine
 62
7
  6
CONTINUOUS
 10
38.4207397718
 20
13.4459198766
 11
40.5007397718
 21
13.5549280576
  0
LINE
  5
21E
100
AcDbEntity
  8
0
100
AcDbLine
 62
7
  6
CONTINUOUS
 10
30.8207397718
 20
14.1446518771
 11
37.4207397718
 21
14.1446518771
  0
LINE
  5
21F
100
AcDbEntity
  8
0
100
AcDbLine
 62
7
  6
CONTINUOUS
 10
41.4207397718
 20
14.3049280576
 11
40.7189530931
 21
14.3049280576
  0
LINE
  5
220
100
AcDbEntity
  8
0
100
AcDbLine
 62
7
  6
CONTINUOUS
 10
30.8207397718
 20
15.1799280576
 11
31.0378275189
 21
15.1799280576
  0
LINE
  5
221
100
AcDbEntity
  8
0
100
AcDbLine
 62
7
  6
CONTINUOUS
 10
37.2036520247
 20
15.1799280576
 11
37.4207397718
 21
15.1799280576
  0
LINE
  5
222
100
AcDbEntity
  8
0
100
AcDbLine
 62
7
  6
CONTINUOUS
 10
33.6207397718
 20
18.1458976119
 11
34.6207397718
 21
18.1458976119
  0
LINE
  5
223
100
AcDbEntity
  8
0
100
AcDbLine
 62
7
  6
CONTINUOUS
 10
33.6207397718
 20
22.6464877835
 11
34.6207397718
 21
22.6464877835
  0
LINE
  5
224
100
AcDbEntity
  8
0
100
AcDbLine
 62
7
  6
CONTINUOUS
 10
33.6207397718
 20
22.9053068286
 11
34.6207397718
 21
22.9053068286
  0
LINE
  5
225
100
AcDbEntity
  8
0
100
AcDbLine
 62
7
  6
CONTINUOUS
 10
36.5885323077
 20
23.2260432793
 11
34.6207397718
 21
23.2260432793
  0
LINE
  5
226
100
AcDbEntity
  8
0
100
AcDbLine
 62
7
  6
CONTINUOUS
 10
31.652947236
 20
23.2260432793
 11
33.6207397718
 21
23.2260432793
  0
LINE
  5
227
100
AcDbEntity
  8
0
100
AcDbLine
 62
7
  6
CONTINUOUS
 10
31.8120592094
 20
23.4848623244
 11
33.6207397718
 21
23.4848623244
  0
LINE
  5
228
100
AcDbEntity
  8
0
100
AcDbLine
 62
7
  6
CONTINUOUS
 10
34.6207397718
 20
23.4848623244
 11
36.4294355261
 21
23.4848623244
  0
LINE
  5
229
100
AcDbEntity
  8
0
100
AcDbLine
 62
7
  6
CONTINUOUS
 10
36.1912100885
 20
23.9987839403
 11
34.6207397718
 21
23.9987839403
  0
LINE
  5
22A
100
AcDbEntity
  8
0
100
AcDbLine
 62
7
  6
CONTINUOUS
 10
32.050248765
 20
23.9987839403
 11
33.6207397718
 21
23.9987839403
  0
LINE
  5
22B
100
AcDbEntity
  8
0
100
AcDbLine
 62
7
  6
CONTINUOUS
 10
42.9207397718
 20
91.6049280576
 11
40.9207397718
 21
89.6049280576
  0
LINE
  5
22C
100
AcDbEntity
  8
0
100
AcDbLine
 62
7
  6
CONTINUOUS
 10
34.6207397718
 20
24.5783394361
 11
33.6207397718
 21
24.5783394361
  0
LINE
  5
22D
100
AcDbEntity
  8
0
100
AcDbLine
 62
7
  6
CONTINUOUS
 10
38.4207397718
 20
29.6799280576
 11
29.8207397718
 21
29.6799280576
  0
LINE
  5
22E
100
AcDbEntity
  8
0
100
AcDbLine
 62
7
  6
CONTINUOUS
 10
41.4207397718
 20
14.3049280576
 11
42.4207397718
 21
13.3049280576
  0
LINE
  5
22F
100
AcDbEntity
  8
0
100
AcDbLine
 62
7
  6
CONTINUOUS
 10
29.8207397718
 20
31.6799280576
 11
38.4207397718
 21
31.6799280576
  0
LINE
  5
230
100
AcDbEntity
  8
0
100
AcDbLine
 62
7
  6
CONTINUOUS
 10
37.1732189104
 20
11.1799280576
 11
36.6707397718
 21
12.020592041
  0
LINE
  5
231
100
AcDbEntity
  8
0
100
AcDbLine
 62
7
  6
CONTINUOUS
 10
37.2036520247
 20
15.1799280576
 11
36.6707397718
 21
16.0715076336
  0
LINE
  5
232
100
AcDbEntity
  8
0
100
AcDbLine
 62
7
  6
CONTINUOUS
 10
38.4207397718
 20
34.4522878651
 11
30.3707397718
 21
34.4522878651
  0
LINE
  5
233
100
AcDbEntity
  8
0
100
AcDbLine
 62
7
  6
CONTINUOUS
 10
38.4207397718
 20
35.5718200958
 11
41.8707397718
 21
35.5718200958
  0
LINE
  5
234
100
AcDbEntity
  8
0
100
AcDbLine
 62
7
  6
CONTINUOUS
 10
41.8707397718
 20
36.0984651113
 11
38.4207397718
 21
36.0984651113
  0
LINE
  5
235
100
AcDbEntity
  8
0
100
AcDbLine
 62
7
  6
CONTINUOUS
 10
38.4207397718
 20
37.0012851379
 11
41.8707397718
 21
37.0012851379
  0
LINE
  5
236
100
AcDbEntity
  8
0
100
AcDbLine
 62
7
  6
CONTINUOUS
 10
38.4207397718
 20
37.4616879538
 11
30.3707397718
 21
37.4616879538
  0
LINE
  5
237
100
AcDbEntity
  8
0
100
AcDbLine
 62
7
  6
CONTINUOUS
 10
30.3707397718
 20
37.4733742012
 11
29.8207397718
 21
37.4733742012
  0
LINE
  5
238
100
AcDbEntity
  8
0
100
AcDbLine
 62
7
  6
CONTINUOUS
 10
38.4207397718
 20
37.5279301535
 11
41.8707397718
 21
37.5279301535
  0
LINE
  5
239
100
AcDbEntity
  8
0
100
AcDbLine
 62
7
  6
CONTINUOUS
 10
41.8707397718
 20
37.9231882968
 11
38.4207397718
 21
37.9231882968
  0
LINE
  5
23A
100
AcDbEntity
  8
0
100
AcDbLine
 62
7
  6
CONTINUOUS
 10
37.4207397718
 20
19.9637422914
 11
36.6707397718
 21
21.3086054997
  0
LINE
  5
23B
100
AcDbEntity
  8
0
100
AcDbLine
 62
7
  6
CONTINUOUS
 10
38.4207397718
 20
38.7137045835
 11
41.8707397718
 21
38.7137045835
  0
LINE
  5
23C
100
AcDbEntity
  8
0
100
AcDbLine
 62
7
  6
CONTINUOUS
 10
38.4207397718
 20
39.1089627268
 11
41.8707397718
 21
39.1089627268
  0
LINE
  5
23D
100
AcDbEntity
  8
0
100
AcDbLine
 62
7
  6
CONTINUOUS
 10
38.4207397718
 20
40.1125539355
 11
33.8207397718
 21
40.1125539355
  0
LINE
  5
23E
100
AcDbEntity
  8
0
100
AcDbLine
 62
7
  6
CONTINUOUS
 10
30.3707397718
 20
40.1125539355
 11
31.8207397718
 21
40.1125539355
  0
LINE
  5
23F
100
AcDbEntity
  8
0
100
AcDbLine
 62
7
  6
CONTINUOUS
 10
33.8207397718
 20
40.7462851993
 11
31.8207397718
 21
40.7462851993
  0
LINE
  5
240
100
AcDbEntity
  8
0
100
AcDbLine
 62
7
  6
CONTINUOUS
 10
29.8207397718
 20
92.4799280576
 11
29.8207397718
 21
7.1799280576
  0
LINE
  5
241
100
AcDbEntity
  8
0
100
AcDbLine
 62
7
  6
CONTINUOUS
 10
30.3707397718
 20
40.1125539355
 11
30.3707397718
 21
34.4522878651
  0
LINE
  5
242
100
AcDbEntity
  8
0
100
AcDbLine
 62
7
  6
CONTINUOUS
 10
30.8207397718
 20
7.1799280576
 11
30.8207397718
 21
7.2477636597
  0
LINE
  5
243
100
AcDbEntity
  8
0
100
AcDbLine
 62
7
  6
CONTINUOUS
 10
30.8207397718
 20
11.1799280576
 11
30.8207397718
 21
11.2789762103
  0
LINE
  5
244
100
AcDbEntity
  8
0
100
AcDbLine
 62
7
  6
CONTINUOUS
 10
30.8207397718
 20
11.6799280576
 11
30.8207397718
 21
19.9454090539
  0
LINE
  5
245
100
AcDbEntity
  8
0
100
AcDbLine
 62
7
  6
CONTINUOUS
 10
41.0207397718
 20
62.9618514659
 11
41.4207397718
 21
63.286315296
  0
LINE
  5
246
100
AcDbEntity
  8
0
100
AcDbLine
 62
7
  6
CONTINUOUS
 10
31.5707397718
 20
16.9639621342
 11
31.5707397718
 21
16.0715076336
  0
LINE
  5
247
100
AcDbEntity
  8
0
100
AcDbLine
 62
7
  6
CONTINUOUS
 10
31.5707397718
 20
12.8044879893
 11
31.5707397718
 21
12.020592041
  0
LINE
  5
248
100
AcDbEntity
  8
0
100
AcDbLine
 62
7
  6
CONTINUOUS
 10
31.5707397718
 20
21.2902722622
 11
31.5707397718
 21
22.585363314
  0
LINE
  5
249
100
AcDbEntity
  8
0
100
AcDbLine
 62
7
  6
CONTINUOUS
 10
31.7207397718
 20
49.6864819139
 11
31.7207397718
 21
50.1046048935
  0
LINE
  5
24A
100
AcDbEntity
  8
0
100
AcDbLine
 62
7
  6
CONTINUOUS
 10
31.8207397718
 20
40.7462851993
 11
31.8207397718
 21
40.1125539355
  0
LINE
  5
24B
100
AcDbEntity
  8
0
100
AcDbLine
 62
7
  6
CONTINUOUS
 10
33.2207397718
 20
64.0120613438
 11
33.2207397718
 21
62.5746355293
  0
LINE
  5
24C
100
AcDbEntity
  8
0
100
AcDbLine
 62
7
  6
CONTINUOUS
 10
33.2207397718
 20
62.5634573451
 11
33.2207397718
 21
59.1782850802
  0
LINE
  5
24D
100
AcDbEntity
  8
0
100
AcDbLine
 62
7
  6
CONTINUOUS
 10
33.6207397718
 20
24.5783394361
 11
33.6207397718
 21
23.9987839403
  0
LINE
  5
24E
100
AcDbEntity
  8
0
100
AcDbLine
 62
7
  6
CONTINUOUS
 10
33.6207397718
 20
18.2000422302
 11
33.6207397718
 21
18.1458976119
  0
LINE
  5
24F
100
AcDbEntity
  8
0
100
AcDbLine
 62
7
  6
CONTINUOUS
 10
33.6207397718
 20
22.6464877835
 11
33.6207397718
 21
23.4848623244
  0
LINE
  5
250
100
AcDbEntity
  8
0
100
AcDbLine
 62
7
  6
CONTINUOUS
 10
33.8207397718
 20
40.1125539355
 11
33.8207397718
 21
40.7462851993
  0
LINE
  5
251
100
AcDbEntity
  8
0
100
AcDbLine
 62
7
  6
CONTINUOUS
 10
41.0207397718
 20
62.5354943533
 11
41.4207397718
 21
63.0121957904
  0
LINE
  5
252
100
AcDbEntity
  8
0
100
AcDbLine
 62
7
  6
CONTINUOUS
 10
33.9207397718
 20
49.6864819139
 11
33.9207397718
 21
50.1046048935
  0
LINE
  5
253
100
AcDbEntity
  8
0
100
AcDbLine
 62
7
  6
CONTINUOUS
 10
34.6207397718
 20
18.1458976119
 11
34.6207397718
 21
18.2053178186
  0
LINE
  5
254
100
AcDbEntity
  8
0
100
AcDbLine
 62
7
  6
CONTINUOUS
 10
34.6207397718
 20
22.6464877835
 11
34.6207397718
 21
23.4848623244
  0
LINE
  5
255
100
AcDbEntity
  8
0
100
AcDbLine
 62
7
  6
CONTINUOUS
 10
34.6207397718
 20
23.9987839403
 11
34.6207397718
 21
24.5783394361
  0
LINE
  5
256
100
AcDbEntity
  8
0
100
AcDbLine
 62
7
  6
CONTINUOUS
 10
35.7207397718
 20
52.8799367232
 11
35.7207397718
 21
59.1782850802
  0
LINE
  5
257
100
AcDbEntity
  8
0
100
AcDbLine
 62
7
  6
CONTINUOUS
 10
35.9207397718
 20
59.1782850802
 11
35.9207397718
 21
52.8799367232
  0
LINE
  5
258
100
AcDbEntity
  8
0
100
AcDbLine
 62
7
  6
CONTINUOUS
 10
36.6707397718
 20
22.585363314
 11
36.6707397718
 21
21.3086054997
  0
LINE
  5
259
100
AcDbEntity
  8
0
100
AcDbLine
 62
7
  6
CONTINUOUS
 10
36.6707397718
 20
12.020592041
 11
36.6707397718
 21
12.8043981201
  0
LINE
  5
25A
100
AcDbEntity
  8
0
100
AcDbLine
 62
7
  6
CONTINUOUS
 10
36.6707397718
 20
16.0715076336
 11
36.6707397718
 21
16.9646631325
  0
LINE
  5
25B
100
AcDbEntity
  8
0
100
AcDbLine
 62
7
  6
CONTINUOUS
 10
29.8207397718
 20
49.6864819139
 11
31.7207397718
 21
49.6864819139
  0
LINE
  5
25C
100
AcDbEntity
  8
0
100
AcDbLine
 62
7
  6
CONTINUOUS
 10
33.9207397718
 20
49.6864819139
 11
38.4207397718
 21
49.6864819139
  0
LINE
  5
25D
100
AcDbEntity
  8
0
100
AcDbLine
 62
7
  6
CONTINUOUS
 10
31.7207397718
 20
49.861070376
 11
33.9207397718
 21
49.861070376
  0
LINE
  5
25E
100
AcDbEntity
  8
0
100
AcDbLine
 62
7
  6
CONTINUOUS
 10
31.7207397718
 20
50.1046048935
 11
33.9207397718
 21
50.1046048935
  0
LINE
  5
25F
100
AcDbEntity
  8
0
100
AcDbLine
 62
7
  6
CONTINUOUS
 10
37.2207397718
 20
52.8799367232
 11
37.2207397718
 21
62.5634573451
  0
LINE
  5
260
100
AcDbEntity
  8
0
100
AcDbLine
 62
7
  6
CONTINUOUS
 10
37.2207397718
 20
62.5746355293
 11
37.2207397718
 21
64.0120613438
  0
LINE
  5
261
100
AcDbEntity
  8
0
100
AcDbLine
 62
7
  6
CONTINUOUS
 10
37.4207397718
 20
11.2789762103
 11
37.4207397718
 21
11.1799280576
  0
LINE
  5
262
100
AcDbEntity
  8
0
100
AcDbLine
 62
7
  6
CONTINUOUS
 10
37.4207397718
 20
7.2477636597
 11
37.4207397718
 21
7.1799280576
  0
LINE
  5
263
100
AcDbEntity
  8
0
100
AcDbLine
 62
7
  6
CONTINUOUS
 10
37.4207397718
 20
11.6799280576
 11
37.4207397718
 21
19.9637422914
  0
LINE
  5
264
100
AcDbEntity
  8
0
100
AcDbLine
 62
7
  6
CONTINUOUS
 10
37.4207397718
 20
52.8799367232
 11
37.4207397718
 21
62.3843783362
  0
LINE
  5
265
100
AcDbEntity
  8
0
100
AcDbLine
 62
7
  6
CONTINUOUS
 10
38.4207397718
 20
7.1799280576
 11
38.4207397718
 21
92.4799280576
  0
LINE
  5
266
100
AcDbEntity
  8
0
100
AcDbLine
 62
7
  6
CONTINUOUS
 10
35.7207397718
 20
52.8799367232
 11
37.4207397718
 21
52.8799367232
  0
LINE
  5
267
100
AcDbEntity
  8
0
100
AcDbLine
 62
7
  6
CONTINUOUS
 10
41.0207397718
 20
66.8813863229
 11
41.0207397718
 21
62.5354943533
  0
LINE
  5
268
100
AcDbEntity
  8
0
100
AcDbLine
 62
7
  6
CONTINUOUS
 10
41.4207397718
 20
63.0121957904
 11
41.4207397718
 21
66.4180039506
  0
LINE
  5
269
100
AcDbEntity
  8
0
100
AcDbLine
 62
7
  6
CONTINUOUS
 10
41.8707397718
 20
35.5718200958
 11
41.8707397718
 21
39.1089627268
  0
LINE
  5
26A
100
AcDbEntity
  8
0
100
AcDbLine
 62
7
  6
CONTINUOUS
 10
40.5882284353
 20
89.6049280576
 11
40.5007397718
 21
90.6049280576
  0
LINE
  5
26B
100
AcDbEntity
  8
0
100
AcDbLine
 62
7
  6
CONTINUOUS
 10
42.5207397718
 20
69.6118469677
 11
42.5207397718
 21
71.1372894273
  0
LINE
  5
26C
100
AcDbEntity
  8
0
100
AcDbLine
 62
7
  6
CONTINUOUS
 10
40.5007397718
 20
13.5549280576
 11
40.5445673338
 21
14.055879383
  0
LINE
  5
26D
100
AcDbEntity
  8
0
100
AcDbLine
 62
7
  6
CONTINUOUS
 10
31.5707397718
 20
21.2902722622
 11
30.8207397718
 21
19.9454090539
  0
LINE
  5
26E
100
AcDbEntity
  8
0
100
AcDbLine
 62
7
  6
CONTINUOUS
 10
33.2207397718
 20
59.1782850802
 11
37.2207397718
 21
59.1782850802
  0
LINE
  5
26F
100
AcDbEntity
  8
0
100
AcDbLine
 62
7
  6
CONTINUOUS
 10
37.2207397718
 20
59.9525460149
 11
33.2207397718
 21
59.9525460149
  0
LINE
  5
270
100
AcDbEntity
  8
0
100
AcDbLine
 62
7
  6
CONTINUOUS
 10
33.2207397718
 20
60.1906436916
 11
37.2207397718
 21
60.1906436916
  0
LINE
  5
271
100
AcDbEntity
  8
0
100
AcDbLine
 62
7
  6
CONTINUOUS
 10
37.2207397718
 20
60.2640296222
 11
33.2207397718
 21
60.2640296222
  0
LINE
  5
272
100
AcDbEntity
  8
0
100
AcDbLine
 62
7
  6
CONTINUOUS
 10
33.2207397718
 20
60.5173270103
 11
37.2207397718
 21
60.5173270103
  0
LINE
  5
273
100
AcDbEntity
  8
0
100
AcDbLine
 62
7
  6
CONTINUOUS
 10
37.2207397718
 20
60.6954286987
 11
33.2207397718
 21
60.6954286987
  0
LINE
  5
274
100
AcDbEntity
  8
0
100
AcDbLine
 62
7
  6
CONTINUOUS
 10
33.2207397718
 20
61.0010027406
 11
37.2207397718
 21
61.0010027406
  0
LINE
  5
275
100
AcDbEntity
  8
0
100
AcDbLine
 62
7
  6
CONTINUOUS
 10
37.2207397718
 20
61.0565492194
 11
33.2207397718
 21
61.0565492194
  0
LINE
  5
276
100
AcDbEntity
  8
0
100
AcDbLine
 62
7
  6
CONTINUOUS
 10
33.2207397718
 20
61.3039840831
 11
37.2207397718
 21
61.3039840831
  0
LINE
  5
277
100
AcDbEntity
  8
0
100
AcDbLine
 62
7
  6
CONTINUOUS
 10
37.2207397718
 20
61.4978325648
 11
33.2207397718
 21
61.4978325648
  0
LINE
  5
278
100
AcDbEntity
  8
0
100
AcDbLine
 62
7
  6
CONTINUOUS
 10
31.5707397718
 20
16.0715076336
 11
31.0378275189
 21
15.1799280576
  0
LINE
  5
279
100
AcDbEntity
  8
0
100
AcDbLine
 62
7
  6
CONTINUOUS
 10
33.2207397718
 20
61.795147637
 11
37.2207397718
 21
61.795147637
  0
LINE
  5
27A
100
AcDbEntity
  8
0
100
AcDbLine
 62
7
  6
CONTINUOUS
 10
37.2207397718
 20
61.8286323452
 11
33.2207397718
 21
61.8286323452
  0
LINE
  5
27B
100
AcDbEntity
  8
0
100
AcDbLine
 62
7
  6
CONTINUOUS
 10
33.2207397718
 20
62.0683960822
 11
37.2207397718
 21
62.0683960822
  0
LINE
  5
27C
100
AcDbEntity
  8
0
100
AcDbLine
 62
7
  6
CONTINUOUS
 10
37.2207397718
 20
62.2765744397
 11
33.2207397718
 21
62.2765744397
  0
LINE
  5
27D
100
AcDbEntity
  8
0
100
AcDbLine
 62
7
  6
CONTINUOUS
 10
37.4207397718
 20
62.3577152473
 11
37.2207397718
 21
62.3577152473
  0
LINE
  5
27E
100
AcDbEntity
  8
0
100
AcDbLine
 62
7
  6
CONTINUOUS
 10
37.2207397718
 20
62.3843783362
 11
37.4207397718
 21
62.3843783362
  0
LINE
  5
27F
100
AcDbEntity
  8
0
100
AcDbLine
 62
7
  6
CONTINUOUS
 10
38.4207397718
 20
62.5354943533
 11
41.0207397718
 21
62.5354943533
  0
LINE
  5
280
100
AcDbEntity
  8
0
100
AcDbLine
 62
7
  6
CONTINUOUS
 10
33.2207397718
 20
62.5634573451
 11
37.2207397718
 21
62.5634573451
  0
LINE
  5
281
100
AcDbEntity
  8
0
100
AcDbLine
 62
7
  6
CONTINUOUS
 10
37.2207397718
 20
62.5746355293
 11
33.2207397718
 21
62.5746355293
  0
LINE
  5
282
100
AcDbEntity
  8
0
100
AcDbLine
 62
7
  6
CONTINUOUS
 10
33.2207397718
 20
62.8049756086
 11
37.2207397718
 21
62.8049756086
  0
LINE
  5
283
100
AcDbEntity
  8
0
100
AcDbLine
 62
7
  6
CONTINUOUS
 10
38.4207397718
 20
62.9618514659
 11
41.0207397718
 21
62.9618514659
  0
LINE
  5
284
100
AcDbEntity
  8
0
100
AcDbLine
 62
7
  6
CONTINUOUS
 10
37.2207397718
 20
63.0259621814
 11
33.2207397718
 21
63.0259621814
  0
LINE
  5
285
100
AcDbEntity
  8
0
100
AcDbLine
 62
7
  6
CONTINUOUS
 10
33.2207397718
 20
63.3003159759
 11
37.2207397718
 21
63.3003159759
  0
LINE
  5
286
100
AcDbEntity
  8
0
100
AcDbLine
 62
7
  6
CONTINUOUS
 10
33.2207397718
 20
63.5083387025
 11
37.2207397718
 21
63.5083387025
  0
LINE
  5
287
100
AcDbEntity
  8
0
100
AcDbLine
 62
7
  6
CONTINUOUS
 10
37.2207397718
 20
63.8359526016
 11
33.2207397718
 21
63.8359526016
  0
LINE
  5
288
100
AcDbEntity
  8
0
100
AcDbLine
 62
7
  6
CONTINUOUS
 10
33.2207397718
 20
64.0120613438
 11
37.2207397718
 21
64.0120613438
  0
LINE
  5
289
100
AcDbEntity
  8
0
100
AcDbLine
 62
7
  6
CONTINUOUS
 10
41.0207397718
 20
66.8813863229
 11
41.4207397718
 21
66.4180039506
  0
LINE
  5
28A
100
AcDbEntity
  8
0
100
AcDbLine
 62
7
  6
CONTINUOUS
 10
31.5707397718
 20
12.020592041
 11
31.0682606332
 21
11.1799280576
  0
LINE
  5
28B
100
AcDbEntity
  8
0
100
AcDbLine
 62
7
  6
CONTINUOUS
 10
38.4207397718
 20
66.8813863229
 11
41.0207397718
 21
66.8813863229
  0
LINE
  5
28C
100
AcDbEntity
  8
0
100
AcDbLine
 62
7
  6
CONTINUOUS
 10
38.4207397718
 20
69.6118469677
 11
42.5207397718
 21
69.6118469677
  0
LINE
  5
28D
100
AcDbEntity
  8
0
100
AcDbLine
 62
7
  6
CONTINUOUS
 10
38.4207397718
 20
69.6410763824
 11
42.5207397718
 21
69.6410763824
  0
LINE
  5
28E
100
AcDbEntity
  8
0
100
AcDbLine
 62
7
  6
CONTINUOUS
 10
38.4207397718
 20
69.8522945261
 11
42.5207397718
 21
69.8522945261
  0
LINE
  5
28F
100
AcDbEntity
  8
0
100
AcDbLine
 62
7
  6
CONTINUOUS
 10
38.4207397718
 20
71.1372894273
 11
42.5207397718
 21
71.1372894273
  0
LINE
  5
290
100
AcDbEntity
  8
0
100
AcDbLine
 62
7
  6
CONTINUOUS
 10
38.4207397718
 20
72.4799280576
 11
29.8207397718
 21
72.4799280576
  0
LINE
  5
291
100
AcDbEntity
  8
0
100
AcDbLine
 62
7
  6
CONTINUOUS
 10
42.4207397718
 20
13.3049280576
 11
41.4825455844
 21
11.6799280576
  0
LINE
  5
292
100
AcDbEntity
  8
0
100
AcDbLine
 62
7
  6
CONTINUOUS
 10
40.5445673338
 20
14.055879383
 11
40.7189530931
 21
14.3049280576
  0
LINE
  5
293
100
AcDbEntity
  8
0
100
AcDbLine
 62
7
  6
CONTINUOUS
 10
29.8207397718
 20
74.4799280576
 11
38.4207397718
 21
74.4799280576
  0
LINE
  5
294
100
AcDbEntity
  8
0
100
AcDbLine
 62
7
  6
CONTINUOUS
 10
42.4155582863
 20
92.4799280576
 11
42.9207397718
 21
91.6049280576
  0
LINE
  5
295
100
AcDbEntity
  8
0
100
AcDbLine
 62
7
  6
CONTINUOUS
 10
40.5882284353
 20
89.6049280576
 11
40.9207397718
 21
89.6049280576
  0
LINE
  5
296
100
AcDbEntity
  8
0
100
AcDbLine
 62
7
  6
CONTINUOUS
 10
29.8207397718
 20
92.4799280576
 11
42.4155582863
 21
92.4799280576
  0
LINE
  5
297
100
AcDbEntity
  8
0
100
AcDbLine
 62
7
  6
CONTINUOUS
 10
40.5007397718
 20
90.6049280576
 11
38.4207397718
 21
90.7139362385
  0
ARC
  5
298
100
AcDbEntity
  8
0
100
AcDbCircle
 62
7
  6
CONTINUOUS
 10
34.1207397718
 20
22.585363314
 40
2.55
100
AcDbArc
 50
0.0
 51
180.0
  0
ARC
  5
299
100
AcDbEntity
  8
0
100
AcDbCircle
 62
7
  6
CONTINUOUS
 10
33.9835520266
 20
23.6194538946
 40
2.3636468517
100
AcDbArc
 50
192.894761738
 51
203.1284340953
  0
ARC
  5
29A
100
AcDbEntity
  8
0
100
AcDbCircle
 62
7
  6
CONTINUOUS
 10
34.2599549531
 20
23.6187946493
 40
2.3615234372
100
AcDbArc
 50
336.8668518606
 51
347.1101187611
  0
ARC
  5
29B
100
AcDbEntity
  8
0
100
AcDbCircle
 62
7
  6
CONTINUOUS
 10
32.7426794021
 20
11.1352091058
 40
1.9336524297
100
AcDbArc
 50
164.6843253498
 51
167.0176581397
  0
ARC
  5
29C
100
AcDbEntity
  8
0
100
AcDbCircle
 62
7
  6
CONTINUOUS
 10
35.5259821921
 20
11.1420618659
 40
1.9056257745
100
AcDbArc
 50
12.9645809747
 51
15.3325906436
  0
SPLINE
  5
29D
100
AcDbEntity
  8
0
100
AcDbSpline
 62
7
  6
CONTINUOUS
 70
0
 71
3
 72
11
 73
7
 74
0
 42
0.0000001
 43
0.0000001
 44
0.0000000001
 40
0.0
 40
0.0
 40
0.0
 40
0.0
 40
0.2515984187
 40
0.5025314801
 40
0.7520972097
 40
1.0
 40
1.0
 40
1.0
 40
1.0
 10
34.1207397718
 20
12.5598803062
 30
0.0
 10
33.9462764409
 20
12.5598803062
 30
0.0
 10
33.5967894322
 20
12.5953464306
 30
0.0
 10
33.0958969227
 20
12.7526766557
 30
0.0
 10
32.6396154648
 20
13.007274529
 30
0.0
 10
32.3772738757
 20
13.2358076473
 30
0.0
 10
32.2602569306
 20
13.3617317844
 30
0.0
  0
SPLINE
  5
29E
100
AcDbEntity
  8
0
100
AcDbSpline
 62
7
  6
CONTINUOUS
 70
0
 71
3
 72
11
 73
7
 74
0
 42
0.0000001
 43
0.0000001
 44
0.0000000001
 40
0.0
 40
0.0
 40
0.0
 40
0.0
 40
0.247902612
 40
0.4974682885
 40
0.748401431
 40
1.0
 40
1.0
 40
1.0
 40
1.0
 10
35.98128216
 20
13.3617958615
 30
0.0
 10
35.8642649056
 20
13.2358623668
 30
0.0
 10
35.6019193573
 20
13.0073114861
 30
0.0
 10
35.1456241978
 20
12.7526928967
 30
0.0
 10
34.644712375
 20
12.5953494637
 30
0.0
 10
34.2952105032
 20
12.5598803062
 30
0.0
 10
34.1207397718
 20
12.5598803062
 30
0.0
  0
SPLINE
  5
29F
100
AcDbEntity
  8
0
100
AcDbSpline
 62
7
  6
CONTINUOUS
 70
0
 71
3
 72
11
 73
7
 74
0
 42
0.0000001
 43
0.0000001
 44
0.0000000001
 40
0.0
 40
0.0
 40
0.0
 40
0.0
 40
0.251814363
 40
0.5028263492
 40
0.7523364148
 40
1.0
 40
1.0
 40
1.0
 40
1.0
 10
34.1207397718
 20
16.6970088724
 30
0.0
 10
33.9338983592
 20
16.6970088724
 30
0.0
 10
33.5595506691
 20
16.7376914656
 30
0.0
 10
33.0266767548
 20
16.9179177777
 30
0.0
 10
32.5483504369
 20
17.208207657
 30
0.0
 10
32.280580232
 20
17.4672492507
 30
0.0
 10
32.1637861401
 20
17.6091205705
 30
0.0
  0
SPLINE
  5
2A0
100
AcDbEntity
  8
0
100
AcDbSpline
 62
7
  6
CONTINUOUS
 70
0
 71
3
 72
11
 73
7
 74
0
 42
0.0000001
 43
0.0000001
 44
0.0000000001
 40
0.0
 40
0.0
 40
0.0
 40
0.0
 40
0.2476552101
 40
0.497163196
 40
0.7481780493
 40
1.0
 40
1.0
 40
1.0
 40
1.0
 10
36.0809227469
 20
17.6130516786
 30
0.0
 10
35.9641652271
 20
17.4706182128
 30
0.0
 10
35.6962509564
 20
17.2104946481
 30
0.0
 10
35.2171953986
 20
16.9189280943
 30
0.0
 10
34.6832229463
 20
16.7378793391
 30
0.0
 10
34.3080112091
 20
16.6970088724
 30
0.0
 10
34.1207397718
 20
16.6970088724
 30
0.0
  0
SPLINE
  5
2A1
100
AcDbEntity
  8
0
100
AcDbSpline
 62
7
  6
CONTINUOUS
 70
0
 71
3
 72
25
 73
21
 74
0
 42
0.0000001
 43
0.0000001
 44
0.0000000001
 40
0.0
 40
0.0
 40
0.0
 40
0.0
 40
0.0094984401
 40
0.0228585505
 40
0.0611795522
 40
0.1145573919
 40
0.1808213383
 40
0.255935558
 40
0.3357601185
 40
0.4175613564
 40
0.5000000563
 40
0.58243876
 40
0.6642399934
 40
0.7440645452
 40
0.8191787752
 40
0.8854426664
 40
0.9388204285
 40
0.9771414482
 40
0.9905015649
 40
1.0
 40
1.0
 40
1.0
 40
1.0
 10
37.4207397718
 20
7.2477636597
 30
0.0
 10
37.4207397718
 20
7.2766628434
 30
0.0
 10
37.4161750402
 20
7.346200327
 30
0.0
 10
37.3878020448
 20
7.5303510676
 30
0.0
 10
37.2944952003
 20
7.8380074419
 30
0.0
 10
37.0766332971
 20
8.2691878875
 30
0.0
 10
36.7147880312
 20
8.7430117014
 30
0.0
 10
36.2087554136
 20
9.1932542609
 30
0.0
 10
35.5823888543
 20
9.5588975418
 30
0.0
 10
34.8727010595
 20
9.7955074906
 30
0.0
 10
34.1207392523
 20
9.8772218266
 30
0.0
 10
33.3687774887
 20
9.7955072372
 30
0.0
 10
32.6590897881
 20
9.5588970981
 30
0.0
 10
32.032723351
 20
9.1932536311
 30
0.0
 10
31.5266909523
 20
8.7430110731
 30
0.0
 10
31.1648460273
 20
8.2691874667
 30
0.0
 10
30.9469843439
 20
7.8380073242
 30
0.0
 10
30.8536774621
 20
7.5303511216
 30
0.0
 10
30.8253045183
 20
7.346200314
 30
0.0
 10
30.8207397718
 20
7.276662828
 30
0.0
 10
30.8207397718
 20
7.2477636597
 30
0.0
  0
SPLINE
  5
2A2
100
AcDbEntity
  8
0
100
AcDbSpline
 62
7
  6
CONTINUOUS
 70
0
 71
3
 72
9
 73
5
 74
0
 42
0.0000001
 43
0.0000001
 44
0.0000000001
 40
0.0
 40
0.0
 40
0.0
 40
0.0
 40
0.4172374709
 40
1.0
 40
1.0
 40
1.0
 40
1.0
 10
37.4207397718
 20
11.2789762103
 30
0.0
 10
37.4207397718
 20
11.3197931477
 30
0.0
 10
37.4133609933
 20
11.417599256
 30
0.0
 10
37.3958130657
 20
11.5140280652
 30
0.0
 10
37.3830315428
 20
11.5695864866
 30
0.0
  0
SPLINE
  5
2A3
100
AcDbEntity
  8
0
100
AcDbSpline
 62
7
  6
CONTINUOUS
 70
0
 71
3
 72
23
 73
19
 74
0
 42
0.0000001
 43
0.0000001
 44
0.0000000001
 40
0.0
 40
0.0
 40
0.0
 40
0.0
 40
0.0402577119
 40
0.0907700078
 40
0.1499423892
 40
0.2153570912
 40
0.284551493
 40
0.3556920196
 40
0.4276929686
 40
0.4999995896
 40
0.5723062175
 40
0.6443072049
 40
0.7154477474
 40
0.7846421933
 40
0.8500570336
 40
0.9092296225
 40
0.9597420541
 40
1.0
 40
1.0
 40
1.0
 40
1.0
 10
37.363781348
 20
11.6459505985
 30
0.0
 10
37.3338545358
 20
11.755291423
 30
0.0
 10
37.2457463201
 20
11.9963959573
 30
0.0
 10
37.0429983374
 20
12.3685162805
 30
0.0
 10
36.7425053405
 20
12.7620109717
 30
0.0
 10
36.3457568692
 20
13.1400288716
 30
0.0
 10
35.8653627855
 20
13.4685502989
 30
0.0
 10
35.3202594794
 20
13.7210976509
 30
0.0
 10
34.7314943228
 20
13.8795991772
 30
0.0
 10
34.1207471502
 20
13.9336053943
 30
0.0
 10
33.5099996389
 20
13.8796017714
 30
0.0
 10
32.9212336496
 20
13.7211026161
 30
0.0
 10
32.376129139
 20
13.4685572128
 30
0.0
 10
31.8957332306
 20
13.1400374629
 30
0.0
 10
31.4989825113
 20
12.7620203198
 30
0.0
 10
31.1984871507
 20
12.3685257069
 30
0.0
 10
30.9957371493
 20
11.9964046252
 30
0.0
 10
30.9076276827
 20
11.7552994411
 30
0.0
 10
30.8777002643
 20
11.6459580994
 30
0.0
  0
SPLINE
  5
2A4
100
AcDbEntity
  8
0
100
AcDbSpline
 62
7
  6
CONTINUOUS
 70
0
 71
3
 72
9
 73
5
 74
0
 42
0.0000001
 43
0.0000001
 44
0.0000000001
 40
0.0
 40
0.0
 40
0.0
 40
0.0
 40
0.5827655021
 40
1.0
 40
1.0
 40
1.0
 40
1.0
 10
30.8584523916
 20
11.5696055743
 30
0.0
 10
30.8456693436
 20
11.5140433061
 30
0.0
 10
30.8281194423
 20
11.4176081977
 30
0.0
 10
30.8207397718
 20
11.3197955774
 30
0.0
 10
30.8207397718
 20
11.2789762103
 30
0.0
  0
SPLINE
  5
2A5
100
AcDbEntity
  8
0
100
AcDbSpline
 62
7
  6
CONTINUOUS
 70
0
 71
3
 72
23
 73
19
 74
0
 42
0.0000001
 43
0.0000001
 44
0.0000000001
 40
0.0
 40
0.0
 40
0.0
 40
0.0
 40
0.0614235752
 40
0.1230389567
 40
0.1849313324
 40
0.2472248242
 40
0.3099368864
 40
0.3730393952
 40
0.4364375796
 40
0.4999941137
 40
0.5635503756
 40
0.6269482011
 40
0.6900513475
 40
0.7527657535
 40
0.8150624036
 40
0.8769576066
 40
0.9385757926
 40
1.0
 40
1.0
 40
1.0
 40
1.0
 10
37.4207397718
 20
15.0760713567
 30
0.0
 10
37.4207397718
 20
15.2843986944
 30
0.0
 10
37.3779927578
 20
15.7029242993
 30
0.0
 10
37.1886370184
 20
16.3051735211
 30
0.0
 10
36.8810451291
 20
16.8600702043
 30
0.0
 10
36.4676616375
 20
17.3460470031
 30
0.0
 10
35.9642538762
 20
17.7445628477
 30
0.0
 10
35.3903413325
 20
18.040486315
 30
0.0
 10
34.7679164047
 20
18.222609688
 30
0.0
 10
34.1208024656
 20
18.2840925725
 30
0.0
 10
33.4736876136
 20
18.2226306498
 30
0.0
 10
32.8512572636
 20
18.0405276284
 30
0.0
 10
32.2773226368
 20
17.7446275705
 30
0.0
 10
31.7738853164
 20
17.3461139782
 30
0.0
 10
31.3604729592
 20
16.8601242053
 30
0.0
 10
31.0528560493
 20
16.3052067294
 30
0.0
 10
30.8634895511
 20
15.7029380228
 30
0.0
 10
30.8207397718
 20
15.2844008386
 30
0.0
 10
30.8207397718
 20
15.0760713567
 30
0.0
  0
SPLINE
  5
2A6
100
AcDbEntity
  8
0
100
AcDbSpline
 62
7
  6
CONTINUOUS
 70
0
 71
3
 72
11
 73
7
 74
0
 42
0.0000001
 43
0.0000001
 44
0.0000000001
 40
0.0
 40
0.0
 40
0.0
 40
0.0
 40
0.246655468
 40
0.4957845829
 40
0.7471826194
 40
1.0
 40
1.0
 40
1.0
 40
1.0
 10
36.4315985847
 20
22.6910248062
 30
0.0
 10
36.3378401572
 20
22.4715299211
 30
0.0
 10
36.0803788268
 20
22.0566331952
 30
0.0
 10
35.5282088406
 20
21.5744230122
 30
0.0
 10
34.8561503321
 20
21.2675696742
 30
0.0
 10
34.3653835265
 20
21.1975990441
 30
0.0
 10
34.1207397718
 20
21.1975990441
 30
0.0
  0
SPLINE
  5
2A7
100
AcDbEntity
  8
0
100
AcDbSpline
 62
7
  6
CONTINUOUS
 70
0
 71
3
 72
11
 73
7
 74
0
 42
0.0000001
 43
0.0000001
 44
0.0000000001
 40
0.0
 40
0.0
 40
0.0
 40
0.0
 40
0.2528173302
 40
0.5042153514
 40
0.753344478
 40
1.0
 40
1.0
 40
1.0
 40
1.0
 10
34.1207397718
 20
21.1975990441
 30
0.0
 10
33.8760957165
 20
21.1975990441
 30
0.0
 10
33.3853282688
 20
21.267569856
 30
0.0
 10
32.7132689852
 20
21.5744239829
 30
0.0
 10
32.1610986386
 20
22.0566354631
 30
0.0
 10
31.9036374904
 20
22.4715332416
 30
0.0
 10
31.8098793209
 20
22.6910286644
 30
0.0
  0
SPLINE
  5
2A8
100
AcDbEntity
  8
0
100
AcDbSpline
 62
7
  6
CONTINUOUS
 70
0
 71
3
 72
11
 73
7
 74
0
 42
0.0000001
 43
0.0000001
 44
0.0000000001
 40
0.0
 40
0.0
 40
0.0
 40
0.0
 40
0.2474172852
 40
0.4968380761
 40
0.7479727245
 40
1.0
 40
1.0
 40
1.0
 40
1.0
 10
32.0267593715
 20
13.2067626459
 30
0.0
 10
32.1438151993
 20
13.0441050526
 30
0.0
 10
32.4199855883
 20
12.7450676554
 30
0.0
 10
32.9296894053
 20
12.4074958784
 30
0.0
 10
33.5074873597
 20
12.1969023367
 30
0.0
 10
33.916607355
 20
12.1492373517
 30
0.0
 10
34.1207397718
 20
12.1492373517
 30
0.0
  0
SPLINE
  5
2A9
100
AcDbEntity
  8
0
100
AcDbSpline
 62
7
  6
CONTINUOUS
 70
0
 71
3
 72
15
 73
11
 74
0
 42
0.0000001
 43
0.0000001
 44
0.0000000001
 40
0.0
 40
0.0
 40
0.0
 40
0.0
 40
0.1228820628
 40
0.2461696167
 40
0.3700531366
 40
0.4947288142
 40
0.620189476
 40
0.7463259106
 40
0.8730739277
 40
1.0
 40
1.0
 40
1.0
 40
1.0
 10
31.5829138594
 20
22.5957725501
 30
0.0
 10
31.5982178216
 20
22.4453319507
 30
0.0
 10
31.6576989316
 20
22.1460950229
 30
0.0
 10
31.8302929763
 20
21.7218768022
 30
0.0
 10
32.0803979375
 20
21.3354686124
 30
0.0
 10
32.3992734581
 20
20.9999455896
 30
0.0
 10
32.776248328
 20
20.7266820797
 30
0.0
 10
33.19852716
 20
20.5245996902
 30
0.0
 10
33.6516779427
 20
20.4007674817
 30
0.0
 10
33.9645462544
 20
20.3728456174
 30
0.0
 10
34.1207397718
 20
20.3728456174
 30
0.0
  0
SPLINE
  5
2AA
100
AcDbEntity
  8
0
100
AcDbSpline
 62
7
  6
CONTINUOUS
 70
0
 71
3
 72
15
 73
11
 74
0
 42
0.0000001
 43
0.0000001
 44
0.0000000001
 40
0.0
 40
0.0
 40
0.0
 40
0.0
 40
0.1269260414
 40
0.2536740004
 40
0.3798104161
 40
0.5052710726
 40
0.6299467558
 40
0.7538302884
 40
0.8771178921
 40
1.0
 40
1.0
 40
1.0
 40
1.0
 10
34.1207397718
 20
20.3728456174
 30
0.0
 10
34.2769332935
 20
20.3728456174
 30
0.0
 10
34.5898015854
 20
20.4007674361
 30
0.0
 10
35.042952353
 20
20.5245996866
 30
0.0
 10
35.4652312055
 20
20.7266820809
 30
0.0
 10
35.8422061772
 20
20.9999456319
 30
0.0
 10
36.1610817555
 20
21.3354687983
 30
0.0
 10
36.4111867885
 20
21.7218771926
 30
0.0
 10
36.5837808075
 20
22.1460957061
 30
0.0
 10
36.6432618631
 20
22.4453328491
 30
0.0
 10
36.6585657816
 20
22.59577355
 30
0.0
  0
SPLINE
  5
2AB
100
AcDbEntity
  8
0
100
AcDbSpline
 62
7
  6
CONTINUOUS
 70
0
 71
3
 72
11
 73
7
 74
0
 42
0.0000001
 43
0.0000001
 44
0.0000000001
 40
0.0
 40
0.0
 40
0.0
 40
0.0
 40
0.252027174
 40
0.5031617511
 40
0.7525825928
 40
1.0
 40
1.0
 40
1.0
 40
1.0
 10
34.1207397718
 20
12.1492373517
 30
0.0
 10
34.3248686131
 20
12.1492373517
 30
0.0
 10
34.7339814168
 20
12.1969006228
 30
0.0
 10
35.3117704939
 20
12.4074869253
 30
0.0
 10
35.8214690197
 20
12.745047536
 30
0.0
 10
36.0976390456
 20
13.0440757478
 30
0.0
 10
36.2146957017
 20
13.2067286416
 30
0.0
  0
SPLINE
  5
2AC
100
AcDbEntity
  8
0
100
AcDbSpline
 62
7
  6
CONTINUOUS
 70
0
 71
3
 72
11
 73
7
 74
0
 42
0.0000001
 43
0.0000001
 44
0.0000000001
 40
0.0
 40
0.0
 40
0.0
 40
0.0
 40
0.2472323031
 40
0.4965990982
 40
0.7477929988
 40
1.0
 40
1.0
 40
1.0
 40
1.0
 10
31.9591603816
 20
17.3918976436
 30
0.0
 10
32.0734070653
 20
17.2156352564
 30
0.0
 10
32.3497834853
 20
16.8897458617
 30
0.0
 10
32.874138069
 20
16.5197649423
 30
0.0
 10
33.4769415486
 20
16.287979988
 30
0.0
 10
33.9064638918
 20
16.2354503253
 30
0.0
 10
34.1207397718
 20
16.2354503253
 30
0.0
  0
SPLINE
  5
2AD
100
AcDbEntity
  8
0
100
AcDbSpline
 62
7
  6
CONTINUOUS
 70
0
 71
3
 72
11
 73
7
 74
0
 42
0.0000001
 43
0.0000001
 44
0.0000000001
 40
0.0
 40
0.0
 40
0.0
 40
0.0
 40
0.2522122291
 40
0.5034078513
 40
0.7527730204
 40
1.0
 40
1.0
 40
1.0
 40
1.0
 10
34.1207397718
 20
16.2354503253
 30
0.0
 10
34.3353129976
 20
16.2354503253
 30
0.0
 10
34.7654336557
 20
16.2881262686
 30
0.0
 10
35.3689624521
 20
16.5205471965
 30
0.0
 10
35.8937240303
 20
16.8914970324
 30
0.0
 10
36.1700799268
 20
17.21818261
 30
0.0
 10
36.2842271586
 20
17.3948459609
 30
0.0
  0
ENDSEC
  0
SECTION
  2
OBJECTS
  0
DICTIONARY
  5
C
100
AcDbDictionary
280
0
281
1
  3
ACAD_GROUP
350
D
  3
ACAD_MLINESTYLE
350
17
  3
ACAD_LAYOUT
350
1A
  3
ACAD_PLOTSETTINGS
350
19
  3
ACAD_PLOTSTYLENAME
350
E
  0
DICTIONARY
  5
D
102
{ACAD_REACTORS
330
C
102
}
100
AcDbDictionary
280
0
281
1
  0
ACDBDICTIONARYWDFLT
  5
E
102
{ACAD_REACTORS
330
C
102
}
100
AcDbDictionary
281
1
  3
Normal
350
F
100
AcDbDictionaryWithDefault
340
F
  0
DICTIONARY
  5
17
102
{ACAD_REACTORS
330
C
102
}
100
AcDbDictionary
280
0
281
1
  3
Standard
350
18
  0
DICTIONARY
  5
19
102
{ACAD_REACTORS
330
C
102
}
100
AcDbDictionary
281
1
  0
DICTIONARY
  5
1A
102
{ACAD_REACTORS
330
C
102
}
100
AcDbDictionary
281
1
  3
Model
350
2AE
  3
Layout1
350
2AF
  0
ACDBPLACEHOLDER
  5
F
102
{ACAD_REACTORS
330
E
102
}
  0
MLINESTYLE
  5
18
102
{ACAD_REACTORS
330
17
102
}
100
AcDbMlineStyle
  2
STANDARD
 70
0
  3

 62
256
 51
90.0
 52
90.0
 71
2
 49
0.5
 62
256
  6
BYLAYER
 49
-0.5
 62
256
  6
BYLAYER
  0
LAYOUT
  5
2AE
102
{ACAD_REACTORS
330
1A
102
}
100
AcDbPlotSettings
  1

  2
none_device
  4

  6

 40
0.0
 41
0.0
 42
0.0
 43
0.0
 44
210.0
 45
297.0
 46
0.0
 47
0.0
 48
0.0
 49
0.0
140
0.0
141
0.0
142
1.0
143
1.0
 70
1024
 72
1
 73
0
 74
0
  7

 75
0
147
1.0
148
0.0
149
0.0
100
AcDbLayout
  1
Model
 70
0
 71
0
 10
0.0
 20
0.0
 11
210.0
 21
297.0
 12
0.0
 22
0.0
 32
0.0
 14
0.0
 24
0.0
 34
0.0
 15
0.0
 25
0.0
 35
0.0
146
0.0
 13
0.0
 23
0.0
 33
0.0
 16
1.0
 26
0.0
 36
0.0
 17
0.0
 27
1.0
 37
0.0
 76
0
330
210
345
0
346
0
  0
LAYOUT
  5
2AF
102
{ACAD_REACTORS
330
1A
102
}
100
AcDbPlotSettings
  1

  2
none_device
  4

  6

 40
0.0
 41
0.0
 42
0.0
 43
0.0
 44
210.0
 45
297.0
 46
0.0
 47
0.0
 48
0.0
 49
0.0
140
0.0
141
0.0
142
1.0
143
1.0
 70
0
 72
1
 73
0
 74
0
  7

 75
0
147
1.0
148
0.0
149
0.0
100
AcDbLayout
  1
Layout1
 70
0
 71
1
 10
0.0
 20
0.0
 11
210.0
 21
297.0
 12
0.0
 22
0.0
 32
0.0
 14
0.0
 24
0.0
 34
0.0
 15
0.0
 25
0.0
 35
0.0
146
0.0
 13
0.0
 23
0.0
 33
0.0
 16
1.0
 26
0.0
 36
0.0
 17
0.0
 27
1.0
 37
0.0
 76
0
330
211
345
0
346
0
  0
ENDSEC
  0
EOF
