999
DXF file: C:\Users\sesa63760\Dev\_Creo\CAD\MCADID0005460_3D-CAD\drw0001_4.dxf
999
Pro/ENGINEER 2019471 by Parametric Technology Corporation
  0
SECTION
  2
HEADER
  9
$ACADVER
  1
AC1024
  9
$DWGCODEPAGE
  3
ANSI_1252
  9
$EXTMAX
 10
38.484078192
 20
54.4274820144
 30
0.0
  9
$EXTMIN
 10
0.0
 20
0.0
 30
0.0
  9
$LIMMIN
 10
0.0
 20
0.0
  9
$LIMMAX
 10
38.484078192
 20
54.4274820144
  9
$VIEWCTR
 10
19.242039096
 20
27.2137410072
  9
$VIEWSIZE
 40
54.4274820144
  9
$CLAYER
  8
0
  9
$LTSCALE
 40
3.5478654943
  9
$CELTYPE
  6
BYLAYER
  9
$DIMSCALE
 40
1.0
  9
$DIMASZ
 40
0.458143788
  9
$DIMEXO
 40
1.0
  9
$DIMDLI
 40
2.4512525233
  9
$DIMEXE
 40
1.0
  9
$DIMCEN
 40
0.5805598082
  9
$DIMLFAC
 40
1.0
  9
$DIMBLK
  1
_FILLED
  9
$DIMALT
 70
0
  9
$DIMALTF
 40
0.0393700787
  9
$DIMTXT
 40
0.6414013032
  9
$DIMTOL
 70
1
  9
$DIMLIM
 70
0
  9
$DIMTFAC
 40
1.0
  9
$DIMTP
 40
0.01
  9
$DIMTM
 40
0.01
  9
$DIMGAP
 40
0.625
  9
$DIMDSEP
 70
46
  9
$AUNITS
 70
0
  9
$PDMODE
 70
3
  9
$PDSIZE
 40
0.3125
  9
$HANDSEED
  5
2C3
  9
$TILEMODE
 70
1
  9
$MEASUREMENT
 70
1
  9
$INSUNITS
 70
4
  0
ENDSEC
  0
SECTION
  2
CLASSES
  0
CLASS
  1
ACDBDICTIONARYWDFLT
  2
AcDbDictionaryWithDefault
  3
AutoCAD 2000
 90
0
 91
1
280
0
281
0
  0
CLASS
  1
ACDBPLACEHOLDER
  2
AcDbPlaceHolder
  3
AutoCAD 2000
 90
0
 91
1
280
0
281
0
  0
CLASS
  1
LAYOUT
  2
AcDbLayout
  3
AutoCAD 2000
 90
0
 91
0
280
0
281
0
  0
ENDSEC
  0
SECTION
  2
TABLES
  0
TABLE
  2
VPORT
  5
8
100
AcDbSymbolTable
 70
2
  0
VPORT
  5
1F4
100
AcDbSymbolTableRecord
100
AcDbViewportTableRecord
  2
*ACTIVE
 70
0
 10
0.0
 20
0.0
 11
1.0
 21
1.0
 12
19.242039096
 22
27.2137410072
 13
0.0
 23
0.0
 14
1.0
 24
1.0
 15
0.0
 25
0.0
 16
0.0
 26
0.0
 36
1.0
 17
0.0
 27
0.0
 37
0.0
 40
54.4274820144
 41
0.7070707071
 42
50.0
 43
0.0
 44
0.0
 50
0.0
 51
0.0
 71
0
 72
100
 73
1
 74
1
 75
0
 76
0
 77
0
 78
0
  0
ENDTAB
  0
TABLE
  2
LTYPE
  5
5
100
AcDbSymbolTable
 70
6
  0
LTYPE
  5
14
100
AcDbSymbolTableRecord
100
AcDbLinetypeTableRecord
  2
BYBLOCK
 70
0
  3

 72
65
 73
0
 40
0.0
  0
LTYPE
  5
15
100
AcDbSymbolTableRecord
100
AcDbLinetypeTableRecord
  2
BYLAYER
 70
0
  3

 72
65
 73
0
 40
0.0
  0
LTYPE
  5
16
100
AcDbSymbolTableRecord
100
AcDbLinetypeTableRecord
  2
CONTINUOUS
 70
64
  3
Solid line
 72
65
 73
0
 40
0.0
  0
LTYPE
  5
1F5
100
AcDbSymbolTableRecord
100
AcDbLinetypeTableRecord
  2
CENTER
 70
64
  3
____ _ ____ _ ____ _ ____ _ ____ _ ____ _ ____
 72
65
 73
4
 40
0.6
 49
0.375
 74
0
 49
-0.075
 74
0
 49
0.075
 74
0
 49
-0.075
 74
0
  0
LTYPE
  5
1F6
100
AcDbSymbolTableRecord
100
AcDbLinetypeTableRecord
  2
HIDDEN
 70
64
  3
- - - - - - - - - - - - - - - - - - - -
 72
65
 73
2
 40
0.2
 49
0.1
 74
0
 49
-0.1
 74
0
  0
LTYPE
  5
1F7
100
AcDbSymbolTableRecord
100
AcDbLinetypeTableRecord
  2
PHANTOM
 70
64
  3
_____ _ _ _____ _ _ _____ _ _ _____
 72
65
 73
6
 40
0.8
 49
0.45
 74
0
 49
-0.05
 74
0
 49
0.1
 74
0
 49
-0.05
 74
0
 49
0.1
 74
0
 49
-0.05
 74
0
  0
LTYPE
  5
1F8
100
AcDbSymbolTableRecord
100
AcDbLinetypeTableRecord
  2
DOT
 70
64
  3
. . . . . . . . . . . . . . . . . . . .
 72
65
 73
2
 40
0.2
 49
0.1
 74
0
 49
-0.1
 74
0
  0
LTYPE
  5
1F9
100
AcDbSymbolTableRecord
100
AcDbLinetypeTableRecord
  2
DASHED
 70
64
  3
- - - - - - - - - - - - - - - - - - - -
 72
65
 73
2
 40
0.2
 49
0.1
 74
0
 49
-0.1
 74
0
  0
ENDTAB
  0
TABLE
  2
LAYER
  5
2
100
AcDbSymbolTable
 70
36
  0
LAYER
  5
10
100
AcDbSymbolTableRecord
100
AcDbLayerTableRecord
  2
0
 70
0
 62
7
  6
CONTINUOUS
370
-3
390
F
  0
LAYER
  5
1FA
100
AcDbSymbolTableRecord
100
AcDbLayerTableRecord
  2
DEFAULT_1
 70
0
 62
7
  6
CENTER
370
-3
390
F
  0
LAYER
  5
1FB
100
AcDbSymbolTableRecord
100
AcDbLayerTableRecord
  2
DEFAULT_2
 70
0
 62
7
  6
HIDDEN
370
-3
390
F
  0
LAYER
  5
1FC
100
AcDbSymbolTableRecord
100
AcDbLayerTableRecord
  2
DEFAULT_3
 70
0
 62
7
  6
PHANTOM
370
-3
390
F
  0
LAYER
  5
1FD
100
AcDbSymbolTableRecord
100
AcDbLayerTableRecord
  2
00_COMPONENTS
 70
0
 62
7
  6
CONTINUOUS
370
-3
390
F
  0
LAYER
  5
1FE
100
AcDbSymbolTableRecord
100
AcDbLayerTableRecord
  2
01_1_DEFAULT_DATUMS
 70
0
 62
7
  6
CONTINUOUS
370
-3
390
F
  0
LAYER
  5
1FF
100
AcDbSymbolTableRecord
100
AcDbLayerTableRecord
  2
01_PLANES
 70
0
 62
7
  6
CONTINUOUS
370
-3
390
F
  0
LAYER
  5
200
100
AcDbSymbolTableRecord
100
AcDbLayerTableRecord
  2
02_COORD_SYS
 70
0
 62
7
  6
CONTINUOUS
370
-3
390
F
  0
LAYER
  5
201
100
AcDbSymbolTableRecord
100
AcDbLayerTableRecord
  2
03_AXES
 70
0
 62
7
  6
CONTINUOUS
370
-3
390
F
  0
LAYER
  5
202
100
AcDbSymbolTableRecord
100
AcDbLayerTableRecord
  2
04_POINTS
 70
0
 62
7
  6
CONTINUOUS
370
-3
390
F
  0
LAYER
  5
203
100
AcDbSymbolTableRecord
100
AcDbLayerTableRecord
  2
05_CURVES
 70
0
 62
7
  6
CONTINUOUS
370
-3
390
F
  0
LAYER
  5
204
100
AcDbSymbolTableRecord
100
AcDbLayerTableRecord
  2
06_SURFS
 70
0
 62
7
  6
CONTINUOUS
370
-3
390
F
  0
LAYER
  5
205
100
AcDbSymbolTableRecord
100
AcDbLayerTableRecord
  2
07_COSMETICS
 70
0
 62
7
  6
CONTINUOUS
370
-3
390
F
  0
LAYER
  5
206
100
AcDbSymbolTableRecord
100
AcDbLayerTableRecord
  2
10_NOTES
 70
0
 62
7
  6
CONTINUOUS
370
-3
390
F
  0
LAYER
  5
207
100
AcDbSymbolTableRecord
100
AcDbLayerTableRecord
  2
11_NOTES_PUB
 70
0
 62
7
  6
CONTINUOUS
370
-3
390
F
  0
LAYER
  5
208
100
AcDbSymbolTableRecord
100
AcDbLayerTableRecord
  2
13_REF_GTOL
 70
0
 62
7
  6
CONTINUOUS
370
-3
390
F
  0
LAYER
  5
209
100
AcDbSymbolTableRecord
100
AcDbLayerTableRecord
  2
16_MISC
 70
0
 62
7
  6
CONTINUOUS
370
-3
390
F
  0
LAYER
  5
20A
100
AcDbSymbolTableRecord
100
AcDbLayerTableRecord
  2
17_NO_PRINT
 70
0
 62
7
  6
CONTINUOUS
370
-3
390
F
  0
LAYER
  5
20B
100
AcDbSymbolTableRecord
100
AcDbLayerTableRecord
  2
18_DATUM_CAMS_JOINTS
 70
0
 62
7
  6
CONTINUOUS
370
-3
390
F
  0
LAYER
  5
20C
100
AcDbSymbolTableRecord
100
AcDbLayerTableRecord
  2
19_DATUM_FUNCTIONAL
 70
0
 62
7
  6
CONTINUOUS
370
-3
390
F
  0
LAYER
  5
20D
100
AcDbSymbolTableRecord
100
AcDbLayerTableRecord
  2
20_DATUM_KINEMATIC_SCHEME
 70
0
 62
7
  6
CONTINUOUS
370
-3
390
F
  0
ENDTAB
  0
TABLE
  2
STYLE
  5
3
100
AcDbSymbolTable
 70
1
  0
STYLE
  5
11
100
AcDbSymbolTableRecord
100
AcDbTextStyleTableRecord
  2
STANDARD
 70
0
 40
0.0
 41
1.0
 50
0.0
 71
0
 42
0.2
  3
ARIAL.TTF
  4

  0
STYLE
  5
20E
100
AcDbSymbolTableRecord
100
AcDbTextStyleTableRecord
  2
TEXTSTYLE_1
 70
0
 40
0.0
 41
0.8
 50
0.0
 71
0
 42
0.2
  3
gdt
  4

  0
ENDTAB
  0
TABLE
  2
VIEW
  5
6
100
AcDbSymbolTable
 70
0
  0
ENDTAB
  0
TABLE
  2
UCS
  5
7
100
AcDbSymbolTable
 70
0
  0
ENDTAB
  0
TABLE
  2
APPID
  5
9
100
AcDbSymbolTable
 70
1
  0
APPID
  5
20F
100
AcDbSymbolTableRecord
100
AcDbRegAppTableRecord
  2
ACAD
 70
0
  0
ENDTAB
  0
TABLE
  2
BLOCK_RECORD
  5
1
100
AcDbSymbolTable
 70
0
  0
BLOCK_RECORD
  5
210
100
AcDbSymbolTableRecord
100
AcDbBlockTableRecord
  2
*Model_Space
  0
BLOCK_RECORD
  5
211
100
AcDbSymbolTableRecord
100
AcDbBlockTableRecord
  2
*Paper_Space
  0
BLOCK_RECORD
  5
212
100
AcDbSymbolTableRecord
100
AcDbBlockTableRecord
  2
_FILLED
  0
ENDTAB
  0
TABLE
  2
DIMSTYLE
  5
A
100
AcDbSymbolTable
 70
1
100
AcDbDimStyleTable
 71
0
  0
DIMSTYLE
105
213
100
AcDbSymbolTableRecord
100
AcDbDimStyleTableRecord
  2
STANDARD
 70
0
  3

  4

 40
1.0
 41
0.458143788
 42
1.0
 43
0.38
 44
1.0
 45
0.0
 46
0.0
 47
0.01
 48
0.01
140
0.6414013032
141
0.09
142
0.0
143
25.4
144
1.0
145
0.0
146
1.0
147
0.625
 71
1
 72
0
 73
0
 74
0
 75
0
 76
0
 77
1
 78
8
 79
2
170
0
171
1
172
0
173
0
174
0
175
0
176
0
177
0
178
0
270
2
179
2
271
2
272
2
273
2
274
2
275
0
280
0
281
0
282
0
283
1
284
8
285
0
286
0
287
3
288
0
340
11
278
46
341
212
342
212
343
212
344
212
  0
ENDTAB
  0
ENDSEC
  0
SECTION
  2
BLOCKS
  0
BLOCK
  5
20
100
AcDbEntity
  8
0
100
AcDbBlockBegin
  2
*Model_Space
 70
0
 10
0.0
 20
0.0
 30
0.0
  3
*Model_Space
  1

  0
ENDBLK
  5
21
100
AcDbEntity
  8
0
100
AcDbBlockEnd
  0
BLOCK
  5
1C
100
AcDbEntity
  8
0
100
AcDbBlockBegin
  2
*Paper_Space
 70
0
 10
0.0
 20
0.0
 30
0.0
  3
*Paper_Space
  1

  0
ENDBLK
  5
1D
100
AcDbEntity
  8
0
100
AcDbBlockEnd
  0
BLOCK
  5
214
100
AcDbEntity
  8
0
100
AcDbBlockBegin
  2
_FILLED
 70
64
 10
0.0
 20
0.0
  3
_FILLED
  1

  0
SOLID
  5
215
100
AcDbEntity
  8
0
  6
BYBLOCK
 62
0
100
AcDbTrace
 10
0.0
 20
0.0
 11
-1.0
 21
0.25
 12
-1.0
 22
-0.25
 13
-1.0
 23
-0.25
  0
ENDBLK
  5
216
100
AcDbEntity
  8
0
  6
BYBLOCK
 62
0
100
AcDbBlockEnd
  0
ENDSEC
  0
SECTION
  2
ENTITIES
  0
LINE
  5
217
100
AcDbEntity
  8
0
100
AcDbLine
 62
7
  6
BYLAYER
 10
16.2416793786
 20
3.8971942446
 11
23.2416793786
 21
3.8971942446
  0
LINE
  5
218
100
AcDbEntity
  8
0
100
AcDbLine
 62
7
  6
BYLAYER
 10
24.9115094237
 20
4.6129837183
 11
14.5718493334
 21
4.6129837183
  0
LINE
  5
219
100
AcDbEntity
  8
0
100
AcDbLine
 62
7
  6
BYLAYER
 10
21.0612334316
 20
6.7349209728
 11
19.7936827953
 21
6.3971942446
  0
LWPOLYLINE
  5
21A
100
AcDbEntity
  8
0
100
AcDbPolyline
 62
7
  6
BYLAYER
 90
3
 70
0
 10
20.2844813626
 20
6.3971942446
 10
21.0449206233
 20
6.5983261409
 10
21.1828484672
 20
6.7349209728
  0
LINE
  5
21B
100
AcDbEntity
  8
0
100
AcDbLine
 62
7
  6
BYLAYER
 10
23.4916793786
 20
6.3971942446
 11
15.9916793786
 21
6.3971942446
  0
LINE
  5
21C
100
AcDbEntity
  8
0
100
AcDbLine
 62
7
  6
BYLAYER
 10
16.2550584111
 20
6.7349209728
 11
23.2283003461
 21
6.7349209728
  0
LINE
  5
21D
100
AcDbEntity
  8
0
100
AcDbLine
 62
7
  6
BYLAYER
 10
19.689630933
 20
6.3971942446
 11
18.4209827467
 21
6.7349209728
  0
LINE
  5
21E
100
AcDbEntity
  8
0
100
AcDbLine
 62
7
  6
BYLAYER
 10
16.255058411
 20
7.16904489
 11
23.2283003461
 21
7.16904489
  0
LINE
  5
21F
100
AcDbEntity
  8
0
100
AcDbLine
 62
7
  6
BYLAYER
 10
13.0035399936
 20
7.3971942446
 11
15.4916793786
 21
7.3971942446
  0
LINE
  5
220
100
AcDbEntity
  8
0
100
AcDbLine
 62
7
  6
BYLAYER
 10
23.9916793786
 20
7.3971942446
 11
26.4798187635
 21
7.3971942446
  0
LINE
  5
221
100
AcDbEntity
  8
0
100
AcDbLine
 62
7
  6
BYLAYER
 10
16.1349674912
 20
8.0867128985
 11
15.4916793786
 21
8.3848594589
  0
LINE
  5
222
100
AcDbEntity
  8
0
100
AcDbLine
 62
7
  6
BYLAYER
 10
23.4668253334
 20
9.419854624
 11
23.9916793786
 21
9.5583522918
  0
LINE
  5
223
100
AcDbEntity
  8
0
100
AcDbLine
 62
7
  6
BYLAYER
 10
23.9916793786
 20
9.9924762089
 11
23.4668253334
 21
9.8539785412
  0
LINE
  5
224
100
AcDbEntity
  8
0
100
AcDbLine
 62
7
  6
BYLAYER
 10
28.3916793786
 20
9.4971942446
 11
26.4916793786
 21
9.4971942446
  0
LINE
  5
225
100
AcDbEntity
  8
0
100
AcDbLine
 62
7
  6
BYLAYER
 10
12.9916793786
 20
10.4971942446
 11
11.0916793786
 21
10.4971942446
  0
LINE
  5
226
100
AcDbEntity
  8
0
100
AcDbLine
 62
7
  6
BYLAYER
 10
15.4916793786
 20
9.5583522918
 11
16.0165334237
 21
9.419854624
  0
LINE
  5
227
100
AcDbEntity
  8
0
100
AcDbLine
 62
7
  6
BYLAYER
 10
16.0165334237
 20
9.8539785412
 11
15.4916793786
 21
9.9924762089
  0
LINE
  5
228
100
AcDbEntity
  8
0
100
AcDbLine
 62
7
  6
BYLAYER
 10
4.7916793786
 20
42.247194258
 11
4.7916793786
 21
11.9971948438
  0
LINE
  5
229
100
AcDbEntity
  8
0
100
AcDbLine
 62
7
  6
BYLAYER
 10
4.8416793786
 20
43.2413147203
 11
4.8416793786
 21
42.6119225194
  0
LINE
  5
22A
100
AcDbEntity
  8
0
100
AcDbLine
 62
7
  6
BYLAYER
 10
4.8416793786
 20
11.843440108
 11
4.8416793786
 21
11.2413132003
  0
LINE
  5
22B
100
AcDbEntity
  8
0
100
AcDbLine
 62
7
  6
BYLAYER
 10
5.0766793786
 20
50.0971942446
 11
5.0766793786
 21
17.9971942446
  0
LINE
  5
22C
100
AcDbEntity
  8
0
100
AcDbLine
 62
7
  6
BYLAYER
 10
7.6166793786
 20
36.911407807
 11
10.9487861597
 21
40.2435145881
  0
LINE
  5
22D
100
AcDbEntity
  8
0
100
AcDbLine
 62
7
  6
BYLAYER
 10
5.7916724962
 20
10.9971942446
 11
11.7916793786
 21
10.9971942446
  0
LINE
  5
22E
100
AcDbEntity
  8
0
100
AcDbLine
 62
7
  6
BYLAYER
 10
27.6916793786
 20
10.9971942446
 11
33.6916847735
 21
10.9971942446
  0
LINE
  5
22F
100
AcDbEntity
  8
0
100
AcDbLine
 62
7
  6
BYLAYER
 10
4.8416793786
 20
11.2413132003
 11
5.1506569317
 21
11.2413132003
  0
LINE
  5
230
100
AcDbEntity
  8
0
100
AcDbLine
 62
7
  6
BYLAYER
 10
34.3326953314
 20
11.2413132003
 11
34.6416793786
 21
11.2413132003
  0
LWPOLYLINE
  5
231
100
AcDbEntity
  8
0
100
AcDbPolyline
 62
7
  6
BYLAYER
 90
3
 70
0
 10
18.2976869185
 20
6.7349209728
 10
18.430656094
 20
6.6027818766
 10
19.2026044706
 20
6.3971942446
  0
LINE
  5
232
100
AcDbEntity
  8
0
100
AcDbLine
 62
7
  6
BYLAYER
 10
6.7416793786
 20
50.1971942446
 11
6.7416793786
 21
50.0971942446
  0
LINE
  5
233
100
AcDbEntity
  8
0
100
AcDbLine
 62
7
  6
BYLAYER
 10
15.4835485702
 20
11.8280069489
 11
15.8329726813
 21
11.9202124389
  0
LINE
  5
234
100
AcDbEntity
  8
0
100
AcDbLine
 62
7
  6
BYLAYER
 10
11.7916793786
 20
13.0973593886
 11
12.9916793786
 21
13.0973586733
  0
LINE
  5
235
100
AcDbEntity
  8
0
100
AcDbLine
 62
7
  6
BYLAYER
 10
26.4916793786
 20
13.0973586733
 11
27.6916793786
 21
13.0973593886
  0
LINE
  5
236
100
AcDbEntity
  8
0
100
AcDbLine
 62
7
  6
BYLAYER
 10
24.0143448592
 20
13.0973572104
 11
23.7935284746
 21
13.0973572104
  0
LINE
  5
237
100
AcDbEntity
  8
0
100
AcDbLine
 62
7
  6
BYLAYER
 10
15.6898302825
 20
13.0973572104
 11
15.4690138979
 21
13.0973572104
  0
LINE
  5
238
100
AcDbEntity
  8
0
100
AcDbLine
 62
7
  6
BYLAYER
 10
4.7916793786
 20
14.0971941828
 11
12.4416793786
 21
14.0971942446
  0
LINE
  5
239
100
AcDbEntity
  8
0
100
AcDbLine
 62
7
  6
BYLAYER
 10
27.0416793786
 20
14.0971942446
 11
34.6916793786
 21
14.0971941828
  0
LINE
  5
23A
100
AcDbEntity
  8
0
100
AcDbLine
 62
7
  6
BYLAYER
 10
8.8766793786
 20
14.1971942446
 11
12.4916793786
 21
14.1971942446
  0
LINE
  5
23B
100
AcDbEntity
  8
0
100
AcDbLine
 62
7
  6
BYLAYER
 10
26.9916793786
 20
14.1971942446
 11
30.6066793786
 21
14.1971942446
  0
LINE
  5
23C
100
AcDbEntity
  8
0
100
AcDbLine
 62
7
  6
BYLAYER
 10
23.6503860758
 20
11.9202124389
 11
23.999810187
 21
11.8280069489
  0
LINE
  5
23D
100
AcDbEntity
  8
0
100
AcDbLine
 62
7
  6
BYLAYER
 10
7.5766793786
 20
17.6971942446
 11
7.5766793786
 21
19.1971942446
  0
LINE
  5
23E
100
AcDbEntity
  8
0
100
AcDbLine
 62
7
  6
BYLAYER
 10
7.5766793786
 20
34.1944376815
 11
7.5766793786
 21
50.0971942446
  0
LINE
  5
23F
100
AcDbEntity
  8
0
100
AcDbLine
 62
7
  6
BYLAYER
 10
7.6166793786
 20
34.2636834723
 11
7.6166793786
 21
38.6202288205
  0
LINE
  5
240
100
AcDbEntity
  8
0
100
AcDbLine
 62
7
  6
BYLAYER
 10
10.4916793786
 20
40.8471942446
 11
10.4916793786
 21
43.7471942446
  0
LINE
  5
241
100
AcDbEntity
  8
0
100
AcDbLine
 62
7
  6
BYLAYER
 10
30.9066793786
 20
16.6971942446
 11
29.3177005956
 21
16.6971942446
  0
LINE
  5
242
100
AcDbEntity
  8
0
100
AcDbLine
 62
7
  6
BYLAYER
 10
10.1656685573
 20
16.6971942446
 11
8.5766793786
 21
16.6971942446
  0
LINE
  5
243
100
AcDbEntity
  8
0
100
AcDbLine
 62
7
  6
BYLAYER
 10
17.9916793786
 20
18.0639523801
 11
21.4916793786
 21
18.0639523801
  0
LINE
  5
244
100
AcDbEntity
  8
0
100
AcDbLine
 62
7
  6
BYLAYER
 10
11.0916793786
 20
10.4971942446
 11
11.0916793786
 21
10.9971942446
  0
LINE
  5
245
100
AcDbEntity
  8
0
100
AcDbLine
 62
7
  6
BYLAYER
 10
11.1416793786
 20
44.4971942446
 11
11.1416793786
 21
43.7471942446
  0
LINE
  5
246
100
AcDbEntity
  8
0
100
AcDbLine
 62
7
  6
BYLAYER
 10
11.2416793786
 20
40.9506213694
 11
11.2416793786
 21
43.7471942446
  0
LINE
  5
247
100
AcDbEntity
  8
0
100
AcDbLine
 62
7
  6
BYLAYER
 10
11.7916793786
 20
14.0971942393
 11
11.7916793786
 21
10.9971942446
  0
LINE
  5
248
100
AcDbEntity
  8
0
100
AcDbLine
 62
7
  6
BYLAYER
 10
12.4416793786
 20
14.1971942446
 11
12.4416793786
 21
14.0971942435
  0
LINE
  5
249
100
AcDbEntity
  8
0
100
AcDbLine
 62
7
  6
BYLAYER
 10
21.4916793786
 20
18.433432985
 11
17.9916793786
 21
18.433432985
  0
LINE
  5
24A
100
AcDbEntity
  8
0
100
AcDbLine
 62
7
  6
BYLAYER
 10
17.9916793786
 20
18.8543802869
 11
21.4916793786
 21
18.8543802869
  0
LINE
  5
24B
100
AcDbEntity
  8
0
100
AcDbLine
 62
7
  6
BYLAYER
 10
31.9066793786
 20
19.1971942446
 11
31.3274346033
 21
19.1971942446
  0
LINE
  5
24C
100
AcDbEntity
  8
0
100
AcDbLine
 62
7
  6
BYLAYER
 10
7.5766793786
 20
19.1971942446
 11
8.1559414841
 21
19.1971942446
  0
LINE
  5
24D
100
AcDbEntity
  8
0
100
AcDbLine
 62
7
  6
BYLAYER
 10
15.6388342311
 20
13.6713893735
 11
15.7947078387
 21
11.9168130547
  0
LINE
  5
24E
100
AcDbEntity
  8
0
100
AcDbLine
 62
7
  6
BYLAYER
 10
16.0165334237
 20
9.419854624
 11
16.2550584111
 21
6.7349209728
  0
LINE
  5
24F
100
AcDbEntity
  8
0
100
AcDbLine
 62
7
  6
BYLAYER
 10
12.7416793786
 20
46.2112958597
 11
12.7416793786
 21
50.1971942446
  0
LINE
  5
250
100
AcDbEntity
  8
0
100
AcDbLine
 62
7
  6
BYLAYER
 10
12.9916793786
 20
13.6971942446
 11
12.9916793786
 21
7.6971942446
  0
LINE
  5
251
100
AcDbEntity
  8
0
100
AcDbLine
 62
7
  6
BYLAYER
 10
11.1416793786
 20
44.4971942446
 11
10.6416793786
 21
48.4971942446
  0
LINE
  5
252
100
AcDbEntity
  8
0
100
AcDbLine
 62
7
  6
BYLAYER
 10
16.255058411
 20
7.16904489
 11
16.0165334237
 21
9.8539785412
  0
LINE
  5
253
100
AcDbEntity
  8
0
100
AcDbLine
 62
7
  6
BYLAYER
 10
15.8329726813
 20
11.9202124389
 11
15.6780154662
 21
13.6644734752
  0
LINE
  5
254
100
AcDbEntity
  8
0
100
AcDbLine
 62
7
  6
BYLAYER
 10
15.4916793786
 20
6.8971942446
 11
15.4916793786
 21
12.8971942446
  0
LINE
  5
255
100
AcDbEntity
  8
0
100
AcDbLine
 62
7
  6
BYLAYER
 10
16.0165334237
 20
9.419854624
 11
16.0165334237
 21
9.8539785412
  0
LINE
  5
256
100
AcDbEntity
  8
0
100
AcDbLine
 62
7
  6
BYLAYER
 10
16.2416793786
 20
3.9372075425
 11
16.2416793786
 21
3.8971942446
  0
LINE
  5
257
100
AcDbEntity
  8
0
100
AcDbLine
 62
7
  6
BYLAYER
 10
16.255058411
 20
6.7349209728
 11
16.255058411
 21
7.16904489
  0
LWPOLYLINE
  5
258
100
AcDbEntity
  8
0
100
AcDbPolyline
 62
7
  6
BYLAYER
 90
3
 70
0
 10
21.4613816411
 20
13.2507466829
 10
21.7213222623
 20
12.6902034015
 10
21.7416793786
 20
12.4098978893
  0
LINE
  5
259
100
AcDbEntity
  8
0
100
AcDbLine
 62
7
  6
BYLAYER
 10
17.7416793786
 20
11.4415349347
 11
17.7416793786
 21
12.4098978893
  0
LINE
  5
25A
100
AcDbEntity
  8
0
100
AcDbLine
 62
7
  6
BYLAYER
 10
17.9916793786
 20
39.849887829
 11
17.9916793786
 21
18.0645006623
  0
LINE
  5
25B
100
AcDbEntity
  8
0
100
AcDbLine
 62
7
  6
BYLAYER
 10
18.1916793786
 20
40.4327372985
 11
18.1916793786
 21
39.8504361053
  0
LINE
  5
25C
100
AcDbEntity
  8
0
100
AcDbLine
 62
7
  6
BYLAYER
 10
18.2916793786
 20
39.8504361053
 11
18.2916793786
 21
40.343464496
  0
LWPOLYLINE
  5
25D
100
AcDbEntity
  8
0
100
AcDbPolyline
 62
7
  6
BYLAYER
 90
3
 70
0
 10
17.7416793786
 20
12.4098978893
 10
17.7620364948
 20
12.6902034015
 10
18.0219741232
 20
13.250740229
  0
LINE
  5
25E
100
AcDbEntity
  8
0
100
AcDbLine
 62
7
  6
BYLAYER
 10
4.7916793786
 20
27.1971942446
 11
5.0766793786
 21
27.1971940247
  0
LINE
  5
25F
100
AcDbEntity
  8
0
100
AcDbLine
 62
7
  6
BYLAYER
 10
34.4066809893
 20
27.1971940247
 11
34.691679379
 21
27.1971942446
  0
LINE
  5
260
100
AcDbEntity
  8
0
100
AcDbLine
 62
7
  6
BYLAYER
 10
21.1416793786
 20
39.8504361053
 11
21.1416793786
 21
40.3488835787
  0
LINE
  5
261
100
AcDbEntity
  8
0
100
AcDbLine
 62
7
  6
BYLAYER
 10
21.2416793786
 20
39.8504361053
 11
21.2416793786
 21
40.438497483
  0
LINE
  5
262
100
AcDbEntity
  8
0
100
AcDbLine
 62
7
  6
BYLAYER
 10
21.4916793786
 20
18.0639523801
 11
21.4916793786
 21
39.849887829
  0
LINE
  5
263
100
AcDbEntity
  8
0
100
AcDbLine
 62
7
  6
BYLAYER
 10
21.7416793786
 20
11.4415349347
 11
21.7416793786
 21
12.4098978893
  0
LINE
  5
264
100
AcDbEntity
  8
0
100
AcDbLine
 62
7
  6
BYLAYER
 10
23.2283003461
 20
6.7349209728
 11
23.2283003461
 21
7.16904489
  0
LINE
  5
265
100
AcDbEntity
  8
0
100
AcDbLine
 62
7
  6
BYLAYER
 10
23.2416793786
 20
3.8971942446
 11
23.2416793786
 21
3.9372075425
  0
LINE
  5
266
100
AcDbEntity
  8
0
100
AcDbLine
 62
7
  6
BYLAYER
 10
23.4668253334
 20
9.419854624
 11
23.4668253334
 21
9.8539785412
  0
LINE
  5
267
100
AcDbEntity
  8
0
100
AcDbLine
 62
7
  6
BYLAYER
 10
12.7416793786
 20
46.2112958597
 11
14.1643291094
 21
43.7471942446
  0
LINE
  5
268
100
AcDbEntity
  8
0
100
AcDbLine
 62
7
  6
BYLAYER
 10
23.9916793786
 20
6.8971942446
 11
23.9916793786
 21
12.8971942446
  0
LINE
  5
269
100
AcDbEntity
  8
0
100
AcDbLine
 62
7
  6
BYLAYER
 10
23.8053447801
 20
13.6644902371
 11
23.6503860758
 21
11.9202124389
  0
LINE
  5
26A
100
AcDbEntity
  8
0
100
AcDbLine
 62
7
  6
BYLAYER
 10
23.4668253334
 20
9.8539785412
 11
23.2283003461
 21
7.16904489
  0
LINE
  5
26B
100
AcDbEntity
  8
0
100
AcDbLine
 62
7
  6
BYLAYER
 10
23.2283003461
 20
6.7349209728
 11
23.4668253334
 21
9.419854624
  0
LINE
  5
26C
100
AcDbEntity
  8
0
100
AcDbLine
 62
7
  6
BYLAYER
 10
23.6886509185
 20
11.9168130547
 11
23.8445260294
 21
13.6714062969
  0
LINE
  5
26D
100
AcDbEntity
  8
0
100
AcDbLine
 62
7
  6
BYLAYER
 10
25.8916793786
 20
45.6966387628
 11
25.8916793786
 21
43.7468331335
  0
LINE
  5
26E
100
AcDbEntity
  8
0
100
AcDbLine
 62
7
  6
BYLAYER
 10
26.4916793786
 20
7.6971942446
 11
26.4916793786
 21
13.6971942446
  0
LINE
  5
26F
100
AcDbEntity
  8
0
100
AcDbLine
 62
7
  6
BYLAYER
 10
26.7416793381
 20
44.2471940455
 11
26.7416793959
 21
45.1967229758
  0
LINE
  5
270
100
AcDbEntity
  8
0
100
AcDbLine
 62
7
  6
BYLAYER
 10
27.0416793786
 20
14.0971942435
 11
27.0416793786
 21
14.1971942446
  0
LINE
  5
271
100
AcDbEntity
  8
0
100
AcDbLine
 62
7
  6
BYLAYER
 10
27.6916793786
 20
10.9971942446
 11
27.6916793786
 21
14.0971942393
  0
LINE
  5
272
100
AcDbEntity
  8
0
100
AcDbLine
 62
7
  6
BYLAYER
 10
28.3916793786
 20
10.9971942446
 11
28.3916793786
 21
9.4971942446
  0
LINE
  5
273
100
AcDbEntity
  8
0
100
AcDbLine
 62
7
  6
BYLAYER
 10
28.9916793786
 20
45.6966409584
 11
28.9916793786
 21
43.1971942446
  0
LINE
  5
274
100
AcDbEntity
  8
0
100
AcDbLine
 62
7
  6
BYLAYER
 10
31.8666793786
 20
20.1307050169
 11
31.8666793786
 21
19.1971942446
  0
LINE
  5
275
100
AcDbEntity
  8
0
100
AcDbLine
 62
7
  6
BYLAYER
 10
31.8666793786
 20
34.2636740809
 11
31.8666793786
 21
40.9702288205
  0
LINE
  5
276
100
AcDbEntity
  8
0
100
AcDbLine
 62
7
  6
BYLAYER
 10
31.9066793786
 20
50.0971942446
 11
31.9066793786
 21
34.1944298189
  0
LINE
  5
277
100
AcDbEntity
  8
0
100
AcDbLine
 62
7
  6
BYLAYER
 10
31.9066793786
 20
20.1999508077
 11
31.9066793786
 21
17.6971942446
  0
LINE
  5
278
100
AcDbEntity
  8
0
100
AcDbLine
 62
7
  6
BYLAYER
 10
17.9916793786
 20
39.0338040477
 11
21.4916793786
 21
39.0338040477
  0
LINE
  5
279
100
AcDbEntity
  8
0
100
AcDbLine
 62
7
  6
BYLAYER
 10
17.9916793786
 20
39.480597671
 11
21.4916793786
 21
39.480597671
  0
LINE
  5
27A
100
AcDbEntity
  8
0
100
AcDbLine
 62
7
  6
BYLAYER
 10
21.4916793786
 20
39.8498878291
 11
17.9916793786
 21
39.8498878291
  0
LINE
  5
27B
100
AcDbEntity
  8
0
100
AcDbLine
 62
7
  6
BYLAYER
 10
21.2416793786
 20
39.8971942446
 11
21.1416793786
 21
39.8971942446
  0
LINE
  5
27C
100
AcDbEntity
  8
0
100
AcDbLine
 62
7
  6
BYLAYER
 10
18.2916793786
 20
39.8971942446
 11
18.1916793786
 21
39.8971942446
  0
LINE
  5
27D
100
AcDbEntity
  8
0
100
AcDbLine
 62
7
  6
BYLAYER
 10
34.4066793786
 20
17.9971942446
 11
34.4066793786
 21
50.0971942446
  0
LINE
  5
27E
100
AcDbEntity
  8
0
100
AcDbLine
 62
7
  6
BYLAYER
 10
34.6416793786
 20
11.2413132003
 11
34.6416793786
 21
11.8434549645
  0
LINE
  5
27F
100
AcDbEntity
  8
0
100
AcDbLine
 62
7
  6
BYLAYER
 10
34.6916793786
 20
11.9971942446
 11
34.6916793786
 21
44.1973735167
  0
LINE
  5
280
100
AcDbEntity
  8
0
100
AcDbLine
 62
7
  6
BYLAYER
 10
4.8416793786
 20
43.2413147203
 11
5.0766793786
 21
43.2413147203
  0
LINE
  5
281
100
AcDbEntity
  8
0
100
AcDbLine
 62
7
  6
BYLAYER
 10
30.356264339
 20
43.2413147203
 11
31.9066793786
 21
43.2413147203
  0
LINE
  5
282
100
AcDbEntity
  8
0
100
AcDbLine
 62
7
  6
BYLAYER
 10
7.5766793786
 20
43.7471942446
 11
26.7416793786
 21
43.7471942446
  0
LINE
  5
283
100
AcDbEntity
  8
0
100
AcDbLine
 62
7
  6
BYLAYER
 10
26.7416793786
 20
43.7471942446
 11
31.8666793786
 21
38.5699864507
  0
LINE
  5
284
100
AcDbEntity
  8
0
100
AcDbLine
 62
7
  6
BYLAYER
 10
23.9916793786
 20
8.3848594589
 11
23.3483912659
 21
8.0867128985
  0
LINE
  5
285
100
AcDbEntity
  8
0
100
AcDbLine
 62
7
  6
BYLAYER
 10
25.8916793786
 20
45.6961942446
 11
31.9066793786
 21
45.6961942446
  0
LINE
  5
286
100
AcDbEntity
  8
0
100
AcDbLine
 62
7
  6
BYLAYER
 10
7.5766793786
 20
48.4971942446
 11
10.6416793786
 21
48.4971942446
  0
LINE
  5
287
100
AcDbEntity
  8
0
100
AcDbLine
 62
7
  6
BYLAYER
 10
34.4066793786
 20
49.5971942446
 11
31.9066793786
 21
49.5971942446
  0
LINE
  5
288
100
AcDbEntity
  8
0
100
AcDbLine
 62
7
  6
BYLAYER
 10
7.5766793786
 20
49.5971942446
 11
5.0766793786
 21
49.5971942446
  0
LINE
  5
289
100
AcDbEntity
  8
0
100
AcDbLine
 62
7
  6
BYLAYER
 10
5.0766793786
 20
50.0971942446
 11
7.5766793786
 21
50.0971942446
  0
LINE
  5
28A
100
AcDbEntity
  8
0
100
AcDbLine
 62
7
  6
BYLAYER
 10
31.9066793786
 20
50.0971942446
 11
34.4066793786
 21
50.0971942446
  0
LINE
  5
28B
100
AcDbEntity
  8
0
100
AcDbLine
 62
7
  6
BYLAYER
 10
12.7416793786
 20
50.1971942446
 11
6.7416793786
 21
50.1971942446
  0
ARC
  5
28C
100
AcDbEntity
  8
0
100
AcDbCircle
 62
7
  6
BYLAYER
 10
8.8766793786
 20
17.9971942446
 40
3.8
100
AcDbArc
 50
180.0
 51
270.0
  0
ARC
  5
28D
100
AcDbEntity
  8
0
100
AcDbCircle
 62
7
  6
BYLAYER
 10
11.6916793786
 20
12.8971942446
 40
3.8
100
AcDbArc
 50
0.0
 51
17.3586480373
  0
ARC
  5
28E
100
AcDbEntity
  8
0
100
AcDbCircle
 62
7
  6
BYLAYER
 10
16.7916793786
 20
7.6971942446
 40
3.8
100
AcDbArc
 50
180.0000000045
 51
261.677959401
  0
ARC
  5
28F
100
AcDbEntity
  8
0
100
AcDbCircle
 62
7
  6
BYLAYER
 10
19.7309806938
 20
8.8643774777
 40
2.6087719491
100
AcDbArc
 50
234.3388485136
 51
236.0429691533
  0
ARC
  5
290
100
AcDbEntity
  8
0
100
AcDbCircle
 62
7
  6
BYLAYER
 10
19.7412448318
 20
9.183630864
 40
2.566267583
100
AcDbArc
 50
256.9815621443
 51
269.2745810863
  0
ARC
  5
291
100
AcDbEntity
  8
0
100
AcDbCircle
 62
7
  6
BYLAYER
 10
14.7416793786
 20
14.4971942446
 40
1.45
100
AcDbArc
 50
299.4452441282
 51
309.7422666257
  0
ARC
  5
292
100
AcDbEntity
  8
0
100
AcDbCircle
 62
7
  6
BYLAYER
 10
5.7916799777
 20
11.9971948438
 40
1.0000005992
100
AcDbArc
 50
180.0000000023
 51
269.9995713409
  0
ARC
  5
293
100
AcDbEntity
  8
0
100
AcDbCircle
 62
7
  6
BYLAYER
 10
8.5766793786
 20
17.6971942446
 40
1.0
100
AcDbArc
 50
179.9999999999
 51
270.0
  0
ARC
  5
294
100
AcDbEntity
  8
0
100
AcDbCircle
 62
7
  6
BYLAYER
 10
12.4916793786
 20
13.6971942446
 40
0.5
100
AcDbArc
 50
0.0000000001
 51
90.0
  0
ARC
  5
295
100
AcDbEntity
  8
0
100
AcDbCircle
 62
7
  6
BYLAYER
 10
15.9916793786
 20
6.8971942446
 40
0.5
100
AcDbArc
 50
180.0
 51
270.0
  0
CIRCLE
  5
296
100
AcDbEntity
  8
0
100
AcDbCircle
 62
7
  6
BYLAYER
 10
19.7416793786
 20
27.1971942446
 40
14.25
  0
ARC
  5
297
100
AcDbEntity
  8
0
100
AcDbCircle
 62
7
  6
BYLAYER
 10
19.7416793786
 20
27.1981942446
 40
13.3250001818
100
AcDbArc
 50
96.6799222409
 51
83.5364934118
  0
ARC
  5
298
100
AcDbEntity
  8
0
100
AcDbCircle
 62
7
  6
BYLAYER
 10
19.7416793786
 20
27.1981942446
 40
13.2250001818
100
AcDbArc
 50
83.9232765765
 51
96.2946112969
  0
ARC
  5
299
100
AcDbEntity
  8
0
100
AcDbCircle
 62
7
  6
BYLAYER
 10
19.7416793786
 20
27.1981942446
 40
13.0770943162
100
AcDbArc
 50
83.8542840396
 51
96.366097621
  0
ARC
  5
29A
100
AcDbEntity
  8
0
100
AcDbCircle
 62
7
  6
BYLAYER
 10
19.7416793786
 20
27.1981942446
 40
13.0770943162
100
AcDbArc
 50
96.8071487932
 51
83.4134255417
  0
ARC
  5
29B
100
AcDbEntity
  8
0
100
AcDbCircle
 62
7
  6
BYLAYER
 10
19.7416793786
 20
27.1981942446
 40
8.1000002101
100
AcDbArc
 50
289.9311363858
 51
76.2278073505
  0
ARC
  5
29C
100
AcDbEntity
  8
0
100
AcDbCircle
 62
7
  6
BYLAYER
 10
19.7416793786
 20
27.1981942446
 40
8.1000002101
100
AcDbArc
 50
103.5184415049
 51
250.1342979612
  0
ARC
  5
29D
100
AcDbEntity
  8
0
100
AcDbCircle
 62
7
  6
BYLAYER
 10
19.7416793786
 20
27.1981942446
 40
7.9468626967
100
AcDbArc
 50
102.9352083559
 51
257.0612476456
  0
ARC
  5
29E
100
AcDbEntity
  8
0
100
AcDbCircle
 62
7
  6
BYLAYER
 10
19.7416793786
 20
27.1981942446
 40
7.9468626967
100
AcDbArc
 50
282.9352083559
 51
77.0612476456
  0
ARC
  5
29F
100
AcDbEntity
  8
0
100
AcDbCircle
 62
7
  6
BYLAYER
 10
19.7416793786
 20
27.1981942446
 40
7.55
100
AcDbArc
 50
283.6216304843
 51
76.3807805451
  0
ARC
  5
2A0
100
AcDbEntity
  8
0
100
AcDbCircle
 62
7
  6
BYLAYER
 10
19.7416793786
 20
27.1981942446
 40
7.55
100
AcDbArc
 50
103.6216304843
 51
256.3807805451
  0
ARC
  5
2A1
100
AcDbEntity
  8
0
100
AcDbCircle
 62
7
  6
BYLAYER
 10
8.1916793786
 20
40.8471942446
 40
2.3
100
AcDbArc
 50
255.5224878141
 51
359.9999999991
  0
ARC
  5
2A2
100
AcDbEntity
  8
0
100
AcDbCircle
 62
7
  6
BYLAYER
 10
8.1916793786
 20
40.8471942446
 40
2.0
100
AcDbArc
 50
252.0913667054
 51
107.9086332946
  0
ARC
  5
2A3
100
AcDbEntity
  8
0
100
AcDbCircle
 62
7
  6
BYLAYER
 10
6.2916793786
 20
42.2471942446
 40
1.5
100
AcDbArc
 50
144.0959314166
 51
179.9999999999
  0
ARC
  5
2A4
100
AcDbEntity
  8
0
100
AcDbCircle
 62
7
  6
BYLAYER
 10
8.1916793786
 20
40.8471942446
 40
1.45
100
AcDbArc
 50
244.5756969654
 51
115.4146018354
  0
ARC
  5
2A5
100
AcDbEntity
  8
0
100
AcDbCircle
 62
7
  6
BYLAYER
 10
8.1916793786
 20
40.8471942446
 40
1.275
100
AcDbArc
 50
240.6671239376
 51
119.3328760791
  0
ARC
  5
2A6
100
AcDbEntity
  8
0
100
AcDbCircle
 62
7
  6
BYLAYER
 10
10.2416784862
 20
40.950621739
 40
1.0000008924
100
AcDbArc
 50
315.0000211773
 51
359.9999788218
  0
ARC
  5
2A7
100
AcDbEntity
  8
0
100
AcDbCircle
 62
7
  6
BYLAYER
 10
8.1916793786
 20
40.8471942446
 40
0.95
100
AcDbArc
 50
233.6286190926
 51
126.5141137179
  0
ARC
  5
2A8
100
AcDbEntity
  8
0
100
AcDbCircle
 62
7
  6
BYLAYER
 10
27.7916793786
 20
12.8971942446
 40
3.8
100
AcDbArc
 50
162.6409695442
 51
180.0
  0
ARC
  5
2A9
100
AcDbEntity
  8
0
100
AcDbCircle
 62
7
  6
BYLAYER
 10
30.6066793786
 20
17.9971942446
 40
3.8
100
AcDbArc
 50
270.0
 51
360.0
  0
ARC
  5
2AA
100
AcDbEntity
  8
0
100
AcDbCircle
 62
7
  6
BYLAYER
 10
22.6916793786
 20
7.6971942446
 40
3.8
100
AcDbArc
 50
278.322040599
 51
359.9999999956
  0
ARC
  5
2AB
100
AcDbEntity
  8
0
100
AcDbCircle
 62
7
  6
BYLAYER
 10
19.7521338238
 20
8.8648106709
 40
2.6092684179
100
AcDbArc
 50
303.9043544723
 51
305.6529101968
  0
ARC
  5
2AC
100
AcDbEntity
  8
0
100
AcDbCircle
 62
7
  6
BYLAYER
 10
19.74168831
 20
9.1959808082
 40
2.5786221681
100
AcDbArc
 50
269.2682021967
 51
270.72947467
  0
ARC
  5
2AD
100
AcDbEntity
  8
0
100
AcDbCircle
 62
7
  6
BYLAYER
 10
19.7421328687
 20
9.1835237494
 40
2.5661604749
100
AcDbArc
 50
270.7230906535
 51
282.9991148948
  0
ARC
  5
2AE
100
AcDbEntity
  8
0
100
AcDbCircle
 62
7
  6
BYLAYER
 10
24.7416793786
 20
14.4971942446
 40
1.45
100
AcDbArc
 50
230.2589922276
 51
240.5545809195
  0
ARC
  5
2AF
100
AcDbEntity
  8
0
100
AcDbCircle
 62
7
  6
BYLAYER
 10
33.6916793786
 20
11.9971942446
 40
1.0
100
AcDbArc
 50
270.00030911
 51
360.0
  0
ARC
  5
2B0
100
AcDbEntity
  8
0
100
AcDbCircle
 62
7
  6
BYLAYER
 10
30.9066793786
 20
17.6971942446
 40
1.0
100
AcDbArc
 50
270.0
 51
360.0
  0
ARC
  5
2B1
100
AcDbEntity
  8
0
100
AcDbCircle
 62
7
  6
BYLAYER
 10
23.4916793786
 20
6.8971942446
 40
0.5
100
AcDbArc
 50
270.0000000001
 51
360.0
  0
ARC
  5
2B2
100
AcDbEntity
  8
0
100
AcDbCircle
 62
7
  6
BYLAYER
 10
26.9916793786
 20
13.6971942446
 40
0.5
100
AcDbArc
 50
90.0
 51
180.0
  0
ARC
  5
2B3
100
AcDbEntity
  8
0
100
AcDbCircle
 62
7
  6
BYLAYER
 10
31.2916793786
 20
43.1971942446
 40
2.3
100
AcDbArc
 50
180.0
 51
284.4775121859
  0
ARC
  5
2B4
100
AcDbEntity
  8
0
100
AcDbCircle
 62
7
  6
BYLAYER
 10
31.2916793786
 20
43.1971942446
 40
2.0
100
AcDbArc
 50
71.9817774043
 51
287.9086332946
  0
ARC
  5
2B5
100
AcDbEntity
  8
0
100
AcDbCircle
 62
7
  6
BYLAYER
 10
33.1918586062
 20
44.1973734722
 40
1.4998207831
100
AcDbArc
 50
0.0068455187
 51
34.5869386826
  0
ARC
  5
2B6
100
AcDbEntity
  8
0
100
AcDbCircle
 62
7
  6
BYLAYER
 10
31.2916793786
 20
43.1971942446
 40
1.45
100
AcDbArc
 50
64.6179718283
 51
295.3820281662
  0
ARC
  5
2B7
100
AcDbEntity
  8
0
100
AcDbCircle
 62
7
  6
BYLAYER
 10
31.2916793786
 20
43.1971942446
 40
1.275
100
AcDbArc
 50
60.283502215
 51
299.715970902
  0
ARC
  5
2B8
100
AcDbEntity
  8
0
100
AcDbCircle
 62
7
  6
BYLAYER
 10
31.2916793786
 20
43.1971942446
 40
0.95
100
AcDbArc
 50
53.6286190926
 51
306.5141137179
  0
ARC
  5
2B9
100
AcDbEntity
  8
0
100
AcDbCircle
 62
7
  6
BYLAYER
 10
26.2416793786
 20
44.2471942446
 40
0.5
100
AcDbArc
 50
270.0000361347
 51
359.9999771805
  0
ARC
  5
2BA
100
AcDbEntity
  8
0
100
AcDbCircle
 62
7
  6
BYLAYER
 10
27.2416793786
 20
45.1971942446
 40
0.5
100
AcDbArc
 50
90.168206148
 51
180.0540034134
  0
SPLINE
  5
2BB
100
AcDbEntity
  8
0
100
AcDbSpline
 62
7
  6
BYLAYER
 70
0
 71
3
 72
16
 73
12
 74
0
 42
0.0000001
 43
0.0000001
 44
0.0000000001
 40
0.0
 40
0.0
 40
0.0
 40
0.0
 40
0.1258533713
 40
0.2517167671
 40
0.3772034511
 40
0.5023736058
 40
0.6271714264
 40
0.7516202128
 40
0.8138160451
 40
0.8759601555
 40
1.0
 40
1.0
 40
1.0
 40
1.0
 10
19.7416793786
 20
10.4402823833
 30
0.0
 10
19.6110766377
 20
10.4402823833
 30
0.0
 10
19.3491754442
 20
10.4657499544
 30
0.0
 10
18.9718158668
 20
10.578275143
 30
0.0
 10
18.6238151106
 20
10.7613912127
 30
0.0
 10
18.3187907946
 20
11.0078064052
 30
0.0
 10
18.0683782622
 20
11.3081073493
 30
0.0
 10
17.9130065885
 20
11.5941280125
 30
0.0
 10
17.8248056267
 20
11.8371792754
 30
0.0
 10
17.7610750787
 20
12.0872428328
 30
0.0
 10
17.7417139022
 20
12.2811771128
 30
0.0
 10
17.7417139022
 20
12.4098978893
 30
0.0
  0
SPLINE
  5
2BC
100
AcDbEntity
  8
0
100
AcDbSpline
 62
7
  6
BYLAYER
 70
0
 71
3
 72
16
 73
12
 74
0
 42
0.0000001
 43
0.0000001
 44
0.0000000001
 40
0.0
 40
0.0
 40
0.0
 40
0.0
 40
0.1258576004
 40
0.2517260407
 40
0.377213008
 40
0.5023788372
 40
0.6271716223
 40
0.7516179585
 40
0.8138146294
 40
0.8759597247
 40
1.0
 40
1.0
 40
1.0
 40
1.0
 10
19.7416793786
 20
9.4719194286
 30
0.0
 10
19.8722859591
 20
9.4719194286
 30
0.0
 10
20.1341953637
 20
9.4973921534
 30
0.0
 10
20.5115622851
 20
9.6099220982
 30
0.0
 10
20.8595585174
 20
9.7930459603
 30
0.0
 10
21.1645704468
 20
10.03945806
 30
0.0
 10
21.4149723962
 20
10.3397498257
 30
0.0
 10
21.5703354228
 20
10.6257656606
 30
0.0
 10
21.6585358548
 20
10.8688150461
 30
0.0
 10
21.7222703853
 20
11.1188790481
 30
0.0
 10
21.7416284757
 20
11.3128142701
 30
0.0
 10
21.7416300496
 20
11.4415349525
 30
0.0
  0
SPLINE
  5
2BD
100
AcDbEntity
  8
0
100
AcDbSpline
 62
7
  6
BYLAYER
 70
0
 71
3
 72
16
 73
12
 74
0
 42
0.0000001
 43
0.0000001
 44
0.0000000001
 40
0.0
 40
0.0
 40
0.0
 40
0.0
 40
0.1240351844
 40
0.1861777388
 40
0.2483717718
 40
0.3728166482
 40
0.4976113241
 40
0.6227807498
 40
0.748272864
 40
0.8741450177
 40
1.0
 40
1.0
 40
1.0
 40
1.0
 10
17.7417287075
 20
11.4415349169
 30
0.0
 10
17.7417271336
 20
11.3128196215
 30
0.0
 10
17.7610945695
 20
11.1188936252
 30
0.0
 10
17.8248153807
 20
10.8688378373
 30
0.0
 10
17.9130087283
 20
10.625793169
 30
0.0
 10
18.0683686044
 20
10.3397779922
 30
0.0
 10
18.3187738195
 20
10.0394849973
 30
0.0
 10
18.6237831459
 20
9.7930524167
 30
0.0
 10
18.9717930306
 20
9.6099252152
 30
0.0
 10
19.3491652849
 20
9.4973930478
 30
0.0
 10
19.6110756205
 20
9.4719194286
 30
0.0
 10
19.7416793786
 20
9.4719194286
 30
0.0
  0
SPLINE
  5
2BE
100
AcDbEntity
  8
0
100
AcDbSpline
 62
7
  6
BYLAYER
 70
0
 71
3
 72
16
 73
12
 74
0
 42
0.0000001
 43
0.0000001
 44
0.0000000001
 40
0.0
 40
0.0
 40
0.0
 40
0.0
 40
0.1240398445
 40
0.1861839549
 40
0.2483797872
 40
0.3728285736
 40
0.4976263942
 40
0.6227965489
 40
0.7482832329
 40
0.8741466287
 40
1.0
 40
1.0
 40
1.0
 40
1.0
 10
21.741644855
 20
12.4098978893
 30
0.0
 10
21.741644855
 20
12.2811771128
 30
0.0
 10
21.7222836785
 20
12.0872428328
 30
0.0
 10
21.6585531304
 20
11.8371792754
 30
0.0
 10
21.5703521686
 20
11.5941280125
 30
0.0
 10
21.4149804949
 20
11.3081073493
 30
0.0
 10
21.1645679625
 20
11.0078064052
 30
0.0
 10
20.8595436465
 20
10.7613912127
 30
0.0
 10
20.5115428903
 20
10.578275143
 30
0.0
 10
20.1341833129
 20
10.4657499544
 30
0.0
 10
19.8722821195
 20
10.4402823833
 30
0.0
 10
19.7416793786
 20
10.4402823833
 30
0.0
  0
SPLINE
  5
2BF
100
AcDbEntity
  8
0
100
AcDbSpline
 62
7
  6
BYLAYER
 70
0
 71
3
 72
15
 73
11
 74
0
 42
0.0000001
 43
0.0000001
 44
0.0000000001
 40
0.0
 40
0.0
 40
0.0
 40
0.0
 40
0.1260864257
 40
0.2520018671
 40
0.3774813165
 40
0.5025110297
 40
0.6271041082
 40
0.7514067608
 40
0.8756286909
 40
1.0
 40
1.0
 40
1.0
 40
1.0
 10
19.7416793786
 20
11.0210925245
 30
0.0
 10
19.6101829665
 20
11.0210925245
 30
0.0
 10
19.3462571258
 20
11.0533437331
 30
0.0
 10
18.9750610788
 20
11.1953784893
 30
0.0
 10
18.650146074
 20
11.4227965239
 30
0.0
 10
18.3915092074
 20
11.721625387
 30
0.0
 10
18.2149825446
 20
12.0739104517
 30
0.0
 10
18.1314373377
 20
12.4582038546
 30
0.0
 10
18.1459298185
 20
12.8507685283
 30
0.0
 10
18.2206209267
 20
13.1023880997
 30
0.0
 10
18.2726717811
 20
13.2211938121
 30
0.0
  0
SPLINE
  5
2C0
100
AcDbEntity
  8
0
100
AcDbSpline
 62
7
  6
BYLAYER
 70
0
 71
3
 72
15
 73
11
 74
0
 42
0.0000001
 43
0.0000001
 44
0.0000000001
 40
0.0
 40
0.0
 40
0.0
 40
0.0
 40
0.1260864269
 40
0.2520018678
 40
0.3774813163
 40
0.5025110272
 40
0.6271041034
 40
0.7514067548
 40
0.8756286862
 40
1.0
 40
1.0
 40
1.0
 40
1.0
 10
19.7416793786
 20
11.0210925245
 30
0.0
 10
19.8731760452
 20
11.0210925245
 30
0.0
 10
20.1371023997
 20
11.0533438582
 30
0.0
 10
20.5082990741
 20
11.1953791586
 30
0.0
 10
20.8332144439
 20
11.4227980253
 30
0.0
 10
21.0918513114
 20
11.7216279083
 30
0.0
 10
21.2683775493
 20
12.0739140463
 30
0.0
 10
21.3519218889
 20
12.4582084279
 30
0.0
 10
21.3374281316
 20
12.8507738317
 30
0.0
 10
21.2627359583
 20
13.102393634
 30
0.0
 10
21.2106845381
 20
13.2211993767
 30
0.0
  0
ENDSEC
  0
SECTION
  2
OBJECTS
  0
DICTIONARY
  5
C
100
AcDbDictionary
280
0
281
1
  3
ACAD_GROUP
350
D
  3
ACAD_MLINESTYLE
350
17
  3
ACAD_LAYOUT
350
1A
  3
ACAD_PLOTSETTINGS
350
19
  3
ACAD_PLOTSTYLENAME
350
E
  0
DICTIONARY
  5
D
102
{ACAD_REACTORS
330
C
102
}
100
AcDbDictionary
280
0
281
1
  0
ACDBDICTIONARYWDFLT
  5
E
102
{ACAD_REACTORS
330
C
102
}
100
AcDbDictionary
281
1
  3
Normal
350
F
100
AcDbDictionaryWithDefault
340
F
  0
DICTIONARY
  5
17
102
{ACAD_REACTORS
330
C
102
}
100
AcDbDictionary
280
0
281
1
  3
Standard
350
18
  0
DICTIONARY
  5
19
102
{ACAD_REACTORS
330
C
102
}
100
AcDbDictionary
281
1
  0
DICTIONARY
  5
1A
102
{ACAD_REACTORS
330
C
102
}
100
AcDbDictionary
281
1
  3
Model
350
2C1
  3
Layout1
350
2C2
  0
ACDBPLACEHOLDER
  5
F
102
{ACAD_REACTORS
330
E
102
}
  0
MLINESTYLE
  5
18
102
{ACAD_REACTORS
330
17
102
}
100
AcDbMlineStyle
  2
STANDARD
 70
0
  3

 62
256
 51
90.0
 52
90.0
 71
2
 49
0.5
 62
256
  6
BYLAYER
 49
-0.5
 62
256
  6
BYLAYER
  0
LAYOUT
  5
2C1
102
{ACAD_REACTORS
330
1A
102
}
100
AcDbPlotSettings
  1

  2
none_device
  4

  6

 40
0.0
 41
0.0
 42
0.0
 43
0.0
 44
210.0
 45
297.0
 46
0.0
 47
0.0
 48
0.0
 49
0.0
140
0.0
141
0.0
142
1.0
143
1.0
 70
1024
 72
1
 73
0
 74
0
  7

 75
0
147
1.0
148
0.0
149
0.0
100
AcDbLayout
  1
Model
 70
0
 71
0
 10
0.0
 20
0.0
 11
210.0
 21
297.0
 12
0.0
 22
0.0
 32
0.0
 14
0.0
 24
0.0
 34
0.0
 15
0.0
 25
0.0
 35
0.0
146
0.0
 13
0.0
 23
0.0
 33
0.0
 16
1.0
 26
0.0
 36
0.0
 17
0.0
 27
1.0
 37
0.0
 76
0
330
210
345
0
346
0
  0
LAYOUT
  5
2C2
102
{ACAD_REACTORS
330
1A
102
}
100
AcDbPlotSettings
  1

  2
none_device
  4

  6

 40
0.0
 41
0.0
 42
0.0
 43
0.0
 44
210.0
 45
297.0
 46
0.0
 47
0.0
 48
0.0
 49
0.0
140
0.0
141
0.0
142
1.0
143
1.0
 70
0
 72
1
 73
0
 74
0
  7

 75
0
147
1.0
148
0.0
149
0.0
100
AcDbLayout
  1
Layout1
 70
0
 71
1
 10
0.0
 20
0.0
 11
210.0
 21
297.0
 12
0.0
 22
0.0
 32
0.0
 14
0.0
 24
0.0
 34
0.0
 15
0.0
 25
0.0
 35
0.0
146
0.0
 13
0.0
 23
0.0
 33
0.0
 16
1.0
 26
0.0
 36
0.0
 17
0.0
 27
1.0
 37
0.0
 76
0
330
211
345
0
346
0
  0
ENDSEC
  0
EOF
