999
DXF file: C:\Users\sesa63760\Dev\_Creo\CAD\MCADID0000957_3D-CAD\drw0001_6.dxf
999
Pro/ENGINEER 2019471 by Parametric Technology Corporation
  0
SECTION
  2
HEADER
  9
$ACADVER
  1
AC1024
  9
$DWGCODEPAGE
  3
ANSI_1252
  9
$EXTMAX
 10
295.7907300577
 20
418.3326039387
 30
0.0
  9
$EXTMIN
 10
0.0
 20
0.0
 30
0.0
  9
$LIMMIN
 10
0.0
 20
0.0
  9
$LIMMAX
 10
295.7907300577
 20
418.3326039387
  9
$VIEWCTR
 10
147.8953650288
 20
209.1663019694
  9
$VIEWSIZE
 40
418.3326039387
  9
$CLAYER
  8
0
  9
$LTSCALE
 40
27.2690882567
  9
$CELTYPE
  6
BYLAYER
  9
$DIMSCALE
 40
1.0
  9
$DIMASZ
 40
3.521318215
  9
$DIMEXO
 40
1.0
  9
$DIMDLI
 40
18.8404609774
  9
$DIMEXE
 40
1.0
  9
$DIMCEN
 40
4.462214442
  9
$DIMLFAC
 40
1.0
  9
$DIMBLK
  1
_FILLED
  9
$DIMALT
 70
0
  9
$DIMALTF
 40
0.0393700787
  9
$DIMTXT
 40
4.929845501
  9
$DIMTOL
 70
1
  9
$DIMLIM
 70
0
  9
$DIMTFAC
 40
1.0
  9
$DIMTP
 40
0.01
  9
$DIMTM
 40
0.01
  9
$DIMGAP
 40
0.625
  9
$DIMDSEP
 70
46
  9
$AUNITS
 70
0
  9
$PDMODE
 70
3
  9
$PDSIZE
 40
0.3125
  9
$HANDSEED
  5
2E9
  9
$TILEMODE
 70
1
  9
$MEASUREMENT
 70
1
  9
$INSUNITS
 70
4
  0
ENDSEC
  0
SECTION
  2
CLASSES
  0
CLASS
  1
ACDBDICTIONARYWDFLT
  2
AcDbDictionaryWithDefault
  3
AutoCAD 2000
 90
0
 91
1
280
0
281
0
  0
CLASS
  1
ACDBPLACEHOLDER
  2
AcDbPlaceHolder
  3
AutoCAD 2000
 90
0
 91
1
280
0
281
0
  0
CLASS
  1
LAYOUT
  2
AcDbLayout
  3
AutoCAD 2000
 90
0
 91
0
280
0
281
0
  0
ENDSEC
  0
SECTION
  2
TABLES
  0
TABLE
  2
VPORT
  5
8
100
AcDbSymbolTable
 70
2
  0
VPORT
  5
1F4
100
AcDbSymbolTableRecord
100
AcDbViewportTableRecord
  2
*ACTIVE
 70
0
 10
0.0
 20
0.0
 11
1.0
 21
1.0
 12
147.8953650288
 22
209.1663019694
 13
0.0
 23
0.0
 14
1.0
 24
1.0
 15
0.0
 25
0.0
 16
0.0
 26
0.0
 36
1.0
 17
0.0
 27
0.0
 37
0.0
 40
418.3326039387
 41
0.7070707071
 42
50.0
 43
0.0
 44
0.0
 50
0.0
 51
0.0
 71
0
 72
100
 73
1
 74
1
 75
0
 76
0
 77
0
 78
0
  0
ENDTAB
  0
TABLE
  2
LTYPE
  5
5
100
AcDbSymbolTable
 70
6
  0
LTYPE
  5
14
100
AcDbSymbolTableRecord
100
AcDbLinetypeTableRecord
  2
BYBLOCK
 70
0
  3

 72
65
 73
0
 40
0.0
  0
LTYPE
  5
15
100
AcDbSymbolTableRecord
100
AcDbLinetypeTableRecord
  2
BYLAYER
 70
0
  3

 72
65
 73
0
 40
0.0
  0
LTYPE
  5
16
100
AcDbSymbolTableRecord
100
AcDbLinetypeTableRecord
  2
CONTINUOUS
 70
64
  3
Solid line
 72
65
 73
0
 40
0.0
  0
LTYPE
  5
1F5
100
AcDbSymbolTableRecord
100
AcDbLinetypeTableRecord
  2
CENTER
 70
64
  3
____ _ ____ _ ____ _ ____ _ ____ _ ____ _ ____
 72
65
 73
4
 40
0.6
 49
0.375
 74
0
 49
-0.075
 74
0
 49
0.075
 74
0
 49
-0.075
 74
0
  0
LTYPE
  5
1F6
100
AcDbSymbolTableRecord
100
AcDbLinetypeTableRecord
  2
HIDDEN
 70
64
  3
- - - - - - - - - - - - - - - - - - - -
 72
65
 73
2
 40
0.2
 49
0.1
 74
0
 49
-0.1
 74
0
  0
LTYPE
  5
1F7
100
AcDbSymbolTableRecord
100
AcDbLinetypeTableRecord
  2
PHANTOM
 70
64
  3
_____ _ _ _____ _ _ _____ _ _ _____
 72
65
 73
6
 40
0.8
 49
0.45
 74
0
 49
-0.05
 74
0
 49
0.1
 74
0
 49
-0.05
 74
0
 49
0.1
 74
0
 49
-0.05
 74
0
  0
LTYPE
  5
1F8
100
AcDbSymbolTableRecord
100
AcDbLinetypeTableRecord
  2
DOT
 70
64
  3
. . . . . . . . . . . . . . . . . . . .
 72
65
 73
2
 40
0.2
 49
0.1
 74
0
 49
-0.1
 74
0
  0
LTYPE
  5
1F9
100
AcDbSymbolTableRecord
100
AcDbLinetypeTableRecord
  2
DASHED
 70
64
  3
- - - - - - - - - - - - - - - - - - - -
 72
65
 73
2
 40
0.2
 49
0.1
 74
0
 49
-0.1
 74
0
  0
ENDTAB
  0
TABLE
  2
LAYER
  5
2
100
AcDbSymbolTable
 70
36
  0
LAYER
  5
10
100
AcDbSymbolTableRecord
100
AcDbLayerTableRecord
  2
0
 70
0
 62
7
  6
CONTINUOUS
370
-3
390
F
  0
LAYER
  5
1FA
100
AcDbSymbolTableRecord
100
AcDbLayerTableRecord
  2
DEFAULT_1
 70
0
 62
7
  6
CENTER
370
-3
390
F
  0
LAYER
  5
1FB
100
AcDbSymbolTableRecord
100
AcDbLayerTableRecord
  2
DEFAULT_2
 70
0
 62
8
  6
HIDDEN
370
-3
390
F
  0
LAYER
  5
1FC
100
AcDbSymbolTableRecord
100
AcDbLayerTableRecord
  2
DEFAULT_3
 70
0
 62
7
  6
PHANTOM
370
-3
390
F
  0
LAYER
  5
1FD
100
AcDbSymbolTableRecord
100
AcDbLayerTableRecord
  2
00_COMPONENTS
 70
0
 62
7
  6
CONTINUOUS
370
-3
390
F
  0
LAYER
  5
1FE
100
AcDbSymbolTableRecord
100
AcDbLayerTableRecord
  2
01_1_DEFAULT_DATUMS
 70
0
 62
7
  6
CONTINUOUS
370
-3
390
F
  0
LAYER
  5
1FF
100
AcDbSymbolTableRecord
100
AcDbLayerTableRecord
  2
01_PLANES
 70
0
 62
7
  6
CONTINUOUS
370
-3
390
F
  0
LAYER
  5
200
100
AcDbSymbolTableRecord
100
AcDbLayerTableRecord
  2
02_COORD_SYS
 70
0
 62
7
  6
CONTINUOUS
370
-3
390
F
  0
LAYER
  5
201
100
AcDbSymbolTableRecord
100
AcDbLayerTableRecord
  2
03_AXES
 70
0
 62
7
  6
CONTINUOUS
370
-3
390
F
  0
LAYER
  5
202
100
AcDbSymbolTableRecord
100
AcDbLayerTableRecord
  2
04_POINTS
 70
0
 62
7
  6
CONTINUOUS
370
-3
390
F
  0
LAYER
  5
203
100
AcDbSymbolTableRecord
100
AcDbLayerTableRecord
  2
05_CURVES
 70
0
 62
7
  6
CONTINUOUS
370
-3
390
F
  0
LAYER
  5
204
100
AcDbSymbolTableRecord
100
AcDbLayerTableRecord
  2
06_SURFS
 70
0
 62
7
  6
CONTINUOUS
370
-3
390
F
  0
LAYER
  5
205
100
AcDbSymbolTableRecord
100
AcDbLayerTableRecord
  2
07_COSMETICS
 70
0
 62
7
  6
CONTINUOUS
370
-3
390
F
  0
LAYER
  5
206
100
AcDbSymbolTableRecord
100
AcDbLayerTableRecord
  2
10_NOTES
 70
0
 62
7
  6
CONTINUOUS
370
-3
390
F
  0
LAYER
  5
207
100
AcDbSymbolTableRecord
100
AcDbLayerTableRecord
  2
11_NOTES_PUB
 70
0
 62
7
  6
CONTINUOUS
370
-3
390
F
  0
LAYER
  5
208
100
AcDbSymbolTableRecord
100
AcDbLayerTableRecord
  2
13_REF_GTOL
 70
0
 62
7
  6
CONTINUOUS
370
-3
390
F
  0
LAYER
  5
209
100
AcDbSymbolTableRecord
100
AcDbLayerTableRecord
  2
16_MISC
 70
0
 62
7
  6
CONTINUOUS
370
-3
390
F
  0
LAYER
  5
20A
100
AcDbSymbolTableRecord
100
AcDbLayerTableRecord
  2
17_NO_PRINT
 70
0
 62
7
  6
CONTINUOUS
370
-3
390
F
  0
LAYER
  5
20B
100
AcDbSymbolTableRecord
100
AcDbLayerTableRecord
  2
18_DATUM_CAMS_JOINTS
 70
0
 62
7
  6
CONTINUOUS
370
-3
390
F
  0
LAYER
  5
20C
100
AcDbSymbolTableRecord
100
AcDbLayerTableRecord
  2
19_DATUM_FUNCTIONAL
 70
0
 62
7
  6
CONTINUOUS
370
-3
390
F
  0
LAYER
  5
20D
100
AcDbSymbolTableRecord
100
AcDbLayerTableRecord
  2
2
 70
0
 62
7
  6
CONTINUOUS
370
-3
390
F
  0
LAYER
  5
20E
100
AcDbSymbolTableRecord
100
AcDbLayerTableRecord
  2
20_DATUM_KINEMATIC_SCHEME
 70
0
 62
7
  6
CONTINUOUS
370
-3
390
F
  0
LAYER
  5
20F
100
AcDbSymbolTableRecord
100
AcDbLayerTableRecord
  2
5
 70
0
 62
7
  6
CONTINUOUS
370
-3
390
F
  0
LAYER
  5
210
100
AcDbSymbolTableRecord
100
AcDbLayerTableRecord
  2
_1
 70
0
 62
7
  6
CONTINUOUS
370
-3
390
F
  0
ENDTAB
  0
TABLE
  2
STYLE
  5
3
100
AcDbSymbolTable
 70
1
  0
STYLE
  5
11
100
AcDbSymbolTableRecord
100
AcDbTextStyleTableRecord
  2
STANDARD
 70
0
 40
0.0
 41
0.8
 50
0.0
 71
0
 42
0.2
  3
txt
  4

  0
STYLE
  5
211
100
AcDbSymbolTableRecord
100
AcDbTextStyleTableRecord
  2
TEXTSTYLE_1
 70
0
 40
0.0
 41
0.8
 50
0.0
 71
0
 42
0.2
  3
gdt
  4

  0
ENDTAB
  0
TABLE
  2
VIEW
  5
6
100
AcDbSymbolTable
 70
0
  0
ENDTAB
  0
TABLE
  2
UCS
  5
7
100
AcDbSymbolTable
 70
0
  0
ENDTAB
  0
TABLE
  2
APPID
  5
9
100
AcDbSymbolTable
 70
1
  0
APPID
  5
212
100
AcDbSymbolTableRecord
100
AcDbRegAppTableRecord
  2
ACAD
 70
0
  0
ENDTAB
  0
TABLE
  2
BLOCK_RECORD
  5
1
100
AcDbSymbolTable
 70
0
  0
BLOCK_RECORD
  5
213
100
AcDbSymbolTableRecord
100
AcDbBlockTableRecord
  2
*Model_Space
  0
BLOCK_RECORD
  5
214
100
AcDbSymbolTableRecord
100
AcDbBlockTableRecord
  2
*Paper_Space
  0
BLOCK_RECORD
  5
215
100
AcDbSymbolTableRecord
100
AcDbBlockTableRecord
  2
_FILLED
  0
ENDTAB
  0
TABLE
  2
DIMSTYLE
  5
A
100
AcDbSymbolTable
 70
1
100
AcDbDimStyleTable
 71
0
  0
DIMSTYLE
105
216
100
AcDbSymbolTableRecord
100
AcDbDimStyleTableRecord
  2
STANDARD
 70
0
  3

  4

 40
1.0
 41
3.521318215
 42
1.0
 43
0.38
 44
1.0
 45
0.0
 46
0.0
 47
0.01
 48
0.01
140
4.929845501
141
0.09
142
0.0
143
25.4
144
1.0
145
0.0
146
1.0
147
0.625
 71
1
 72
0
 73
0
 74
0
 75
0
 76
0
 77
1
 78
8
 79
2
170
0
171
1
172
0
173
0
174
0
175
0
176
0
177
0
178
0
270
2
179
2
271
2
272
2
273
2
274
2
275
0
280
0
281
0
282
0
283
1
284
8
285
0
286
0
287
3
288
0
340
11
278
46
341
215
342
215
343
215
344
215
  0
ENDTAB
  0
ENDSEC
  0
SECTION
  2
BLOCKS
  0
BLOCK
  5
20
100
AcDbEntity
  8
0
100
AcDbBlockBegin
  2
*Model_Space
 70
0
 10
0.0
 20
0.0
 30
0.0
  3
*Model_Space
  1

  0
ENDBLK
  5
21
100
AcDbEntity
  8
0
100
AcDbBlockEnd
  0
BLOCK
  5
1C
100
AcDbEntity
  8
0
100
AcDbBlockBegin
  2
*Paper_Space
 70
0
 10
0.0
 20
0.0
 30
0.0
  3
*Paper_Space
  1

  0
ENDBLK
  5
1D
100
AcDbEntity
  8
0
100
AcDbBlockEnd
  0
BLOCK
  5
217
100
AcDbEntity
  8
0
100
AcDbBlockBegin
  2
_FILLED
 70
64
 10
0.0
 20
0.0
  3
_FILLED
  1

  0
SOLID
  5
218
100
AcDbEntity
  8
0
  6
BYBLOCK
 62
0
100
AcDbTrace
 10
0.0
 20
0.0
 11
-1.0
 21
0.25
 12
-1.0
 22
-0.25
 13
-1.0
 23
-0.25
  0
ENDBLK
  5
219
100
AcDbEntity
  8
0
  6
BYBLOCK
 62
0
100
AcDbBlockEnd
  0
ENDSEC
  0
SECTION
  2
ENTITIES
  0
LINE
  5
21A
100
AcDbEntity
  8
_1
100
AcDbLine
 62
7
  6
CONTINUOUS
 10
69.6555400835
 20
74.1663019694
 11
71.1555400835
 21
74.1663019694
  0
LINE
  5
21B
100
AcDbEntity
  8
_1
100
AcDbLine
 62
7
  6
CONTINUOUS
 10
197.8108432215
 20
74.1663019694
 11
267.4555400835
 21
74.1663019694
  0
LINE
  5
21C
100
AcDbEntity
  8
_1
100
AcDbLine
 62
7
  6
CONTINUOUS
 10
198.0555400835
 20
78.1663019694
 11
206.0555400835
 21
78.1663019694
  0
LINE
  5
21D
100
AcDbEntity
  8
_1
100
AcDbLine
 62
7
  6
CONTINUOUS
 10
71.1555400835
 20
79.1663019694
 11
69.6555400835
 21
79.1663019694
  0
LINE
  5
21E
100
AcDbEntity
  8
_1
100
AcDbLine
 62
7
  6
CONTINUOUS
 10
206.0555400835
 20
82.1663019694
 11
198.0555400835
 21
82.1663019694
  0
LINE
  5
21F
100
AcDbEntity
  8
_1
100
AcDbLine
 62
7
  6
CONTINUOUS
 10
69.6555400835
 20
88.6663019694
 11
71.1555400835
 21
88.6663019694
  0
LINE
  5
220
100
AcDbEntity
  8
_1
100
AcDbLine
 62
7
  6
CONTINUOUS
 10
33.4555400835
 20
99.3763019694
 11
33.4555400835
 21
146.8863019694
  0
LINE
  5
221
100
AcDbEntity
  8
_1
100
AcDbLine
 62
7
  6
CONTINUOUS
 10
41.4555400835
 20
312.7873295958
 11
41.4555400835
 21
286.4714893431
  0
LINE
  5
222
100
AcDbEntity
  8
_1
100
AcDbLine
 62
7
  6
CONTINUOUS
 10
44.4031828642
 20
316.2631232084
 11
44.4031828642
 21
315.8230925132
  0
LINE
  5
223
100
AcDbEntity
  8
_1
100
AcDbLine
 62
7
  6
CONTINUOUS
 10
71.1555400835
 20
93.6663019694
 11
69.6555400835
 21
93.6663019694
  0
LINE
  5
224
100
AcDbEntity
  8
_1
100
AcDbLine
 62
7
  6
CONTINUOUS
 10
50.4555400835
 20
94.1663019694
 11
65.4555400835
 21
94.1663019694
  0
LINE
  5
225
100
AcDbEntity
  8
_1
100
AcDbLine
 62
7
  6
CONTINUOUS
 10
65.9555400835
 20
94.1663019694
 11
262.9555400835
 21
94.1663019694
  0
LINE
  5
226
100
AcDbEntity
  8
_1
100
AcDbLine
 62
7
  6
CONTINUOUS
 10
65.4555400835
 20
95.1663019694
 11
65.9555400835
 21
95.1663019694
  0
LINE
  5
227
100
AcDbEntity
  8
_1
100
AcDbLine
 62
7
  6
CONTINUOUS
 10
33.4555400835
 20
99.3763019694
 11
50.4555400835
 21
99.3763019694
  0
LINE
  5
228
100
AcDbEntity
  8
_1
100
AcDbLine
 62
7
  6
CONTINUOUS
 10
50.4555400835
 20
102.3763019694
 11
33.4555400835
 21
102.3763019694
  0
LINE
  5
229
100
AcDbEntity
  8
_1
100
AcDbLine
 62
7
  6
CONTINUOUS
 10
45.816309599
 20
233.8463019694
 11
45.816309599
 21
220.0463019694
  0
LINE
  5
22A
100
AcDbEntity
  8
_1
100
AcDbLine
 62
7
  6
CONTINUOUS
 10
47.5078973029
 20
316.3160821168
 11
47.5078973029
 21
315.8760748367
  0
LINE
  5
22B
100
AcDbEntity
  8
_1
100
AcDbLine
 62
7
  6
CONTINUOUS
 10
50.4555400835
 20
94.1663019694
 11
50.4555400835
 21
324.1663019694
  0
LINE
  5
22C
100
AcDbEntity
  8
_1
100
AcDbLine
 62
7
  6
CONTINUOUS
 10
54.4555400835
 20
317.8188973799
 11
54.4555400835
 21
273.5137065588
  0
LINE
  5
22D
100
AcDbEntity
  8
_1
100
AcDbLine
 62
7
  6
CONTINUOUS
 10
54.4555400835
 20
267.8188973799
 11
54.4555400835
 21
223.5137065588
  0
LINE
  5
22E
100
AcDbEntity
  8
_1
100
AcDbLine
 62
7
  6
CONTINUOUS
 10
54.4555400835
 20
217.8188973799
 11
54.4555400835
 21
173.5137065588
  0
LINE
  5
22F
100
AcDbEntity
  8
_1
100
AcDbLine
 62
7
  6
CONTINUOUS
 10
54.4994740664
 20
173.5137065588
 11
54.4994740664
 21
217.8188973799
  0
LINE
  5
230
100
AcDbEntity
  8
_1
100
AcDbLine
 62
7
  6
CONTINUOUS
 10
54.4994740664
 20
223.5137065588
 11
54.4994740664
 21
267.8188973799
  0
LINE
  5
231
100
AcDbEntity
  8
_1
100
AcDbLine
 62
7
  6
CONTINUOUS
 10
54.4994740664
 20
273.5137065588
 11
54.4994740664
 21
317.8188973799
  0
LINE
  5
232
100
AcDbEntity
  8
_1
100
AcDbLine
 62
7
  6
CONTINUOUS
 10
55.4555400835
 20
167.1663019694
 11
55.4555400835
 21
173.3488469044
  0
LINE
  5
233
100
AcDbEntity
  8
_1
100
AcDbLine
 62
7
  6
CONTINUOUS
 10
55.4555400835
 20
217.9810930796
 11
55.4555400835
 21
223.3488469044
  0
LINE
  5
234
100
AcDbEntity
  8
_1
100
AcDbLine
 62
7
  6
CONTINUOUS
 10
55.4555400835
 20
267.9810930796
 11
55.4555400835
 21
273.3488469044
  0
LINE
  5
235
100
AcDbEntity
  8
_1
100
AcDbLine
 62
7
  6
CONTINUOUS
 10
55.4555400835
 20
317.9810930796
 11
55.4555400835
 21
324.1663019694
  0
LINE
  5
236
100
AcDbEntity
  8
_1
100
AcDbLine
 62
7
  6
CONTINUOUS
 10
186.1555400835
 20
104.1663019694
 11
50.4555400835
 21
104.1663019694
  0
LINE
  5
237
100
AcDbEntity
  8
_1
100
AcDbLine
 62
7
  6
CONTINUOUS
 10
57.4515160331
 20
317.8704254641
 11
57.4515160331
 21
273.4621784746
  0
LINE
  5
238
100
AcDbEntity
  8
_1
100
AcDbLine
 62
7
  6
CONTINUOUS
 10
57.4515160331
 20
267.8704254641
 11
57.4515160331
 21
223.4621784746
  0
LINE
  5
239
100
AcDbEntity
  8
_1
100
AcDbLine
 62
7
  6
CONTINUOUS
 10
57.4515160331
 20
217.8704254641
 11
57.4515160331
 21
173.4621784746
  0
LINE
  5
23A
100
AcDbEntity
  8
_1
100
AcDbLine
 62
7
  6
CONTINUOUS
 10
57.5549641893
 20
173.4621784746
 11
57.5549641893
 21
217.8704254641
  0
LINE
  5
23B
100
AcDbEntity
  8
_1
100
AcDbLine
 62
7
  6
CONTINUOUS
 10
57.5549641893
 20
223.4621784746
 11
57.5549641893
 21
267.8704254641
  0
LINE
  5
23C
100
AcDbEntity
  8
_1
100
AcDbLine
 62
7
  6
CONTINUOUS
 10
57.5549641893
 20
273.4621784746
 11
57.5549641893
 21
317.8704254641
  0
LINE
  5
23D
100
AcDbEntity
  8
_1
100
AcDbLine
 62
7
  6
CONTINUOUS
 10
58.562500291
 20
317.8880120722
 11
58.562500291
 21
273.4445918666
  0
LINE
  5
23E
100
AcDbEntity
  8
_1
100
AcDbLine
 62
7
  6
CONTINUOUS
 10
58.562500291
 20
267.8880120722
 11
58.562500291
 21
223.4445918666
  0
LINE
  5
23F
100
AcDbEntity
  8
_1
100
AcDbLine
 62
7
  6
CONTINUOUS
 10
58.562500291
 20
217.8880120722
 11
58.562500291
 21
173.4445918666
  0
LINE
  5
240
100
AcDbEntity
  8
_1
100
AcDbLine
 62
7
  6
CONTINUOUS
 10
58.715118152
 20
173.4445918666
 11
58.715118152
 21
217.8880120722
  0
LINE
  5
241
100
AcDbEntity
  8
_1
100
AcDbLine
 62
7
  6
CONTINUOUS
 10
58.715118152
 20
223.4445918666
 11
58.715118152
 21
267.8880120722
  0
LINE
  5
242
100
AcDbEntity
  8
_1
100
AcDbLine
 62
7
  6
CONTINUOUS
 10
58.715118152
 20
273.4445918666
 11
58.715118152
 21
317.8880120722
  0
LINE
  5
243
100
AcDbEntity
  8
_1
100
AcDbLine
 62
7
  6
CONTINUOUS
 10
60.4555400835
 20
162.1663019694
 11
60.4555400835
 21
314.1663019694
  0
LINE
  5
244
100
AcDbEntity
  8
_1
100
AcDbLine
 62
7
  6
CONTINUOUS
 10
65.4555400835
 20
324.1663019694
 11
65.4555400835
 21
94.1663019694
  0
LINE
  5
245
100
AcDbEntity
  8
_1
100
AcDbLine
 62
7
  6
CONTINUOUS
 10
65.9555400835
 20
94.1663019694
 11
65.9555400835
 21
324.1663019694
  0
LINE
  5
246
100
AcDbEntity
  8
_1
100
AcDbLine
 62
7
  6
CONTINUOUS
 10
69.6555400835
 20
74.1663019694
 11
69.6555400835
 21
94.1663019694
  0
LINE
  5
247
100
AcDbEntity
  8
_1
100
AcDbLine
 62
7
  6
CONTINUOUS
 10
71.1555400835
 20
94.1663019694
 11
71.1555400835
 21
74.1663019694
  0
LINE
  5
248
100
AcDbEntity
  8
_1
100
AcDbLine
 62
7
  6
CONTINUOUS
 10
73.5120086292
 20
330.1163019694
 11
73.5120086292
 21
324.1663019694
  0
LINE
  5
249
100
AcDbEntity
  8
_1
100
AcDbLine
 62
7
  6
CONTINUOUS
 10
33.4555400835
 20
143.8863019694
 11
50.4555400835
 21
143.8863019694
  0
LINE
  5
24A
100
AcDbEntity
  8
_1
100
AcDbLine
 62
7
  6
CONTINUOUS
 10
50.4555400835
 20
146.8863019694
 11
33.4555400835
 21
146.8863019694
  0
LINE
  5
24B
100
AcDbEntity
  8
_1
100
AcDbLine
 62
7
  6
CONTINUOUS
 10
95.1163745088
 20
330.1163019694
 11
95.1163745088
 21
324.1663019694
  0
LINE
  5
24C
100
AcDbEntity
  8
_1
100
AcDbLine
 62
7
  6
CONTINUOUS
 10
50.4555400835
 20
162.1663019694
 11
60.4555400835
 21
162.1663019694
  0
LINE
  5
24D
100
AcDbEntity
  8
_1
100
AcDbLine
 62
7
  6
CONTINUOUS
 10
55.4555400835
 20
167.1663019694
 11
50.4555400835
 21
167.1663019694
  0
LINE
  5
24E
100
AcDbEntity
  8
_1
100
AcDbLine
 62
7
  6
CONTINUOUS
 10
55.4555400835
 20
172.1663019694
 11
50.4555400835
 21
172.1663019694
  0
LINE
  5
24F
100
AcDbEntity
  8
_1
100
AcDbLine
 62
7
  6
CONTINUOUS
 10
58.715118152
 20
173.4445918666
 11
58.562500291
 21
173.4445918666
  0
LINE
  5
250
100
AcDbEntity
  8
_1
100
AcDbLine
 62
7
  6
CONTINUOUS
 10
57.5549641893
 20
173.4621784746
 11
57.4515160331
 21
173.4621784746
  0
LINE
  5
251
100
AcDbEntity
  8
_1
100
AcDbLine
 62
7
  6
CONTINUOUS
 10
54.4994740664
 20
173.5137065588
 11
54.4555400835
 21
173.5137065588
  0
LINE
  5
252
100
AcDbEntity
  8
_1
100
AcDbLine
 62
7
  6
CONTINUOUS
 10
58.562500291
 20
173.2946147123
 11
54.6029222226
 21
173.3637294046
  0
LINE
  5
253
100
AcDbEntity
  8
_1
100
AcDbLine
 62
7
  6
CONTINUOUS
 10
54.4994740664
 20
173.5137065588
 11
57.4515160331
 21
173.4621784746
  0
LINE
  5
254
100
AcDbEntity
  8
_1
100
AcDbLine
 62
7
  6
CONTINUOUS
 10
57.5549641893
 20
173.4621784746
 11
58.562500291
 21
173.4445918666
  0
LINE
  5
255
100
AcDbEntity
  8
_1
100
AcDbLine
 62
7
  6
CONTINUOUS
 10
119.2909500835
 20
342.6663019694
 11
119.2909500835
 21
324.1663019694
  0
LINE
  5
256
100
AcDbEntity
  8
_1
100
AcDbLine
 62
7
  6
CONTINUOUS
 10
121.4555400835
 20
324.1663019694
 11
121.4555400835
 21
342.6663019694
  0
LINE
  5
257
100
AcDbEntity
  8
_1
100
AcDbLine
 62
7
  6
CONTINUOUS
 10
132.6143588256
 20
330.1163019694
 11
132.6143588256
 21
324.1663019694
  0
LINE
  5
258
100
AcDbEntity
  8
_1
100
AcDbLine
 62
7
  6
CONTINUOUS
 10
156.3555400835
 20
342.6663019694
 11
156.3555400835
 21
330.1163019694
  0
LINE
  5
259
100
AcDbEntity
  8
_1
100
AcDbLine
 62
7
  6
CONTINUOUS
 10
158.5201300835
 20
330.1163019694
 11
158.5201300835
 21
342.6663019694
  0
LINE
  5
25A
100
AcDbEntity
  8
_1
100
AcDbLine
 62
7
  6
CONTINUOUS
 10
58.562500291
 20
217.8880120722
 11
57.5549641893
 21
217.8704254641
  0
LINE
  5
25B
100
AcDbEntity
  8
_1
100
AcDbLine
 62
7
  6
CONTINUOUS
 10
57.4515160331
 20
217.8704254641
 11
54.4994740664
 21
217.8188973799
  0
LINE
  5
25C
100
AcDbEntity
  8
_1
100
AcDbLine
 62
7
  6
CONTINUOUS
 10
54.6029222226
 20
217.9688745342
 11
58.562500291
 21
218.0379892264
  0
LINE
  5
25D
100
AcDbEntity
  8
_1
100
AcDbLine
 62
7
  6
CONTINUOUS
 10
54.4555400835
 20
217.8188973799
 11
54.4994740664
 21
217.8188973799
  0
LINE
  5
25E
100
AcDbEntity
  8
_1
100
AcDbLine
 62
7
  6
CONTINUOUS
 10
57.4515160331
 20
217.8704254641
 11
57.5549641893
 21
217.8704254641
  0
LINE
  5
25F
100
AcDbEntity
  8
_1
100
AcDbLine
 62
7
  6
CONTINUOUS
 10
58.562500291
 20
217.8880120722
 11
58.715118152
 21
217.8880120722
  0
LINE
  5
260
100
AcDbEntity
  8
_1
100
AcDbLine
 62
7
  6
CONTINUOUS
 10
50.4555400835
 20
220.0463019694
 11
45.816309599
 21
220.0463019694
  0
LINE
  5
261
100
AcDbEntity
  8
_1
100
AcDbLine
 62
7
  6
CONTINUOUS
 10
58.562500291
 20
223.2946147123
 11
54.6029222226
 21
223.3637294046
  0
LINE
  5
262
100
AcDbEntity
  8
_1
100
AcDbLine
 62
7
  6
CONTINUOUS
 10
54.4994740664
 20
223.5137065588
 11
57.4515160331
 21
223.4621784746
  0
LINE
  5
263
100
AcDbEntity
  8
_1
100
AcDbLine
 62
7
  6
CONTINUOUS
 10
57.5549641893
 20
223.4621784746
 11
58.562500291
 21
223.4445918666
  0
LINE
  5
264
100
AcDbEntity
  8
_1
100
AcDbLine
 62
7
  6
CONTINUOUS
 10
164.4521880651
 20
330.1163019694
 11
164.4521880651
 21
324.1663019694
  0
LINE
  5
265
100
AcDbEntity
  8
_1
100
AcDbLine
 62
7
  6
CONTINUOUS
 10
58.715118152
 20
223.4445918666
 11
58.562500291
 21
223.4445918666
  0
LINE
  5
266
100
AcDbEntity
  8
_1
100
AcDbLine
 62
7
  6
CONTINUOUS
 10
57.5549641893
 20
223.4621784746
 11
57.4515160331
 21
223.4621784746
  0
LINE
  5
267
100
AcDbEntity
  8
_1
100
AcDbLine
 62
7
  6
CONTINUOUS
 10
54.4994740664
 20
223.5137065588
 11
54.4555400835
 21
223.5137065588
  0
LINE
  5
268
100
AcDbEntity
  8
_1
100
AcDbLine
 62
7
  6
CONTINUOUS
 10
45.816309599
 20
233.8463019694
 11
50.4555400835
 21
233.8463019694
  0
LINE
  5
269
100
AcDbEntity
  8
_1
100
AcDbLine
 62
7
  6
CONTINUOUS
 10
187.4555400835
 20
94.1663019694
 11
187.8169349513
 21
83.8173070024
  0
LINE
  5
26A
100
AcDbEntity
  8
_1
100
AcDbLine
 62
7
  6
CONTINUOUS
 10
179.1555400835
 20
324.1663019694
 11
179.1555400835
 21
323.7056939835
  0
LINE
  5
26B
100
AcDbEntity
  8
_1
100
AcDbLine
 62
7
  6
CONTINUOUS
 10
179.1555400835
 20
94.6269099552
 11
179.1555400835
 21
94.1663019694
  0
LINE
  5
26C
100
AcDbEntity
  8
_1
100
AcDbLine
 62
7
  6
CONTINUOUS
 10
186.1555400835
 20
94.1663019694
 11
186.1555400835
 21
104.1663019694
  0
LINE
  5
26D
100
AcDbEntity
  8
_1
100
AcDbLine
 62
7
  6
CONTINUOUS
 10
186.1555400835
 20
314.1663019694
 11
186.1555400835
 21
324.1663019694
  0
LINE
  5
26E
100
AcDbEntity
  8
_1
100
AcDbLine
 62
7
  6
CONTINUOUS
 10
187.8169349513
 20
334.5152969363
 11
187.4555400835
 21
324.1663019694
  0
LINE
  5
26F
100
AcDbEntity
  8
_1
100
AcDbLine
 62
7
  6
CONTINUOUS
 10
197.0555400835
 20
339.1663019694
 11
197.0555400835
 21
337.1663019694
  0
LINE
  5
270
100
AcDbEntity
  8
_1
100
AcDbLine
 62
7
  6
CONTINUOUS
 10
197.0555400835
 20
81.1663019694
 11
197.0555400835
 21
79.1663019694
  0
LINE
  5
271
100
AcDbEntity
  8
_1
100
AcDbLine
 62
7
  6
CONTINUOUS
 10
207.0555400835
 20
79.1663019694
 11
207.0555400835
 21
81.1663019694
  0
LINE
  5
272
100
AcDbEntity
  8
_1
100
AcDbLine
 62
7
  6
CONTINUOUS
 10
207.0555400835
 20
337.1663019694
 11
207.0555400835
 21
339.1663019694
  0
LINE
  5
273
100
AcDbEntity
  8
_1
100
AcDbLine
 62
7
  6
CONTINUOUS
 10
58.562500291
 20
267.8880120722
 11
57.5549641893
 21
267.8704254641
  0
LINE
  5
274
100
AcDbEntity
  8
_1
100
AcDbLine
 62
7
  6
CONTINUOUS
 10
57.4515160331
 20
267.8704254641
 11
54.4994740664
 21
267.8188973799
  0
LINE
  5
275
100
AcDbEntity
  8
_1
100
AcDbLine
 62
7
  6
CONTINUOUS
 10
54.6029222226
 20
267.9688745342
 11
58.562500291
 21
268.0379892264
  0
LINE
  5
276
100
AcDbEntity
  8
_1
100
AcDbLine
 62
7
  6
CONTINUOUS
 10
54.4555400835
 20
267.8188973799
 11
54.4994740664
 21
267.8188973799
  0
LINE
  5
277
100
AcDbEntity
  8
_1
100
AcDbLine
 62
7
  6
CONTINUOUS
 10
57.4515160331
 20
267.8704254641
 11
57.5549641893
 21
267.8704254641
  0
LINE
  5
278
100
AcDbEntity
  8
_1
100
AcDbLine
 62
7
  6
CONTINUOUS
 10
58.562500291
 20
267.8880120722
 11
58.715118152
 21
267.8880120722
  0
LINE
  5
279
100
AcDbEntity
  8
_1
100
AcDbLine
 62
7
  6
CONTINUOUS
 10
215.0555400835
 20
339.1663019694
 11
215.0555400835
 21
337.1663019694
  0
LINE
  5
27A
100
AcDbEntity
  8
_1
100
AcDbLine
 62
7
  6
CONTINUOUS
 10
58.715118152
 20
273.4445918666
 11
58.562500291
 21
273.4445918666
  0
LINE
  5
27B
100
AcDbEntity
  8
_1
100
AcDbLine
 62
7
  6
CONTINUOUS
 10
57.5549641893
 20
273.4621784746
 11
57.4515160331
 21
273.4621784746
  0
LINE
  5
27C
100
AcDbEntity
  8
_1
100
AcDbLine
 62
7
  6
CONTINUOUS
 10
54.4994740664
 20
273.5137065588
 11
54.4555400835
 21
273.5137065588
  0
LINE
  5
27D
100
AcDbEntity
  8
_1
100
AcDbLine
 62
7
  6
CONTINUOUS
 10
50.4555400835
 20
281.0163019694
 11
50.3953166416
 21
281.0163019694
  0
LINE
  5
27E
100
AcDbEntity
  8
_1
100
AcDbLine
 62
7
  6
CONTINUOUS
 10
58.562500291
 20
273.2946147123
 11
54.6029222226
 21
273.3637294046
  0
LINE
  5
27F
100
AcDbEntity
  8
_1
100
AcDbLine
 62
7
  6
CONTINUOUS
 10
54.4994740664
 20
273.5137065588
 11
57.4515160331
 21
273.4621784746
  0
LINE
  5
280
100
AcDbEntity
  8
_1
100
AcDbLine
 62
7
  6
CONTINUOUS
 10
57.5549641893
 20
273.4621784746
 11
58.562500291
 21
273.4445918666
  0
LINE
  5
281
100
AcDbEntity
  8
_1
100
AcDbLine
 62
7
  6
CONTINUOUS
 10
44.4031828642
 20
283.4719462576
 11
47.5078973029
 21
283.4177532655
  0
LINE
  5
282
100
AcDbEntity
  8
_1
100
AcDbLine
 62
7
  6
CONTINUOUS
 10
225.0555400835
 20
337.1663019694
 11
225.0555400835
 21
339.1663019694
  0
LINE
  5
283
100
AcDbEntity
  8
_1
100
AcDbLine
 62
7
  6
CONTINUOUS
 10
233.0555400835
 20
339.1663019694
 11
233.0555400835
 21
337.1663019694
  0
LINE
  5
284
100
AcDbEntity
  8
_1
100
AcDbLine
 62
7
  6
CONTINUOUS
 10
243.0555400835
 20
337.1663019694
 11
243.0555400835
 21
339.1663019694
  0
LINE
  5
285
100
AcDbEntity
  8
_1
100
AcDbLine
 62
7
  6
CONTINUOUS
 10
41.7740347359
 20
314.1663019694
 11
54.4555400835
 21
314.1663019694
  0
LINE
  5
286
100
AcDbEntity
  8
_1
100
AcDbLine
 62
7
  6
CONTINUOUS
 10
60.4555400835
 20
314.1663019694
 11
186.1555400835
 21
314.1663019694
  0
LINE
  5
287
100
AcDbEntity
  8
_1
100
AcDbLine
 62
7
  6
CONTINUOUS
 10
54.4555400835
 20
317.8188973799
 11
54.4994740664
 21
317.8188973799
  0
LINE
  5
288
100
AcDbEntity
  8
_1
100
AcDbLine
 62
7
  6
CONTINUOUS
 10
57.4515160331
 20
317.8704254641
 11
57.5549641893
 21
317.8704254641
  0
LINE
  5
289
100
AcDbEntity
  8
_1
100
AcDbLine
 62
7
  6
CONTINUOUS
 10
58.562500291
 20
317.8880120722
 11
58.715118152
 21
317.8880120722
  0
LINE
  5
28A
100
AcDbEntity
  8
_1
100
AcDbLine
 62
7
  6
CONTINUOUS
 10
262.9555400835
 20
344.1663019694
 11
262.9555400835
 21
324.1663019694
  0
LINE
  5
28B
100
AcDbEntity
  8
_1
100
AcDbLine
 62
7
  6
CONTINUOUS
 10
262.9555400835
 20
94.1663019694
 11
262.9555400835
 21
74.1663019694
  0
LINE
  5
28C
100
AcDbEntity
  8
_1
100
AcDbLine
 62
7
  6
CONTINUOUS
 10
267.4555400835
 20
344.1663019694
 11
267.4555400835
 21
74.1663019694
  0
LINE
  5
28D
100
AcDbEntity
  8
_1
100
AcDbLine
 62
7
  6
CONTINUOUS
 10
58.562500291
 20
317.8880120722
 11
57.5549641893
 21
317.8704254641
  0
LINE
  5
28E
100
AcDbEntity
  8
_1
100
AcDbLine
 62
7
  6
CONTINUOUS
 10
57.4515160331
 20
317.8704254641
 11
54.4994740664
 21
317.8188973799
  0
LINE
  5
28F
100
AcDbEntity
  8
_1
100
AcDbLine
 62
7
  6
CONTINUOUS
 10
54.6029222226
 20
317.9688745342
 11
58.562500291
 21
318.0379892264
  0
LINE
  5
290
100
AcDbEntity
  8
_1
100
AcDbLine
 62
7
  6
CONTINUOUS
 10
65.9555400835
 20
323.1663019694
 11
65.4555400835
 21
323.1663019694
  0
LINE
  5
291
100
AcDbEntity
  8
_1
100
AcDbLine
 62
7
  6
CONTINUOUS
 10
65.4555400835
 20
324.1663019694
 11
50.4555400835
 21
324.1663019694
  0
LINE
  5
292
100
AcDbEntity
  8
_1
100
AcDbLine
 62
7
  6
CONTINUOUS
 10
65.9555400835
 20
324.1663019694
 11
262.9555400835
 21
324.1663019694
  0
LINE
  5
293
100
AcDbEntity
  8
_1
100
AcDbLine
 62
7
  6
CONTINUOUS
 10
164.4521880651
 20
330.1163019694
 11
132.6143588256
 21
330.1163019694
  0
LINE
  5
294
100
AcDbEntity
  8
_1
100
AcDbLine
 62
7
  6
CONTINUOUS
 10
95.1163745088
 20
330.1163019694
 11
73.5120086292
 21
330.1163019694
  0
LINE
  5
295
100
AcDbEntity
  8
_1
100
AcDbLine
 62
7
  6
CONTINUOUS
 10
198.0555400835
 20
336.1663019694
 11
206.0555400835
 21
336.1663019694
  0
LINE
  5
296
100
AcDbEntity
  8
_1
100
AcDbLine
 62
7
  6
CONTINUOUS
 10
216.0555400835
 20
336.1663019694
 11
224.0555400835
 21
336.1663019694
  0
LINE
  5
297
100
AcDbEntity
  8
_1
100
AcDbLine
 62
7
  6
CONTINUOUS
 10
234.0555400835
 20
336.1663019694
 11
242.0555400835
 21
336.1663019694
  0
LINE
  5
298
100
AcDbEntity
  8
_1
100
AcDbLine
 62
7
  6
CONTINUOUS
 10
242.0555400835
 20
340.1663019694
 11
234.0555400835
 21
340.1663019694
  0
LINE
  5
299
100
AcDbEntity
  8
_1
100
AcDbLine
 62
7
  6
CONTINUOUS
 10
224.0555400835
 20
340.1663019694
 11
216.0555400835
 21
340.1663019694
  0
LINE
  5
29A
100
AcDbEntity
  8
_1
100
AcDbLine
 62
7
  6
CONTINUOUS
 10
206.0555400835
 20
340.1663019694
 11
198.0555400835
 21
340.1663019694
  0
LINE
  5
29B
100
AcDbEntity
  8
_1
100
AcDbLine
 62
7
  6
CONTINUOUS
 10
119.2909500835
 20
342.6663019694
 11
158.5201300835
 21
342.6663019694
  0
LINE
  5
29C
100
AcDbEntity
  8
_1
100
AcDbLine
 62
7
  6
CONTINUOUS
 10
197.8108432215
 20
344.1663019694
 11
267.4555400835
 21
344.1663019694
  0
ARC
  5
29D
100
AcDbEntity
  8
_1
100
AcDbCircle
 62
7
  6
CONTINUOUS
 10
67.4481863508
 20
207.7515279065
 40
9.0
100
AcDbArc
 50
97.9147382055
 51
100.5979390558
  0
ARC
  5
29E
100
AcDbEntity
  8
_1
100
AcDbCircle
 62
7
  6
CONTINUOUS
 10
67.4481863508
 20
183.5810760322
 40
9.0
100
AcDbArc
 50
259.4022783077
 51
262.0855343282
  0
ARC
  5
29F
100
AcDbEntity
  8
_1
100
AcDbCircle
 62
7
  6
CONTINUOUS
 10
58.565118152
 20
173.4445918666
 40
0.15
100
AcDbArc
 50
268.9999999998
 51
359.9999824807
  0
ARC
  5
2A0
100
AcDbEntity
  8
_1
100
AcDbCircle
 62
7
  6
CONTINUOUS
 10
54.6055400835
 20
173.5137065588
 40
0.15
100
AcDbArc
 50
180.0
 51
269.0
  0
ARC
  5
2A1
100
AcDbEntity
  8
_1
100
AcDbCircle
 62
7
  6
CONTINUOUS
 10
67.4481863508
 20
307.7515279065
 40
9.0
100
AcDbArc
 50
97.9147382055
 51
100.5979390558
  0
ARC
  5
2A2
100
AcDbEntity
  8
_1
100
AcDbCircle
 62
7
  6
CONTINUOUS
 10
67.4481863508
 20
283.5810760322
 40
9.0
100
AcDbArc
 50
259.4022783078
 51
262.0855343283
  0
ARC
  5
2A3
100
AcDbEntity
  8
_1
100
AcDbCircle
 62
7
  6
CONTINUOUS
 10
67.4481863508
 20
257.7515279065
 40
9.0
100
AcDbArc
 50
97.9147382054
 51
100.5979390558
  0
ARC
  5
2A4
100
AcDbEntity
  8
_1
100
AcDbCircle
 62
7
  6
CONTINUOUS
 10
67.4481863508
 20
233.5810760322
 40
9.0
100
AcDbArc
 50
259.4022783076
 51
262.0855343281
  0
ARC
  5
2A5
100
AcDbEntity
  8
_1
100
AcDbCircle
 62
7
  6
CONTINUOUS
 10
47.4555400835
 20
280.41821018
 40
3.0
100
AcDbArc
 50
11.4997658509
 51
89.0000000001
  0
ARC
  5
2A6
100
AcDbEntity
  8
_1
100
AcDbCircle
 62
7
  6
CONTINUOUS
 10
44.4555400835
 20
286.4714893431
 40
3.0
100
AcDbArc
 50
180.0
 51
269.0000000001
  0
ARC
  5
2A7
100
AcDbEntity
  8
_1
100
AcDbCircle
 62
7
  6
CONTINUOUS
 10
58.565118152
 20
217.8880120722
 40
0.15
100
AcDbArc
 50
0.0
 51
90.0
  0
ARC
  5
2A8
100
AcDbEntity
  8
_1
100
AcDbCircle
 62
7
  6
CONTINUOUS
 10
54.6055400835
 20
217.8188973799
 40
0.15
100
AcDbArc
 50
91.0
 51
180.0
  0
ARC
  5
2A9
100
AcDbEntity
  8
_1
100
AcDbCircle
 62
7
  6
CONTINUOUS
 10
58.565118152
 20
273.4445918666
 40
0.15
100
AcDbArc
 50
269.0000000001
 51
360.0
  0
ARC
  5
2AA
100
AcDbEntity
  8
_1
100
AcDbCircle
 62
7
  6
CONTINUOUS
 10
58.565118152
 20
317.8880120722
 40
0.15
100
AcDbArc
 50
0.0
 51
90.0
  0
ARC
  5
2AB
100
AcDbEntity
  8
_1
100
AcDbCircle
 62
7
  6
CONTINUOUS
 10
54.6055400835
 20
317.8188973799
 40
0.15
100
AcDbArc
 50
91.0
 51
180.0
  0
ARC
  5
2AC
100
AcDbEntity
  8
_1
100
AcDbCircle
 62
7
  6
CONTINUOUS
 10
54.6055400835
 20
273.5137065588
 40
0.15
100
AcDbArc
 50
180.0
 51
269.0
  0
ARC
  5
2AD
100
AcDbEntity
  8
_1
100
AcDbCircle
 62
7
  6
CONTINUOUS
 10
58.565118152
 20
223.4445918666
 40
0.15
100
AcDbArc
 50
268.9999999998
 51
359.9999824807
  0
ARC
  5
2AE
100
AcDbEntity
  8
_1
100
AcDbCircle
 62
7
  6
CONTINUOUS
 10
58.565118152
 20
267.8880120722
 40
0.15
100
AcDbArc
 50
0.0
 51
90.0
  0
ARC
  5
2AF
100
AcDbEntity
  8
_1
100
AcDbCircle
 62
7
  6
CONTINUOUS
 10
54.6055400835
 20
267.8188973799
 40
0.15
100
AcDbArc
 50
91.0
 51
180.0
  0
ARC
  5
2B0
100
AcDbEntity
  8
_1
100
AcDbCircle
 62
7
  6
CONTINUOUS
 10
54.6055400835
 20
223.5137065588
 40
0.15
100
AcDbArc
 50
180.0
 51
269.0
  0
ARC
  5
2B1
100
AcDbEntity
  8
_1
100
AcDbCircle
 62
7
  6
CONTINUOUS
 10
197.8108432215
 20
84.1663019694
 40
10.0
100
AcDbArc
 50
181.9999999998
 51
270.0
  0
ARC
  5
2B2
100
AcDbEntity
  8
_1
100
AcDbCircle
 62
7
  6
CONTINUOUS
 10
198.0555400835
 20
79.1663019694
 40
1.0
100
AcDbArc
 50
180.0
 51
270.0
  0
ARC
  5
2B3
100
AcDbEntity
  8
_1
100
AcDbCircle
 62
7
  6
CONTINUOUS
 10
206.0555400835
 20
79.1663019694
 40
1.0
100
AcDbArc
 50
270.0
 51
360.0
  0
ARC
  5
2B4
100
AcDbEntity
  8
_1
100
AcDbCircle
 62
7
  6
CONTINUOUS
 10
206.0555400835
 20
81.1663019694
 40
1.0
100
AcDbArc
 50
0.0
 51
90.0
  0
ARC
  5
2B5
100
AcDbEntity
  8
_1
100
AcDbCircle
 62
7
  6
CONTINUOUS
 10
198.0555400835
 20
81.1663019694
 40
1.0
100
AcDbArc
 50
90.0
 51
180.0
  0
ARC
  5
2B6
100
AcDbEntity
  8
_1
100
AcDbCircle
 62
7
  6
CONTINUOUS
 10
197.8108432215
 20
334.1663019694
 40
10.0
100
AcDbArc
 50
90.0
 51
178.0000000005
  0
ARC
  5
2B7
100
AcDbEntity
  8
_1
100
AcDbCircle
 62
7
  6
CONTINUOUS
 10
224.0555400835
 20
339.1663019694
 40
1.0
100
AcDbArc
 50
0.0
 51
90.0
  0
ARC
  5
2B8
100
AcDbEntity
  8
_1
100
AcDbCircle
 62
7
  6
CONTINUOUS
 10
216.0555400835
 20
339.1663019694
 40
1.0
100
AcDbArc
 50
90.0
 51
180.0
  0
ARC
  5
2B9
100
AcDbEntity
  8
_1
100
AcDbCircle
 62
7
  6
CONTINUOUS
 10
216.0555400835
 20
337.1663019694
 40
1.0
100
AcDbArc
 50
180.0
 51
270.0
  0
ARC
  5
2BA
100
AcDbEntity
  8
_1
100
AcDbCircle
 62
7
  6
CONTINUOUS
 10
224.0555400835
 20
337.1663019694
 40
1.0
100
AcDbArc
 50
270.0
 51
360.0
  0
ARC
  5
2BB
100
AcDbEntity
  8
_1
100
AcDbCircle
 62
7
  6
CONTINUOUS
 10
206.0555400835
 20
339.1663019694
 40
1.0
100
AcDbArc
 50
0.0
 51
90.0
  0
ARC
  5
2BC
100
AcDbEntity
  8
_1
100
AcDbCircle
 62
7
  6
CONTINUOUS
 10
198.0555400835
 20
339.1663019694
 40
1.0
100
AcDbArc
 50
90.0
 51
180.0
  0
ARC
  5
2BD
100
AcDbEntity
  8
_1
100
AcDbCircle
 62
7
  6
CONTINUOUS
 10
198.0555400835
 20
337.1663019694
 40
1.0
100
AcDbArc
 50
180.0
 51
270.0
  0
ARC
  5
2BE
100
AcDbEntity
  8
_1
100
AcDbCircle
 62
7
  6
CONTINUOUS
 10
206.0555400835
 20
337.1663019694
 40
1.0
100
AcDbArc
 50
270.0
 51
360.0
  0
ARC
  5
2BF
100
AcDbEntity
  8
_1
100
AcDbCircle
 62
7
  6
CONTINUOUS
 10
242.0555400835
 20
339.1663019694
 40
1.0
100
AcDbArc
 50
0.0
 51
90.0
  0
ARC
  5
2C0
100
AcDbEntity
  8
_1
100
AcDbCircle
 62
7
  6
CONTINUOUS
 10
234.0555400835
 20
339.1663019694
 40
1.0
100
AcDbArc
 50
90.0
 51
180.0
  0
ARC
  5
2C1
100
AcDbEntity
  8
_1
100
AcDbCircle
 62
7
  6
CONTINUOUS
 10
234.0555400835
 20
337.1663019694
 40
1.0
100
AcDbArc
 50
180.0
 51
270.0
  0
ARC
  5
2C2
100
AcDbEntity
  8
_1
100
AcDbCircle
 62
7
  6
CONTINUOUS
 10
242.0555400835
 20
337.1663019694
 40
1.0
100
AcDbArc
 50
270.0
 51
360.0
  0
SPLINE
  5
2C3
100
AcDbEntity
  8
_1
100
AcDbSpline
 62
7
  6
CONTINUOUS
 70
0
 71
3
 72
16
 73
12
 74
0
 42
0.0000001
 43
0.0000001
 44
0.0000000001
 40
0.0
 40
0.0
 40
0.0
 40
0.0
 40
0.0051359128
 40
0.0196500846
 40
0.0435112074
 40
0.0765599552
 40
0.1690440895
 40
0.2932807233
 40
0.4446761345
 40
0.6175343506
 40
1.0
 40
1.0
 40
1.0
 40
1.0
 10
57.5549641893
 20
173.3122013204
 30
0.0
 10
57.5547073595
 20
173.3122058033
 30
0.0
 10
57.5547646022
 20
173.3136905768
 30
0.0
 10
57.5543774005
 20
173.3153816163
 30
0.0
 10
57.5543225101
 20
173.3192155888
 30
0.0
 10
57.5540341523
 20
173.3265265003
 30
0.0
 10
57.5539304116
 20
173.339132382
 30
0.0
 10
57.5538513842
 20
173.3574910312
 30
0.0
 10
57.5539407916
 20
173.3799408197
 30
0.0
 10
57.554232042
 20
173.4152777481
 30
0.0
 10
57.5546304484
 20
173.4430526462
 30
0.0
 10
57.5549641893
 20
173.4621784746
 30
0.0
  0
SPLINE
  5
2C4
100
AcDbEntity
  8
_1
100
AcDbSpline
 62
7
  6
CONTINUOUS
 70
0
 71
3
 72
16
 73
12
 74
0
 42
0.0000001
 43
0.0000001
 44
0.0000000001
 40
0.0
 40
0.0
 40
0.0
 40
0.0
 40
0.3824806684
 40
0.5553415321
 40
0.7067320771
 40
0.830963095
 40
0.9234428706
 40
0.9564907084
 40
0.9803509061
 40
0.9948643621
 40
1.0
 40
1.0
 40
1.0
 40
1.0
 10
58.562500291
 20
173.4445918666
 30
0.0
 10
58.5621664862
 20
173.4254652876
 30
0.0
 10
58.5617681331
 20
173.3976895042
 30
0.0
 10
58.5614768806
 20
173.3623519353
 30
0.0
 10
58.5613874877
 20
173.3399025388
 30
0.0
 10
58.5614665157
 20
173.3215446286
 30
0.0
 10
58.5615702742
 20
173.3089392978
 30
0.0
 10
58.5618586108
 20
173.3016286883
 30
0.0
 10
58.561913513
 20
173.2977948564
 30
0.0
 10
58.5623006857
 20
173.2961038835
 30
0.0
 10
58.562243475
 20
173.294619195
 30
0.0
 10
58.562500291
 20
173.2946147123
 30
0.0
  0
SPLINE
  5
2C5
100
AcDbEntity
  8
_1
100
AcDbSpline
 62
7
  6
CONTINUOUS
 70
0
 71
3
 72
16
 73
12
 74
0
 42
0.0000001
 43
0.0000001
 44
0.0000000001
 40
0.0
 40
0.0
 40
0.0
 40
0.0
 40
0.0050940559
 40
0.0195218854
 40
0.0433220147
 40
0.0762976477
 40
0.1684672756
 40
0.2925651251
 40
0.4438181549
 40
0.6167449744
 40
1.0
 40
1.0
 40
1.0
 40
1.0
 10
58.562500291
 20
218.0379892264
 30
0.0
 10
58.5622455535
 20
218.03798478
 30
0.0
 10
58.5622970543
 20
218.0365116723
 30
0.0
 10
58.5619144487
 20
218.0348264906
 30
0.0
 10
58.5618584514
 20
218.0310047119
 30
0.0
 10
58.5615724993
 20
218.0237155327
 30
0.0
 10
58.561466481
 20
218.0111364322
 30
0.0
 10
58.561387803
 20
217.9928073837
 30
0.0
 10
58.5614757645
 20
217.9703681766
 30
0.0
 10
58.5617672971
 20
217.9349953458
 30
0.0
 10
58.5621658602
 20
217.9071774374
 30
0.0
 10
58.562500291
 20
217.8880120722
 30
0.0
  0
SPLINE
  5
2C6
100
AcDbEntity
  8
_1
100
AcDbSpline
 62
7
  6
CONTINUOUS
 70
0
 71
3
 72
11
 73
7
 74
0
 42
0.0000001
 43
0.0000001
 44
0.0000000001
 40
0.0
 40
0.0
 40
0.0
 40
0.0
 40
0.2096754924
 40
0.4447883574
 40
0.7119535664
 40
1.0
 40
1.0
 40
1.0
 40
1.0
 10
57.5549641893
 20
218.0204026184
 30
0.0
 10
57.5410252296
 20
218.0201593129
 30
0.0
 10
57.5112625453
 20
218.0106724487
 30
0.0
 10
57.477436024
 20
217.97564059
 30
0.0
 10
57.4559854086
 20
217.92676502
 30
0.0
 10
57.4513488908
 20
217.8895766117
 30
0.0
 10
57.4515160331
 20
217.8704254641
 30
0.0
  0
SPLINE
  5
2C7
100
AcDbEntity
  8
_1
100
AcDbSpline
 62
7
  6
CONTINUOUS
 70
0
 71
3
 72
16
 73
12
 74
0
 42
0.0000001
 43
0.0000001
 44
0.0000000001
 40
0.0
 40
0.0
 40
0.0
 40
0.0
 40
0.3824806684
 40
0.5553415321
 40
0.7067320771
 40
0.830963095
 40
0.9234428706
 40
0.9564907084
 40
0.9803509061
 40
0.9948643621
 40
1.0
 40
1.0
 40
1.0
 40
1.0
 10
57.5549641893
 20
217.8704254641
 30
0.0
 10
57.5546303845
 20
217.889552043
 30
0.0
 10
57.5542320314
 20
217.9173278265
 30
0.0
 10
57.5539407789
 20
217.9526653954
 30
0.0
 10
57.553851386
 20
217.9751147919
 30
0.0
 10
57.5539304139
 20
217.9934727021
 30
0.0
 10
57.5540341725
 20
218.0060780328
 30
0.0
 10
57.554322509
 20
218.0133886423
 30
0.0
 10
57.5543774113
 20
218.0172224742
 30
0.0
 10
57.554764584
 20
218.0189134472
 30
0.0
 10
57.5547073732
 20
218.0203981356
 30
0.0
 10
57.5549641893
 20
218.0204026184
 30
0.0
  0
SPLINE
  5
2C8
100
AcDbEntity
  8
_1
100
AcDbSpline
 62
7
  6
CONTINUOUS
 70
0
 71
3
 72
11
 73
7
 74
0
 42
0.0000001
 43
0.0000001
 44
0.0000000001
 40
0.0
 40
0.0
 40
0.0
 40
0.0
 40
0.2880296939
 40
0.5551925904
 40
0.7903160342
 40
1.0
 40
1.0
 40
1.0
 40
1.0
 10
54.4994740664
 20
217.8188973799
 30
0.0
 10
54.4993069339
 20
217.8380474097
 30
0.0
 10
54.5039428149
 20
217.8752345228
 30
0.0
 10
54.5253923264
 20
217.9241099119
 30
0.0
 10
54.5592188153
 20
217.9591433706
 30
0.0
 10
54.5889827031
 20
217.968631219
 30
0.0
 10
54.6029222226
 20
217.9688745342
 30
0.0
  0
SPLINE
  5
2C9
100
AcDbEntity
  8
_1
100
AcDbSpline
 62
7
  6
CONTINUOUS
 70
0
 71
3
 72
11
 73
7
 74
0
 42
0.0000001
 43
0.0000001
 44
0.0000000001
 40
0.0
 40
0.0
 40
0.0
 40
0.0
 40
0.2096754924
 40
0.4447883574
 40
0.7119535664
 40
1.0
 40
1.0
 40
1.0
 40
1.0
 10
54.6029222226
 20
173.3637294046
 30
0.0
 10
54.5889832629
 20
173.36397271
 30
0.0
 10
54.5592205786
 20
173.3734595742
 30
0.0
 10
54.5253940572
 20
173.4084914329
 30
0.0
 10
54.5039434419
 20
173.457367003
 30
0.0
 10
54.4993069241
 20
173.4945554112
 30
0.0
 10
54.4994740664
 20
173.5137065588
 30
0.0
  0
SPLINE
  5
2CA
100
AcDbEntity
  8
_1
100
AcDbSpline
 62
7
  6
CONTINUOUS
 70
0
 71
3
 72
11
 73
7
 74
0
 42
0.0000001
 43
0.0000001
 44
0.0000000001
 40
0.0
 40
0.0
 40
0.0
 40
0.0
 40
0.2880464336
 40
0.5552116426
 40
0.7903245076
 40
1.0
 40
1.0
 40
1.0
 40
1.0
 10
57.4515160331
 20
173.4621784746
 30
0.0
 10
57.4513488908
 20
173.443027327
 30
0.0
 10
57.4559854086
 20
173.4058389188
 30
0.0
 10
57.477436024
 20
173.3569633487
 30
0.0
 10
57.5112625453
 20
173.32193149
 30
0.0
 10
57.5410252296
 20
173.3124446258
 30
0.0
 10
57.5549641893
 20
173.3122013204
 30
0.0
  0
SPLINE
  5
2CB
100
AcDbEntity
  8
_1
100
AcDbSpline
 62
7
  6
CONTINUOUS
 70
0
 71
3
 72
16
 73
12
 74
0
 42
0.0000001
 43
0.0000001
 44
0.0000000001
 40
0.0
 40
0.0
 40
0.0
 40
0.0
 40
0.0051359128
 40
0.0196500846
 40
0.0435112074
 40
0.0765599552
 40
0.1690440895
 40
0.2932807233
 40
0.4446761345
 40
0.6175343506
 40
1.0
 40
1.0
 40
1.0
 40
1.0
 10
57.5549641893
 20
273.3122013204
 30
0.0
 10
57.5547073595
 20
273.3122058033
 30
0.0
 10
57.5547646022
 20
273.3136905768
 30
0.0
 10
57.5543774005
 20
273.3153816163
 30
0.0
 10
57.5543225101
 20
273.3192155888
 30
0.0
 10
57.5540341523
 20
273.3265265003
 30
0.0
 10
57.5539304116
 20
273.339132382
 30
0.0
 10
57.5538513842
 20
273.3574910312
 30
0.0
 10
57.5539407916
 20
273.3799408197
 30
0.0
 10
57.554232042
 20
273.4152777481
 30
0.0
 10
57.5546304484
 20
273.4430526462
 30
0.0
 10
57.5549641893
 20
273.4621784746
 30
0.0
  0
SPLINE
  5
2CC
100
AcDbEntity
  8
_1
100
AcDbSpline
 62
7
  6
CONTINUOUS
 70
0
 71
3
 72
16
 73
12
 74
0
 42
0.0000001
 43
0.0000001
 44
0.0000000001
 40
0.0
 40
0.0
 40
0.0
 40
0.0
 40
0.3824828419
 40
0.5553444262
 40
0.7067331882
 40
0.8309608931
 40
0.9234427753
 40
0.9564955332
 40
0.9803599747
 40
0.9948729953
 40
1.0
 40
1.0
 40
1.0
 40
1.0
 10
58.562500291
 20
273.4445918666
 30
0.0
 10
58.562166535
 20
273.4254651684
 30
0.0
 10
58.5617681347
 20
273.3976891944
 30
0.0
 10
58.5614768584
 20
273.3623516316
 30
0.0
 10
58.5613875108
 20
273.3399022544
 30
0.0
 10
58.5614664627
 20
273.3215450067
 30
0.0
 10
58.561570421
 20
273.308938339
 30
0.0
 10
58.5618584799
 20
273.3016287617
 30
0.0
 10
58.5619137588
 20
273.2977917859
 30
0.0
 10
58.5623000772
 20
273.2961057572
 30
0.0
 10
58.5622438773
 20
273.2946169498
 30
0.0
 10
58.562500291
 20
273.2946147123
 30
0.0
  0
SPLINE
  5
2CD
100
AcDbEntity
  8
_1
100
AcDbSpline
 62
7
  6
CONTINUOUS
 70
0
 71
3
 72
16
 73
12
 74
0
 42
0.0000001
 43
0.0000001
 44
0.0000000001
 40
0.0
 40
0.0
 40
0.0
 40
0.0
 40
0.0050940559
 40
0.0195218854
 40
0.0433220147
 40
0.0762976477
 40
0.1684672756
 40
0.2925651251
 40
0.4438181549
 40
0.6167449744
 40
1.0
 40
1.0
 40
1.0
 40
1.0
 10
58.562500291
 20
318.0379892264
 30
0.0
 10
58.5622455535
 20
318.03798478
 30
0.0
 10
58.5622970543
 20
318.0365116723
 30
0.0
 10
58.5619144487
 20
318.0348264906
 30
0.0
 10
58.5618584514
 20
318.0310047119
 30
0.0
 10
58.5615724993
 20
318.0237155327
 30
0.0
 10
58.561466481
 20
318.0111364322
 30
0.0
 10
58.561387803
 20
317.9928073837
 30
0.0
 10
58.5614757645
 20
317.9703681766
 30
0.0
 10
58.5617672971
 20
317.9349953458
 30
0.0
 10
58.5621658602
 20
317.9071774374
 30
0.0
 10
58.562500291
 20
317.8880120722
 30
0.0
  0
SPLINE
  5
2CE
100
AcDbEntity
  8
_1
100
AcDbSpline
 62
7
  6
CONTINUOUS
 70
0
 71
3
 72
11
 73
7
 74
0
 42
0.0000001
 43
0.0000001
 44
0.0000000001
 40
0.0
 40
0.0
 40
0.0
 40
0.0
 40
0.2096754924
 40
0.4447883574
 40
0.7119535664
 40
1.0
 40
1.0
 40
1.0
 40
1.0
 10
57.5549641893
 20
318.0204026184
 30
0.0
 10
57.5410252296
 20
318.0201593129
 30
0.0
 10
57.5112625453
 20
318.0106724487
 30
0.0
 10
57.477436024
 20
317.97564059
 30
0.0
 10
57.4559854086
 20
317.92676502
 30
0.0
 10
57.4513488908
 20
317.8895766117
 30
0.0
 10
57.4515160331
 20
317.8704254641
 30
0.0
  0
SPLINE
  5
2CF
100
AcDbEntity
  8
_1
100
AcDbSpline
 62
7
  6
CONTINUOUS
 70
0
 71
3
 72
16
 73
12
 74
0
 42
0.0000001
 43
0.0000001
 44
0.0000000001
 40
0.0
 40
0.0
 40
0.0
 40
0.0
 40
0.3824806684
 40
0.5553415321
 40
0.7067320771
 40
0.830963095
 40
0.9234428706
 40
0.9564907084
 40
0.9803509061
 40
0.9948643621
 40
1.0
 40
1.0
 40
1.0
 40
1.0
 10
57.5549641893
 20
317.8704254641
 30
0.0
 10
57.5546303845
 20
317.889552043
 30
0.0
 10
57.5542320314
 20
317.9173278265
 30
0.0
 10
57.5539407789
 20
317.9526653954
 30
0.0
 10
57.553851386
 20
317.9751147919
 30
0.0
 10
57.5539304139
 20
317.9934727021
 30
0.0
 10
57.5540341725
 20
318.0060780328
 30
0.0
 10
57.554322509
 20
318.0133886423
 30
0.0
 10
57.5543774113
 20
318.0172224742
 30
0.0
 10
57.554764584
 20
318.0189134472
 30
0.0
 10
57.5547073732
 20
318.0203981356
 30
0.0
 10
57.5549641893
 20
318.0204026184
 30
0.0
  0
SPLINE
  5
2D0
100
AcDbEntity
  8
_1
100
AcDbSpline
 62
7
  6
CONTINUOUS
 70
0
 71
3
 72
11
 73
7
 74
0
 42
0.0000001
 43
0.0000001
 44
0.0000000001
 40
0.0
 40
0.0
 40
0.0
 40
0.0
 40
0.2880296939
 40
0.5551925904
 40
0.7903160342
 40
1.0
 40
1.0
 40
1.0
 40
1.0
 10
54.4994740664
 20
317.8188973799
 30
0.0
 10
54.4993069339
 20
317.8380474097
 30
0.0
 10
54.5039428149
 20
317.8752345228
 30
0.0
 10
54.5253923264
 20
317.9241099119
 30
0.0
 10
54.5592188153
 20
317.9591433706
 30
0.0
 10
54.5889827031
 20
317.968631219
 30
0.0
 10
54.6029222226
 20
317.9688745342
 30
0.0
  0
SPLINE
  5
2D1
100
AcDbEntity
  8
_1
100
AcDbSpline
 62
7
  6
CONTINUOUS
 70
0
 71
3
 72
11
 73
7
 74
0
 42
0.0000001
 43
0.0000001
 44
0.0000000001
 40
0.0
 40
0.0
 40
0.0
 40
0.0
 40
0.2096754924
 40
0.4447883574
 40
0.7119535664
 40
1.0
 40
1.0
 40
1.0
 40
1.0
 10
54.6029222226
 20
273.3637294046
 30
0.0
 10
54.5889832629
 20
273.36397271
 30
0.0
 10
54.5592205786
 20
273.3734595742
 30
0.0
 10
54.5253940572
 20
273.4084914329
 30
0.0
 10
54.5039434419
 20
273.457367003
 30
0.0
 10
54.4993069241
 20
273.4945554112
 30
0.0
 10
54.4994740664
 20
273.5137065588
 30
0.0
  0
SPLINE
  5
2D2
100
AcDbEntity
  8
_1
100
AcDbSpline
 62
7
  6
CONTINUOUS
 70
0
 71
3
 72
11
 73
7
 74
0
 42
0.0000001
 43
0.0000001
 44
0.0000000001
 40
0.0
 40
0.0
 40
0.0
 40
0.0
 40
0.2880464336
 40
0.5552116426
 40
0.7903245076
 40
1.0
 40
1.0
 40
1.0
 40
1.0
 10
57.4515160331
 20
273.4621784746
 30
0.0
 10
57.4513488908
 20
273.443027327
 30
0.0
 10
57.4559854086
 20
273.4058389188
 30
0.0
 10
57.477436024
 20
273.3569633487
 30
0.0
 10
57.5112625453
 20
273.32193149
 30
0.0
 10
57.5410252296
 20
273.3124446258
 30
0.0
 10
57.5549641893
 20
273.3122013204
 30
0.0
  0
SPLINE
  5
2D3
100
AcDbEntity
  8
_1
100
AcDbSpline
 62
7
  6
CONTINUOUS
 70
0
 71
3
 72
16
 73
12
 74
0
 42
0.0000001
 43
0.0000001
 44
0.0000000001
 40
0.0
 40
0.0
 40
0.0
 40
0.0
 40
0.0051359128
 40
0.0196500846
 40
0.0435112074
 40
0.0765599552
 40
0.1690440895
 40
0.2932807233
 40
0.4446761345
 40
0.6175343506
 40
1.0
 40
1.0
 40
1.0
 40
1.0
 10
57.5549641893
 20
223.3122013204
 30
0.0
 10
57.5547073595
 20
223.3122058033
 30
0.0
 10
57.5547646022
 20
223.3136905768
 30
0.0
 10
57.5543774005
 20
223.3153816163
 30
0.0
 10
57.5543225101
 20
223.3192155888
 30
0.0
 10
57.5540341523
 20
223.3265265003
 30
0.0
 10
57.5539304116
 20
223.339132382
 30
0.0
 10
57.5538513842
 20
223.3574910312
 30
0.0
 10
57.5539407916
 20
223.3799408197
 30
0.0
 10
57.554232042
 20
223.4152777481
 30
0.0
 10
57.5546304484
 20
223.4430526462
 30
0.0
 10
57.5549641893
 20
223.4621784746
 30
0.0
  0
SPLINE
  5
2D4
100
AcDbEntity
  8
_1
100
AcDbSpline
 62
7
  6
CONTINUOUS
 70
0
 71
3
 72
16
 73
12
 74
0
 42
0.0000001
 43
0.0000001
 44
0.0000000001
 40
0.0
 40
0.0
 40
0.0
 40
0.0
 40
0.3824806684
 40
0.5553415321
 40
0.7067320771
 40
0.830963095
 40
0.9234428706
 40
0.9564907084
 40
0.9803509061
 40
0.9948643621
 40
1.0
 40
1.0
 40
1.0
 40
1.0
 10
58.562500291
 20
223.4445918666
 30
0.0
 10
58.5621664862
 20
223.4254652876
 30
0.0
 10
58.5617681331
 20
223.3976895042
 30
0.0
 10
58.5614768806
 20
223.3623519353
 30
0.0
 10
58.5613874877
 20
223.3399025388
 30
0.0
 10
58.5614665157
 20
223.3215446286
 30
0.0
 10
58.5615702742
 20
223.3089392978
 30
0.0
 10
58.5618586108
 20
223.3016286883
 30
0.0
 10
58.561913513
 20
223.2977948564
 30
0.0
 10
58.5623006857
 20
223.2961038835
 30
0.0
 10
58.562243475
 20
223.294619195
 30
0.0
 10
58.562500291
 20
223.2946147123
 30
0.0
  0
SPLINE
  5
2D5
100
AcDbEntity
  8
_1
100
AcDbSpline
 62
7
  6
CONTINUOUS
 70
0
 71
3
 72
16
 73
12
 74
0
 42
0.0000001
 43
0.0000001
 44
0.0000000001
 40
0.0
 40
0.0
 40
0.0
 40
0.0
 40
0.0050940559
 40
0.0195218854
 40
0.0433220147
 40
0.0762976477
 40
0.1684672756
 40
0.2925651251
 40
0.4438181549
 40
0.6167449744
 40
1.0
 40
1.0
 40
1.0
 40
1.0
 10
58.562500291
 20
268.0379892264
 30
0.0
 10
58.5622455535
 20
268.03798478
 30
0.0
 10
58.5622970543
 20
268.0365116723
 30
0.0
 10
58.5619144487
 20
268.0348264906
 30
0.0
 10
58.5618584514
 20
268.0310047119
 30
0.0
 10
58.5615724993
 20
268.0237155327
 30
0.0
 10
58.561466481
 20
268.0111364322
 30
0.0
 10
58.561387803
 20
267.9928073837
 30
0.0
 10
58.5614757645
 20
267.9703681766
 30
0.0
 10
58.5617672971
 20
267.9349953458
 30
0.0
 10
58.5621658602
 20
267.9071774374
 30
0.0
 10
58.562500291
 20
267.8880120722
 30
0.0
  0
SPLINE
  5
2D6
100
AcDbEntity
  8
_1
100
AcDbSpline
 62
7
  6
CONTINUOUS
 70
0
 71
3
 72
11
 73
7
 74
0
 42
0.0000001
 43
0.0000001
 44
0.0000000001
 40
0.0
 40
0.0
 40
0.0
 40
0.0
 40
0.2096754924
 40
0.4447883574
 40
0.7119535664
 40
1.0
 40
1.0
 40
1.0
 40
1.0
 10
57.5549641893
 20
268.0204026184
 30
0.0
 10
57.5410252296
 20
268.0201593129
 30
0.0
 10
57.5112625453
 20
268.0106724487
 30
0.0
 10
57.477436024
 20
267.97564059
 30
0.0
 10
57.4559854086
 20
267.92676502
 30
0.0
 10
57.4513488908
 20
267.8895766117
 30
0.0
 10
57.4515160331
 20
267.8704254641
 30
0.0
  0
SPLINE
  5
2D7
100
AcDbEntity
  8
_1
100
AcDbSpline
 62
7
  6
CONTINUOUS
 70
0
 71
3
 72
16
 73
12
 74
0
 42
0.0000001
 43
0.0000001
 44
0.0000000001
 40
0.0
 40
0.0
 40
0.0
 40
0.0
 40
0.3824806684
 40
0.5553415321
 40
0.7067320771
 40
0.830963095
 40
0.9234428706
 40
0.9564907084
 40
0.9803509061
 40
0.9948643621
 40
1.0
 40
1.0
 40
1.0
 40
1.0
 10
57.5549641893
 20
267.8704254641
 30
0.0
 10
57.5546303845
 20
267.889552043
 30
0.0
 10
57.5542320314
 20
267.9173278265
 30
0.0
 10
57.5539407789
 20
267.9526653954
 30
0.0
 10
57.553851386
 20
267.9751147919
 30
0.0
 10
57.5539304139
 20
267.9934727021
 30
0.0
 10
57.5540341725
 20
268.0060780328
 30
0.0
 10
57.554322509
 20
268.0133886423
 30
0.0
 10
57.5543774113
 20
268.0172224742
 30
0.0
 10
57.554764584
 20
268.0189134472
 30
0.0
 10
57.5547073732
 20
268.0203981356
 30
0.0
 10
57.5549641893
 20
268.0204026184
 30
0.0
  0
SPLINE
  5
2D8
100
AcDbEntity
  8
_1
100
AcDbSpline
 62
7
  6
CONTINUOUS
 70
0
 71
3
 72
11
 73
7
 74
0
 42
0.0000001
 43
0.0000001
 44
0.0000000001
 40
0.0
 40
0.0
 40
0.0
 40
0.0
 40
0.2880296939
 40
0.5551925904
 40
0.7903160342
 40
1.0
 40
1.0
 40
1.0
 40
1.0
 10
54.4994740664
 20
267.8188973799
 30
0.0
 10
54.4993069339
 20
267.8380474097
 30
0.0
 10
54.5039428149
 20
267.8752345228
 30
0.0
 10
54.5253923264
 20
267.9241099119
 30
0.0
 10
54.5592188153
 20
267.9591433706
 30
0.0
 10
54.5889827031
 20
267.968631219
 30
0.0
 10
54.6029222226
 20
267.9688745342
 30
0.0
  0
SPLINE
  5
2D9
100
AcDbEntity
  8
_1
100
AcDbSpline
 62
7
  6
CONTINUOUS
 70
0
 71
3
 72
11
 73
7
 74
0
 42
0.0000001
 43
0.0000001
 44
0.0000000001
 40
0.0
 40
0.0
 40
0.0
 40
0.0
 40
0.2096754924
 40
0.4447883574
 40
0.7119535664
 40
1.0
 40
1.0
 40
1.0
 40
1.0
 10
54.6029222226
 20
223.3637294046
 30
0.0
 10
54.5889832629
 20
223.36397271
 30
0.0
 10
54.5592205786
 20
223.3734595742
 30
0.0
 10
54.5253940572
 20
223.4084914329
 30
0.0
 10
54.5039434419
 20
223.457367003
 30
0.0
 10
54.4993069241
 20
223.4945554112
 30
0.0
 10
54.4994740664
 20
223.5137065588
 30
0.0
  0
SPLINE
  5
2DA
100
AcDbEntity
  8
_1
100
AcDbSpline
 62
7
  6
CONTINUOUS
 70
0
 71
3
 72
11
 73
7
 74
0
 42
0.0000001
 43
0.0000001
 44
0.0000000001
 40
0.0
 40
0.0
 40
0.0
 40
0.0
 40
0.2880464336
 40
0.5552116426
 40
0.7903245076
 40
1.0
 40
1.0
 40
1.0
 40
1.0
 10
57.4515160331
 20
223.4621784746
 30
0.0
 10
57.4513488908
 20
223.443027327
 30
0.0
 10
57.4559854086
 20
223.4058389188
 30
0.0
 10
57.477436024
 20
223.3569633487
 30
0.0
 10
57.5112625453
 20
223.32193149
 30
0.0
 10
57.5410252296
 20
223.3124446258
 30
0.0
 10
57.5549641893
 20
223.3122013204
 30
0.0
  0
SPLINE
  5
2DB
100
AcDbEntity
  8
_1
100
AcDbSpline
 62
7
  6
CONTINUOUS
 70
0
 71
3
 72
11
 73
7
 74
0
 42
0.0000001
 43
0.0000001
 44
0.0000000001
 40
0.0
 40
0.0
 40
0.0
 40
0.0
 40
0.2375656021
 40
0.4868246046
 40
0.7423091132
 40
1.0
 40
1.0
 40
1.0
 40
1.0
 10
50.4203261553
 20
318.7268075196
 30
0.0
 10
50.3669250607
 20
318.4086471234
 30
0.0
 10
50.1322817609
 20
317.7727205552
 30
0.0
 10
49.4680467572
 20
316.9892289517
 30
0.0
 10
48.5583328247
 20
316.4554073438
 30
0.0
 10
47.8577871016
 20
316.3220467483
 30
0.0
 10
47.5078973029
 20
316.3160821168
 30
0.0
  0
SPLINE
  5
2DC
100
AcDbEntity
  8
_1
100
AcDbSpline
 62
7
  6
CONTINUOUS
 70
0
 71
3
 72
11
 73
7
 74
0
 42
0.0000001
 43
0.0000001
 44
0.0000000001
 40
0.0
 40
0.0
 40
0.0
 40
0.0
 40
0.2503504512
 40
0.5000702205
 40
0.7496731193
 40
1.0
 40
1.0
 40
1.0
 40
1.0
 10
44.4031828642
 20
316.2631232084
 30
0.0
 10
44.0917274544
 20
316.2578072923
 30
0.0
 10
43.4669794232
 20
316.1511956196
 30
0.0
 10
42.6262914048
 20
315.7134903499
 30
0.0
 10
41.9642221044
 20
315.0343507259
 30
0.0
 10
41.6872391382
 20
314.4639132956
 30
0.0
 10
41.5953590021
 20
314.1663019694
 30
0.0
  0
SPLINE
  5
2DD
100
AcDbEntity
  8
_1
100
AcDbSpline
 62
7
  6
CONTINUOUS
 70
0
 71
3
 72
11
 73
7
 74
0
 42
0.0000001
 43
0.0000001
 44
0.0000000001
 40
0.0
 40
0.0
 40
0.0
 40
0.0
 40
0.2628986587
 40
0.5224506191
 40
0.7712980915
 40
1.0
 40
1.0
 40
1.0
 40
1.0
 10
47.5078973029
 20
315.8760748367
 30
0.0
 10
47.8988821645
 20
315.8827419542
 30
0.0
 10
48.6813345359
 20
316.0482735397
 30
0.0
 10
49.6566841002
 20
316.7011790688
 30
0.0
 10
50.2984300378
 20
317.6219014079
 30
0.0
 10
50.4555400835
 20
318.3381253196
 30
0.0
 10
50.4555400835
 20
318.6783019639
 30
0.0
  0
SPLINE
  5
2DE
100
AcDbEntity
  8
_1
100
AcDbSpline
 62
7
  6
CONTINUOUS
 70
0
 71
3
 72
11
 73
7
 74
0
 42
0.0000001
 43
0.0000001
 44
0.0000000001
 40
0.0
 40
0.0
 40
0.0
 40
0.0
 40
0.2502375672
 40
0.4998985827
 40
0.7496954024
 40
1.0
 40
1.0
 40
1.0
 40
1.0
 10
41.7740347359
 20
314.1663019694
 30
0.0
 10
41.8935893892
 20
314.410608543
 30
0.0
 10
42.2009646205
 20
314.8686452202
 30
0.0
 10
42.8332031687
 20
315.3991129654
 30
0.0
 10
43.5860820036
 20
315.7361143792
 30
0.0
 10
44.1311588335
 20
315.8184468518
 30
0.0
 10
44.4031828642
 20
315.8230925132
 30
0.0
  0
SPLINE
  5
2DF
100
AcDbEntity
  8
_1
100
AcDbSpline
 62
7
  6
CONTINUOUS
 70
0
 71
3
 72
15
 73
11
 74
0
 42
0.0000001
 43
0.0000001
 44
0.0000000001
 40
0.0
 40
0.0
 40
0.0
 40
0.0
 40
0.3073695754
 40
0.4560978722
 40
0.5980997233
 40
0.7296474331
 40
0.8454013342
 40
0.9379763528
 40
0.9730686413
 40
1.0
 40
1.0
 40
1.0
 40
1.0
 10
186.1555400835
 20
104.1663019694
 30
0.0
 10
185.3732651302
 20
103.2313045648
 30
0.0
 10
184.2121386028
 20
101.8441533579
 30
0.0
 10
182.7084344579
 20
100.0093502818
 30
0.0
 10
181.663171213
 20
98.7008088557
 30
0.0
 10
180.7243493332
 20
97.474178907
 30
0.0
 10
179.947748089
 20
96.3732399255
 30
0.0
 10
179.4437593425
 20
95.544765105
 30
0.0
 10
179.2079781821
 20
94.9783077425
 30
0.0
 10
179.1555400835
 20
94.7337249572
 30
0.0
 10
179.1555400835
 20
94.6269099552
 30
0.0
  0
SPLINE
  5
2E0
100
AcDbEntity
  8
_1
100
AcDbSpline
 62
7
  6
CONTINUOUS
 70
0
 71
3
 72
15
 73
11
 74
0
 42
0.0000001
 43
0.0000001
 44
0.0000000001
 40
0.0
 40
0.0
 40
0.0
 40
0.0
 40
0.0269313728
 40
0.0620236827
 40
0.1545986915
 40
0.2703525826
 40
0.4019002997
 40
0.5439021441
 40
0.6926304397
 40
1.0
 40
1.0
 40
1.0
 40
1.0
 10
179.1555400835
 20
323.7056939836
 30
0.0
 10
179.1555400835
 20
323.5988789256
 30
0.0
 10
179.2079782457
 20
323.3542960046
 30
0.0
 10
179.4437594848
 20
322.7878385679
 30
0.0
 10
179.9477482569
 20
321.9593637565
 30
0.0
 10
180.7243494892
 20
320.8584248273
 30
0.0
 10
181.6631713465
 20
319.6317949093
 30
0.0
 10
182.7084345929
 20
318.3232534878
 30
0.0
 10
184.2121386827
 20
316.488450485
 30
0.0
 10
185.3732651688
 20
315.1012993279
 30
0.0
 10
186.1555400835
 20
314.1663019694
 30
0.0
  0
ELLIPSE
  5
2E1
100
AcDbEntity
  8
_1
100
AcDbEllipse
 62
7
  6
CONTINUOUS
 10
50.4555400835
 20
314.1663019694
 30
0.0
 11
572.8996150837
 21
9.7551425101
 31
0.0
 40
0.0038390012
 41
1.5758761099
 42
1.5812955829
  0
ELLIPSE
  5
2E2
100
AcDbEntity
  8
_1
100
AcDbEllipse
 62
7
  6
CONTINUOUS
 10
44.4555400835
 20
313.2383803983
 30
0.0
 11
0.0
 21
3.0753463804
 31
0.0
 40
0.9754998719
 41
1.2642905398
 42
1.5707963268
  0
ELLIPSE
  5
2E3
100
AcDbEntity
  8
_1
100
AcDbEllipse
 62
7
  6
CONTINUOUS
 10
55.4555400835
 20
162.1663019694
 30
0.0
 11
5.0
 21
-0.0
 31
0.0
 40
1.0
 41
0.0
 42
1.5707963268
  0
ELLIPSE
  5
2E4
100
AcDbEntity
  8
_1
100
AcDbEllipse
 62
7
  6
CONTINUOUS
 10
50.4555400835
 20
314.1663019694
 30
0.0
 11
458.319692067
 21
7.804114008
 31
0.0
 40
0.0038390012
 41
1.5771624139
 42
1.5839368774
  0
ELLIPSE
  5
2E5
100
AcDbEntity
  8
_1
100
AcDbEllipse
 62
7
  6
CONTINUOUS
 10
50.4555400835
 20
314.1663019694
 30
0.0
 11
10.0
 21
-0.0
 31
0.0
 40
1.0
 41
0.0
 42
1.0471975512
  0
ELLIPSE
  5
2E6
100
AcDbEntity
  8
_1
100
AcDbEllipse
 62
7
  6
CONTINUOUS
 10
44.4555400835
 20
312.7873295958
 30
0.0
 11
-0.0
 21
3.0753463804
 31
0.0
 40
0.9754998719
 41
1.1058265454
 42
1.5707963268
  0
ENDSEC
  0
SECTION
  2
OBJECTS
  0
DICTIONARY
  5
C
100
AcDbDictionary
280
0
281
1
  3
ACAD_GROUP
350
D
  3
ACAD_MLINESTYLE
350
17
  3
ACAD_LAYOUT
350
1A
  3
ACAD_PLOTSETTINGS
350
19
  3
ACAD_PLOTSTYLENAME
350
E
  0
DICTIONARY
  5
D
102
{ACAD_REACTORS
330
C
102
}
100
AcDbDictionary
280
0
281
1
  0
ACDBDICTIONARYWDFLT
  5
E
102
{ACAD_REACTORS
330
C
102
}
100
AcDbDictionary
281
1
  3
Normal
350
F
100
AcDbDictionaryWithDefault
340
F
  0
DICTIONARY
  5
17
102
{ACAD_REACTORS
330
C
102
}
100
AcDbDictionary
280
0
281
1
  3
Standard
350
18
  0
DICTIONARY
  5
19
102
{ACAD_REACTORS
330
C
102
}
100
AcDbDictionary
281
1
  0
DICTIONARY
  5
1A
102
{ACAD_REACTORS
330
C
102
}
100
AcDbDictionary
281
1
  3
Model
350
2E7
  3
Layout1
350
2E8
  0
ACDBPLACEHOLDER
  5
F
102
{ACAD_REACTORS
330
E
102
}
  0
MLINESTYLE
  5
18
102
{ACAD_REACTORS
330
17
102
}
100
AcDbMlineStyle
  2
STANDARD
 70
0
  3

 62
256
 51
90.0
 52
90.0
 71
2
 49
0.5
 62
256
  6
BYLAYER
 49
-0.5
 62
256
  6
BYLAYER
  0
LAYOUT
  5
2E7
102
{ACAD_REACTORS
330
1A
102
}
100
AcDbPlotSettings
  1

  2
none_device
  4

  6

 40
0.0
 41
0.0
 42
0.0
 43
0.0
 44
210.0
 45
297.0
 46
0.0
 47
0.0
 48
0.0
 49
0.0
140
0.0
141
0.0
142
1.0
143
1.0
 70
1024
 72
1
 73
0
 74
0
  7

 75
0
147
1.0
148
0.0
149
0.0
100
AcDbLayout
  1
Model
 70
0
 71
0
 10
0.0
 20
0.0
 11
210.0
 21
297.0
 12
0.0
 22
0.0
 32
0.0
 14
0.0
 24
0.0
 34
0.0
 15
0.0
 25
0.0
 35
0.0
146
0.0
 13
0.0
 23
0.0
 33
0.0
 16
1.0
 26
0.0
 36
0.0
 17
0.0
 27
1.0
 37
0.0
 76
0
330
213
345
0
346
0
  0
LAYOUT
  5
2E8
102
{ACAD_REACTORS
330
1A
102
}
100
AcDbPlotSettings
  1

  2
none_device
  4

  6

 40
0.0
 41
0.0
 42
0.0
 43
0.0
 44
210.0
 45
297.0
 46
0.0
 47
0.0
 48
0.0
 49
0.0
140
0.0
141
0.0
142
1.0
143
1.0
 70
0
 72
1
 73
0
 74
0
  7

 75
0
147
1.0
148
0.0
149
0.0
100
AcDbLayout
  1
Layout1
 70
0
 71
1
 10
0.0
 20
0.0
 11
210.0
 21
297.0
 12
0.0
 22
0.0
 32
0.0
 14
0.0
 24
0.0
 34
0.0
 15
0.0
 25
0.0
 35
0.0
146
0.0
 13
0.0
 23
0.0
 33
0.0
 16
1.0
 26
0.0
 36
0.0
 17
0.0
 27
1.0
 37
0.0
 76
0
330
214
345
0
346
0
  0
ENDSEC
  0
EOF
