999
DXF file: C:\Users\sesa63760\Dev\_Creo\CAD\MCADID0001738_3D-CAD\drw0001_7.dxf
999
Pro/ENGINEER 2019471 by Parametric Technology Corporation
  0
SECTION
  2
HEADER
  9
$ACADVER
  1
AC1024
  9
$DWGCODEPAGE
  3
ANSI_1252
  9
$EXTMAX
 10
90.9956766107
 20
128.6938854922
 30
0.0
  9
$EXTMIN
 10
0.0
 20
0.0
 30
0.0
  9
$LIMMIN
 10
0.0
 20
0.0
  9
$LIMMAX
 10
90.9956766107
 20
128.6938854922
  9
$VIEWCTR
 10
45.4978383053
 20
64.3469427461
  9
$VIEWSIZE
 40
128.6938854922
  9
$CLAYER
  8
0
  9
$LTSCALE
 40
8.388934758
  9
$CELTYPE
  6
BYLAYER
  9
$DIMSCALE
 40
1.0
  9
$DIMASZ
 40
1.0832818644
  9
$DIMEXO
 40
1.0
  9
$DIMDLI
 40
5.7959912874
  9
$DIMEXE
 40
1.0
  9
$DIMCEN
 40
1.3727347786
  9
$DIMLFAC
 40
1.0
  9
$DIMBLK
  1
_FILLED
  9
$DIMALT
 70
0
  9
$DIMALTF
 40
0.0393700787
  9
$DIMTXT
 40
1.5165946102
  9
$DIMTOL
 70
1
  9
$DIMLIM
 70
0
  9
$DIMTFAC
 40
1.0
  9
$DIMTP
 40
0.01
  9
$DIMTM
 40
0.01
  9
$DIMGAP
 40
0.625
  9
$DIMDSEP
 70
46
  9
$AUNITS
 70
0
  9
$PDMODE
 70
3
  9
$PDSIZE
 40
0.3125
  9
$HANDSEED
  5
342
  9
$TILEMODE
 70
1
  9
$MEASUREMENT
 70
1
  9
$INSUNITS
 70
4
  0
ENDSEC
  0
SECTION
  2
CLASSES
  0
CLASS
  1
ACDBDICTIONARYWDFLT
  2
AcDbDictionaryWithDefault
  3
AutoCAD 2000
 90
0
 91
1
280
0
281
0
  0
CLASS
  1
ACDBPLACEHOLDER
  2
AcDbPlaceHolder
  3
AutoCAD 2000
 90
0
 91
1
280
0
281
0
  0
CLASS
  1
LAYOUT
  2
AcDbLayout
  3
AutoCAD 2000
 90
0
 91
0
280
0
281
0
  0
ENDSEC
  0
SECTION
  2
TABLES
  0
TABLE
  2
VPORT
  5
8
100
AcDbSymbolTable
 70
2
  0
VPORT
  5
1F4
100
AcDbSymbolTableRecord
100
AcDbViewportTableRecord
  2
*ACTIVE
 70
0
 10
0.0
 20
0.0
 11
1.0
 21
1.0
 12
45.4978383053
 22
64.3469427461
 13
0.0
 23
0.0
 14
1.0
 24
1.0
 15
0.0
 25
0.0
 16
0.0
 26
0.0
 36
1.0
 17
0.0
 27
0.0
 37
0.0
 40
128.6938854922
 41
0.7070707071
 42
50.0
 43
0.0
 44
0.0
 50
0.0
 51
0.0
 71
0
 72
100
 73
1
 74
1
 75
0
 76
0
 77
0
 78
0
  0
ENDTAB
  0
TABLE
  2
LTYPE
  5
5
100
AcDbSymbolTable
 70
6
  0
LTYPE
  5
14
100
AcDbSymbolTableRecord
100
AcDbLinetypeTableRecord
  2
BYBLOCK
 70
0
  3

 72
65
 73
0
 40
0.0
  0
LTYPE
  5
15
100
AcDbSymbolTableRecord
100
AcDbLinetypeTableRecord
  2
BYLAYER
 70
0
  3

 72
65
 73
0
 40
0.0
  0
LTYPE
  5
16
100
AcDbSymbolTableRecord
100
AcDbLinetypeTableRecord
  2
CONTINUOUS
 70
64
  3
Solid line
 72
65
 73
0
 40
0.0
  0
LTYPE
  5
1F5
100
AcDbSymbolTableRecord
100
AcDbLinetypeTableRecord
  2
CENTER
 70
64
  3
____ _ ____ _ ____ _ ____ _ ____ _ ____ _ ____
 72
65
 73
4
 40
0.6
 49
0.375
 74
0
 49
-0.075
 74
0
 49
0.075
 74
0
 49
-0.075
 74
0
  0
LTYPE
  5
1F6
100
AcDbSymbolTableRecord
100
AcDbLinetypeTableRecord
  2
HIDDEN
 70
64
  3
- - - - - - - - - - - - - - - - - - - -
 72
65
 73
2
 40
0.2
 49
0.1
 74
0
 49
-0.1
 74
0
  0
LTYPE
  5
1F7
100
AcDbSymbolTableRecord
100
AcDbLinetypeTableRecord
  2
PHANTOM
 70
64
  3
_____ _ _ _____ _ _ _____ _ _ _____
 72
65
 73
6
 40
0.8
 49
0.45
 74
0
 49
-0.05
 74
0
 49
0.1
 74
0
 49
-0.05
 74
0
 49
0.1
 74
0
 49
-0.05
 74
0
  0
LTYPE
  5
1F8
100
AcDbSymbolTableRecord
100
AcDbLinetypeTableRecord
  2
DOT
 70
64
  3
. . . . . . . . . . . . . . . . . . . .
 72
65
 73
2
 40
0.2
 49
0.1
 74
0
 49
-0.1
 74
0
  0
LTYPE
  5
1F9
100
AcDbSymbolTableRecord
100
AcDbLinetypeTableRecord
  2
DASHED
 70
64
  3
- - - - - - - - - - - - - - - - - - - -
 72
65
 73
2
 40
0.2
 49
0.1
 74
0
 49
-0.1
 74
0
  0
ENDTAB
  0
TABLE
  2
LAYER
  5
2
100
AcDbSymbolTable
 70
36
  0
LAYER
  5
10
100
AcDbSymbolTableRecord
100
AcDbLayerTableRecord
  2
0
 70
0
 62
7
  6
CONTINUOUS
370
-3
390
F
  0
LAYER
  5
1FA
100
AcDbSymbolTableRecord
100
AcDbLayerTableRecord
  2
DEFAULT_1
 70
0
 62
7
  6
CENTER
370
-3
390
F
  0
LAYER
  5
1FB
100
AcDbSymbolTableRecord
100
AcDbLayerTableRecord
  2
DEFAULT_2
 70
0
 62
8
  6
HIDDEN
370
-3
390
F
  0
LAYER
  5
1FC
100
AcDbSymbolTableRecord
100
AcDbLayerTableRecord
  2
DEFAULT_3
 70
0
 62
7
  6
PHANTOM
370
-3
390
F
  0
LAYER
  5
1FD
100
AcDbSymbolTableRecord
100
AcDbLayerTableRecord
  2
00_COMPONENTS
 70
0
 62
7
  6
CONTINUOUS
370
-3
390
F
  0
LAYER
  5
1FE
100
AcDbSymbolTableRecord
100
AcDbLayerTableRecord
  2
01_1_DEFAULT_DATUMS
 70
0
 62
7
  6
CONTINUOUS
370
-3
390
F
  0
LAYER
  5
1FF
100
AcDbSymbolTableRecord
100
AcDbLayerTableRecord
  2
01_PLANES
 70
0
 62
7
  6
CONTINUOUS
370
-3
390
F
  0
LAYER
  5
200
100
AcDbSymbolTableRecord
100
AcDbLayerTableRecord
  2
02_COORD_SYS
 70
0
 62
7
  6
CONTINUOUS
370
-3
390
F
  0
LAYER
  5
201
100
AcDbSymbolTableRecord
100
AcDbLayerTableRecord
  2
03_AXES
 70
0
 62
7
  6
CONTINUOUS
370
-3
390
F
  0
LAYER
  5
202
100
AcDbSymbolTableRecord
100
AcDbLayerTableRecord
  2
04_POINTS
 70
0
 62
7
  6
CONTINUOUS
370
-3
390
F
  0
LAYER
  5
203
100
AcDbSymbolTableRecord
100
AcDbLayerTableRecord
  2
05_CURVES
 70
0
 62
7
  6
CONTINUOUS
370
-3
390
F
  0
LAYER
  5
204
100
AcDbSymbolTableRecord
100
AcDbLayerTableRecord
  2
06_SURFS
 70
0
 62
7
  6
CONTINUOUS
370
-3
390
F
  0
LAYER
  5
205
100
AcDbSymbolTableRecord
100
AcDbLayerTableRecord
  2
07_COSMETICS
 70
0
 62
7
  6
CONTINUOUS
370
-3
390
F
  0
LAYER
  5
206
100
AcDbSymbolTableRecord
100
AcDbLayerTableRecord
  2
10_NOTES
 70
0
 62
7
  6
CONTINUOUS
370
-3
390
F
  0
LAYER
  5
207
100
AcDbSymbolTableRecord
100
AcDbLayerTableRecord
  2
11_NOTES_PUB
 70
0
 62
7
  6
CONTINUOUS
370
-3
390
F
  0
LAYER
  5
208
100
AcDbSymbolTableRecord
100
AcDbLayerTableRecord
  2
13_REF_GTOL
 70
0
 62
7
  6
CONTINUOUS
370
-3
390
F
  0
LAYER
  5
209
100
AcDbSymbolTableRecord
100
AcDbLayerTableRecord
  2
16_MISC
 70
0
 62
7
  6
CONTINUOUS
370
-3
390
F
  0
LAYER
  5
20A
100
AcDbSymbolTableRecord
100
AcDbLayerTableRecord
  2
17_NO_PRINT
 70
0
 62
7
  6
CONTINUOUS
370
-3
390
F
  0
LAYER
  5
20B
100
AcDbSymbolTableRecord
100
AcDbLayerTableRecord
  2
18_DATUM_CAMS_JOINTS
 70
0
 62
7
  6
CONTINUOUS
370
-3
390
F
  0
LAYER
  5
20C
100
AcDbSymbolTableRecord
100
AcDbLayerTableRecord
  2
19_DATUM_FUNCTIONAL
 70
0
 62
7
  6
CONTINUOUS
370
-3
390
F
  0
LAYER
  5
20D
100
AcDbSymbolTableRecord
100
AcDbLayerTableRecord
  2
20_DATUM_KINEMATIC_SCHEME
 70
0
 62
7
  6
CONTINUOUS
370
-3
390
F
  0
ENDTAB
  0
TABLE
  2
STYLE
  5
3
100
AcDbSymbolTable
 70
1
  0
STYLE
  5
11
100
AcDbSymbolTableRecord
100
AcDbTextStyleTableRecord
  2
STANDARD
 70
0
 40
0.0
 41
0.8
 50
0.0
 71
0
 42
0.2
  3
txt
  4

  0
STYLE
  5
20E
100
AcDbSymbolTableRecord
100
AcDbTextStyleTableRecord
  2
TEXTSTYLE_1
 70
0
 40
0.0
 41
0.8
 50
0.0
 71
0
 42
0.2
  3
gdt
  4

  0
ENDTAB
  0
TABLE
  2
VIEW
  5
6
100
AcDbSymbolTable
 70
0
  0
ENDTAB
  0
TABLE
  2
UCS
  5
7
100
AcDbSymbolTable
 70
0
  0
ENDTAB
  0
TABLE
  2
APPID
  5
9
100
AcDbSymbolTable
 70
1
  0
APPID
  5
20F
100
AcDbSymbolTableRecord
100
AcDbRegAppTableRecord
  2
ACAD
 70
0
  0
ENDTAB
  0
TABLE
  2
BLOCK_RECORD
  5
1
100
AcDbSymbolTable
 70
0
  0
BLOCK_RECORD
  5
210
100
AcDbSymbolTableRecord
100
AcDbBlockTableRecord
  2
*Model_Space
  0
BLOCK_RECORD
  5
211
100
AcDbSymbolTableRecord
100
AcDbBlockTableRecord
  2
*Paper_Space
  0
BLOCK_RECORD
  5
212
100
AcDbSymbolTableRecord
100
AcDbBlockTableRecord
  2
_FILLED
  0
ENDTAB
  0
TABLE
  2
DIMSTYLE
  5
A
100
AcDbSymbolTable
 70
1
100
AcDbDimStyleTable
 71
0
  0
DIMSTYLE
105
213
100
AcDbSymbolTableRecord
100
AcDbDimStyleTableRecord
  2
STANDARD
 70
0
  3

  4

 40
1.0
 41
1.0832818644
 42
1.0
 43
0.38
 44
1.0
 45
0.0
 46
0.0
 47
0.01
 48
0.01
140
1.5165946102
141
0.09
142
0.0
143
25.4
144
1.0
145
0.0
146
1.0
147
0.625
 71
1
 72
0
 73
0
 74
0
 75
0
 76
0
 77
1
 78
8
 79
2
170
0
171
1
172
0
173
0
174
0
175
0
176
0
177
0
178
0
270
2
179
2
271
2
272
2
273
2
274
2
275
0
280
0
281
0
282
0
283
1
284
8
285
0
286
0
287
3
288
0
340
11
278
46
341
212
342
212
343
212
344
212
  0
ENDTAB
  0
ENDSEC
  0
SECTION
  2
BLOCKS
  0
BLOCK
  5
20
100
AcDbEntity
  8
0
100
AcDbBlockBegin
  2
*Model_Space
 70
0
 10
0.0
 20
0.0
 30
0.0
  3
*Model_Space
  1

  0
ENDBLK
  5
21
100
AcDbEntity
  8
0
100
AcDbBlockEnd
  0
BLOCK
  5
1C
100
AcDbEntity
  8
0
100
AcDbBlockBegin
  2
*Paper_Space
 70
0
 10
0.0
 20
0.0
 30
0.0
  3
*Paper_Space
  1

  0
ENDBLK
  5
1D
100
AcDbEntity
  8
0
100
AcDbBlockEnd
  0
BLOCK
  5
214
100
AcDbEntity
  8
0
100
AcDbBlockBegin
  2
_FILLED
 70
64
 10
0.0
 20
0.0
  3
_FILLED
  1

  0
SOLID
  5
215
100
AcDbEntity
  8
0
  6
BYBLOCK
 62
0
100
AcDbTrace
 10
0.0
 20
0.0
 11
-1.0
 21
0.25
 12
-1.0
 22
-0.25
 13
-1.0
 23
-0.25
  0
ENDBLK
  5
216
100
AcDbEntity
  8
0
  6
BYBLOCK
 62
0
100
AcDbBlockEnd
  0
ENDSEC
  0
SECTION
  2
ENTITIES
  0
LINE
  5
217
100
AcDbEntity
  8
0
100
AcDbLine
 62
7
  6
CONTINUOUS
 10
10.0986910844
 20
73.1119828575
 11
10.0986910844
 21
72.5119828529
  0
LINE
  5
218
100
AcDbEntity
  8
0
100
AcDbLine
 62
7
  6
CONTINUOUS
 10
10.0986910844
 20
56.811982873
 11
10.0986910844
 21
56.2119828575
  0
LINE
  5
219
100
AcDbEntity
  8
0
100
AcDbLine
 62
7
  6
CONTINUOUS
 10
10.7486910844
 20
57.7119828575
 11
10.7486910844
 21
57.8169828575
  0
LINE
  5
21A
100
AcDbEntity
  8
0
100
AcDbLine
 62
7
  6
CONTINUOUS
 10
10.7486910844
 20
71.5369828575
 11
10.7486910844
 21
71.6119828575
  0
LINE
  5
21B
100
AcDbEntity
  8
0
100
AcDbLine
 62
7
  6
CONTINUOUS
 10
11.0386910844
 20
57.7119828575
 11
11.0386910844
 21
57.8169828575
  0
LINE
  5
21C
100
AcDbEntity
  8
0
100
AcDbLine
 62
7
  6
CONTINUOUS
 10
11.0386910844
 20
71.5369828575
 11
11.0386910844
 21
71.6119828575
  0
LINE
  5
21D
100
AcDbEntity
  8
0
100
AcDbLine
 62
7
  6
CONTINUOUS
 10
11.8986910844
 20
55.7119828575
 11
11.8986910844
 21
57.7747988315
  0
LINE
  5
21E
100
AcDbEntity
  8
0
100
AcDbLine
 62
7
  6
CONTINUOUS
 10
11.8986910844
 20
71.5491668834
 11
11.8986910844
 21
73.6119828575
  0
LINE
  5
21F
100
AcDbEntity
  8
0
100
AcDbLine
 62
7
  6
CONTINUOUS
 10
12.3986910844
 20
59.0669828575
 11
12.3986910844
 21
57.8169828575
  0
LINE
  5
220
100
AcDbEntity
  8
0
100
AcDbLine
 62
7
  6
CONTINUOUS
 10
12.3986910844
 20
70.2869828575
 11
12.3986910844
 21
71.5369828575
  0
LINE
  5
221
100
AcDbEntity
  8
0
100
AcDbLine
 62
7
  6
CONTINUOUS
 10
12.7586910844
 20
57.7898101874
 11
12.7586910844
 21
57.8169828575
  0
LINE
  5
222
100
AcDbEntity
  8
0
100
AcDbLine
 62
7
  6
CONTINUOUS
 10
13.8664468214
 20
71.5148195793
 11
13.8664468214
 21
70.2869828575
  0
LINE
  5
223
100
AcDbEntity
  8
0
100
AcDbLine
 62
7
  6
CONTINUOUS
 10
13.8664468214
 20
59.0669828575
 11
13.8664468214
 21
57.8169828575
  0
LINE
  5
224
100
AcDbEntity
  8
0
100
AcDbLine
 62
7
  6
CONTINUOUS
 10
13.9986910844
 20
71.433895466
 11
13.9986910844
 21
70.4119828575
  0
LINE
  5
225
100
AcDbEntity
  8
0
100
AcDbLine
 62
7
  6
CONTINUOUS
 10
13.9986910844
 20
58.9119828575
 11
13.9986910844
 21
57.890070264
  0
LINE
  5
226
100
AcDbEntity
  8
0
100
AcDbLine
 62
7
  6
CONTINUOUS
 10
15.0986910844
 20
57.9116123426
 11
15.0986910844
 21
58.9119828575
  0
LINE
  5
227
100
AcDbEntity
  8
0
100
AcDbLine
 62
7
  6
CONTINUOUS
 10
15.0986910844
 20
70.4119828575
 11
15.0986910844
 21
71.4119020842
  0
LINE
  5
228
100
AcDbEntity
  8
0
100
AcDbLine
 62
7
  6
CONTINUOUS
 10
15.1486910844
 20
59.0669828575
 11
15.1486910844
 21
57.8399673151
  0
LINE
  5
229
100
AcDbEntity
  8
0
100
AcDbLine
 62
7
  6
CONTINUOUS
 10
15.1486910844
 20
70.2869828575
 11
15.1486910844
 21
71.4838511191
  0
LINE
  5
22A
100
AcDbEntity
  8
0
100
AcDbLine
 62
7
  6
CONTINUOUS
 10
15.7486910844
 20
57.842000832
 11
15.7486910844
 21
71.4819648791
  0
LINE
  5
22B
100
AcDbEntity
  8
0
100
AcDbLine
 62
7
  6
CONTINUOUS
 10
16.1486910844
 20
71.327578354
 11
16.1486910844
 21
57.9963866298
  0
LINE
  5
22C
100
AcDbEntity
  8
0
100
AcDbLine
 62
7
  6
CONTINUOUS
 10
16.6486498372
 20
58.0077213096
 11
16.6486515242
 21
71.316242156
  0
LINE
  5
22D
100
AcDbEntity
  8
0
100
AcDbLine
 62
7
  6
CONTINUOUS
 10
18.1486910844
 20
55.7119828575
 11
18.1486910844
 21
73.6119828575
  0
LINE
  5
22E
100
AcDbEntity
  8
0
100
AcDbLine
 62
7
  6
CONTINUOUS
 10
23.6486910844
 20
55.7119828575
 11
23.6486910844
 21
57.3119828575
  0
LINE
  5
22F
100
AcDbEntity
  8
0
100
AcDbLine
 62
7
  6
CONTINUOUS
 10
23.8986910844
 20
55.8119828575
 11
23.8986910844
 21
57.3119828575
  0
LINE
  5
230
100
AcDbEntity
  8
0
100
AcDbLine
 62
7
  6
CONTINUOUS
 10
25.3986910844
 20
58.7119828575
 11
25.3986910844
 21
57.1119828575
  0
LINE
  5
231
100
AcDbEntity
  8
0
100
AcDbLine
 62
7
  6
CONTINUOUS
 10
25.6486910844
 20
57.3119828575
 11
25.6486910844
 21
58.7119828575
  0
LINE
  5
232
100
AcDbEntity
  8
0
100
AcDbLine
 62
7
  6
CONTINUOUS
 10
28.6486910844
 20
58.7119828575
 11
28.6486910844
 21
57.3119828575
  0
LINE
  5
233
100
AcDbEntity
  8
0
100
AcDbLine
 62
7
  6
CONTINUOUS
 10
28.8986910844
 20
57.1119828575
 11
28.8986910844
 21
58.7119828575
  0
LINE
  5
234
100
AcDbEntity
  8
0
100
AcDbLine
 62
7
  6
CONTINUOUS
 10
30.3986910844
 20
57.3119828575
 11
30.3986910844
 21
55.8119828575
  0
LINE
  5
235
100
AcDbEntity
  8
0
100
AcDbLine
 62
7
  6
CONTINUOUS
 10
30.6486910844
 20
55.7119828575
 11
30.6486910844
 21
57.3119828575
  0
LINE
  5
236
100
AcDbEntity
  8
0
100
AcDbLine
 62
7
  6
CONTINUOUS
 10
33.3486910844
 20
73.6119828575
 11
33.3486910844
 21
73.1119828575
  0
LINE
  5
237
100
AcDbEntity
  8
0
100
AcDbLine
 62
7
  6
CONTINUOUS
 10
33.3486910844
 20
55.7119828575
 11
33.3486910844
 21
56.2119828575
  0
LINE
  5
238
100
AcDbEntity
  8
0
100
AcDbLine
 62
7
  6
CONTINUOUS
 10
33.0957708414
 20
57.3119828575
 11
33.0867330723
 21
57.3500248455
  0
LINE
  5
239
100
AcDbEntity
  8
0
100
AcDbLine
 62
7
  6
CONTINUOUS
 10
33.0721796737
 20
57.3063954644
 11
33.0631847937
 21
57.3444781908
  0
LINE
  5
23A
100
AcDbEntity
  8
0
100
AcDbLine
 62
7
  6
CONTINUOUS
 10
37.1626930142
 20
73.1119828575
 11
37.1626930142
 21
73.6119828559
  0
LINE
  5
23B
100
AcDbEntity
  8
0
100
AcDbLine
 62
7
  6
CONTINUOUS
 10
37.1626938301
 20
55.7119828589
 11
37.1626938301
 21
56.2119828575
  0
LINE
  5
23C
100
AcDbEntity
  8
0
100
AcDbLine
 62
7
  6
CONTINUOUS
 10
57.5370330212
 20
57.986984017
 11
57.3481992938
 21
57.9620321292
  0
LINE
  5
23D
100
AcDbEntity
  8
0
100
AcDbLine
 62
7
  6
CONTINUOUS
 10
58.5491096951
 20
57.9713933381
 11
58.532395566
 21
57.9699658331
  0
LINE
  5
23E
100
AcDbEntity
  8
0
100
AcDbLine
 62
7
  6
CONTINUOUS
 10
60.0602272848
 20
56.2619272295
 11
59.6491794759
 21
56.2319688569
  0
LINE
  5
23F
100
AcDbEntity
  8
0
100
AcDbLine
 62
7
  6
CONTINUOUS
 10
10.5986999397
 20
55.7119828575
 11
81.6486910844
 21
55.7119828575
  0
LINE
  5
240
100
AcDbEntity
  8
0
100
AcDbLine
 62
7
  6
CONTINUOUS
 10
56.7721215145
 20
55.7619828575
 11
72.2486910844
 21
55.7619828575
  0
LINE
  5
241
100
AcDbEntity
  8
0
100
AcDbLine
 62
7
  6
CONTINUOUS
 10
23.8986910844
 20
55.8119828575
 11
30.3986910844
 21
55.8119828575
  0
LINE
  5
242
100
AcDbEntity
  8
0
100
AcDbLine
 62
7
  6
CONTINUOUS
 10
79.9064622408
 20
56.2119828575
 11
72.2486910844
 21
56.2119828575
  0
LINE
  5
243
100
AcDbEntity
  8
0
100
AcDbLine
 62
7
  6
CONTINUOUS
 10
33.3486910844
 20
56.2119828575
 11
30.6486910844
 21
56.2119828575
  0
LINE
  5
244
100
AcDbEntity
  8
0
100
AcDbLine
 62
7
  6
CONTINUOUS
 10
23.6486910844
 20
56.2119828575
 11
10.0986910844
 21
56.2119828575
  0
LINE
  5
245
100
AcDbEntity
  8
0
100
AcDbLine
 62
7
  6
CONTINUOUS
 10
51.3486910844
 20
56.2119828544
 11
37.1626735811
 21
56.2119840641
  0
LINE
  5
246
100
AcDbEntity
  8
0
100
AcDbLine
 62
7
  6
CONTINUOUS
 10
72.2486910844
 20
56.2619828575
 11
60.0601676373
 21
56.2619491559
  0
LINE
  5
247
100
AcDbEntity
  8
0
100
AcDbLine
 62
7
  6
CONTINUOUS
 10
30.3986910844
 20
56.3119828575
 11
23.8986910844
 21
56.3119828575
  0
LINE
  5
248
100
AcDbEntity
  8
0
100
AcDbLine
 62
7
  6
CONTINUOUS
 10
56.1888785002
 20
56.4819828575
 11
54.2486910844
 21
56.4819828575
  0
LINE
  5
249
100
AcDbEntity
  8
0
100
AcDbLine
 62
7
  6
CONTINUOUS
 10
52.7486910844
 20
56.4819828575
 11
51.4486910844
 21
56.4819828575
  0
LINE
  5
24A
100
AcDbEntity
  8
0
100
AcDbLine
 62
7
  6
CONTINUOUS
 10
72.2486910844
 20
56.4819828575
 11
73.5486910844
 21
56.4819828575
  0
LINE
  5
24B
100
AcDbEntity
  8
0
100
AcDbLine
 62
7
  6
CONTINUOUS
 10
52.7701270198
 20
56.5619828575
 11
51.3486910844
 21
56.5619828575
  0
LINE
  5
24C
100
AcDbEntity
  8
0
100
AcDbLine
 62
7
  6
CONTINUOUS
 10
72.2486910844
 20
56.5869828575
 11
73.5768257496
 21
56.5869828575
  0
LINE
  5
24D
100
AcDbEntity
  8
0
100
AcDbLine
 62
7
  6
CONTINUOUS
 10
56.1480455555
 20
56.6369828575
 11
54.4986910844
 21
56.6369828575
  0
LINE
  5
24E
100
AcDbEntity
  8
0
100
AcDbLine
 62
7
  6
CONTINUOUS
 10
25.3986910844
 20
57.1119828575
 11
28.8986910844
 21
57.1119828575
  0
LINE
  5
24F
100
AcDbEntity
  8
0
100
AcDbLine
 62
7
  6
CONTINUOUS
 10
81.6486910844
 20
57.3119828575
 11
73.7486910844
 21
57.3119828575
  0
LINE
  5
250
100
AcDbEntity
  8
0
100
AcDbLine
 62
7
  6
CONTINUOUS
 10
33.0957708414
 20
57.3119828575
 11
30.3986910844
 21
57.3119828575
  0
LINE
  5
251
100
AcDbEntity
  8
0
100
AcDbLine
 62
7
  6
CONTINUOUS
 10
23.8986910844
 20
57.3119828575
 11
18.1486910844
 21
57.3119828575
  0
LINE
  5
252
100
AcDbEntity
  8
0
100
AcDbLine
 62
7
  6
CONTINUOUS
 10
25.6486910844
 20
57.3119828575
 11
28.6486910844
 21
57.3119828575
  0
LINE
  5
253
100
AcDbEntity
  8
0
100
AcDbLine
 62
7
  6
CONTINUOUS
 10
52.9486910844
 20
57.3119828575
 11
54.4986910844
 21
57.3119828575
  0
LINE
  5
254
100
AcDbEntity
  8
0
100
AcDbLine
 62
7
  6
CONTINUOUS
 10
16.1486910844
 20
57.9963854519
 11
16.6486506803
 21
58.0077213283
  0
LINE
  5
255
100
AcDbEntity
  8
0
100
AcDbLine
 62
7
  6
CONTINUOUS
 10
16.2359757777
 20
57.8505064184
 11
15.1800872769
 21
57.8320758151
  0
LINE
  5
256
100
AcDbEntity
  8
0
100
AcDbLine
 62
7
  6
CONTINUOUS
 10
13.9196057343
 20
57.810074028
 11
11.5476607118
 21
57.7686715736
  0
LINE
  5
257
100
AcDbEntity
  8
0
100
AcDbLine
 62
7
  6
CONTINUOUS
 10
55.6699712643
 20
59.3130278244
 11
56.332003028
 21
59.3175053684
  0
LINE
  5
258
100
AcDbEntity
  8
0
100
AcDbLine
 62
7
  6
CONTINUOUS
 10
56.3005458598
 20
59.618661779
 11
55.6215101136
 21
59.6143941228
  0
LINE
  5
259
100
AcDbEntity
  8
0
100
AcDbLine
 62
7
  6
CONTINUOUS
 10
61.6486910844
 20
57.6869828575
 11
62.6486910844
 21
57.6869828575
  0
LINE
  5
25A
100
AcDbEntity
  8
0
100
AcDbLine
 62
7
  6
CONTINUOUS
 10
10.3398453576
 20
57.7119828575
 11
11.4328168032
 21
57.7119828575
  0
LINE
  5
25B
100
AcDbEntity
  8
0
100
AcDbLine
 62
7
  6
CONTINUOUS
 10
25.6486910844
 20
57.7119828575
 11
28.6486910844
 21
57.7119828575
  0
LINE
  5
25C
100
AcDbEntity
  8
0
100
AcDbLine
 62
7
  6
CONTINUOUS
 10
54.2486910844
 20
57.7119828575
 11
54.4986910844
 21
57.7119828575
  0
LINE
  5
25D
100
AcDbEntity
  8
0
100
AcDbLine
 62
7
  6
CONTINUOUS
 10
62.6486910844
 20
57.7869828575
 11
61.6486910844
 21
57.7869828575
  0
LINE
  5
25E
100
AcDbEntity
  8
0
100
AcDbLine
 62
7
  6
CONTINUOUS
 10
10.4435477017
 20
57.8169828575
 11
13.9439491687
 21
57.8169828575
  0
LINE
  5
25F
100
AcDbEntity
  8
0
100
AcDbLine
 62
7
  6
CONTINUOUS
 10
25.3986910844
 20
57.9191625345
 11
25.6486910844
 21
57.9191625345
  0
LINE
  5
260
100
AcDbEntity
  8
0
100
AcDbLine
 62
7
  6
CONTINUOUS
 10
28.6486910844
 20
57.9191625345
 11
28.8986910844
 21
57.9191625345
  0
LINE
  5
261
100
AcDbEntity
  8
0
100
AcDbLine
 62
7
  6
CONTINUOUS
 10
25.3986910844
 20
58.6119828575
 11
25.6486910844
 21
58.6119828575
  0
LINE
  5
262
100
AcDbEntity
  8
0
100
AcDbLine
 62
7
  6
CONTINUOUS
 10
28.6486910844
 20
58.6119828575
 11
28.8986910844
 21
58.6119828575
  0
LINE
  5
263
100
AcDbEntity
  8
0
100
AcDbLine
 62
7
  6
CONTINUOUS
 10
28.8986910844
 20
58.7119828575
 11
25.3986910844
 21
58.7119828575
  0
LINE
  5
264
100
AcDbEntity
  8
0
100
AcDbLine
 62
7
  6
CONTINUOUS
 10
62.4918234531
 20
58.7869828575
 11
72.7486910844
 21
58.7869828575
  0
LINE
  5
265
100
AcDbEntity
  8
0
100
AcDbLine
 62
7
  6
CONTINUOUS
 10
64.2675122257
 20
58.7945517098
 11
64.3486910844
 21
58.7945517098
  0
LINE
  5
266
100
AcDbEntity
  8
0
100
AcDbLine
 62
7
  6
CONTINUOUS
 10
13.9986910844
 20
58.9119828575
 11
15.0986910844
 21
58.9119828575
  0
LINE
  5
267
100
AcDbEntity
  8
0
100
AcDbLine
 62
7
  6
CONTINUOUS
 10
63.754908867
 20
58.9369828575
 11
62.6486910844
 21
58.9369828575
  0
LINE
  5
268
100
AcDbEntity
  8
0
100
AcDbLine
 62
7
  6
CONTINUOUS
 10
12.3986910844
 20
59.0669828575
 11
15.1486910844
 21
59.0669828575
  0
LINE
  5
269
100
AcDbEntity
  8
0
100
AcDbLine
 62
7
  6
CONTINUOUS
 10
56.3511293038
 20
59.1869828575
 11
55.821139337
 21
59.1869828575
  0
LINE
  5
26A
100
AcDbEntity
  8
0
100
AcDbLine
 62
7
  6
CONTINUOUS
 10
64.250522705
 20
59.4369828583
 11
64.3486910844
 21
59.4369828583
  0
LINE
  5
26B
100
AcDbEntity
  8
0
100
AcDbLine
 62
7
  6
CONTINUOUS
 10
64.3486910844
 20
59.5369828583
 11
64.250522705
 21
59.5369828583
  0
LINE
  5
26C
100
AcDbEntity
  8
0
100
AcDbLine
 62
7
  6
CONTINUOUS
 10
55.773021698
 20
59.7869828575
 11
56.2814751678
 21
59.7869828575
  0
LINE
  5
26D
100
AcDbEntity
  8
0
100
AcDbLine
 62
7
  6
CONTINUOUS
 10
58.5323973278
 20
57.9867943191
 11
57.5370450028
 21
57.9868996688
  0
LINE
  5
26E
100
AcDbEntity
  8
0
100
AcDbLine
 62
7
  6
CONTINUOUS
 10
57.0423382173
 20
60.9733543133
 11
57.2303764871
 21
60.9869834999
  0
LINE
  5
26F
100
AcDbEntity
  8
0
100
AcDbLine
 62
7
  6
CONTINUOUS
 10
58.3332335096
 20
60.9775815884
 11
58.352427299
 21
60.9784852284
  0
LINE
  5
270
100
AcDbEntity
  8
0
100
AcDbLine
 62
7
  6
CONTINUOUS
 10
57.2303745857
 20
60.9870139666
 11
58.3332374417
 21
60.9876292524
  0
LINE
  5
271
100
AcDbEntity
  8
0
100
AcDbLine
 62
7
  6
CONTINUOUS
 10
64.3486910844
 20
60.1794140069
 11
64.2675122257
 21
60.1794140069
  0
LINE
  5
272
100
AcDbEntity
  8
0
100
AcDbLine
 62
7
  6
CONTINUOUS
 10
64.3486910844
 20
60.3619828583
 11
64.327737249
 21
60.3619828583
  0
LINE
  5
273
100
AcDbEntity
  8
0
100
AcDbLine
 62
7
  6
CONTINUOUS
 10
62.6486910844
 20
60.4369828575
 11
63.754908867
 21
60.4369828575
  0
LINE
  5
274
100
AcDbEntity
  8
0
100
AcDbLine
 62
7
  6
CONTINUOUS
 10
72.7486910844
 20
60.5869828575
 11
62.4918234531
 21
60.5869828575
  0
LINE
  5
275
100
AcDbEntity
  8
0
100
AcDbLine
 62
7
  6
CONTINUOUS
 10
61.1486910844
 20
71.4869828575
 11
61.6486910844
 21
71.6869828575
  0
LINE
  5
276
100
AcDbEntity
  8
0
100
AcDbLine
 62
7
  6
CONTINUOUS
 10
61.6486910844
 20
71.5869828575
 11
61.1486910844
 21
71.3869828575
  0
LINE
  5
277
100
AcDbEntity
  8
0
100
AcDbLine
 62
7
  6
CONTINUOUS
 10
57.7473398462
 20
63.2869828575
 11
57.7485231816
 21
63.2869850092
  0
LINE
  5
278
100
AcDbEntity
  8
0
100
AcDbLine
 62
7
  6
CONTINUOUS
 10
61.6486910844
 20
57.6869828575
 11
61.1486910844
 21
57.8869828575
  0
LINE
  5
279
100
AcDbEntity
  8
0
100
AcDbLine
 62
7
  6
CONTINUOUS
 10
61.1486910844
 20
57.9869828575
 11
61.6486910844
 21
57.7869828575
  0
LINE
  5
27A
100
AcDbEntity
  8
0
100
AcDbLine
 62
7
  6
CONTINUOUS
 10
57.7486292843
 20
66.0869803103
 11
57.7473417122
 21
66.0869828575
  0
LINE
  5
27B
100
AcDbEntity
  8
0
100
AcDbLine
 62
7
  6
CONTINUOUS
 10
62.4918234531
 20
68.7869828575
 11
72.7486910844
 21
68.7869828575
  0
LINE
  5
27C
100
AcDbEntity
  8
0
100
AcDbLine
 62
7
  6
CONTINUOUS
 10
63.754908867
 20
68.9369828575
 11
62.6486910844
 21
68.9369828575
  0
LINE
  5
27D
100
AcDbEntity
  8
0
100
AcDbLine
 62
7
  6
CONTINUOUS
 10
64.327737249
 20
69.0119828583
 11
64.3486910844
 21
69.0119828583
  0
LINE
  5
27E
100
AcDbEntity
  8
0
100
AcDbLine
 62
7
  6
CONTINUOUS
 10
64.2675122257
 20
69.1945517098
 11
64.3486910844
 21
69.1945517098
  0
LINE
  5
27F
100
AcDbEntity
  8
0
100
AcDbLine
 62
7
  6
CONTINUOUS
 10
56.2814788561
 20
69.5869828575
 11
55.7730583967
 21
69.5869828575
  0
LINE
  5
280
100
AcDbEntity
  8
0
100
AcDbLine
 62
7
  6
CONTINUOUS
 10
64.250522705
 20
69.8369828583
 11
64.3486910844
 21
69.8369828583
  0
LINE
  5
281
100
AcDbEntity
  8
0
100
AcDbLine
 62
7
  6
CONTINUOUS
 10
64.3486910844
 20
69.9369828583
 11
64.250522705
 21
69.9369828583
  0
LINE
  5
282
100
AcDbEntity
  8
0
100
AcDbLine
 62
7
  6
CONTINUOUS
 10
58.3332444364
 20
68.3867924593
 11
57.2303709058
 21
68.386899163
  0
LINE
  5
283
100
AcDbEntity
  8
0
100
AcDbLine
 62
7
  6
CONTINUOUS
 10
55.6215110976
 20
69.759564314
 11
56.3005501481
 21
69.7553045054
  0
LINE
  5
284
100
AcDbEntity
  8
0
100
AcDbLine
 62
7
  6
CONTINUOUS
 10
58.3524366085
 20
68.3954797343
 11
58.3332453643
 21
68.3963829423
  0
LINE
  5
285
100
AcDbEntity
  8
0
100
AcDbLine
 62
7
  6
CONTINUOUS
 10
57.2303760889
 20
68.3869820425
 11
57.0423372223
 21
68.4006112391
  0
LWPOLYLINE
  5
286
100
AcDbEntity
  8
0
100
AcDbPolyline
 62
7
  6
CONTINUOUS
 90
5
 70
0
 10
57.7650385179
 20
62.386970695
 10
57.8959152355
 20
62.3130616565
 10
58.0994063048
 20
62.0090780321
 10
58.2631792831
 20
61.5137146297
 10
58.3332431394
 20
60.9774163538
  0
LINE
  5
287
100
AcDbEntity
  8
0
100
AcDbLine
 62
7
  6
CONTINUOUS
 10
51.3486910844
 20
73.611982857
 11
51.3486910844
 21
72.7619828575
  0
LINE
  5
288
100
AcDbEntity
  8
0
100
AcDbLine
 62
7
  6
CONTINUOUS
 10
51.3486910844
 20
55.711982858
 11
51.3486910844
 21
56.5619828575
  0
LINE
  5
289
100
AcDbEntity
  8
0
100
AcDbLine
 62
7
  6
CONTINUOUS
 10
51.4486910844
 20
55.7119828575
 11
51.4486910844
 21
56.5619828575
  0
LINE
  5
28A
100
AcDbEntity
  8
0
100
AcDbLine
 62
7
  6
CONTINUOUS
 10
51.4486910844
 20
72.7619828575
 11
51.4486910844
 21
73.6119828575
  0
LINE
  5
28B
100
AcDbEntity
  8
0
100
AcDbLine
 62
7
  6
CONTINUOUS
 10
52.8486910844
 20
71.9619828575
 11
52.8486910844
 21
57.3619828575
  0
LINE
  5
28C
100
AcDbEntity
  8
0
100
AcDbLine
 62
7
  6
CONTINUOUS
 10
52.9486910844
 20
57.3119828575
 11
52.9486910844
 21
71.9819828575
  0
LINE
  5
28D
100
AcDbEntity
  8
0
100
AcDbLine
 62
7
  6
CONTINUOUS
 10
57.5370365646
 20
71.3870138474
 11
58.5324250134
 21
71.387620638
  0
LINE
  5
28E
100
AcDbEntity
  8
0
100
AcDbLine
 62
7
  6
CONTINUOUS
 10
55.8210870892
 20
70.1869828575
 11
56.3511336385
 21
70.1869828575
  0
LINE
  5
28F
100
AcDbEntity
  8
0
100
AcDbLine
 62
7
  6
CONTINUOUS
 10
15.1486910844
 20
70.2869828575
 11
12.3986910844
 21
70.2869828575
  0
LINE
  5
290
100
AcDbEntity
  8
0
100
AcDbLine
 62
7
  6
CONTINUOUS
 10
13.9986910844
 20
70.4119828575
 11
15.0986910844
 21
70.4119828575
  0
LINE
  5
291
100
AcDbEntity
  8
0
100
AcDbLine
 62
7
  6
CONTINUOUS
 10
62.6486910844
 20
70.4369828575
 11
63.754908867
 21
70.4369828575
  0
LINE
  5
292
100
AcDbEntity
  8
0
100
AcDbLine
 62
7
  6
CONTINUOUS
 10
64.3486910844
 20
70.5794140069
 11
64.2675122257
 21
70.5794140069
  0
LINE
  5
293
100
AcDbEntity
  8
0
100
AcDbLine
 62
7
  6
CONTINUOUS
 10
72.7486910844
 20
70.5869828575
 11
62.4918234531
 21
70.5869828575
  0
LINE
  5
294
100
AcDbEntity
  8
0
100
AcDbLine
 62
7
  6
CONTINUOUS
 10
10.4435477017
 20
71.5369828575
 11
12.2958045948
 21
71.5369828575
  0
LINE
  5
295
100
AcDbEntity
  8
0
100
AcDbLine
 62
7
  6
CONTINUOUS
 10
62.6486910844
 20
71.5869828575
 11
61.6486910844
 21
71.5869828575
  0
LINE
  5
296
100
AcDbEntity
  8
0
100
AcDbLine
 62
7
  6
CONTINUOUS
 10
11.4328168032
 20
71.6119828575
 11
10.3398453576
 21
71.6119828575
  0
LINE
  5
297
100
AcDbEntity
  8
0
100
AcDbLine
 62
7
  6
CONTINUOUS
 10
62.6486910844
 20
71.6869828575
 11
61.6486910844
 21
71.6869828575
  0
LINE
  5
298
100
AcDbEntity
  8
0
100
AcDbLine
 62
7
  6
CONTINUOUS
 10
56.3320075644
 20
70.0564601785
 11
55.6699688867
 21
70.0609297303
  0
LINE
  5
299
100
AcDbEntity
  8
0
100
AcDbLine
 62
7
  6
CONTINUOUS
 10
11.5476607118
 20
71.5552941414
 11
13.9186426483
 21
71.5139084977
  0
LINE
  5
29A
100
AcDbEntity
  8
0
100
AcDbLine
 62
7
  6
CONTINUOUS
 10
15.1796360577
 20
71.491897776
 11
16.2359756297
 21
71.473459292
  0
LINE
  5
29B
100
AcDbEntity
  8
0
100
AcDbLine
 62
7
  6
CONTINUOUS
 10
16.6486506803
 20
71.3162410302
 11
16.1486910844
 21
71.3275785033
  0
LWPOLYLINE
  5
29C
100
AcDbEntity
  8
0
100
AcDbPolyline
 62
7
  6
CONTINUOUS
 90
9
 70
0
 10
57.7485492314
 20
66.0869738052
 10
57.8773574323
 20
66.0106899642
 10
58.0580332461
 20
65.7176362075
 10
58.1963701649
 20
65.2436803353
 10
58.2460490802
 20
64.6889109985
 10
58.1969611274
 20
64.1334989346
 10
58.0590187367
 20
63.6586331687
 10
57.8781983597
 20
63.3641484885
 10
57.7484512798
 20
63.2869943165
  0
LINE
  5
29D
100
AcDbEntity
  8
0
100
AcDbLine
 62
7
  6
CONTINUOUS
 10
54.2486910844
 20
57.3119828575
 11
54.2486910844
 21
56.4819828575
  0
LINE
  5
29E
100
AcDbEntity
  8
0
100
AcDbLine
 62
7
  6
CONTINUOUS
 10
54.2486910844
 20
57.7119828575
 11
54.2486910844
 21
72.8419828575
  0
LINE
  5
29F
100
AcDbEntity
  8
0
100
AcDbLine
 62
7
  6
CONTINUOUS
 10
54.4986910844
 20
56.6369832485
 11
54.4986910844
 21
72.736982465
  0
LINE
  5
2A0
100
AcDbEntity
  8
0
100
AcDbLine
 62
7
  6
CONTINUOUS
 10
52.6343317304
 20
56.5619828575
 11
52.8486910844
 21
57.3619828575
  0
LINE
  5
2A1
100
AcDbEntity
  8
0
100
AcDbLine
 62
7
  6
CONTINUOUS
 10
52.9710889141
 20
57.3119828575
 11
52.7486910844
 21
56.4819828575
  0
LINE
  5
2A2
100
AcDbEntity
  8
0
100
AcDbLine
 62
7
  6
CONTINUOUS
 10
54.4986910844
 20
72.7369828575
 11
56.1480443341
 21
72.7369828575
  0
LINE
  5
2A3
100
AcDbEntity
  8
0
100
AcDbLine
 62
7
  6
CONTINUOUS
 10
52.7343317304
 20
72.7619828575
 11
51.3486910844
 21
72.7619828575
  0
LINE
  5
2A4
100
AcDbEntity
  8
0
100
AcDbLine
 62
7
  6
CONTINUOUS
 10
73.5343317304
 20
72.7819828575
 11
72.2486910844
 21
72.7819828575
  0
LINE
  5
2A5
100
AcDbEntity
  8
0
100
AcDbLine
 62
7
  6
CONTINUOUS
 10
52.7343317304
 20
72.7819828575
 11
51.4486910844
 21
72.7819828575
  0
LINE
  5
2A6
100
AcDbEntity
  8
0
100
AcDbLine
 62
7
  6
CONTINUOUS
 10
56.1757053604
 20
72.8419828575
 11
54.2486910844
 21
72.8419828575
  0
LINE
  5
2A7
100
AcDbEntity
  8
0
100
AcDbLine
 62
7
  6
CONTINUOUS
 10
37.1626720346
 20
73.1119811497
 11
51.3486910844
 21
73.1119828609
  0
LINE
  5
2A8
100
AcDbEntity
  8
0
100
AcDbLine
 62
7
  6
CONTINUOUS
 10
10.0986910844
 20
73.1119828575
 11
33.3486910844
 21
73.1119828575
  0
LINE
  5
2A9
100
AcDbEntity
  8
0
100
AcDbLine
 62
7
  6
CONTINUOUS
 10
60.0601275684
 20
73.1120435783
 11
79.9064622408
 21
73.1119828575
  0
LINE
  5
2AA
100
AcDbEntity
  8
0
100
AcDbLine
 62
7
  6
CONTINUOUS
 10
10.5987008004
 20
73.6119828575
 11
81.6486910844
 21
73.6119828575
  0
LINE
  5
2AB
100
AcDbEntity
  8
0
100
AcDbLine
 62
7
  6
CONTINUOUS
 10
59.6487011919
 20
73.1420630177
 11
60.0601950583
 21
73.1120541459
  0
LINE
  5
2AC
100
AcDbEntity
  8
0
100
AcDbLine
 62
7
  6
CONTINUOUS
 10
36.7508359676
 20
73.1421738394
 11
37.162671907
 21
73.1119788203
  0
LINE
  5
2AD
100
AcDbEntity
  8
0
100
AcDbLine
 62
7
  6
CONTINUOUS
 10
58.5324150284
 20
71.4040002635
 11
58.5491259642
 21
71.4025726697
  0
LINE
  5
2AE
100
AcDbEntity
  8
0
100
AcDbLine
 62
7
  6
CONTINUOUS
 10
57.348200478
 20
71.4119336903
 11
57.5370326718
 21
71.3869819757
  0
LINE
  5
2AF
100
AcDbEntity
  8
0
100
AcDbLine
 62
7
  6
CONTINUOUS
 10
52.8486910844
 20
71.9619828575
 11
52.6343317304
 21
72.7619828575
  0
LINE
  5
2B0
100
AcDbEntity
  8
0
100
AcDbLine
 62
7
  6
CONTINUOUS
 10
52.7343317304
 20
72.7819828575
 11
52.9486910844
 21
71.9819828575
  0
LWPOLYLINE
  5
2B1
100
AcDbEntity
  8
0
100
AcDbPolyline
 62
7
  6
CONTINUOUS
 90
5
 70
0
 10
58.333248685
 20
68.3965889786
 10
58.2636544402
 20
67.8623968952
 10
58.0999652918
 20
67.3660616456
 10
57.8962352474
 20
67.0612049876
 10
57.7650483806
 20
66.9869949378
  0
LINE
  5
2B2
100
AcDbEntity
  8
0
100
AcDbLine
 62
7
  6
CONTINUOUS
 10
53.8486910844
 20
57.3119828575
 11
54.2486910844
 21
57.7119828575
  0
LWPOLYLINE
  5
2B3
100
AcDbEntity
  8
0
100
AcDbPolyline
 62
7
  6
CONTINUOUS
 90
6
 70
0
 10
58.5323691331
 20
57.970300809
 10
58.5407903174
 20
57.4760763649
 10
58.4783409227
 20
57.0081583509
 10
58.4267857121
 20
56.8273506976
 10
58.3190097794
 20
56.617957227
 10
58.2861669662
 20
56.5869836991
  0
LINE
  5
2B4
100
AcDbEntity
  8
0
100
AcDbLine
 62
7
  6
CONTINUOUS
 10
60.0601929007
 20
73.112029143
 11
60.0601929007
 21
73.6119828575
  0
LINE
  5
2B5
100
AcDbEntity
  8
0
100
AcDbLine
 62
7
  6
CONTINUOUS
 10
60.0602256158
 20
55.7619828581
 11
60.0602256154
 21
56.2619828575
  0
LWPOLYLINE
  5
2B6
100
AcDbEntity
  8
0
100
AcDbPolyline
 62
7
  6
CONTINUOUS
 90
6
 70
0
 10
58.2861765409
 20
72.7869822011
 10
58.318829432
 20
72.7562348349
 10
58.4264771215
 20
72.5475261923
 10
58.4780442324
 20
72.367150561
 10
58.540672113
 20
71.900263035
 10
58.5323707921
 20
71.4035797263
  0
LINE
  5
2B7
100
AcDbEntity
  8
0
100
AcDbLine
 62
7
  6
CONTINUOUS
 10
61.1486910844
 20
71.4869828575
 11
61.1486910844
 21
57.8869828575
  0
LINE
  5
2B8
100
AcDbEntity
  8
0
100
AcDbLine
 62
7
  6
CONTINUOUS
 10
62.4918234531
 20
58.7869828575
 11
62.4918234531
 21
60.5869828575
  0
LINE
  5
2B9
100
AcDbEntity
  8
0
100
AcDbLine
 62
7
  6
CONTINUOUS
 10
62.4918234531
 20
68.7869828575
 11
62.4918234531
 21
70.5869828575
  0
LINE
  5
2BA
100
AcDbEntity
  8
0
100
AcDbLine
 62
7
  6
CONTINUOUS
 10
62.5486910844
 20
58.7869828575
 11
62.5486910844
 21
60.5869828575
  0
LINE
  5
2BB
100
AcDbEntity
  8
0
100
AcDbLine
 62
7
  6
CONTINUOUS
 10
62.5486910844
 20
68.7869828575
 11
62.5486910844
 21
70.5869828575
  0
LINE
  5
2BC
100
AcDbEntity
  8
0
100
AcDbLine
 62
7
  6
CONTINUOUS
 10
62.6486910844
 20
73.6119828574
 11
62.6486910844
 21
71.5869828575
  0
LINE
  5
2BD
100
AcDbEntity
  8
0
100
AcDbLine
 62
7
  6
CONTINUOUS
 10
62.6486910844
 20
57.7869828575
 11
62.6486910844
 21
55.7619828576
  0
LINE
  5
2BE
100
AcDbEntity
  8
0
100
AcDbLine
 62
7
  6
CONTINUOUS
 10
62.6486910844
 20
58.9369828575
 11
62.6486910844
 21
60.4369828575
  0
LINE
  5
2BF
100
AcDbEntity
  8
0
100
AcDbLine
 62
7
  6
CONTINUOUS
 10
62.6486910844
 20
68.9369828575
 11
62.6486910844
 21
70.4369828575
  0
LINE
  5
2C0
100
AcDbEntity
  8
0
100
AcDbLine
 62
7
  6
CONTINUOUS
 10
63.1486910844
 20
58.9369828575
 11
63.1486910844
 21
60.4369828575
  0
LINE
  5
2C1
100
AcDbEntity
  8
0
100
AcDbLine
 62
7
  6
CONTINUOUS
 10
63.1486910844
 20
68.9369828575
 11
63.1486910844
 21
70.4369828575
  0
LINE
  5
2C2
100
AcDbEntity
  8
0
100
AcDbLine
 62
7
  6
CONTINUOUS
 10
64.2675122257
 20
58.7945517098
 11
64.250522705
 21
59.4369828583
  0
LINE
  5
2C3
100
AcDbEntity
  8
0
100
AcDbLine
 62
7
  6
CONTINUOUS
 10
64.2675122257
 20
69.1945517098
 11
64.250522705
 21
69.8369828583
  0
LINE
  5
2C4
100
AcDbEntity
  8
0
100
AcDbLine
 62
7
  6
CONTINUOUS
 10
63.754908867
 20
70.5869828575
 11
63.754908867
 21
70.4369828575
  0
LINE
  5
2C5
100
AcDbEntity
  8
0
100
AcDbLine
 62
7
  6
CONTINUOUS
 10
63.754908867
 20
68.9369828575
 11
63.754908867
 21
68.7869828575
  0
LINE
  5
2C6
100
AcDbEntity
  8
0
100
AcDbLine
 62
7
  6
CONTINUOUS
 10
63.754908867
 20
60.5869828575
 11
63.754908867
 21
60.4369828575
  0
LINE
  5
2C7
100
AcDbEntity
  8
0
100
AcDbLine
 62
7
  6
CONTINUOUS
 10
63.754908867
 20
58.9369828575
 11
63.754908867
 21
58.7869828575
  0
LINE
  5
2C8
100
AcDbEntity
  8
0
100
AcDbLine
 62
7
  6
CONTINUOUS
 10
64.2486910844
 20
60.5869828575
 11
64.2486910844
 21
58.7869828575
  0
LINE
  5
2C9
100
AcDbEntity
  8
0
100
AcDbLine
 62
7
  6
CONTINUOUS
 10
64.2486910844
 20
68.7869828575
 11
64.2486910844
 21
70.5869828575
  0
LINE
  5
2CA
100
AcDbEntity
  8
0
100
AcDbLine
 62
7
  6
CONTINUOUS
 10
64.2741912888
 20
69.9369828583
 11
64.2741912888
 21
69.8369828583
  0
LINE
  5
2CB
100
AcDbEntity
  8
0
100
AcDbLine
 62
7
  6
CONTINUOUS
 10
64.2741912888
 20
59.5369828583
 11
64.2741912888
 21
59.4369828583
  0
LINE
  5
2CC
100
AcDbEntity
  8
0
100
AcDbLine
 62
7
  6
CONTINUOUS
 10
64.3410785192
 20
60.3619828583
 11
64.3410785192
 21
60.5869828575
  0
LINE
  5
2CD
100
AcDbEntity
  8
0
100
AcDbLine
 62
7
  6
CONTINUOUS
 10
64.3410785192
 20
68.7869828575
 11
64.3410785192
 21
69.0119828583
  0
LINE
  5
2CE
100
AcDbEntity
  8
0
100
AcDbLine
 62
7
  6
CONTINUOUS
 10
64.3486910844
 20
58.7869828575
 11
64.3486910844
 21
60.5869828575
  0
LINE
  5
2CF
100
AcDbEntity
  8
0
100
AcDbLine
 62
7
  6
CONTINUOUS
 10
64.3486910844
 20
68.7869828575
 11
64.3486910844
 21
70.5869828575
  0
LINE
  5
2D0
100
AcDbEntity
  8
0
100
AcDbLine
 62
7
  6
CONTINUOUS
 10
64.250522705
 20
69.9369828583
 11
64.2675122257
 21
70.5794140069
  0
LINE
  5
2D1
100
AcDbEntity
  8
0
100
AcDbLine
 62
7
  6
CONTINUOUS
 10
64.250522705
 20
59.5369828583
 11
64.2675122257
 21
60.1794140069
  0
LINE
  5
2D2
100
AcDbEntity
  8
0
100
AcDbLine
 62
7
  6
CONTINUOUS
 10
72.2486910844
 20
55.7119828575
 11
72.2486910844
 21
56.5869828575
  0
LINE
  5
2D3
100
AcDbEntity
  8
0
100
AcDbLine
 62
7
  6
CONTINUOUS
 10
72.2486910844
 20
72.7819828575
 11
72.2486910844
 21
73.6119828575
  0
LINE
  5
2D4
100
AcDbEntity
  8
0
100
AcDbLine
 62
7
  6
CONTINUOUS
 10
72.7486910844
 20
58.7869828575
 11
72.7486910844
 21
60.5869828575
  0
LINE
  5
2D5
100
AcDbEntity
  8
0
100
AcDbLine
 62
7
  6
CONTINUOUS
 10
72.7486910844
 20
68.7869828575
 11
72.7486910844
 21
70.5869828575
  0
LINE
  5
2D6
100
AcDbEntity
  8
0
100
AcDbLine
 62
7
  6
CONTINUOUS
 10
73.7486910844
 20
57.3119828575
 11
73.7486910844
 21
71.9819828575
  0
LINE
  5
2D7
100
AcDbEntity
  8
0
100
AcDbLine
 62
7
  6
CONTINUOUS
 10
73.5343317304
 20
56.5869828575
 11
73.7486910844
 21
57.3869828575
  0
LINE
  5
2D8
100
AcDbEntity
  8
0
100
AcDbLine
 62
7
  6
CONTINUOUS
 10
73.7710889141
 20
57.3119828575
 11
73.5486910844
 21
56.4819828575
  0
LINE
  5
2D9
100
AcDbEntity
  8
0
100
AcDbLine
 62
7
  6
CONTINUOUS
 10
73.5343317304
 20
72.7819828575
 11
73.7486910844
 21
71.9819828575
  0
LINE
  5
2DA
100
AcDbEntity
  8
0
100
AcDbLine
 62
7
  6
CONTINUOUS
 10
79.9064622408
 20
56.2119828575
 11
79.9064622408
 21
73.1119828575
  0
LINE
  5
2DB
100
AcDbEntity
  8
0
100
AcDbLine
 62
7
  6
CONTINUOUS
 10
81.6486910844
 20
55.7119828575
 11
81.6486910844
 21
73.6119828575
  0
ARC
  5
2DC
100
AcDbEntity
  8
0
100
AcDbCircle
 62
7
  6
CONTINUOUS
 10
58.9994519061
 20
-221.6930885392
 40
284.8775962825
100
AcDbArc
 50
90.6007458573
 51
90.751263112
  0
ARC
  5
2DD
100
AcDbEntity
  8
0
100
AcDbCircle
 62
7
  6
CONTINUOUS
 10
58.3750036384
 20
-101.302898438
 40
163.8668025943
100
AcDbArc
 50
90.8163539951
 51
91.0755022742
  0
ARC
  5
2DE
100
AcDbEntity
  8
0
100
AcDbCircle
 62
7
  6
CONTINUOUS
 10
58.3842690922
 20
298.8802154712
 40
232.6872185601
100
AcDbArc
 50
269.2317155685
 51
269.4159899461
  0
ARC
  5
2DF
100
AcDbEntity
  8
0
100
AcDbCircle
 62
7
  6
CONTINUOUS
 10
58.9718692432
 20
266.7988081853
 40
199.9936586691
100
AcDbArc
 50
268.9477739876
 51
269.160110058
  0
ARC
  5
2E0
100
AcDbEntity
  8
0
100
AcDbCircle
 62
7
  6
CONTINUOUS
 10
88.228341239
 20
64.6824291444
 40
32.9997342215
100
AcDbArc
 50
171.1496657822
 51
176.2541368008
  0
ARC
  5
2E1
100
AcDbEntity
  8
0
100
AcDbCircle
 62
7
  6
CONTINUOUS
 10
88.2128114932
 20
64.6888697012
 40
32.9839928055
100
AcDbArc
 50
183.7430554507
 51
188.8498958689
  0
ARC
  5
2E2
100
AcDbEntity
  8
0
100
AcDbCircle
 62
7
  6
CONTINUOUS
 10
88.1834908545
 20
64.685991859
 40
32.9546910965
100
AcDbArc
 50
177.3433372767
 51
182.6531769745
  0
ARC
  5
2E3
100
AcDbEntity
  8
0
100
AcDbCircle
 62
7
  6
CONTINUOUS
 10
88.0602116128
 20
64.664813155
 40
32.8293965229
100
AcDbArc
 50
189.3821145522
 51
194.6953926497
  0
ARC
  5
2E4
100
AcDbEntity
  8
0
100
AcDbCircle
 62
7
  6
CONTINUOUS
 10
88.0250515399
 20
64.7166531081
 40
32.7934851172
100
AcDbArc
 50
165.3015947622
 51
170.6208154117
  0
ARC
  5
2E5
100
AcDbEntity
  8
0
100
AcDbCircle
 62
7
  6
CONTINUOUS
 10
86.9380599166
 20
64.7196366192
 40
31.8166681342
100
AcDbArc
 50
165.209433861
 51
165.404975669
  0
ARC
  5
2E6
100
AcDbEntity
  8
0
100
AcDbCircle
 62
7
  6
CONTINUOUS
 10
86.9378910873
 20
64.6542876401
 40
31.8164934987
100
AcDbArc
 50
194.5950290776
 51
194.8836852138
  0
ARC
  5
2E7
100
AcDbEntity
  8
0
100
AcDbCircle
 62
7
  6
CONTINUOUS
 10
86.9349578132
 20
64.7204617119
 40
31.8134581825
100
AcDbArc
 50
164.4579209722
 51
165.2094443578
  0
ARC
  5
2E8
100
AcDbEntity
  8
0
100
AcDbCircle
 62
7
  6
CONTINUOUS
 10
86.9344888589
 20
64.6533786071
 40
31.8129719255
100
AcDbArc
 50
194.8836768462
 51
195.542062387
  0
ARC
  5
2E9
100
AcDbEntity
  8
0
100
AcDbCircle
 62
7
  6
CONTINUOUS
 10
64.0154193623
 20
64.6349354002
 40
31.7992386703
100
AcDbArc
 50
193.3243171924
 51
195.3587021556
  0
ARC
  5
2EA
100
AcDbEntity
  8
0
100
AcDbCircle
 62
7
  6
CONTINUOUS
 10
63.9926587489
 20
64.6287488217
 40
31.7756523325
100
AcDbArc
 50
195.358815334
 51
195.6070973275
  0
ARC
  5
2EB
100
AcDbEntity
  8
0
100
AcDbCircle
 62
7
  6
CONTINUOUS
 10
63.9926586666
 20
64.695216916
 40
31.7756522471
100
AcDbArc
 50
164.3928973778
 51
164.6411846834
  0
ARC
  5
2EC
100
AcDbEntity
  8
0
100
AcDbCircle
 62
7
  6
CONTINUOUS
 10
39.6486910844
 20
64.6769828575
 40
30.0
100
AcDbArc
 50
166.6340291575
 51
193.4249237344
  0
ARC
  5
2ED
100
AcDbEntity
  8
0
100
AcDbCircle
 62
7
  6
CONTINUOUS
 10
39.6486910844
 20
64.6769828575
 40
28.2
100
AcDbArc
 50
165.9208291118
 51
194.0791708992
  0
ARC
  5
2EE
100
AcDbEntity
  8
0
100
AcDbCircle
 62
7
  6
CONTINUOUS
 10
64.9145345132
 20
70.5623054996
 40
0.6472484388
100
AcDbArc
 50
177.7947172092
 51
178.4853428994
  0
ARC
  5
2EF
100
AcDbEntity
  8
0
100
AcDbCircle
 62
7
  6
CONTINUOUS
 10
64.9145336705
 20
58.8116601952
 40
0.6472475958
100
AcDbArc
 50
181.5146571415
 51
182.2052851582
  0
ARC
  5
2F0
100
AcDbEntity
  8
0
100
AcDbCircle
 62
7
  6
CONTINUOUS
 10
60.2502348095
 20
73.1121952105
 40
0.602257275
100
AcDbArc
 50
170.0480463745
 51
177.157358311
  0
ARC
  5
2F1
100
AcDbEntity
  8
0
100
AcDbCircle
 62
7
  6
CONTINUOUS
 10
10.5986910844
 20
73.1119828575
 40
0.5
100
AcDbArc
 50
90.0
 51
180.0
  0
ARC
  5
2F2
100
AcDbEntity
  8
0
100
AcDbCircle
 62
7
  6
CONTINUOUS
 10
10.5986910844
 20
56.2119828575
 40
0.5
100
AcDbArc
 50
180.0
 51
270.0
  0
ARC
  5
2F3
100
AcDbEntity
  8
0
100
AcDbCircle
 62
7
  6
CONTINUOUS
 10
56.0336910844
 20
56.6819828575
 40
0.2
100
AcDbArc
 50
270.0035069777
 51
315.0017534886
  0
ARC
  5
2F4
100
AcDbEntity
  8
0
100
AcDbCircle
 62
7
  6
CONTINUOUS
 10
56.0336910844
 20
72.6419828575
 40
0.2
100
AcDbArc
 50
49.2568980039
 51
89.9965862334
  0
ARC
  5
2F5
100
AcDbEntity
  8
0
100
AcDbCircle
 62
7
  6
CONTINUOUS
 10
15.9986910844
 20
57.9963874469
 40
0.15
100
AcDbArc
 50
270.9998818343
 51
360.0
  0
ARC
  5
2F6
100
AcDbEntity
  8
0
100
AcDbCircle
 62
7
  6
CONTINUOUS
 10
11.5502785727
 20
57.6186944193
 40
0.15
100
AcDbArc
 50
90.999909861
 51
141.5433072638
  0
ARC
  5
2F7
100
AcDbEntity
  8
0
100
AcDbCircle
 62
7
  6
CONTINUOUS
 10
15.9986910844
 20
71.327578268
 40
0.15
100
AcDbArc
 50
0.0
 51
89.000127166
  0
ARC
  5
2F8
100
AcDbEntity
  8
0
100
AcDbCircle
 62
7
  6
CONTINUOUS
 10
11.5502785727
 20
71.7052712956
 40
0.15
100
AcDbArc
 50
218.4566927362
 51
269.0000901581
  0
ARC
  5
2F9
100
AcDbEntity
  8
0
100
AcDbCircle
 62
7
  6
CONTINUOUS
 10
15.1786910844
 20
71.4119020842
 40
0.08
100
AcDbArc
 50
89.3232077
 51
180.0
  0
ARC
  5
2FA
100
AcDbEntity
  8
0
100
AcDbCircle
 62
7
  6
CONTINUOUS
 10
13.9186910844
 20
71.433895466
 40
0.08
100
AcDbArc
 50
0.0
 51
89.0004939255
  0
ARC
  5
2FB
100
AcDbEntity
  8
0
100
AcDbCircle
 62
7
  6
CONTINUOUS
 10
13.9186910844
 20
57.8900702489
 40
0.08
100
AcDbArc
 50
270.6550721809
 51
0.0000107781
  0
ARC
  5
2FC
100
AcDbEntity
  8
0
100
AcDbCircle
 62
7
  6
CONTINUOUS
 10
15.1786910844
 20
57.9120636307
 40
0.08
100
AcDbArc
 50
180.3232079152
 51
271.0
  0
ARC
  5
2FD
100
AcDbEntity
  8
0
100
AcDbCircle
 62
7
  6
CONTINUOUS
 10
108.9159869776
 20
-107.3838624096
 40
171.9661280948
100
AcDbArc
 50
107.63666363
 51
107.8146942807
  0
ARC
  5
2FE
100
AcDbEntity
  8
0
100
AcDbCircle
 62
7
  6
CONTINUOUS
 10
110.1019625764
 20
240.4744976857
 40
175.8673639697
100
AcDbArc
 50
252.1878997681
 51
252.3619821627
  0
ARC
  5
2FF
100
AcDbEntity
  8
0
100
AcDbCircle
 62
7
  6
CONTINUOUS
 10
152.7794271841
 20
64.6619932563
 40
115.9251325542
100
AcDbArc
 50
175.8199021103
 51
184.1801084443
  0
ARC
  5
300
100
AcDbEntity
  8
0
100
AcDbCircle
 62
7
  6
CONTINUOUS
 10
175.6640456712
 20
64.687271439
 40
115.910493969
100
AcDbArc
 50
175.8318708327
 51
184.1684018296
  0
ARC
  5
301
100
AcDbEntity
  8
0
100
AcDbCircle
 62
7
  6
CONTINUOUS
 10
138.1628887103
 20
64.6886046358
 40
79.8966503472
100
AcDbArc
 50
182.6615715943
 51
184.8227642058
  0
ARC
  5
302
100
AcDbEntity
  8
0
100
AcDbCircle
 62
7
  6
CONTINUOUS
 10
138.115775819
 20
64.6882605961
 40
79.8494443045
100
AcDbArc
 50
175.176465603
 51
177.338937112
  0
ARC
  5
303
100
AcDbEntity
  8
0
100
AcDbCircle
 62
7
  6
CONTINUOUS
 10
137.2494915751
 20
64.6929548674
 40
79.0036694444
100
AcDbArc
 50
182.6954919231
 51
184.8816127968
  0
ARC
  5
304
100
AcDbEntity
  8
0
100
AcDbCircle
 62
7
  6
CONTINUOUS
 10
137.1717539291
 20
64.6859627584
 40
78.9257730445
100
AcDbArc
 50
175.1171651893
 51
177.3054454335
  0
ARC
  5
305
100
AcDbEntity
  8
0
100
AcDbCircle
 62
7
  6
CONTINUOUS
 10
108.5664796258
 20
64.6868735752
 40
51.6580847881
100
AcDbArc
 50
172.5197450732
 51
175.877386967
  0
ARC
  5
306
100
AcDbEntity
  8
0
100
AcDbCircle
 62
7
  6
CONTINUOUS
 10
108.4907341918
 20
64.6793883459
 40
51.5819806963
100
AcDbArc
 50
184.1201268996
 51
187.4827235087
  0
ARC
  5
307
100
AcDbEntity
  8
0
100
AcDbCircle
 62
7
  6
CONTINUOUS
 10
108.1980111784
 20
64.6811643507
 40
51.1013381252
100
AcDbArc
 50
184.1455668868
 51
187.527370421
  0
ARC
  5
308
100
AcDbEntity
  8
0
100
AcDbCircle
 62
7
  6
CONTINUOUS
 10
108.1977407525
 20
64.6928289746
 40
51.1010667955
100
AcDbArc
 50
172.4726798111
 51
175.8545011745
  0
ARC
  5
309
100
AcDbEntity
  8
0
100
AcDbCircle
 62
7
  6
CONTINUOUS
 10
96.7851453449
 20
64.6869752554
 40
40.8010287193
100
AcDbArc
 50
177.8668916818
 51
182.1330691884
  0
ARC
  5
30A
100
AcDbEntity
  8
0
100
AcDbCircle
 62
7
  6
CONTINUOUS
 10
96.6239491332
 20
64.6778530341
 40
40.6395406925
100
AcDbArc
 50
183.006209662
 51
187.1512691297
  0
ARC
  5
30B
100
AcDbEntity
  8
0
100
AcDbCircle
 62
7
  6
CONTINUOUS
 10
96.5367597459
 20
64.7038504751
 40
40.5520622239
100
AcDbArc
 50
172.8442411863
 51
176.9982674547
  0
SPLINE
  5
30C
100
AcDbEntity
  8
0
100
AcDbSpline
 62
7
  6
CONTINUOUS
 70
0
 71
3
 72
17
 73
13
 74
0
 42
0.0000001
 43
0.0000001
 44
0.0000000001
 40
0.0
 40
0.0
 40
0.0
 40
0.0
 40
0.0280107417
 40
0.0583068709
 40
0.0925838667
 40
0.1319392964
 40
0.227758276
 40
0.3470718874
 40
0.4879670268
 40
0.6468610872
 40
0.8193552415
 40
1.0
 40
1.0
 40
1.0
 40
1.0
 10
64.327737249
 20
69.0119828583
 30
0.0
 10
64.3258516435
 20
69.0119828583
 30
0.0
 10
64.3219061757
 20
69.0126190939
 30
0.0
 10
64.3162295586
 20
69.0153466251
 30
0.0
 10
64.3107349453
 20
69.0197528371
 30
0.0
 10
64.3031829332
 20
69.0283574321
 30
0.0
 10
64.2946208406
 20
69.0433584963
 30
0.0
 10
64.2859980053
 20
69.0657652737
 30
0.0
 10
64.2787114997
 20
69.0930681559
 30
0.0
 10
64.2730135682
 20
69.1243725222
 30
0.0
 10
64.269121119
 20
69.1586429098
 30
0.0
 10
64.267833706
 20
69.1823954557
 30
0.0
 10
64.2675122257
 20
69.1945517098
 30
0.0
  0
SPLINE
  5
30D
100
AcDbEntity
  8
0
100
AcDbSpline
 62
7
  6
CONTINUOUS
 70
0
 71
3
 72
17
 73
13
 74
0
 42
0.0000001
 43
0.0000001
 44
0.0000000001
 40
0.0
 40
0.0
 40
0.0
 40
0.0
 40
0.1806447187
 40
0.3531388048
 40
0.5120328563
 40
0.652928007
 40
0.772241643
 40
0.8680606505
 40
0.9074161
 40
0.9416931118
 40
0.971989254
 40
1.0
 40
1.0
 40
1.0
 40
1.0
 10
64.2675122257
 20
60.1794140069
 30
0.0
 10
64.2678337059
 20
60.1915702582
 30
0.0
 10
64.2691211174
 20
60.2153227969
 30
0.0
 10
64.2730135659
 20
60.2495931765
 30
0.0
 10
64.278711495
 20
60.2808975386
 30
0.0
 10
64.285997999
 20
60.308200423
 30
0.0
 10
64.2946208332
 20
60.3306072054
 30
0.0
 10
64.3031829267
 20
60.3456082744
 30
0.0
 10
64.3107349395
 20
60.3542128746
 30
0.0
 10
64.3162295561
 20
60.3586190878
 30
0.0
 10
64.3219061743
 20
60.3613466214
 30
0.0
 10
64.3258516432
 20
60.3619828583
 30
0.0
 10
64.327737249
 20
60.3619828583
 30
0.0
  0
SPLINE
  5
30E
100
AcDbEntity
  8
0
100
AcDbSpline
 62
7
  6
CONTINUOUS
 70
0
 71
3
 72
11
 73
7
 74
0
 42
0.0000001
 43
0.0000001
 44
0.0000000001
 40
0.0
 40
0.0
 40
0.0
 40
0.0
 40
0.0829868486
 40
0.3073275435
 40
0.6274529663
 40
1.0
 40
1.0
 40
1.0
 40
1.0
 10
10.0986910924
 20
56.8119828575
 30
0.0
 10
10.1103185081
 20
56.8352178355
 30
0.0
 10
10.152376715
 20
56.9217879002
 30
0.0
 10
10.2297708865
 20
57.1025713731
 30
0.0
 10
10.3146546664
 20
57.3778112477
 30
0.0
 10
10.3398453576
 20
57.5953292117
 30
0.0
 10
10.3398453576
 20
57.7119828575
 30
0.0
  0
SPLINE
  5
30F
100
AcDbEntity
  8
0
100
AcDbSpline
 62
7
  6
CONTINUOUS
 70
0
 71
3
 72
12
 73
8
 74
0
 42
0.0000001
 43
0.0000001
 44
0.0000000001
 40
0.0
 40
0.0
 40
0.0
 40
0.0
 40
0.1899716882
 40
0.3728365524
 40
0.6927830802
 40
0.91702852
 40
1.0
 40
1.0
 40
1.0
 40
1.0
 10
10.3398453576
 20
71.6119828575
 30
0.0
 10
10.3398453576
 20
71.6715002251
 30
0.0
 10
10.3330807263
 20
71.7884192165
 30
0.0
 10
10.2970574225
 20
72.0027883199
 30
0.0
 10
10.2298871108
 20
72.2214382899
 30
0.0
 10
10.1523864822
 20
72.4021521704
 30
0.0
 10
10.1103172077
 20
72.4887342616
 30
0.0
 10
10.0986910875
 20
72.5119828575
 30
0.0
  0
SPLINE
  5
310
100
AcDbEntity
  8
0
100
AcDbSpline
 62
7
  6
CONTINUOUS
 70
0
 71
3
 72
10
 73
6
 74
0
 42
0.0000001
 43
0.0000001
 44
0.0000000001
 40
0.0
 40
0.0
 40
0.0
 40
0.0
 40
0.4997396808
 40
0.7499581141
 40
1.0
 40
1.0
 40
1.0
 40
1.0
 10
16.6486498372
 20
58.0077213096
 30
0.0
 10
16.5841040872
 20
57.970999459
 30
0.0
 10
16.4870911706
 20
57.9152594924
 30
0.0
 10
16.3473137612
 20
57.8636253858
 30
0.0
 10
16.2731260261
 20
57.8511546936
 30
0.0
 10
16.2359757777
 20
57.8505064184
 30
0.0
  0
SPLINE
  5
311
100
AcDbEntity
  8
0
100
AcDbSpline
 62
7
  6
CONTINUOUS
 70
0
 71
3
 72
10
 73
6
 74
0
 42
0.0000001
 43
0.0000001
 44
0.0000000001
 40
0.0
 40
0.0
 40
0.0
 40
0.0
 40
0.2500379957
 40
0.5002510711
 40
1.0
 40
1.0
 40
1.0
 40
1.0
 10
16.2359756297
 20
71.473459292
 30
0.0
 10
16.273125169
 20
71.4728110759
 30
0.0
 10
16.3473059807
 20
71.460310474
 30
0.0
 10
16.4870932894
 20
71.4087143607
 30
0.0
 10
16.5841063244
 20
71.352967219
 30
0.0
 10
16.6486515242
 20
71.316242156
 30
0.0
  0
SPLINE
  5
312
100
AcDbEntity
  8
0
100
AcDbSpline
 62
7
  6
CONTINUOUS
 70
0
 71
3
 72
9
 73
5
 74
0
 42
0.0000001
 43
0.0000001
 44
0.0000000001
 40
0.0
 40
0.0
 40
0.0
 40
0.0
 40
0.2500168988
 40
1.0
 40
1.0
 40
1.0
 40
1.0
 10
56.8385903954
 20
73.0001339725
 30
0.0
 10
56.7871582334
 20
72.7565426144
 30
0.0
 10
56.590710977
 20
71.7803076489
 30
0.0
 10
56.4310709324
 20
70.7966791065
 30
0.0
 10
56.3320075644
 20
70.0564601785
 30
0.0
  0
SPLINE
  5
313
100
AcDbEntity
  8
0
100
AcDbSpline
 62
7
  6
CONTINUOUS
 70
0
 71
3
 72
9
 73
5
 74
0
 42
0.0000001
 43
0.0000001
 44
0.0000000001
 40
0.0
 40
0.0
 40
0.0
 40
0.0
 40
0.250025379
 40
1.0
 40
1.0
 40
1.0
 40
1.0
 10
56.332003028
 20
59.3175053684
 30
0.0
 10
56.3650279809
 20
59.0707361206
 30
0.0
 10
56.5062883178
 20
58.0850105935
 30
0.0
 10
56.6843028414
 20
57.1045376276
 30
0.0
 10
56.8385822027
 20
56.3738405179
 30
0.0
  0
SPLINE
  5
314
100
AcDbEntity
  8
0
100
AcDbSpline
 62
7
  6
CONTINUOUS
 70
0
 71
3
 72
11
 73
7
 74
0
 42
0.0000001
 43
0.0000001
 44
0.0000000001
 40
0.0
 40
0.0
 40
0.0
 40
0.0
 40
0.250038553
 40
0.5000346522
 40
0.7500042883
 40
1.0
 40
1.0
 40
1.0
 40
1.0
 10
56.7721130382
 20
73.6119828396
 30
0.0
 10
56.7177397324
 20
73.6119593352
 30
0.0
 10
56.6082049267
 20
73.5943339464
 30
0.0
 10
56.4612749472
 20
73.5173885558
 30
0.0
 10
56.3463243949
 20
73.3977716633
 30
0.0
 10
56.2993845731
 20
73.2971200511
 30
0.0
 10
56.2848026239
 20
73.2447482011
 30
0.0
  0
SPLINE
  5
315
100
AcDbEntity
  8
0
100
AcDbSpline
 62
7
  6
CONTINUOUS
 70
0
 71
3
 72
11
 73
7
 74
0
 42
0.0000001
 43
0.0000001
 44
0.0000000001
 40
0.0
 40
0.0
 40
0.0
 40
0.0
 40
0.2499987104
 40
0.499964999
 40
0.7499580495
 40
1.0
 40
1.0
 40
1.0
 40
1.0
 10
56.2848020494
 20
56.129231972
 30
0.0
 10
56.299383002
 20
56.0768576359
 30
0.0
 10
56.3463255509
 20
55.9762038777
 30
0.0
 10
56.4612751698
 20
55.8565815277
 30
0.0
 10
56.6082081997
 20
55.7796329989
 30
0.0
 10
56.717745994
 20
55.762006316
 30
0.0
 10
56.7721215145
 20
55.7619828752
 30
0.0
  0
SPLINE
  5
316
100
AcDbEntity
  8
0
100
AcDbSpline
 62
7
  6
CONTINUOUS
 70
0
 71
3
 72
9
 73
5
 74
0
 42
0.0000001
 43
0.0000001
 44
0.0000000001
 40
0.0
 40
0.0
 40
0.0
 40
0.0
 40
0.4597931456
 40
1.0
 40
1.0
 40
1.0
 40
1.0
 10
56.3047362038
 20
73.0373658852
 30
0.0
 10
56.3864686674
 20
73.030493312
 30
0.0
 10
56.5643728396
 20
73.0172829479
 30
0.0
 10
56.7423985965
 20
73.0059193559
 30
0.0
 10
56.8385903954
 20
73.0001339725
 30
0.0
  0
SPLINE
  5
317
100
AcDbEntity
  8
0
100
AcDbSpline
 62
7
  6
CONTINUOUS
 70
0
 71
3
 72
9
 73
5
 74
0
 42
0.0000001
 43
0.0000001
 44
0.0000000001
 40
0.0
 40
0.0
 40
0.0
 40
0.0
 40
0.5402115099
 40
1.0
 40
1.0
 40
1.0
 40
1.0
 10
56.8385822027
 20
56.3738405179
 30
0.0
 10
56.7423903056
 20
56.3680399155
 30
0.0
 10
56.5643716154
 20
56.3565765849
 30
0.0
 10
56.3864525746
 20
56.343554318
 30
0.0
 10
56.3047230679
 20
56.3366546927
 30
0.0
  0
SPLINE
  5
318
100
AcDbEntity
  8
0
100
AcDbSpline
 62
7
  6
CONTINUOUS
 70
0
 71
3
 72
19
 73
15
 74
0
 42
0.0000001
 43
0.0000001
 44
0.0000000001
 40
0.0
 40
0.0
 40
0.0
 40
0.0
 40
0.0325284848
 40
0.0672731209
 40
0.1054541439
 40
0.1479068576
 40
0.195127085
 40
0.2473677588
 40
0.3046708551
 40
0.3669473033
 40
0.5054243141
 40
0.6600666757
 40
0.8267487544
 40
1.0
 40
1.0
 40
1.0
 40
1.0
 10
58.2859963025
 20
72.7869811591
 30
0.0
 10
58.2679046275
 20
72.7869818538
 30
0.0
 10
58.2303700905
 20
72.782220257
 30
0.0
 10
58.1749387077
 20
72.7618962324
 30
0.0
 10
58.1195610839
 20
72.7288749512
 30
0.0
 10
58.0644671825
 20
72.6835880909
 30
0.0
 10
58.0097828792
 20
72.6264653768
 30
0.0
 10
57.9557564444
 20
72.5578947563
 30
0.0
 10
57.9026375304
 20
72.4783568344
 30
0.0
 10
57.8309010686
 20
72.3539494212
 30
0.0
 10
57.7472450457
 20
72.1744389847
 30
0.0
 10
57.6603119036
 20
71.9336470521
 30
0.0
 10
57.5874118457
 20
71.6681425256
 30
0.0
 10
57.5514129476
 20
71.4822941763
 30
0.0
 10
57.5370367803
 20
71.3870138475
 30
0.0
  0
SPLINE
  5
319
100
AcDbEntity
  8
0
100
AcDbSpline
 62
7
  6
CONTINUOUS
 70
0
 71
3
 72
15
 73
11
 74
0
 42
0.0000001
 43
0.0000001
 44
0.0000000001
 40
0.0
 40
0.0
 40
0.0
 40
0.0
 40
0.1513320234
 40
0.2998061677
 40
0.4425214689
 40
0.5771494977
 40
0.7016285753
 40
0.8141975424
 40
0.9137596812
 40
1.0
 40
1.0
 40
1.0
 40
1.0
 10
58.5491133716
 20
57.9714027894
 30
0.0
 10
58.5557029416
 20
57.8985073035
 30
0.0
 10
58.5634196499
 20
57.7535906431
 30
0.0
 10
58.5629802643
 20
57.539471548
 30
0.0
 10
58.5509711638
 20
57.3337479745
 30
0.0
 10
58.5277820969
 20
57.1406691782
 30
0.0
 10
58.4952106326
 20
56.9637486846
 30
0.0
 10
58.4540690536
 20
56.8060413477
 30
0.0
 10
58.405492652
 20
56.6699464498
 30
0.0
 10
58.3661706369
 20
56.5888250355
 30
0.0
 10
58.3451890027
 20
56.5527757232
 30
0.0
  0
SPLINE
  5
31A
100
AcDbEntity
  8
0
100
AcDbSpline
 62
7
  6
CONTINUOUS
 70
0
 71
3
 72
25
 73
21
 74
0
 42
0.0000001
 43
0.0000001
 44
0.0000000001
 40
0.0
 40
0.0
 40
0.0
 40
0.0
 40
0.0481150259
 40
0.0692971408
 40
0.0887234976
 40
0.1233867104
 40
0.139603017
 40
0.1557116808
 40
0.1894002669
 40
0.2277357298
 40
0.2731301812
 40
0.32676214
 40
0.3887126177
 40
0.4583520972
 40
0.5353193307
 40
0.619357074
 40
0.7091698601
 40
0.8033822718
 40
0.9009079006
 40
1.0
 40
1.0
 40
1.0
 40
1.0
 10
58.3451890027
 20
56.5527757232
 30
0.0
 10
58.3276213557
 20
56.5225921072
 30
0.0
 10
58.2995376238
 20
56.4804909402
 30
0.0
 10
58.2560182882
 20
56.4328326445
 30
0.0
 10
58.2145634761
 20
56.3971402492
 30
0.0
 10
58.1687451019
 20
56.3722219703
 30
0.0
 10
58.1209482462
 20
56.3619040461
 30
0.0
 10
58.0727782032
 20
56.3607669044
 30
0.0
 10
58.0096113315
 20
56.3770056227
 30
0.0
 10
57.9357927636
 20
56.4212713365
 30
0.0
 10
57.8630966648
 20
56.4903461123
 30
0.0
 10
57.7915028931
 20
56.58307404
 30
0.0
 10
57.7213859602
 20
56.6980037238
 30
0.0
 10
57.6527726979
 20
56.8330744451
 30
0.0
 10
57.58711086
 20
56.9872033837
 30
0.0
 10
57.5263393862
 20
57.1589167538
 30
0.0
 10
57.4705055563
 20
57.3453707916
 30
0.0
 10
57.420736801
 20
57.5436625327
 30
0.0
 10
57.3797250705
 20
57.7508173997
 30
0.0
 10
57.3578905826
 20
57.891887218
 30
0.0
 10
57.3480536419
 20
57.9631363803
 30
0.0
  0
SPLINE
  5
31B
100
AcDbEntity
  8
0
100
AcDbSpline
 62
7
  6
CONTINUOUS
 70
0
 71
3
 72
33
 73
29
 74
0
 42
0.0000001
 43
0.0000001
 44
0.0000000001
 40
0.0
 40
0.0
 40
0.0
 40
0.0
 40
0.0877026643
 40
0.171753976
 40
0.2488905155
 40
0.2840771102
 40
0.3167206706
 40
0.3466937872
 40
0.3739433741
 40
0.3985425374
 40
0.4206741977
 40
0.4406630143
 40
0.4589666216
 40
0.4761705175
 40
0.4929892859
 40
0.5101929334
 40
0.5284645144
 40
0.5483315296
 40
0.5701638491
 40
0.594203463
 40
0.6205981318
 40
0.6494311585
 40
0.6806950703
 40
0.7143241696
 40
0.7502104991
 40
0.8280765298
 40
0.9122870285
 40
1.0
 40
1.0
 40
1.0
 40
1.0
 10
57.0424258035
 20
60.9721516614
 30
0.0
 10
57.034887132
 20
61.0807346019
 30
0.0
 10
57.0275255368
 20
61.2940257039
 30
0.0
 10
57.0430380548
 20
61.6028890251
 30
0.0
 10
57.0779971963
 20
61.8445918465
 30
0.0
 10
57.1195233257
 20
62.0197552871
 30
0.0
 10
57.1552176804
 20
62.1358720893
 30
0.0
 10
57.1959582597
 20
62.2398273833
 30
0.0
 10
57.2413861599
 20
62.3308239653
 30
0.0
 10
57.2910012101
 20
62.4083235819
 30
0.0
 10
57.3443736183
 20
62.4719856791
 30
0.0
 10
57.4010830999
 20
62.5215896368
 30
0.0
 10
57.4607063305
 20
62.5569554617
 30
0.0
 10
57.5228293646
 20
62.5776986661
 30
0.0
 10
57.586764784
 20
62.5832483964
 30
0.0
 10
57.6514962519
 20
62.5736561333
 30
0.0
 10
57.716267316
 20
62.5495558887
 30
0.0
 10
57.7806137813
 20
62.5115136742
 30
0.0
 10
57.8441807541
 20
62.4599872843
 30
0.0
 10
57.9065857232
 20
62.3953129823
 30
0.0
 10
57.9673371486
 20
62.3177482078
 30
0.0
 10
58.0258486236
 20
62.2276124488
 30
0.0
 10
58.081613925
 20
62.125421049
 30
0.0
 10
58.134089389
 20
62.0117936723
 30
0.0
 10
58.2005888872
 20
61.8413032388
 30
0.0
 10
58.2700364772
 20
61.6050858856
 30
0.0
 10
58.3273910861
 20
61.300031602
 30
0.0
 10
58.3478071707
 20
61.0872359841
 30
0.0
 10
58.3524312793
 20
60.9784771272
 30
0.0
  0
SPLINE
  5
31C
100
AcDbEntity
  8
0
100
AcDbSpline
 62
7
  6
CONTINUOUS
 70
0
 71
3
 72
11
 73
7
 74
0
 42
0.0000001
 43
0.0000001
 44
0.0000000001
 40
0.0
 40
0.0
 40
0.0
 40
0.0
 40
0.249962067
 40
0.4999250429
 40
0.7499479186
 40
1.0
 40
1.0
 40
1.0
 40
1.0
 10
55.6699335886
 20
70.0609321643
 30
0.0
 10
55.6728268162
 20
70.0784352253
 30
0.0
 10
55.6850522731
 20
70.1127317628
 30
0.0
 10
55.7203722505
 20
70.154006191
 30
0.0
 10
55.7675427907
 20
70.1808319514
 30
0.0
 10
55.8033401323
 20
70.1869707381
 30
0.0
 10
55.8210870892
 20
70.1869827884
 30
0.0
  0
SPLINE
  5
31D
100
AcDbEntity
  8
0
100
AcDbSpline
 62
7
  6
CONTINUOUS
 70
0
 71
3
 72
14
 73
10
 74
0
 42
0.0000001
 43
0.0000001
 44
0.0000000001
 40
0.0
 40
0.0
 40
0.0
 40
0.0
 40
0.2709320492
 40
0.4025045602
 40
0.5299246736
 40
0.6527895478
 40
0.7713495948
 40
0.8866313399
 40
1.0
 40
1.0
 40
1.0
 40
1.0
 10
59.6491794759
 20
56.2319688569
 30
0.0
 10
59.6522394795
 20
56.1700797622
 30
0.0
 10
59.6711199488
 20
56.0778681876
 30
0.0
 10
59.7239640975
 20
55.968324534
 30
0.0
 10
59.7752194674
 20
55.8969927403
 30
0.0
 10
59.8367332829
 20
55.8385044305
 30
0.0
 10
59.9064218222
 20
55.7949339015
 30
0.0
 10
59.9818162294
 20
55.7680759123
 30
0.0
 10
60.0342984238
 20
55.7619897037
 30
0.0
 10
60.0602268971
 20
55.7619828575
 30
0.0
  0
SPLINE
  5
31E
100
AcDbEntity
  8
0
100
AcDbSpline
 62
7
  6
CONTINUOUS
 70
0
 71
3
 72
35
 73
31
 74
0
 42
0.0000001
 43
0.0000001
 44
0.0000000001
 40
0.0
 40
0.0
 40
0.0
 40
0.0
 40
0.0440638855
 40
0.0877212271
 40
0.1304575218
 40
0.1719296207
 40
0.2118253889
 40
0.2498391507
 40
0.3193221019
 40
0.3505677108
 40
0.3793824827
 40
0.4057803546
 40
0.4298432583
 40
0.4516894421
 40
0.4715240097
 40
0.4897540089
 40
0.5069590211
 40
0.52377146
 40
0.540936145
 40
0.5592540542
 40
0.5793089084
 40
0.6014807425
 40
0.6260693035
 40
0.6532980837
 40
0.6832463141
 40
0.7158928394
 40
0.7511005323
 40
0.8282438375
 40
0.9122966911
 40
1.0
 40
1.0
 40
1.0
 40
1.0
 10
58.3524337019
 20
68.395472247
 30
0.0
 10
58.3505151444
 20
68.3408172582
 30
0.0
 10
58.3428795456
 20
68.2321310307
 30
0.0
 10
58.3232720492
 20
68.0713637117
 30
0.0
 10
58.2974140432
 20
67.9147316558
 30
0.0
 10
58.2649783072
 20
67.7640938792
 30
0.0
 10
58.2264537735
 20
67.6209438228
 30
0.0
 10
58.1696794032
 20
67.4470010531
 30
0.0
 10
58.1030468922
 20
67.2876490048
 30
0.0
 10
58.0259117553
 20
67.1464418101
 30
0.0
 10
57.9673634009
 20
67.056371813
 30
0.0
 10
57.906636352
 20
66.978774583
 30
0.0
 10
57.8443090168
 20
66.9139558293
 30
0.0
 10
57.7808404452
 20
66.862285045
 30
0.0
 10
57.7164552777
 20
66.8243936656
 30
0.0
 10
57.6515705983
 20
66.8008344525
 30
0.0
 10
57.5869422742
 20
66.79137113
 30
0.0
 10
57.5230297316
 20
66.7960700722
 30
0.0
 10
57.4606853372
 20
66.8162212711
 30
0.0
 10
57.4011311718
 20
66.8518950249
 30
0.0
 10
57.3445943355
 20
66.9019028828
 30
0.0
 10
57.2912282155
 20
66.9657124704
 30
0.0
 10
57.2415293427
 20
67.0431740452
 30
0.0
 10
57.1960493881
 20
67.1340719328
 30
0.0
 10
57.1551995574
 20
67.2379343107
 30
0.0
 10
57.119508597
 20
67.354061302
 30
0.0
 10
57.0780548764
 20
67.5292887208
 30
0.0
 10
57.0430204298
 20
67.7710266626
 30
0.0
 10
57.0275431094
 20
68.0799211202
 30
0.0
 10
57.0348820261
 20
68.293224974
 30
0.0
 10
57.0424247893
 20
68.4018138177
 30
0.0
  0
SPLINE
  5
31F
100
AcDbEntity
  8
0
100
AcDbSpline
 62
7
  6
CONTINUOUS
 70
0
 71
3
 72
13
 73
9
 74
0
 42
0.0000001
 43
0.0000001
 44
0.0000000001
 40
0.0
 40
0.0
 40
0.0
 40
0.0
 40
0.270641958
 40
0.5273798023
 40
0.6500753784
 40
0.7690706303
 40
0.8853651477
 40
1.0
 40
1.0
 40
1.0
 40
1.0
 10
59.657057216
 20
73.2162786868
 30
0.0
 10
59.6666082519
 20
73.2706147397
 30
0.0
 10
59.7000760971
 20
73.37458865
 30
0.0
 10
59.7782386343
 20
73.4847110166
 30
0.0
 10
59.8569331541
 20
73.5497659663
 30
0.0
 10
59.9211980993
 20
73.5853052815
 30
0.0
 10
59.9896137533
 20
73.6070465307
 30
0.0
 10
60.0368230523
 20
73.61197749
 30
0.0
 10
60.0601908288
 20
73.6119828545
 30
0.0
  0
SPLINE
  5
320
100
AcDbEntity
  8
0
100
AcDbSpline
 62
7
  6
CONTINUOUS
 70
0
 71
3
 72
11
 73
7
 74
0
 42
0.0000001
 43
0.0000001
 44
0.0000000001
 40
0.0
 40
0.0
 40
0.0
 40
0.0
 40
0.250054349
 40
0.5000884979
 40
0.7500536339
 40
1.0
 40
1.0
 40
1.0
 40
1.0
 10
55.821139337
 20
59.1869829096
 30
0.0
 10
55.8033921668
 20
59.18699493
 30
0.0
 10
55.7675951498
 20
59.1931398742
 30
0.0
 10
55.7204219523
 20
59.2199667212
 30
0.0
 10
55.6851135967
 20
59.2612440012
 30
0.0
 10
55.6728531357
 20
59.295527313
 30
0.0
 10
55.6699600745
 20
59.313029325
 30
0.0
  0
SPLINE
  5
321
100
AcDbEntity
  8
0
100
AcDbSpline
 62
7
  6
CONTINUOUS
 70
0
 71
3
 72
20
 73
16
 74
0
 42
0.0000001
 43
0.0000001
 44
0.0000000001
 40
0.0
 40
0.0
 40
0.0
 40
0.0
 40
0.0376589165
 40
0.0758999057
 40
0.1159153933
 40
0.1587881342
 40
0.2053957825
 40
0.2562949733
 40
0.3118420295
 40
0.3722670382
 40
0.4376476133
 40
0.5077797501
 40
0.6607060678
 40
0.8267804025
 40
1.0
 40
1.0
 40
1.0
 40
1.0
 10
57.7623151578
 20
62.386981672
 30
0.0
 10
57.7418284165
 20
62.3869785885
 30
0.0
 10
57.7004143936
 20
62.382847722
 30
0.0
 10
57.639827155
 20
62.3639898945
 30
0.0
 10
57.581474768
 20
62.3325763388
 30
0.0
 10
57.5259278841
 20
62.2887439672
 30
0.0
 10
57.4736630437
 20
62.2327224279
 30
0.0
 10
57.4250134032
 20
62.1649139177
 30
0.0
 10
57.3804128284
 20
62.0856664977
 30
0.0
 10
57.3403527229
 20
61.9953673351
 30
0.0
 10
57.3053444667
 20
61.8945733471
 30
0.0
 10
57.2647399061
 20
61.7428883444
 30
0.0
 10
57.2304524467
 20
61.5334254707
 30
0.0
 10
57.2154871459
 20
61.2656770238
 30
0.0
 10
57.2226354349
 20
61.0809283785
 30
0.0
 10
57.2304057053
 20
60.987016487
 30
0.0
  0
SPLINE
  5
322
100
AcDbEntity
  8
0
100
AcDbSpline
 62
7
  6
CONTINUOUS
 70
0
 71
3
 72
16
 73
12
 74
0
 42
0.0000001
 43
0.0000001
 44
0.0000000001
 40
0.0
 40
0.0
 40
0.0
 40
0.0
 40
0.0714795765
 40
0.1582922128
 40
0.2580283265
 40
0.3702414561
 40
0.4953600038
 40
0.6358052104
 40
0.7973774883
 40
0.8910093459
 40
1.0
 40
1.0
 40
1.0
 40
1.0
 10
56.2848024008
 20
73.2447830077
 30
0.0
 10
56.3648480806
 20
73.2399686028
 30
0.0
 10
56.5422088368
 20
73.2309771126
 30
0.0
 10
56.8314240522
 20
73.2187634233
 30
0.0
 10
57.1663619809
 20
73.2062534793
 30
0.0
 10
57.5442968037
 20
73.1936536341
 30
0.0
 10
57.9679212401
 20
73.180950901
 30
0.0
 10
58.4469372374
 20
73.168070935
 30
0.0
 10
58.890678905
 20
73.1575912509
 30
0.0
 10
59.2991618644
 20
73.1488297176
 30
0.0
 10
59.5264303134
 20
73.1442325095
 30
0.0
 10
59.648673655
 20
73.1415558181
 30
0.0
  0
SPLINE
  5
323
100
AcDbEntity
  8
0
100
AcDbSpline
 62
7
  6
CONTINUOUS
 70
0
 71
3
 72
14
 73
10
 74
0
 42
0.0000001
 43
0.0000001
 44
0.0000000001
 40
0.0
 40
0.0
 40
0.0
 40
0.0
 40
0.3028855509
 40
0.4467357056
 40
0.58194746
 40
0.7061581212
 40
0.8178409246
 40
0.9159492027
 40
1.0
 40
1.0
 40
1.0
 40
1.0
 10
58.5491210524
 20
71.4025736122
 30
0.0
 10
58.5616997372
 20
71.5513141205
 30
0.0
 10
58.5675451923
 20
71.7720930556
 30
0.0
 10
58.5493124952
 20
72.0584306374
 30
0.0
 10
58.5246419675
 20
72.255785609
 30
0.0
 10
58.4896359023
 20
72.4354535289
 30
0.0
 10
58.4458116922
 20
72.5943194275
 30
0.0
 10
58.3947167054
 20
72.7300614017
 30
0.0
 10
58.3530078487
 20
72.8099622624
 30
0.0
 10
58.330788073
 20
72.844921299
 30
0.0
  0
SPLINE
  5
324
100
AcDbEntity
  8
0
100
AcDbSpline
 62
7
  6
CONTINUOUS
 70
0
 71
3
 72
25
 73
21
 74
0
 42
0.0000001
 43
0.0000001
 44
0.0000000001
 40
0.0
 40
0.0
 40
0.0
 40
0.0
 40
0.0460576869
 40
0.0664189692
 40
0.0851509565
 40
0.1025176559
 40
0.118970094
 40
0.1350467305
 40
0.151236805
 40
0.1854492907
 40
0.2246091921
 40
0.270880144
 40
0.3254875218
 40
0.3884029243
 40
0.4585661756
 40
0.535785643
 40
0.6200636614
 40
0.7099626954
 40
0.8040452916
 40
1.0
 40
1.0
 40
1.0
 40
1.0
 10
58.330788073
 20
72.844921299
 30
0.0
 10
58.3130926399
 20
72.8727620523
 30
0.0
 10
58.2848154001
 20
72.9114242048
 30
0.0
 10
58.2415129601
 20
72.9545323391
 30
0.0
 10
58.2093578699
 20
72.9792825691
 30
0.0
 10
58.1761107159
 20
72.9973282717
 30
0.0
 10
58.1419074085
 20
73.0083916289
 30
0.0
 10
58.1070879645
 20
73.0127831467
 30
0.0
 10
58.0593252335
 20
73.0102085576
 30
0.0
 10
57.9970800095
 20
72.9907089147
 30
0.0
 10
57.924667032
 20
72.9434708427
 30
0.0
 10
57.8530269971
 20
72.8725537675
 30
0.0
 10
57.7828128661
 20
72.7781802341
 30
0.0
 10
57.7142447256
 20
72.6623739727
 30
0.0
 10
57.6467721928
 20
72.5275912188
 30
0.0
 10
57.5823419924
 20
72.3745554883
 30
0.0
 10
57.5229427831
 20
72.2044769029
 30
0.0
 10
57.4684097093
 20
72.0201689545
 30
0.0
 10
57.4027590084
 20
71.756018235
 30
0.0
 10
57.3664759562
 20
71.5510885062
 30
0.0
 10
57.3481990409
 20
71.4119327638
 30
0.0
  0
SPLINE
  5
325
100
AcDbEntity
  8
0
100
AcDbSpline
 62
7
  6
CONTINUOUS
 70
0
 71
3
 72
20
 73
16
 74
0
 42
0.0000001
 43
0.0000001
 44
0.0000000001
 40
0.0
 40
0.0
 40
0.0
 40
0.0
 40
0.1732143444
 40
0.3392909602
 40
0.4922175662
 40
0.5623498124
 40
0.6277304496
 40
0.6881555576
 40
0.74370282
 40
0.7946022711
 40
0.8412101841
 40
0.8840832105
 40
0.9240990761
 40
0.9623405337
 40
1.0
 40
1.0
 40
1.0
 40
1.0
 10
57.2304009026
 20
68.3868968083
 30
0.0
 10
57.2226324998
 20
68.2929905514
 30
0.0
 10
57.2154885269
 20
68.1082491151
 30
0.0
 10
57.2304556231
 20
67.8405105565
 30
0.0
 10
57.2647455575
 20
67.6310532134
 30
0.0
 10
57.3053510998
 20
67.4793732451
 30
0.0
 10
57.3403598197
 20
67.3785827473
 30
0.0
 10
57.3804202186
 20
67.2882868339
 30
0.0
 10
57.4250208166
 20
67.2090422989
 30
0.0
 10
57.4736702429
 20
67.1412363186
 30
0.0
 10
57.5259346495
 20
67.0852170049
 30
0.0
 10
57.5814808915
 20
67.0413865416
 30
0.0
 10
57.6398323949
 20
67.0099743892
 30
0.0
 10
57.7004186409
 20
66.991117452
 30
0.0
 10
57.7418319396
 20
66.9869868255
 30
0.0
 10
57.762318347
 20
66.9869837685
 30
0.0
  0
SPLINE
  5
326
100
AcDbEntity
  8
0
100
AcDbSpline
 62
7
  6
CONTINUOUS
 70
0
 71
3
 72
13
 73
9
 74
0
 42
0.0000001
 43
0.0000001
 44
0.0000000001
 40
0.0
 40
0.0
 40
0.0
 40
0.0
 40
0.1248386612
 40
0.2498427977
 40
0.5000000036
 40
0.7501572076
 40
0.875161342
 40
1.0
 40
1.0
 40
1.0
 40
1.0
 10
56.1480778447
 20
56.6370081799
 30
0.0
 10
55.9774920772
 20
57.2921305901
 30
0.0
 10
55.6779082996
 20
58.6145917611
 30
0.0
 10
55.2482062176
 20
61.2931506905
 30
0.0
 10
55.0315109032
 20
64.6869828456
 30
0.0
 10
55.2482058836
 20
68.0808150102
 30
0.0
 10
55.6779077021
 20
70.7593739428
 30
0.0
 10
55.9774913474
 20
72.081835114
 30
0.0
 10
56.1480770489
 20
72.736957524
 30
0.0
  0
SPLINE
  5
327
100
AcDbEntity
  8
0
100
AcDbSpline
 62
7
  6
CONTINUOUS
 70
0
 71
3
 72
15
 73
11
 74
0
 42
0.0000001
 43
0.0000001
 44
0.0000000001
 40
0.0
 40
0.0
 40
0.0
 40
0.0
 40
0.2026518145
 40
0.3642274319
 40
0.5046667676
 40
0.6297783947
 40
0.7419868739
 40
0.8417202444
 40
0.9285289634
 40
1.0
 40
1.0
 40
1.0
 40
1.0
 10
59.649162294
 20
56.2324339893
 30
0.0
 10
59.4218336473
 20
56.2275576311
 30
0.0
 10
59.0132432802
 20
56.2193085633
 30
0.0
 10
58.4471508291
 20
56.2058991121
 30
0.0
 10
57.9680751497
 20
56.1930277177
 30
0.0
 10
57.5444082508
 20
56.180325037
 30
0.0
 10
57.1664341577
 20
56.167725146
 30
0.0
 10
56.8314598075
 20
56.1552171631
 30
0.0
 10
56.5422192378
 20
56.1430034271
 30
0.0
 10
56.3648466817
 20
56.134009064
 30
0.0
 10
56.284798535
 20
56.129199901
 30
0.0
  0
SPLINE
  5
328
100
AcDbEntity
  8
0
100
AcDbSpline
 62
7
  6
CONTINUOUS
 70
0
 71
3
 72
11
 73
7
 74
0
 42
0.0000001
 43
0.0000001
 44
0.0000000001
 40
0.0
 40
0.0
 40
0.0
 40
0.0
 40
0.2499989661
 40
0.4999999406
 40
0.7500009438
 40
1.0
 40
1.0
 40
1.0
 40
1.0
 10
59.6486032696
 20
73.1420493724
 30
0.0
 10
59.5517310401
 20
71.7351727487
 30
0.0
 10
59.4065015553
 20
68.9178271155
 30
0.0
 10
59.3342716349
 20
64.6869983794
 30
0.0
 10
59.4067765118
 20
60.4561744645
 30
0.0
 10
59.5521505015
 20
57.6388356897
 30
0.0
 10
59.6491047842
 20
56.2319642091
 30
0.0
  0
SPLINE
  5
329
100
AcDbEntity
  8
0
100
AcDbSpline
 62
7
  6
CONTINUOUS
 70
0
 71
3
 72
35
 73
31
 74
0
 42
0.0000001
 43
0.0000001
 44
0.0000000001
 40
0.0
 40
0.0
 40
0.0
 40
0.0
 40
0.0170123678
 40
0.0348609316
 40
0.0541383012
 40
0.0752889356
 40
0.0986109735
 40
0.1242886419
 40
0.152428298
 40
0.1830779621
 40
0.2162476042
 40
0.2518125816
 40
0.2894597593
 40
0.3289168922
 40
0.3700645395
 40
0.4126278498
 40
0.5000510103
 40
0.5874691984
 40
0.6712495581
 40
0.7481812203
 40
0.7837461909
 40
0.8169557872
 40
0.8475961791
 40
0.8757221918
 40
0.9014035233
 40
0.9247234315
 40
0.9458636287
 40
0.965136002
 40
0.9829863732
 40
1.0
 40
1.0
 40
1.0
 40
1.0
 10
57.5627056851
 20
63.0822081431
 30
0.0
 10
57.5839678593
 20
63.0822131614
 30
0.0
 10
57.6276746828
 20
63.0873551009
 30
0.0
 10
57.6919889662
 20
63.1097848781
 30
0.0
 10
57.7552751259
 20
63.1465968388
 30
0.0
 10
57.8171097623
 20
63.1972748263
 30
0.0
 10
57.8772085685
 20
63.2613943503
 30
0.0
 10
57.9351721419
 20
63.3386336841
 30
0.0
 10
57.9905358988
 20
63.4286700347
 30
0.0
 10
58.0427057156
 20
63.5312052892
 30
0.0
 10
58.0907575693
 20
63.645855215
 30
0.0
 10
58.1341251041
 20
63.7716219196
 30
0.0
 10
58.1728177139
 20
63.9070772689
 30
0.0
 10
58.2063349752
 20
64.0510857849
 30
0.0
 10
58.2330628979
 20
64.2027643422
 30
0.0
 10
58.2588713379
 20
64.4151745388
 30
0.0
 10
58.2708003997
 20
64.6870847932
 30
0.0
 10
58.2560752914
 20
65.0103841845
 30
0.0
 10
58.2121782069
 20
65.3179973946
 30
0.0
 10
58.149858264
 20
65.5557951815
 30
0.0
 10
58.09051543
 20
65.7280291969
 30
0.0
 10
58.0427323979
 20
65.8428400346
 30
0.0
 10
57.9905304845
 20
65.9453905714
 30
0.0
 10
57.9350956139
 20
66.0353513323
 30
0.0
 10
57.8771993652
 20
66.1126177301
 30
0.0
 10
57.8171391888
 20
66.1767634642
 30
0.0
 10
57.755281918
 20
66.2273847159
 30
0.0
 10
57.6919818213
 20
66.2641329153
 30
0.0
 10
57.627678146
 20
66.2865727964
 30
0.0
 10
57.5839707149
 20
66.2917428731
 30
0.0
 10
57.5627069718
 20
66.291757801
 30
0.0
  0
SPLINE
  5
32A
100
AcDbEntity
  8
0
100
AcDbSpline
 62
7
  6
CONTINUOUS
 70
0
 71
3
 72
12
 73
8
 74
0
 42
0.0000001
 43
0.0000001
 44
0.0000000001
 40
0.0
 40
0.0
 40
0.0
 40
0.0
 40
0.2662834824
 40
0.4031947002
 40
0.5375011404
 40
0.7857128393
 40
1.0
 40
1.0
 40
1.0
 40
1.0
 10
57.5627069718
 20
66.291757801
 30
0.0
 10
57.5621083769
 20
66.2646544865
 30
0.0
 10
57.5690305877
 20
66.2228453551
 30
0.0
 10
57.5936399803
 20
66.1736475431
 30
0.0
 10
57.6262818479
 20
66.1316298099
 30
0.0
 10
57.6780210663
 20
66.0962549486
 30
0.0
 10
57.7255254894
 20
66.0869767908
 30
0.0
 10
57.7473417453
 20
66.0869767584
 30
0.0
  0
SPLINE
  5
32B
100
AcDbEntity
  8
0
100
AcDbSpline
 62
7
  6
CONTINUOUS
 70
0
 71
3
 72
33
 73
29
 74
0
 42
0.0000001
 43
0.0000001
 44
0.0000000001
 40
0.0
 40
0.0
 40
0.0
 40
0.0
 40
0.017005063
 40
0.0346679649
 40
0.0536296292
 40
0.0744129138
 40
0.0974027561
 40
0.122838358
 40
0.1508504296
 40
0.1814774253
 40
0.2503006984
 40
0.327815123
 40
0.41208442
 40
0.4999842273
 40
0.5878792999
 40
0.6721897673
 40
0.7118852533
 40
0.7496473195
 40
0.7853066186
 40
0.8185561367
 40
0.8491777596
 40
0.8771670975
 40
0.9025875152
 40
0.9255750271
 40
0.9463653669
 40
0.9653323764
 40
0.9829957626
 40
1.0
 40
1.0
 40
1.0
 40
1.0
 10
57.5627075326
 20
66.2917577868
 30
0.0
 10
57.5416853619
 20
66.2917669448
 30
0.0
 10
57.4986778363
 20
66.2868383869
 30
0.0
 10
57.4356470093
 20
66.2648035137
 30
0.0
 10
57.3742748773
 20
66.2283569165
 30
0.0
 10
57.3149922531
 20
66.1778844067
 30
0.0
 10
57.2580940669
 20
66.1136804568
 30
0.0
 10
57.2038944205
 20
66.0360646211
 30
0.0
 10
57.1527872634
 20
65.9454066587
 30
0.0
 10
57.086846258
 20
65.8021301886
 30
0.0
 10
57.0175947522
 20
65.5939555821
 30
0.0
 10
56.9555814752
 20
65.3152993028
 30
0.0
 10
56.9174192811
 20
65.0085457128
 30
0.0
 10
56.9051537607
 20
64.6869370332
 30
0.0
 10
56.9176471104
 20
64.3653216697
 30
0.0
 10
56.9495971688
 20
64.1049000443
 30
0.0
 10
56.9889520059
 20
63.9087491031
 30
0.0
 10
57.0232597127
 20
63.7731251877
 30
0.0
 10
57.0620211088
 20
63.647014332
 30
0.0
 10
57.1052143238
 20
63.5317039562
 30
0.0
 10
57.1527572536
 20
63.4284481461
 30
0.0
 10
57.2039108077
 20
63.3378785176
 30
0.0
 10
57.2581227472
 20
63.2603334004
 30
0.0
 10
57.3150149303
 20
63.1961447747
 30
0.0
 10
57.3742718829
 20
63.1456262302
 30
0.0
 10
57.4356323325
 20
63.1091249063
 30
0.0
 10
57.4986719224
 20
63.087085849
 30
0.0
 10
57.5416837122
 20
63.0821822942
 30
0.0
 10
57.5627048484
 20
63.0822081221
 30
0.0
  0
SPLINE
  5
32C
100
AcDbEntity
  8
0
100
AcDbSpline
 62
7
  6
CONTINUOUS
 70
0
 71
3
 72
11
 73
7
 74
0
 42
0.0000001
 43
0.0000001
 44
0.0000000001
 40
0.0
 40
0.0
 40
0.0
 40
0.0
 40
0.2499999974
 40
0.5000001351
 40
0.7499999989
 40
1.0
 40
1.0
 40
1.0
 40
1.0
 10
56.0498265806
 20
62.3997009116
 30
0.0
 10
55.9872860125
 20
62.4111001615
 30
0.0
 10
55.8621985483
 20
62.4338640428
 30
0.0
 10
55.6745933997
 20
62.4681530697
 30
0.0
 10
55.4868990981
 20
62.5019509188
 30
0.0
 10
55.361732272
 20
62.5242748622
 30
0.0
 10
55.2991787191
 20
62.5356026465
 30
0.0
  0
SPLINE
  5
32D
100
AcDbEntity
  8
0
100
AcDbSpline
 62
7
  6
CONTINUOUS
 70
0
 71
3
 72
11
 73
7
 74
0
 42
0.0000001
 43
0.0000001
 44
0.0000000001
 40
0.0
 40
0.0
 40
0.0
 40
0.0
 40
0.2499375943
 40
0.4998540665
 40
0.7498194088
 40
1.0
 40
1.0
 40
1.0
 40
1.0
 10
55.6215003966
 20
59.6144020054
 30
0.0
 10
55.618180971
 20
59.6357079665
 30
0.0
 10
55.6211558044
 20
59.6804362577
 30
0.0
 10
55.653913439
 20
59.738562124
 30
0.0
 10
55.707746316
 20
59.7778149648
 30
0.0
 10
55.7514377483
 20
59.7869678786
 30
0.0
 10
55.773021698
 20
59.7869827855
 30
0.0
  0
SPLINE
  5
32E
100
AcDbEntity
  8
0
100
AcDbSpline
 62
7
  6
CONTINUOUS
 70
0
 71
3
 72
11
 73
7
 74
0
 42
0.0000001
 43
0.0000001
 44
0.0000000001
 40
0.0
 40
0.0
 40
0.0
 40
0.0
 40
0.2501852464
 40
0.5001707442
 40
0.7500912761
 40
1.0
 40
1.0
 40
1.0
 40
1.0
 10
55.7730583967
 20
69.5869829133
 30
0.0
 10
55.7514732979
 20
69.586997089
 30
0.0
 10
55.7077780554
 20
69.5961496892
 30
0.0
 10
55.6539407681
 20
69.6354087256
 30
0.0
 10
55.6211938707
 20
69.6935383005
 30
0.0
 10
55.6181975731
 20
69.7382635519
 30
0.0
 10
55.6215149737
 20
69.7595680629
 30
0.0
  0
SPLINE
  5
32F
100
AcDbEntity
  8
0
100
AcDbSpline
 62
7
  6
CONTINUOUS
 70
0
 71
3
 72
10
 73
6
 74
0
 42
0.0000001
 43
0.0000001
 44
0.0000000001
 40
0.0
 40
0.0
 40
0.0
 40
0.0
 40
0.2499999882
 40
0.4999999666
 40
1.0
 40
1.0
 40
1.0
 40
1.0
 10
55.2991062374
 20
66.8383375149
 30
0.0
 10
55.3616665912
 20
66.8496650084
 30
0.0
 10
55.4868266526
 20
66.8721019334
 30
0.0
 10
55.7371063125
 20
66.9172005775
 30
0.0
 10
55.9247385731
 20
66.9514524396
 30
0.0
 10
56.0498304868
 20
66.9742659597
 30
0.0
  0
SPLINE
  5
330
100
AcDbEntity
  8
0
100
AcDbSpline
 62
7
  6
CONTINUOUS
 70
0
 71
3
 72
9
 73
5
 74
0
 42
0.0000001
 43
0.0000001
 44
0.0000000001
 40
0.0
 40
0.0
 40
0.0
 40
0.0
 40
0.5000000286
 40
1.0
 40
1.0
 40
1.0
 40
1.0
 10
56.0075197855
 20
66.0084909614
 30
0.0
 10
55.8835875321
 20
66.0424773406
 30
0.0
 10
55.6356892784
 20
66.1103286592
 30
0.0
 10
55.3880978181
 20
66.1792914948
 30
0.0
 10
55.2642188169
 20
66.2134714115
 30
0.0
  0
SPLINE
  5
331
100
AcDbEntity
  8
0
100
AcDbSpline
 62
7
  6
CONTINUOUS
 70
0
 71
3
 72
9
 73
5
 74
0
 42
0.0000001
 43
0.0000001
 44
0.0000000001
 40
0.0
 40
0.0
 40
0.0
 40
0.0
 40
0.4999999661
 40
1.0
 40
1.0
 40
1.0
 40
1.0
 10
55.2641259494
 20
63.1605150453
 30
0.0
 10
55.3880222392
 20
63.1946962533
 30
0.0
 10
55.6356717563
 20
63.2635768049
 30
0.0
 10
55.8835848554
 20
63.3315022661
 30
0.0
 10
56.0075285472
 20
63.3655112559
 30
0.0
  0
SPLINE
  5
332
100
AcDbEntity
  8
0
100
AcDbSpline
 62
7
  6
CONTINUOUS
 70
0
 71
3
 72
13
 73
9
 74
0
 42
0.0000001
 43
0.0000001
 44
0.0000000001
 40
0.0
 40
0.0
 40
0.0
 40
0.0
 40
0.2479103516
 40
0.3800357495
 40
0.5129888226
 40
0.6437339539
 40
0.769888264
 40
1.0
 40
1.0
 40
1.0
 40
1.0
 10
57.5627048484
 20
63.0822081221
 30
0.0
 10
57.5621468326
 20
63.1074745844
 30
0.0
 10
57.5681615426
 20
63.1468465086
 30
0.0
 10
57.5901906915
 20
63.1945361466
 30
0.0
 10
57.6139468587
 20
63.2275240953
 30
0.0
 10
57.6438273174
 20
63.2542094313
 30
0.0
 10
57.6870205807
 20
63.2792166667
 30
0.0
 10
57.7238817101
 20
63.2869890133
 30
0.0
 10
57.7473398966
 20
63.2869890085
 30
0.0
  0
SPLINE
  5
333
100
AcDbEntity
  8
0
100
AcDbSpline
 62
7
  6
CONTINUOUS
 70
0
 71
3
 72
19
 73
15
 74
0
 42
0.0000001
 43
0.0000001
 44
0.0000000001
 40
0.0
 40
0.0
 40
0.0
 40
0.0
 40
0.1732619109
 40
0.3399427963
 40
0.4945820153
 40
0.6330399442
 40
0.6953099333
 40
0.7526180325
 40
0.8048601564
 40
0.852082892
 40
0.8945365929
 40
0.9327194743
 40
0.9674672759
 40
1.0
 40
1.0
 40
1.0
 40
1.0
 10
57.5370455574
 20
57.9868996687
 30
0.0
 10
57.5515150391
 20
57.8916310621
 30
0.0
 10
57.5873805285
 20
57.7057646838
 30
0.0
 10
57.6603306955
 20
57.4402727677
 30
0.0
 10
57.747298779
 20
57.1995208775
 30
0.0
 10
57.8309170395
 20
57.0200198373
 30
0.0
 10
57.9026265162
 20
56.8956157261
 30
0.0
 10
57.9557483377
 20
56.8160833633
 30
0.0
 10
58.0097832852
 20
56.7475178361
 30
0.0
 10
58.0644588846
 20
56.6903873428
 30
0.0
 10
58.1195526292
 20
56.6450988917
 30
0.0
 10
58.1749293088
 20
56.61207579
 30
0.0
 10
58.2303607922
 20
56.591740473
 30
0.0
 10
58.2678992419
 20
56.5869862763
 30
0.0
 10
58.2859926072
 20
56.5869864829
 30
0.0
  0
SPLINE
  5
334
100
AcDbEntity
  8
0
100
AcDbSpline
 62
7
  6
CONTINUOUS
 70
0
 71
3
 72
31
 73
27
 74
0
 42
0.0000001
 43
0.0000001
 44
0.0000000001
 40
0.0
 40
0.0
 40
0.0
 40
0.0
 40
0.0187074125
 40
0.0378038338
 40
0.0579588004
 40
0.0796643751
 40
0.1288837685
 40
0.187189691
 40
0.2548866833
 40
0.3310660024
 40
0.4137395519
 40
0.4999715989
 40
0.5433328258
 40
0.586226494
 40
0.6282181296
 40
0.6689087292
 40
0.7079677912
 40
0.7451027535
 40
0.8127742723
 40
0.8431323002
 40
0.8711289353
 40
0.9203406129
 40
0.9420420325
 40
0.9621979124
 40
0.9812986193
 40
1.0
 40
1.0
 40
1.0
 40
1.0
 10
57.7473417243
 20
66.0869828575
 30
0.0
 10
57.7265755235
 20
66.0869828575
 30
0.0
 10
57.6844901039
 20
66.0828369027
 30
0.0
 10
57.6225937161
 20
66.0639644624
 30
0.0
 10
57.5621994015
 20
66.0327180541
 30
0.0
 10
57.480614645
 20
65.9724007292
 30
0.0
 10
57.3849035593
 20
65.8634710147
 30
0.0
 10
57.2876807033
 20
65.694039844
 30
0.0
 10
57.2061554884
 20
65.4841862618
 30
0.0
 10
57.1442008259
 20
65.2399129278
 30
0.0
 10
57.1054190503
 20
64.970183013
 30
0.0
 10
57.0943870863
 20
64.7344293876
 30
0.0
 10
57.0989485362
 20
64.5429569364
 30
0.0
 10
57.1090246685
 20
64.4008978676
 30
0.0
 10
57.1256361949
 20
64.2624353959
 30
0.0
 10
57.1487212432
 20
64.129221068
 30
0.0
 10
57.1776999384
 20
64.0026736421
 30
0.0
 10
57.2219747555
 20
63.8491957007
 30
0.0
 10
57.2763328292
 20
63.7087382093
 30
0.0
 10
57.34216341
 20
63.5850904105
 30
0.0
 10
57.4073438696
 20
63.4849920943
 30
0.0
 10
57.4806440333
 20
63.4015609818
 30
0.0
 10
57.5622016859
 20
63.3412442132
 30
0.0
 10
57.6226011393
 20
63.3099996778
 30
0.0
 10
57.6844975203
 20
63.2911338768
 30
0.0
 10
57.7265803411
 20
63.2869828563
 30
0.0
 10
57.7473398463
 20
63.2869828575
 30
0.0
  0
SPLINE
  5
335
100
AcDbEntity
  8
0
100
AcDbSpline
 62
7
  6
CONTINUOUS
 70
0
 71
3
 72
11
 73
7
 74
0
 42
0.0000001
 43
0.0000001
 44
0.0000000001
 40
0.0
 40
0.0
 40
0.0
 40
0.0
 40
0.2500335394
 40
0.5000279423
 40
0.7499957249
 40
1.0
 40
1.0
 40
1.0
 40
1.0
 10
33.8761705808
 20
73.6119828575
 30
0.0
 10
33.8217367774
 20
73.6119815368
 30
0.0
 10
33.7120766898
 20
73.5943190012
 30
0.0
 10
33.5649931435
 20
73.5172388954
 30
0.0
 10
33.4500640889
 20
73.3973368188
 30
0.0
 10
33.4031010041
 20
73.2965736547
 30
0.0
 10
33.3884988681
 20
73.2441415745
 30
0.0
  0
SPLINE
  5
336
100
AcDbEntity
  8
0
100
AcDbSpline
 62
7
  6
CONTINUOUS
 70
0
 71
3
 72
15
 73
11
 74
0
 42
0.0000001
 43
0.0000001
 44
0.0000000001
 40
0.0
 40
0.0
 40
0.0
 40
0.0
 40
0.1248701497
 40
0.2498831647
 40
0.3749853306
 40
0.5001226559
 40
0.6252456281
 40
0.750302072
 40
0.8752373029
 40
1.0
 40
1.0
 40
1.0
 40
1.0
 10
33.0631847937
 20
57.3444781908
 30
0.0
 10
32.9111481915
 20
57.9899483861
 30
0.0
 10
32.6472660866
 20
59.291519738
 30
0.0
 10
32.3741175776
 20
61.2653295175
 30
0.0
 10
32.2240822568
 20
63.2537926321
 30
0.0
 10
32.1983261776
 20
65.2483201395
 30
0.0
 10
32.297306605
 20
67.2403060635
 30
0.0
 10
32.5198226072
 20
69.2212293373
 30
0.0
 10
32.8650083908
 20
71.1824851842
 30
0.0
 10
33.1763521723
 20
72.472512328
 30
0.0
 10
33.3518408214
 20
73.1114130585
 30
0.0
  0
SPLINE
  5
337
100
AcDbEntity
  8
0
100
AcDbSpline
 62
7
  6
CONTINUOUS
 70
0
 71
3
 72
11
 73
7
 74
0
 42
0.0000001
 43
0.0000001
 44
0.0000000001
 40
0.0
 40
0.0
 40
0.0
 40
0.0
 40
0.2500043488
 40
0.4999676987
 40
0.749958922
 40
1.0
 40
1.0
 40
1.0
 40
1.0
 10
33.3884984324
 20
56.0798270673
 30
0.0
 10
33.4031004262
 20
56.0273944196
 30
0.0
 10
33.4500639211
 20
55.9266313481
 30
0.0
 10
33.564992182
 20
55.8067289273
 30
0.0
 10
33.7120765361
 20
55.7296474147
 30
0.0
 10
33.8217386648
 20
55.7119837283
 30
0.0
 10
33.8761746021
 20
55.7119828575
 30
0.0
  0
SPLINE
  5
338
100
AcDbEntity
  8
0
100
AcDbSpline
 62
7
  6
CONTINUOUS
 70
0
 71
3
 72
13
 73
9
 74
0
 42
0.0000001
 43
0.0000001
 44
0.0000000001
 40
0.0
 40
0.0
 40
0.0
 40
0.0
 40
0.1369161964
 40
0.2719714042
 40
0.5302061446
 40
0.7707894205
 40
0.8865060052
 40
1.0
 40
1.0
 40
1.0
 40
1.0
 10
36.7508359676
 20
73.1421738394
 30
0.0
 10
36.7522934237
 20
73.1734310686
 30
0.0
 10
36.7603410104
 20
73.2354063207
 30
0.0
 10
36.7946335347
 20
73.3519929227
 30
0.0
 10
36.8688014271
 20
73.4799398569
 30
0.0
 10
36.9822257214
 20
73.5697896211
 30
0.0
 10
37.0841805605
 20
73.6058519693
 30
0.0
 10
37.1367515191
 20
73.6119856129
 30
0.0
 10
37.1626897368
 20
73.6119828509
 30
0.0
  0
SPLINE
  5
339
100
AcDbEntity
  8
0
100
AcDbSpline
 62
7
  6
CONTINUOUS
 70
0
 71
3
 72
14
 73
10
 74
0
 42
0.0000001
 43
0.0000001
 44
0.0000000001
 40
0.0
 40
0.0
 40
0.0
 40
0.0
 40
0.0712735065
 40
0.1578952643
 40
0.2576011719
 40
0.3697430944
 40
0.4948763623
 40
0.6354021192
 40
1.0
 40
1.0
 40
1.0
 40
1.0
 10
33.3888386563
 20
73.2447947125
 30
0.0
 10
33.4686058442
 20
73.2403229576
 30
0.0
 10
33.6453819224
 20
73.2315782556
 30
0.0
 10
33.9338683192
 20
73.2191663711
 30
0.0
 10
34.2682008752
 20
73.2067145399
 30
0.0
 10
34.6457234648
 20
73.1941357598
 30
0.0
 10
35.0690238514
 20
73.1815278059
 30
0.0
 10
35.7752385869
 20
73.1624012426
 30
0.0
 10
36.3413264802
 20
73.150580939
 30
0.0
 10
36.7499285182
 20
73.1422093544
 30
0.0
  0
SPLINE
  5
33A
100
AcDbEntity
  8
0
100
AcDbSpline
 62
7
  6
CONTINUOUS
 70
0
 71
3
 72
14
 73
10
 74
0
 42
0.0000001
 43
0.0000001
 44
0.0000000001
 40
0.0
 40
0.0
 40
0.0
 40
0.0
 40
0.27068489
 40
0.4021687027
 40
0.5295450661
 40
0.6524247602
 40
0.7710599818
 40
0.8864716528
 40
1.0
 40
1.0
 40
1.0
 40
1.0
 10
36.7508403893
 20
56.1818164977
 30
0.0
 10
36.7539008041
 20
56.1199363628
 30
0.0
 10
36.7727885274
 20
56.0277245402
 30
0.0
 10
36.825727196
 20
55.9182164039
 30
0.0
 10
36.8770825916
 20
55.8469056077
 30
0.0
 10
36.9387245644
 20
55.7884408454
 30
0.0
 10
37.0085641248
 20
55.7448987219
 30
0.0
 10
37.0841165133
 20
55.7180604469
 30
0.0
 10
37.1367064726
 20
55.7119793234
 30
0.0
 10
37.1626914322
 20
55.7119828682
 30
0.0
  0
SPLINE
  5
33B
100
AcDbEntity
  8
0
100
AcDbSpline
 62
7
  6
CONTINUOUS
 70
0
 71
3
 72
11
 73
7
 74
0
 42
0.0000001
 43
0.0000001
 44
0.0000000001
 40
0.0
 40
0.0
 40
0.0
 40
0.0
 40
0.1935972319
 40
0.4345654023
 40
0.708735585
 40
1.0
 40
1.0
 40
1.0
 40
1.0
 10
36.7507567008
 20
56.1818103306
 30
0.0
 10
36.77733386
 20
56.1838228503
 30
0.0
 10
36.8369984304
 20
56.1882471395
 30
0.0
 10
36.9343416762
 20
56.1949667286
 30
0.0
 10
37.0450211718
 20
56.2036775121
 30
0.0
 10
37.1226809525
 20
56.2090597874
 30
0.0
 10
37.1626737357
 20
56.2119826704
 30
0.0
  0
SPLINE
  5
33C
100
AcDbEntity
  8
0
100
AcDbSpline
 62
7
  6
CONTINUOUS
 70
0
 71
3
 72
9
 73
5
 74
0
 42
0.0000001
 43
0.0000001
 44
0.0000000001
 40
0.0
 40
0.0
 40
0.0
 40
0.0
 40
0.5000000006
 40
1.0
 40
1.0
 40
1.0
 40
1.0
 10
36.7507567008
 20
56.1818103306
 30
0.0
 10
36.557060407
 20
59.0035523264
 30
0.0
 10
36.3641735693
 20
64.6619949799
 30
0.0
 10
36.5570551655
 20
70.320438032
 30
0.0
 10
36.7507520391
 20
73.1421799811
 30
0.0
  0
SPLINE
  5
33D
100
AcDbEntity
  8
0
100
AcDbSpline
 62
7
  6
CONTINUOUS
 70
0
 71
3
 72
20
 73
16
 74
0
 42
0.0000001
 43
0.0000001
 44
0.0000000001
 40
0.0
 40
0.0
 40
0.0
 40
0.0
 40
0.0712799048
 40
0.1578648087
 40
0.2061393003
 40
0.2575431077
 40
0.3120364326
 40
0.3696449031
 40
0.4304829925
 40
0.4947411696
 40
0.5628250873
 40
0.6352133596
 40
0.7127615508
 40
0.7968833412
 40
1.0
 40
1.0
 40
1.0
 40
1.0
 10
33.3887923245
 20
56.079161637
 30
0.0
 10
33.4685855335
 20
56.0836991266
 30
0.0
 10
33.6453840511
 20
56.0923186898
 30
0.0
 10
33.8762966702
 20
56.1024056286
 30
0.0
 10
34.0849920498
 20
56.1103591877
 30
0.0
 10
34.257740327
 20
56.1166789136
 30
0.0
 10
34.4409584528
 20
56.1230789725
 30
0.0
 10
34.6347702685
 20
56.129180483
 30
0.0
 10
34.8395232735
 20
56.1356924794
 30
0.0
 10
35.056034718
 20
56.1419640171
 30
0.0
 10
35.2855013941
 20
56.1482432188
 30
0.0
 10
35.5298702019
 20
56.1546951085
 30
0.0
 10
35.7922267428
 20
56.1611712782
 30
0.0
 10
36.2011374231
 20
56.1703965748
 30
0.0
 10
36.5231295327
 20
56.1772213903
 30
0.0
 10
36.7508263765
 20
56.1818162584
 30
0.0
  0
ELLIPSE
  5
33E
100
AcDbEntity
  8
0
100
AcDbEllipse
 62
7
  6
CONTINUOUS
 10
79.985654461
 20
56.2119828575
 30
0.0
 11
0.0
 21
0.5
 31
0.0
 40
0.1583844403
 41
1.5707963268
 42
3.1415926536
  0
ELLIPSE
  5
33F
100
AcDbEntity
  8
0
100
AcDbEllipse
 62
7
  6
CONTINUOUS
 10
79.985654461
 20
73.1119828575
 30
0.0
 11
0.0
 21
0.5
 31
0.0
 40
0.1583844403
 41
0.0
 42
1.5707963268
  0
ENDSEC
  0
SECTION
  2
OBJECTS
  0
DICTIONARY
  5
C
100
AcDbDictionary
280
0
281
1
  3
ACAD_GROUP
350
D
  3
ACAD_MLINESTYLE
350
17
  3
ACAD_LAYOUT
350
1A
  3
ACAD_PLOTSETTINGS
350
19
  3
ACAD_PLOTSTYLENAME
350
E
  0
DICTIONARY
  5
D
102
{ACAD_REACTORS
330
C
102
}
100
AcDbDictionary
280
0
281
1
  0
ACDBDICTIONARYWDFLT
  5
E
102
{ACAD_REACTORS
330
C
102
}
100
AcDbDictionary
281
1
  3
Normal
350
F
100
AcDbDictionaryWithDefault
340
F
  0
DICTIONARY
  5
17
102
{ACAD_REACTORS
330
C
102
}
100
AcDbDictionary
280
0
281
1
  3
Standard
350
18
  0
DICTIONARY
  5
19
102
{ACAD_REACTORS
330
C
102
}
100
AcDbDictionary
281
1
  0
DICTIONARY
  5
1A
102
{ACAD_REACTORS
330
C
102
}
100
AcDbDictionary
281
1
  3
Model
350
340
  3
Layout1
350
341
  0
ACDBPLACEHOLDER
  5
F
102
{ACAD_REACTORS
330
E
102
}
  0
MLINESTYLE
  5
18
102
{ACAD_REACTORS
330
17
102
}
100
AcDbMlineStyle
  2
STANDARD
 70
0
  3

 62
256
 51
90.0
 52
90.0
 71
2
 49
0.5
 62
256
  6
BYLAYER
 49
-0.5
 62
256
  6
BYLAYER
  0
LAYOUT
  5
340
102
{ACAD_REACTORS
330
1A
102
}
100
AcDbPlotSettings
  1

  2
none_device
  4

  6

 40
0.0
 41
0.0
 42
0.0
 43
0.0
 44
210.0
 45
297.0
 46
0.0
 47
0.0
 48
0.0
 49
0.0
140
0.0
141
0.0
142
1.0
143
1.0
 70
1024
 72
1
 73
0
 74
0
  7

 75
0
147
1.0
148
0.0
149
0.0
100
AcDbLayout
  1
Model
 70
0
 71
0
 10
0.0
 20
0.0
 11
210.0
 21
297.0
 12
0.0
 22
0.0
 32
0.0
 14
0.0
 24
0.0
 34
0.0
 15
0.0
 25
0.0
 35
0.0
146
0.0
 13
0.0
 23
0.0
 33
0.0
 16
1.0
 26
0.0
 36
0.0
 17
0.0
 27
1.0
 37
0.0
 76
0
330
210
345
0
346
0
  0
LAYOUT
  5
341
102
{ACAD_REACTORS
330
1A
102
}
100
AcDbPlotSettings
  1

  2
none_device
  4

  6

 40
0.0
 41
0.0
 42
0.0
 43
0.0
 44
210.0
 45
297.0
 46
0.0
 47
0.0
 48
0.0
 49
0.0
140
0.0
141
0.0
142
1.0
143
1.0
 70
0
 72
1
 73
0
 74
0
  7

 75
0
147
1.0
148
0.0
149
0.0
100
AcDbLayout
  1
Layout1
 70
0
 71
1
 10
0.0
 20
0.0
 11
210.0
 21
297.0
 12
0.0
 22
0.0
 32
0.0
 14
0.0
 24
0.0
 34
0.0
 15
0.0
 25
0.0
 35
0.0
146
0.0
 13
0.0
 23
0.0
 33
0.0
 16
1.0
 26
0.0
 36
0.0
 17
0.0
 27
1.0
 37
0.0
 76
0
330
211
345
0
346
0
  0
ENDSEC
  0
EOF
