999
DXF file: C:\Users\sesa63760\Dev\_Creo\CAD\MCADID0003544_3D-CAD\drw0001_3.dxf
999
Pro/ENGINEER 2019471 by Parametric Technology Corporation
  0
SECTION
  2
HEADER
  9
$ACADVER
  1
AC1024
  9
$DWGCODEPAGE
  3
ANSI_1252
  9
$EXTMAX
 10
67.512792795
 20
95.4823783815
 30
0.0
  9
$EXTMIN
 10
0.0
 20
0.0
 30
0.0
  9
$LIMMIN
 10
0.0
 20
0.0
  9
$LIMMAX
 10
67.512792795
 20
95.4823783815
  9
$VIEWCTR
 10
33.7563963975
 20
47.7411891908
  9
$VIEWSIZE
 40
95.4823783815
  9
$CLAYER
  8
0
  9
$LTSCALE
 40
6.2240365167
  9
$CELTYPE
  6
BYLAYER
  9
$DIMSCALE
 40
1.0
  9
$DIMASZ
 40
0.8037237238
  9
$DIMEXO
 40
1.0
  9
$DIMDLI
 40
4.3002434116
  9
$DIMEXE
 40
1.0
  9
$DIMCEN
 40
1.0184787027
  9
$DIMLFAC
 40
1.0
  9
$DIMBLK
  1
_FILLED
  9
$DIMALT
 70
0
  9
$DIMALTF
 40
0.0393700787
  9
$DIMTXT
 40
1.1252132133
  9
$DIMTOL
 70
1
  9
$DIMLIM
 70
0
  9
$DIMTFAC
 40
1.0
  9
$DIMTP
 40
0.01
  9
$DIMTM
 40
0.01
  9
$DIMGAP
 40
0.625
  9
$DIMDSEP
 70
46
  9
$AUNITS
 70
0
  9
$PDMODE
 70
3
  9
$PDSIZE
 40
0.3125
  9
$HANDSEED
  5
284
  9
$TILEMODE
 70
1
  9
$MEASUREMENT
 70
1
  9
$INSUNITS
 70
4
  0
ENDSEC
  0
SECTION
  2
CLASSES
  0
CLASS
  1
ACDBDICTIONARYWDFLT
  2
AcDbDictionaryWithDefault
  3
AutoCAD 2000
 90
0
 91
1
280
0
281
0
  0
CLASS
  1
ACDBPLACEHOLDER
  2
AcDbPlaceHolder
  3
AutoCAD 2000
 90
0
 91
1
280
0
281
0
  0
CLASS
  1
LAYOUT
  2
AcDbLayout
  3
AutoCAD 2000
 90
0
 91
0
280
0
281
0
  0
ENDSEC
  0
SECTION
  2
TABLES
  0
TABLE
  2
VPORT
  5
8
100
AcDbSymbolTable
 70
2
  0
VPORT
  5
1F4
100
AcDbSymbolTableRecord
100
AcDbViewportTableRecord
  2
*ACTIVE
 70
0
 10
0.0
 20
0.0
 11
1.0
 21
1.0
 12
33.7563963975
 22
47.7411891908
 13
0.0
 23
0.0
 14
1.0
 24
1.0
 15
0.0
 25
0.0
 16
0.0
 26
0.0
 36
1.0
 17
0.0
 27
0.0
 37
0.0
 40
95.4823783815
 41
0.7070707071
 42
50.0
 43
0.0
 44
0.0
 50
0.0
 51
0.0
 71
0
 72
100
 73
1
 74
1
 75
0
 76
0
 77
0
 78
0
  0
ENDTAB
  0
TABLE
  2
LTYPE
  5
5
100
AcDbSymbolTable
 70
6
  0
LTYPE
  5
14
100
AcDbSymbolTableRecord
100
AcDbLinetypeTableRecord
  2
BYBLOCK
 70
0
  3

 72
65
 73
0
 40
0.0
  0
LTYPE
  5
15
100
AcDbSymbolTableRecord
100
AcDbLinetypeTableRecord
  2
BYLAYER
 70
0
  3

 72
65
 73
0
 40
0.0
  0
LTYPE
  5
16
100
AcDbSymbolTableRecord
100
AcDbLinetypeTableRecord
  2
CONTINUOUS
 70
64
  3
Solid line
 72
65
 73
0
 40
0.0
  0
LTYPE
  5
1F5
100
AcDbSymbolTableRecord
100
AcDbLinetypeTableRecord
  2
CENTER
 70
64
  3
____ _ ____ _ ____ _ ____ _ ____ _ ____ _ ____
 72
65
 73
4
 40
0.6
 49
0.375
 74
0
 49
-0.075
 74
0
 49
0.075
 74
0
 49
-0.075
 74
0
  0
LTYPE
  5
1F6
100
AcDbSymbolTableRecord
100
AcDbLinetypeTableRecord
  2
HIDDEN
 70
64
  3
- - - - - - - - - - - - - - - - - - - -
 72
65
 73
2
 40
0.2
 49
0.1
 74
0
 49
-0.1
 74
0
  0
LTYPE
  5
1F7
100
AcDbSymbolTableRecord
100
AcDbLinetypeTableRecord
  2
PHANTOM
 70
64
  3
_____ _ _ _____ _ _ _____ _ _ _____
 72
65
 73
6
 40
0.8
 49
0.45
 74
0
 49
-0.05
 74
0
 49
0.1
 74
0
 49
-0.05
 74
0
 49
0.1
 74
0
 49
-0.05
 74
0
  0
LTYPE
  5
1F8
100
AcDbSymbolTableRecord
100
AcDbLinetypeTableRecord
  2
DOT
 70
64
  3
. . . . . . . . . . . . . . . . . . . .
 72
65
 73
2
 40
0.2
 49
0.1
 74
0
 49
-0.1
 74
0
  0
LTYPE
  5
1F9
100
AcDbSymbolTableRecord
100
AcDbLinetypeTableRecord
  2
DASHED
 70
64
  3
- - - - - - - - - - - - - - - - - - - -
 72
65
 73
2
 40
0.2
 49
0.1
 74
0
 49
-0.1
 74
0
  0
ENDTAB
  0
TABLE
  2
LAYER
  5
2
100
AcDbSymbolTable
 70
36
  0
LAYER
  5
10
100
AcDbSymbolTableRecord
100
AcDbLayerTableRecord
  2
0
 70
0
 62
7
  6
CONTINUOUS
370
-3
390
F
  0
LAYER
  5
1FA
100
AcDbSymbolTableRecord
100
AcDbLayerTableRecord
  2
DEFAULT_1
 70
0
 62
7
  6
CENTER
370
-3
390
F
  0
LAYER
  5
1FB
100
AcDbSymbolTableRecord
100
AcDbLayerTableRecord
  2
DEFAULT_2
 70
0
 62
7
  6
HIDDEN
370
-3
390
F
  0
LAYER
  5
1FC
100
AcDbSymbolTableRecord
100
AcDbLayerTableRecord
  2
DEFAULT_3
 70
0
 62
7
  6
PHANTOM
370
-3
390
F
  0
LAYER
  5
1FD
100
AcDbSymbolTableRecord
100
AcDbLayerTableRecord
  2
00_COMPONENTS
 70
0
 62
7
  6
CONTINUOUS
370
-3
390
F
  0
LAYER
  5
1FE
100
AcDbSymbolTableRecord
100
AcDbLayerTableRecord
  2
01_1_DEFAULT_DATUMS
 70
0
 62
7
  6
CONTINUOUS
370
-3
390
F
  0
LAYER
  5
1FF
100
AcDbSymbolTableRecord
100
AcDbLayerTableRecord
  2
01_PLANES
 70
0
 62
7
  6
CONTINUOUS
370
-3
390
F
  0
LAYER
  5
200
100
AcDbSymbolTableRecord
100
AcDbLayerTableRecord
  2
02_COORD_SYS
 70
0
 62
7
  6
CONTINUOUS
370
-3
390
F
  0
LAYER
  5
201
100
AcDbSymbolTableRecord
100
AcDbLayerTableRecord
  2
03_AXES
 70
0
 62
7
  6
CONTINUOUS
370
-3
390
F
  0
LAYER
  5
202
100
AcDbSymbolTableRecord
100
AcDbLayerTableRecord
  2
04_POINTS
 70
0
 62
7
  6
CONTINUOUS
370
-3
390
F
  0
LAYER
  5
203
100
AcDbSymbolTableRecord
100
AcDbLayerTableRecord
  2
05_CURVES
 70
0
 62
7
  6
CONTINUOUS
370
-3
390
F
  0
LAYER
  5
204
100
AcDbSymbolTableRecord
100
AcDbLayerTableRecord
  2
06_SURFS
 70
0
 62
7
  6
CONTINUOUS
370
-3
390
F
  0
LAYER
  5
205
100
AcDbSymbolTableRecord
100
AcDbLayerTableRecord
  2
07_COSMETICS
 70
0
 62
7
  6
CONTINUOUS
370
-3
390
F
  0
LAYER
  5
206
100
AcDbSymbolTableRecord
100
AcDbLayerTableRecord
  2
10_NOTES
 70
0
 62
7
  6
CONTINUOUS
370
-3
390
F
  0
LAYER
  5
207
100
AcDbSymbolTableRecord
100
AcDbLayerTableRecord
  2
11_NOTES_PUB
 70
0
 62
7
  6
CONTINUOUS
370
-3
390
F
  0
LAYER
  5
208
100
AcDbSymbolTableRecord
100
AcDbLayerTableRecord
  2
13_REF_GTOL
 70
0
 62
7
  6
CONTINUOUS
370
-3
390
F
  0
LAYER
  5
209
100
AcDbSymbolTableRecord
100
AcDbLayerTableRecord
  2
16_MISC
 70
0
 62
7
  6
CONTINUOUS
370
-3
390
F
  0
LAYER
  5
20A
100
AcDbSymbolTableRecord
100
AcDbLayerTableRecord
  2
17_NO_PRINT
 70
0
 62
7
  6
CONTINUOUS
370
-3
390
F
  0
LAYER
  5
20B
100
AcDbSymbolTableRecord
100
AcDbLayerTableRecord
  2
18_DATUM_CAMS_JOINTS
 70
0
 62
7
  6
CONTINUOUS
370
-3
390
F
  0
LAYER
  5
20C
100
AcDbSymbolTableRecord
100
AcDbLayerTableRecord
  2
19_DATUM_FUNCTIONAL
 70
0
 62
7
  6
CONTINUOUS
370
-3
390
F
  0
LAYER
  5
20D
100
AcDbSymbolTableRecord
100
AcDbLayerTableRecord
  2
20_DATUM_KINEMATIC_SCHEME
 70
0
 62
7
  6
CONTINUOUS
370
-3
390
F
  0
LAYER
  5
20E
100
AcDbSymbolTableRecord
100
AcDbLayerTableRecord
  2
INTFCLR_17482
 70
0
 62
7
  6
CONTINUOUS
370
-3
390
F
  0
ENDTAB
  0
TABLE
  2
STYLE
  5
3
100
AcDbSymbolTable
 70
1
  0
STYLE
  5
11
100
AcDbSymbolTableRecord
100
AcDbTextStyleTableRecord
  2
STANDARD
 70
0
 40
0.0
 41
1.0
 50
0.0
 71
0
 42
0.2
  3
ARIAL.TTF
  4

  0
STYLE
  5
20F
100
AcDbSymbolTableRecord
100
AcDbTextStyleTableRecord
  2
TEXTSTYLE_1
 70
0
 40
0.0
 41
0.8
 50
0.0
 71
0
 42
0.2
  3
gdt
  4

  0
ENDTAB
  0
TABLE
  2
VIEW
  5
6
100
AcDbSymbolTable
 70
0
  0
ENDTAB
  0
TABLE
  2
UCS
  5
7
100
AcDbSymbolTable
 70
0
  0
ENDTAB
  0
TABLE
  2
APPID
  5
9
100
AcDbSymbolTable
 70
1
  0
APPID
  5
210
100
AcDbSymbolTableRecord
100
AcDbRegAppTableRecord
  2
ACAD
 70
0
  0
ENDTAB
  0
TABLE
  2
BLOCK_RECORD
  5
1
100
AcDbSymbolTable
 70
0
  0
BLOCK_RECORD
  5
211
100
AcDbSymbolTableRecord
100
AcDbBlockTableRecord
  2
*Model_Space
  0
BLOCK_RECORD
  5
212
100
AcDbSymbolTableRecord
100
AcDbBlockTableRecord
  2
*Paper_Space
  0
BLOCK_RECORD
  5
213
100
AcDbSymbolTableRecord
100
AcDbBlockTableRecord
  2
_FILLED
  0
ENDTAB
  0
TABLE
  2
DIMSTYLE
  5
A
100
AcDbSymbolTable
 70
1
100
AcDbDimStyleTable
 71
0
  0
DIMSTYLE
105
214
100
AcDbSymbolTableRecord
100
AcDbDimStyleTableRecord
  2
STANDARD
 70
0
  3

  4

 40
1.0
 41
0.8037237238
 42
1.0
 43
0.38
 44
1.0
 45
0.0
 46
0.0
 47
0.01
 48
0.01
140
1.1252132133
141
0.09
142
0.0
143
25.4
144
1.0
145
0.0
146
1.0
147
0.625
 71
1
 72
0
 73
0
 74
0
 75
0
 76
0
 77
1
 78
8
 79
2
170
0
171
1
172
0
173
0
174
0
175
0
176
0
177
0
178
0
270
2
179
2
271
2
272
2
273
2
274
2
275
0
280
0
281
0
282
0
283
1
284
8
285
0
286
0
287
3
288
0
340
11
278
46
341
213
342
213
343
213
344
213
  0
ENDTAB
  0
ENDSEC
  0
SECTION
  2
BLOCKS
  0
BLOCK
  5
20
100
AcDbEntity
  8
0
100
AcDbBlockBegin
  2
*Model_Space
 70
0
 10
0.0
 20
0.0
 30
0.0
  3
*Model_Space
  1

  0
ENDBLK
  5
21
100
AcDbEntity
  8
0
100
AcDbBlockEnd
  0
BLOCK
  5
1C
100
AcDbEntity
  8
0
100
AcDbBlockBegin
  2
*Paper_Space
 70
0
 10
0.0
 20
0.0
 30
0.0
  3
*Paper_Space
  1

  0
ENDBLK
  5
1D
100
AcDbEntity
  8
0
100
AcDbBlockEnd
  0
BLOCK
  5
215
100
AcDbEntity
  8
0
100
AcDbBlockBegin
  2
_FILLED
 70
64
 10
0.0
 20
0.0
  3
_FILLED
  1

  0
SOLID
  5
216
100
AcDbEntity
  8
0
  6
BYBLOCK
 62
0
100
AcDbTrace
 10
0.0
 20
0.0
 11
-1.0
 21
0.25
 12
-1.0
 22
-0.25
 13
-1.0
 23
-0.25
  0
ENDBLK
  5
217
100
AcDbEntity
  8
0
  6
BYBLOCK
 62
0
100
AcDbBlockEnd
  0
ENDSEC
  0
SECTION
  2
ENTITIES
  0
LINE
  5
218
100
AcDbEntity
  8
0
100
AcDbLine
 62
7
  6
BYLAYER
 10
47.3960245342
 20
16.4603377943
 11
45.3960484707
 21
16.4603377943
  0
LINE
  5
219
100
AcDbEntity
  8
0
100
AcDbLine
 62
7
  6
BYLAYER
 10
43.0627221644
 20
16.6561477033
 11
49.7293655781
 21
16.6561516338
  0
LINE
  5
21A
100
AcDbEntity
  8
0
100
AcDbLine
 62
7
  6
BYLAYER
 10
49.8960322448
 20
16.8533542932
 11
42.8962119489
 21
16.8533542932
  0
LINE
  5
21B
100
AcDbEntity
  8
0
100
AcDbLine
 62
7
  6
BYLAYER
 10
52.3971472301
 20
22.7903377943
 11
40.3949172595
 21
22.7903377943
  0
LINE
  5
21C
100
AcDbEntity
  8
0
100
AcDbLine
 62
7
  6
BYLAYER
 10
52.5398057077
 20
22.8939852451
 11
40.2522587819
 21
22.8939852451
  0
LINE
  5
21D
100
AcDbEntity
  8
0
100
AcDbLine
 62
7
  6
BYLAYER
 10
39.9598310556
 20
23.7939852452
 11
52.832233434
 21
23.7939852452
  0
LINE
  5
21E
100
AcDbEntity
  8
0
100
AcDbLine
 62
7
  6
BYLAYER
 10
40.1024895329
 20
23.9903377943
 11
52.6895749567
 21
23.9903377943
  0
LINE
  5
21F
100
AcDbEntity
  8
0
100
AcDbLine
 62
7
  6
BYLAYER
 10
53.8960322448
 20
25.0103377943
 11
38.8960322448
 21
25.0103377943
  0
LINE
  5
220
100
AcDbEntity
  8
0
100
AcDbLine
 62
7
  6
BYLAYER
 10
54.3960322448
 20
25.5103377943
 11
38.3960322448
 21
25.5103377943
  0
LINE
  5
221
100
AcDbEntity
  8
0
100
AcDbLine
 62
7
  6
BYLAYER
 10
55.7710322448
 20
29.0103377943
 11
37.0210322448
 21
29.0103377943
  0
LINE
  5
222
100
AcDbEntity
  8
0
100
AcDbLine
 62
7
  6
BYLAYER
 10
52.7460322448
 20
29.9603377943
 11
40.0460322448
 21
29.9603377943
  0
LINE
  5
223
100
AcDbEntity
  8
0
100
AcDbLine
 62
7
  6
BYLAYER
 10
37.0210322448
 20
30.5103377943
 11
55.7710322448
 21
30.5103377943
  0
LINE
  5
224
100
AcDbEntity
  8
0
100
AcDbLine
 62
7
  6
BYLAYER
 10
37.0210322448
 20
31.2603377943
 11
42.668898174
 21
31.2603377943
  0
LINE
  5
225
100
AcDbEntity
  8
0
100
AcDbLine
 62
7
  6
BYLAYER
 10
50.1231663116
 20
31.2603377943
 11
55.7710322448
 21
31.2603377943
  0
LINE
  5
226
100
AcDbEntity
  8
0
100
AcDbLine
 62
7
  6
BYLAYER
 10
60.4011758617
 20
37.2616364089
 11
60.6960330605
 21
37.3169467363
  0
LINE
  5
227
100
AcDbEntity
  8
0
100
AcDbLine
 62
7
  6
BYLAYER
 10
32.3908887447
 20
35.7590385576
 11
32.0960315545
 21
35.7037281843
  0
LINE
  5
228
100
AcDbEntity
  8
0
100
AcDbLine
 62
7
  6
BYLAYER
 10
32.3210346865
 20
36.5103376673
 11
31.9647797142
 21
36.5103380206
  0
LINE
  5
229
100
AcDbEntity
  8
0
100
AcDbLine
 62
7
  6
BYLAYER
 10
60.8272841066
 20
36.5103374009
 11
60.4710306835
 21
36.5103381148
  0
LINE
  5
22A
100
AcDbEntity
  8
0
100
AcDbLine
 62
7
  6
BYLAYER
 10
32.0960322445
 20
37.316951083
 11
32.3908893874
 21
37.2616404575
  0
LINE
  5
22B
100
AcDbEntity
  8
0
100
AcDbLine
 62
7
  6
BYLAYER
 10
38.8960322446
 20
25.0103377941
 11
38.396032245
 21
25.5103377946
  0
LINE
  5
22C
100
AcDbEntity
  8
0
100
AcDbLine
 62
7
  6
BYLAYER
 10
60.4011751023
 20
35.7590351317
 11
60.6960322452
 21
35.7037245062
  0
LINE
  5
22D
100
AcDbEntity
  8
0
100
AcDbLine
 62
7
  6
BYLAYER
 10
31.3960322448
 20
28.3203377952
 11
31.3960322448
 21
76.4103377943
  0
LINE
  5
22E
100
AcDbEntity
  8
0
100
AcDbLine
 62
7
  6
BYLAYER
 10
32.0960321217
 20
28.1540849011
 11
32.0960317448
 21
35.7037273183
  0
LINE
  5
22F
100
AcDbEntity
  8
0
100
AcDbLine
 62
7
  6
BYLAYER
 10
32.0960318715
 20
37.3169489036
 11
32.0960320009
 21
72.4453821757
  0
LINE
  5
230
100
AcDbEntity
  8
0
100
AcDbLine
 62
7
  6
BYLAYER
 10
40.2522587819
 20
22.8939852452
 11
39.9598310556
 21
23.7939852452
  0
LINE
  5
231
100
AcDbEntity
  8
0
100
AcDbLine
 62
7
  6
BYLAYER
 10
16.4463283136
 20
76.9217565987
 11
20.188797079
 21
70.53787631
  0
LINE
  5
232
100
AcDbEntity
  8
0
100
AcDbLine
 62
7
  6
BYLAYER
 10
40.7274503348
 20
23.9903377943
 11
40.396032245
 21
25.0103377943
  0
LINE
  5
233
100
AcDbEntity
  8
0
100
AcDbLine
 62
7
  6
BYLAYER
 10
36.3960321915
 20
76.210337798
 11
36.3960321915
 21
76.5103377943
  0
LINE
  5
234
100
AcDbEntity
  8
0
100
AcDbLine
 62
7
  6
BYLAYER
 10
37.0210322448
 20
28.8149962353
 11
37.0210322448
 21
31.4556793505
  0
LINE
  5
235
100
AcDbEntity
  8
0
100
AcDbLine
 62
7
  6
BYLAYER
 10
37.6210322448
 20
29.0103377943
 11
37.6210322448
 21
30.5103377943
  0
LINE
  5
236
100
AcDbEntity
  8
0
100
AcDbLine
 62
7
  6
BYLAYER
 10
38.3960322448
 20
27.027094914
 11
38.3960322448
 21
25.5103377943
  0
LINE
  5
237
100
AcDbEntity
  8
0
100
AcDbLine
 62
7
  6
BYLAYER
 10
40.0460322448
 20
29.9603377943
 11
40.0460322448
 21
30.5103377943
  0
LINE
  5
238
100
AcDbEntity
  8
0
100
AcDbLine
 62
7
  6
BYLAYER
 10
14.3705527778
 20
64.7196320088
 11
7.9866724892
 21
68.4621007742
  0
LINE
  5
239
100
AcDbEntity
  8
0
100
AcDbLine
 62
7
  6
BYLAYER
 10
43.3959188768
 20
30.5103377884
 11
42.4254970556
 21
34.4915934316
  0
LINE
  5
23A
100
AcDbEntity
  8
0
100
AcDbLine
 62
7
  6
BYLAYER
 10
40.8960322448
 20
29.9603377943
 11
40.8960322448
 21
29.0103377943
  0
LINE
  5
23B
100
AcDbEntity
  8
0
100
AcDbLine
 62
7
  6
BYLAYER
 10
42.2960322448
 20
72.9103377943
 11
42.2960322448
 21
74.7103377943
  0
LINE
  5
23C
100
AcDbEntity
  8
0
100
AcDbLine
 62
7
  6
BYLAYER
 10
42.8960322448
 20
22.7903377943
 11
42.8960322448
 21
16.8533542932
  0
LINE
  5
23D
100
AcDbEntity
  8
0
100
AcDbLine
 62
7
  6
BYLAYER
 10
46.3960322321
 20
29.0103377944
 11
46.396032232
 21
28.1683341517
  0
LINE
  5
23E
100
AcDbEntity
  8
0
100
AcDbLine
 62
7
  6
BYLAYER
 10
49.8960322448
 20
16.8533542932
 11
49.8960322448
 21
22.7903377943
  0
LINE
  5
23F
100
AcDbEntity
  8
0
100
AcDbLine
 62
7
  6
BYLAYER
 10
50.4960322448
 20
74.7103377943
 11
50.4960322448
 21
72.9103377943
  0
LINE
  5
240
100
AcDbEntity
  8
0
100
AcDbLine
 62
7
  6
BYLAYER
 10
50.6460322448
 20
74.7103377943
 11
50.6460322448
 21
72.9103377943
  0
LINE
  5
241
100
AcDbEntity
  8
0
100
AcDbLine
 62
7
  6
BYLAYER
 10
51.8960322448
 20
29.0103377943
 11
51.8960322448
 21
29.9603377943
  0
LINE
  5
242
100
AcDbEntity
  8
0
100
AcDbLine
 62
7
  6
BYLAYER
 10
52.7460322448
 20
30.5103377943
 11
52.7460322448
 21
29.9603377943
  0
LINE
  5
243
100
AcDbEntity
  8
0
100
AcDbLine
 62
7
  6
BYLAYER
 10
49.3962647495
 20
30.5103377985
 11
50.3665747387
 21
34.4915381331
  0
LINE
  5
244
100
AcDbEntity
  8
0
100
AcDbLine
 62
7
  6
BYLAYER
 10
54.3960322448
 20
25.5103377943
 11
54.3960322448
 21
27.027094914
  0
LINE
  5
245
100
AcDbEntity
  8
0
100
AcDbLine
 62
7
  6
BYLAYER
 10
55.1710322448
 20
29.0103377943
 11
55.1710322448
 21
30.5103377943
  0
LINE
  5
246
100
AcDbEntity
  8
0
100
AcDbLine
 62
7
  6
BYLAYER
 10
55.7710322448
 20
31.4556793505
 11
55.7710322448
 21
28.8149962353
  0
LINE
  5
247
100
AcDbEntity
  8
0
100
AcDbLine
 62
7
  6
BYLAYER
 10
52.0646141548
 20
23.9903377943
 11
52.3960322446
 21
25.0103377943
  0
LINE
  5
248
100
AcDbEntity
  8
0
100
AcDbLine
 62
7
  6
BYLAYER
 10
52.5398057077
 20
22.8939852452
 11
52.832233434
 21
23.7939852452
  0
LINE
  5
249
100
AcDbEntity
  8
0
100
AcDbLine
 62
7
  6
BYLAYER
 10
50.6460322448
 20
72.9103377943
 11
42.2960322448
 21
72.9103377943
  0
LINE
  5
24A
100
AcDbEntity
  8
0
100
AcDbLine
 62
7
  6
BYLAYER
 10
60.1960322565
 20
76.210337798
 11
60.1960322565
 21
76.5103377943
  0
LINE
  5
24B
100
AcDbEntity
  8
0
100
AcDbLine
 62
7
  6
BYLAYER
 10
60.696033133
 20
75.9903257376
 11
60.6960329119
 21
37.3169476526
  0
LINE
  5
24C
100
AcDbEntity
  8
0
100
AcDbLine
 62
7
  6
BYLAYER
 10
60.6960322457
 20
35.7037245077
 11
60.696032245
 21
28.1540848726
  0
LINE
  5
24D
100
AcDbEntity
  8
0
100
AcDbLine
 62
7
  6
BYLAYER
 10
61.3960322448
 20
28.3203377924
 11
61.3960322448
 21
76.4103377943
  0
LINE
  5
24E
100
AcDbEntity
  8
0
100
AcDbLine
 62
7
  6
BYLAYER
 10
42.2960322448
 20
74.7103377943
 11
50.6460322448
 21
74.7103377943
  0
LINE
  5
24F
100
AcDbEntity
  8
0
100
AcDbLine
 62
7
  6
BYLAYER
 10
54.3960322446
 20
25.5103377946
 11
53.896032245
 21
25.0103377941
  0
LINE
  5
250
100
AcDbEntity
  8
0
100
AcDbLine
 62
7
  6
BYLAYER
 10
36.3960321959
 20
76.2103377992
 11
60.1960322454
 21
76.2103377968
  0
LINE
  5
251
100
AcDbEntity
  8
0
100
AcDbLine
 62
7
  6
BYLAYER
 10
31.3960322448
 20
76.4103377943
 11
35.4193837687
 21
76.4103377943
  0
LINE
  5
252
100
AcDbEntity
  8
0
100
AcDbLine
 62
7
  6
BYLAYER
 10
60.6755377528
 20
76.4103377943
 11
61.3960322448
 21
76.4103377943
  0
LINE
  5
253
100
AcDbEntity
  8
0
100
AcDbLine
 62
7
  6
BYLAYER
 10
60.1960322802
 20
76.5103377943
 11
36.3960322033
 21
76.5103377943
  0
ARC
  5
254
100
AcDbEntity
  8
0
100
AcDbCircle
 62
7
  6
BYLAYER
 10
46.3740509002
 20
-36.4245273277
 40
68.5275578924
100
AcDbArc
 50
82.1183651065
 51
86.6420030188
  0
ARC
  5
255
100
AcDbEntity
  8
0
100
AcDbCircle
 62
7
  6
BYLAYER
 10
43.0960322448
 20
16.8533542932
 40
0.2
100
AcDbArc
 50
180.0
 51
260.412687736
  0
ARC
  5
256
100
AcDbEntity
  8
0
100
AcDbCircle
 62
7
  6
BYLAYER
 10
40.3949172595
 20
22.9403377943
 40
0.15
100
AcDbArc
 50
198.0000000015
 51
270.0
  0
ARC
  5
257
100
AcDbEntity
  8
0
100
AcDbCircle
 62
7
  6
BYLAYER
 10
40.1024895329
 20
23.8403377943
 40
0.15
100
AcDbArc
 50
90.0
 51
198.0000000015
  0
ARC
  5
258
100
AcDbEntity
  8
0
100
AcDbCircle
 62
7
  6
BYLAYER
 10
46.390463486
 20
96.531103914
 40
68.3627699891
100
AcDbArc
 50
270.0046672416
 51
277.8868688019
  0
ARC
  5
259
100
AcDbEntity
  8
0
100
AcDbCircle
 62
7
  6
BYLAYER
 10
46.3960322448
 20
89.9203377943
 40
63.4
100
AcDbArc
 50
256.3144531746
 51
283.6855468252
  0
ARC
  5
25A
100
AcDbEntity
  8
0
100
AcDbCircle
 62
7
  6
BYLAYER
 10
28.4323431434
 20
56.4760859445
 40
23.7
100
AcDbArc
 50
120.3804226092
 51
149.6195773909
  0
ARC
  5
25B
100
AcDbEntity
  8
0
100
AcDbCircle
 62
7
  6
BYLAYER
 10
25.9036480316
 20
60.7895185719
 40
18.7
100
AcDbArc
 50
57.1034724927
 51
120.3804226092
  0
ARC
  5
25C
100
AcDbEntity
  8
0
100
AcDbCircle
 62
7
  6
BYLAYER
 10
23.9381376322
 20
31.072814075
 40
18.488439574
100
AcDbArc
 50
0.5811473771
 51
2.8291293865
  0
ARC
  5
25D
100
AcDbEntity
  8
0
100
AcDbCircle
 62
7
  6
BYLAYER
 10
28.4323431434
 20
56.4760859445
 40
16.3
100
AcDbArc
 50
120.3804226092
 51
149.6195773909
  0
ARC
  5
25E
100
AcDbEntity
  8
0
100
AcDbCircle
 62
7
  6
BYLAYER
 10
45.3960322449
 20
30.4603377947
 40
14.0000000003
100
AcDbArc
 50
260.406028287
 51
270.0000664053
  0
ARC
  5
25F
100
AcDbEntity
  8
0
100
AcDbCircle
 62
7
  6
BYLAYER
 10
25.9036480316
 20
60.7895185719
 40
11.3
100
AcDbArc
 50
58.1000115624
 51
120.3804226092
  0
ARC
  5
260
100
AcDbEntity
  8
0
100
AcDbCircle
 62
7
  6
BYLAYER
 10
36.3960322448
 20
71.5103377943
 40
5.0
100
AcDbArc
 50
90.0000003736
 51
180.0001033889
  0
ARC
  5
261
100
AcDbEntity
  8
0
100
AcDbCircle
 62
7
  6
BYLAYER
 10
36.5966368141
 20
71.887896248
 40
4.5350034972
100
AcDbArc
 50
154.7208601211
 51
172.9387907002
  0
ARC
  5
262
100
AcDbEntity
  8
0
100
AcDbCircle
 62
7
  6
BYLAYER
 10
36.3960322448
 20
36.5103377943
 40
4.375
100
AcDbArc
 50
190.6242940703
 51
169.3756974739
  0
CIRCLE
  5
263
100
AcDbEntity
  8
0
100
AcDbCircle
 62
7
  6
BYLAYER
 10
36.3960322448
 20
36.5103377943
 40
4.075
  0
CIRCLE
  5
264
100
AcDbEntity
  8
0
100
AcDbCircle
 62
7
  6
BYLAYER
 10
36.3960322448
 20
36.5103377943
 40
2.125
  0
ARC
  5
265
100
AcDbEntity
  8
0
100
AcDbCircle
 62
7
  6
BYLAYER
 10
46.4348945182
 20
-36.5960813999
 40
68.6998065423
100
AcDbArc
 50
93.3636708982
 51
97.8759609764
  0
ARC
  5
266
100
AcDbEntity
  8
0
100
AcDbCircle
 62
7
  6
BYLAYER
 10
49.6960322448
 20
16.8533542932
 40
0.2
100
AcDbArc
 50
279.5873119112
 51
360.0
  0
ARC
  5
267
100
AcDbEntity
  8
0
100
AcDbCircle
 62
7
  6
BYLAYER
 10
52.3971472301
 20
22.9403377943
 40
0.15
100
AcDbArc
 50
270.0
 51
341.9999999985
  0
ARC
  5
268
100
AcDbEntity
  8
0
100
AcDbCircle
 62
7
  6
BYLAYER
 10
52.6895749567
 20
23.8403377943
 40
0.15
100
AcDbArc
 50
341.9999999985
 51
90.0
  0
ARC
  5
269
100
AcDbEntity
  8
0
100
AcDbCircle
 62
7
  6
BYLAYER
 10
46.4016010037
 20
96.5311039147
 40
68.3627699898
100
AcDbArc
 50
262.1131311981
 51
269.9953327346
  0
ARC
  5
26A
100
AcDbEntity
  8
0
100
AcDbCircle
 62
7
  6
BYLAYER
 10
68.8542917309
 20
31.0728047401
 40
18.4888045143
100
AcDbArc
 50
177.1708574355
 51
179.4188348419
  0
ARC
  5
26B
100
AcDbEntity
  8
0
100
AcDbCircle
 62
7
  6
BYLAYER
 10
47.3960322448
 20
30.4603377947
 40
14.0000000003
100
AcDbArc
 50
270.0
 51
279.5940682267
  0
ARC
  5
26C
100
AcDbEntity
  8
0
100
AcDbCircle
 62
7
  6
BYLAYER
 10
56.3960322448
 20
36.5103377943
 40
4.375
100
AcDbArc
 50
10.6242857144
 51
349.3756685481
  0
CIRCLE
  5
26D
100
AcDbEntity
  8
0
100
AcDbCircle
 62
7
  6
BYLAYER
 10
56.3960322448
 20
36.5103377943
 40
4.075
  0
CIRCLE
  5
26E
100
AcDbEntity
  8
0
100
AcDbCircle
 62
7
  6
BYLAYER
 10
56.3960322448
 20
36.5103377943
 40
2.125
  0
ARC
  5
26F
100
AcDbEntity
  8
0
100
AcDbCircle
 62
7
  6
BYLAYER
 10
60.1960322448
 20
75.3103377943
 40
1.2
100
AcDbArc
 50
359.9999890715
 51
89.9999982143
  0
SPLINE
  5
270
100
AcDbEntity
  8
0
100
AcDbSpline
 62
7
  6
BYLAYER
 70
0
 71
3
 72
9
 73
5
 74
0
 42
0.0000001
 43
0.0000001
 44
0.0000000001
 40
0.0
 40
0.0
 40
0.0
 40
0.0
 40
0.4999893948
 40
1.0
 40
1.0
 40
1.0
 40
1.0
 10
60.8272822437
 20
36.5103374866
 30
0.0
 10
60.8272749892
 20
36.3737046368
 30
0.0
 10
60.8046437972
 20
36.0999832391
 30
0.0
 10
60.7386800197
 20
35.833537015
 30
0.0
 10
60.6960322448
 20
35.7037245082
 30
0.0
  0
SPLINE
  5
271
100
AcDbEntity
  8
0
100
AcDbSpline
 62
7
  6
BYLAYER
 70
0
 71
3
 72
9
 73
5
 74
0
 42
0.0000001
 43
0.0000001
 44
0.0000000001
 40
0.0
 40
0.0
 40
0.0
 40
0.0
 40
0.5000087349
 40
1.0
 40
1.0
 40
1.0
 40
1.0
 10
60.6960322448
 20
37.3169503288
 30
0.0
 10
60.7386732531
 20
37.1871355814
 30
0.0
 10
60.804689367
 20
36.9206999546
 30
0.0
 10
60.8272722775
 20
36.6469713753
 30
0.0
 10
60.8272822437
 20
36.5103374866
 30
0.0
  0
SPLINE
  5
272
100
AcDbEntity
  8
0
100
AcDbSpline
 62
7
  6
BYLAYER
 70
0
 71
3
 72
15
 73
11
 74
0
 42
0.0000001
 43
0.0000001
 44
0.0000000001
 40
0.0
 40
0.0
 40
0.0
 40
0.0
 40
0.0629633252
 40
0.149342461
 40
0.2581861294
 40
0.3854994327
 40
0.5269280996
 40
0.6785826702
 40
0.8374726529
 40
1.0
 40
1.0
 40
1.0
 40
1.0
 10
61.3960322448
 20
75.3103373155
 30
0.0
 10
61.3960322133
 20
75.331170776
 30
0.0
 10
61.3790756674
 20
75.3796376061
 30
0.0
 10
61.3316629218
 20
75.450535088
 30
0.0
 10
61.261973568
 20
75.5317757209
 30
0.0
 10
61.1741114943
 20
75.6206043
 30
0.0
 10
61.0716673793
 20
75.7147858743
 30
0.0
 10
60.9569749035
 20
75.8108927507
 30
0.0
 10
60.8302409683
 20
75.9029538443
 30
0.0
 10
60.7412647741
 20
75.9612398556
 30
0.0
 10
60.6960322448
 20
75.9903264917
 30
0.0
  0
SPLINE
  5
273
100
AcDbEntity
  8
0
100
AcDbSpline
 62
7
  6
BYLAYER
 70
0
 71
3
 72
17
 73
13
 74
0
 42
0.0000001
 43
0.0000001
 44
0.0000000001
 40
0.0
 40
0.0
 40
0.0
 40
0.0
 40
0.0202782366
 40
0.0424360865
 40
0.0692646005
 40
0.1029501044
 40
0.1952517717
 40
0.320692205
 40
0.4749190881
 40
0.6473068125
 40
0.8258287483
 40
1.0
 40
1.0
 40
1.0
 40
1.0
 10
60.9068942782
 20
76.277123722
 30
0.0
 10
60.9089266993
 20
76.2756292688
 30
0.0
 10
60.9126130464
 20
76.2716172642
 30
0.0
 10
60.9154821889
 20
76.2632881409
 30
0.0
 10
60.9155988635
 20
76.2528803909
 30
0.0
 10
60.9115406923
 20
76.2342019504
 30
0.0
 10
60.8977729564
 20
76.2057735394
 30
0.0
 10
60.8720915329
 20
76.1672464656
 30
0.0
 10
60.8362765698
 20
76.1237695061
 30
0.0
 10
60.7932400756
 20
76.0779419894
 30
0.0
 10
60.7458708666
 20
76.032915727
 30
0.0
 10
60.7127077615
 20
76.0041626411
 30
0.0
 10
60.69602433
 20
75.9903366328
 30
0.0
  0
SPLINE
  5
274
100
AcDbEntity
  8
0
100
AcDbSpline
 62
7
  6
BYLAYER
 70
0
 71
3
 72
18
 73
14
 74
0
 42
0.0000001
 43
0.0000001
 44
0.0000000001
 40
0.0
 40
0.0
 40
0.0
 40
0.0
 40
0.1783663033
 40
0.3607418711
 40
0.5365372642
 40
0.6936651426
 40
0.8211409903
 40
0.8719917421
 40
0.9136324181
 40
0.9459374315
 40
0.9697920864
 40
0.9868270512
 40
1.0
 40
1.0
 40
1.0
 40
1.0
 10
60.5633444511
 20
76.1117179379
 30
0.0
 10
60.5739431695
 20
76.1279104043
 30
0.0
 10
60.5949314881
 20
76.1609543938
 30
0.0
 10
60.6247528458
 20
76.2109606175
 30
0.0
 10
60.6517222495
 20
76.2599518377
 30
0.0
 10
60.6740309208
 20
76.3046627275
 30
0.0
 10
60.6883433036
 20
76.3381737336
 30
0.0
 10
60.6960537901
 20
76.3607740685
 30
0.0
 10
60.6995792828
 20
76.3738586019
 30
0.0
 10
60.7013142788
 20
76.3843619449
 30
0.0
 10
60.7013521605
 20
76.3923349375
 30
0.0
 10
60.6998345498
 20
76.3981563898
 30
0.0
 10
60.6973313584
 20
76.4006134829
 30
0.0
 10
60.6960320708
 20
76.4012090083
 30
0.0
  0
SPLINE
  5
275
100
AcDbEntity
  8
0
100
AcDbSpline
 62
7
  6
BYLAYER
 70
0
 71
3
 72
9
 73
5
 74
0
 42
0.0000001
 43
0.0000001
 44
0.0000000001
 40
0.0
 40
0.0
 40
0.0
 40
0.0
 40
0.5005242236
 40
1.0
 40
1.0
 40
1.0
 40
1.0
 10
60.1960322454
 20
76.2103377968
 30
0.0
 10
60.2601413639
 20
76.2101224066
 30
0.0
 10
60.3886951597
 20
76.1964569063
 30
0.0
 10
60.5099228402
 20
76.1469165943
 30
0.0
 10
60.5633445233
 20
76.1117178906
 30
0.0
  0
SPLINE
  5
276
100
AcDbEntity
  8
0
100
AcDbSpline
 62
7
  6
BYLAYER
 70
0
 71
3
 72
18
 73
14
 74
0
 42
0.0000001
 43
0.0000001
 44
0.0000000001
 40
0.0
 40
0.0
 40
0.0
 40
0.0
 40
0.0098731979
 40
0.0261003314
 40
0.0506551242
 40
0.0839261037
 40
0.1257834005
 40
0.1759045996
 40
0.2992592211
 40
0.4493803794
 40
0.6206694859
 40
0.8067987605
 40
1.0
 40
1.0
 40
1.0
 40
1.0
 10
32.0960320347
 20
74.0618075569
 30
0.0
 10
32.0952432028
 20
74.0604781371
 30
0.0
 10
32.0957423244
 20
74.0558484949
 30
0.0
 10
32.1005245056
 20
74.0495260492
 30
0.0
 10
32.1086227621
 20
74.0411714593
 30
0.0
 10
32.1206880695
 20
74.0312484834
 30
0.0
 10
32.1364669872
 20
74.0195958671
 30
0.0
 10
32.164394647
 20
74.000695745
 30
0.0
 10
32.2075874139
 20
73.9741751872
 30
0.0
 10
32.268139929
 20
73.9397711456
 30
0.0
 10
32.3382333101
 20
73.9023161985
 30
0.0
 10
32.4151132
 20
73.8632968807
 30
0.0
 10
32.4685698952
 20
73.8374086731
 30
0.0
 10
32.4959137738
 20
73.8244728842
 30
0.0
  0
SPLINE
  5
277
100
AcDbEntity
  8
0
100
AcDbSpline
 62
7
  6
BYLAYER
 70
0
 71
3
 72
19
 73
15
 74
0
 42
0.0000001
 43
0.0000001
 44
0.0000000001
 40
0.0
 40
0.0
 40
0.0
 40
0.0
 40
0.18030466
 40
0.3648030703
 40
0.5424087242
 40
0.7009931863
 40
0.7696963073
 40
0.8299017961
 40
0.8808996016
 40
0.9223214536
 40
0.9541610972
 40
0.9768223193
 40
0.9912485927
 40
1.0
 40
1.0
 40
1.0
 40
1.0
 10
32.0960299681
 20
72.4453660967
 30
0.0
 10
32.0599230729
 20
72.4498330274
 30
0.0
 10
31.9869415872
 20
72.4594651428
 30
0.0
 10
31.878693995
 20
72.4756757405
 30
0.0
 10
31.775119039
 20
72.4933547676
 30
0.0
 10
31.6949429359
 20
72.5091389178
 30
0.0
 10
31.6383616711
 20
72.5219572143
 30
0.0
 10
31.6031503825
 20
72.530802012
 30
0.0
 10
31.5735092469
 20
72.5391895113
 30
0.0
 10
31.5496909229
 20
72.547040588
 30
0.0
 10
31.5316579317
 20
72.5541398771
 30
0.0
 10
31.5193435685
 20
72.5606835751
 30
0.0
 10
31.5118440132
 20
72.5661734203
 30
0.0
 10
31.5098112285
 20
72.5710306584
 30
0.0
 10
31.5101669487
 20
72.5727603316
 30
0.0
  0
SPLINE
  5
278
100
AcDbEntity
  8
0
100
AcDbSpline
 62
7
  6
BYLAYER
 70
0
 71
3
 72
17
 73
13
 74
0
 42
0.0000001
 43
0.0000001
 44
0.0000000001
 40
0.0
 40
0.0
 40
0.0
 40
0.0
 40
0.026251298
 40
0.0604050626
 40
0.1025326228
 40
0.1519146969
 40
0.2677774539
 40
0.3996461107
 40
0.5420509119
 40
0.6912933834
 40
0.84477085
 40
1.0
 40
1.0
 40
1.0
 40
1.0
 10
31.3960322448
 20
71.5103262095
 30
0.0
 10
31.3960322389
 20
71.5206019293
 30
0.0
 10
31.4013380586
 20
71.5440948133
 30
0.0
 10
31.4174427846
 20
71.5808721932
 30
0.0
 10
31.4415390238
 20
71.623841573
 30
0.0
 10
31.4852564421
 20
71.6922510569
 30
0.0
 10
31.5534358153
 20
71.7865679741
 30
0.0
 10
31.6471291275
 20
71.907162082
 30
0.0
 10
31.7511934566
 20
72.0362226408
 30
0.0
 10
31.862316939
 20
72.1704314617
 30
0.0
 10
31.9784251665
 20
72.3070079366
 30
0.0
 10
32.0568155939
 20
72.3989699515
 30
0.0
 10
32.0960322448
 20
72.4453824577
 30
0.0
  0
SPLINE
  5
279
100
AcDbEntity
  8
0
100
AcDbSpline
 62
7
  6
BYLAYER
 70
0
 71
3
 72
9
 73
5
 74
0
 42
0.0000001
 43
0.0000001
 44
0.0000000001
 40
0.0
 40
0.0
 40
0.0
 40
0.0
 40
0.4999912719
 40
1.0
 40
1.0
 40
1.0
 40
1.0
 10
31.9647822453
 20
36.5103380239
 30
0.0
 10
31.9647922425
 20
36.6469720846
 30
0.0
 10
31.9873756601
 20
36.9207009066
 30
0.0
 10
32.0533909517
 20
37.1871371067
 30
0.0
 10
32.0960322448
 20
37.3169519377
 30
0.0
  0
SPLINE
  5
27A
100
AcDbEntity
  8
0
100
AcDbSpline
 62
7
  6
BYLAYER
 70
0
 71
3
 72
9
 73
5
 74
0
 42
0.0000001
 43
0.0000001
 44
0.0000000001
 40
0.0
 40
0.0
 40
0.0
 40
0.0
 40
0.500011238
 40
1.0
 40
1.0
 40
1.0
 40
1.0
 10
32.0960322448
 20
35.7037251654
 30
0.0
 10
32.0533941117
 20
35.8335408069
 30
0.0
 10
31.9874280585
 20
36.0999846559
 30
0.0
 10
31.9647924649
 20
36.373705551
 30
0.0
 10
31.9647822453
 20
36.5103380239
 30
0.0
  0
SPLINE
  5
27B
100
AcDbEntity
  8
0
100
AcDbSpline
 62
7
  6
BYLAYER
 70
0
 71
3
 72
9
 73
5
 74
0
 42
0.0000001
 43
0.0000001
 44
0.0000000001
 40
0.0
 40
0.0
 40
0.0
 40
0.0
 40
0.4999942332
 40
1.0
 40
1.0
 40
1.0
 40
1.0
 10
42.6688989148
 20
31.2603375795
 30
0.0
 10
42.6421332632
 20
31.1360698174
 30
0.0
 10
42.5946796749
 20
30.8862401937
 30
0.0
 10
42.5515609169
 20
30.6356918526
 30
0.0
 10
42.5304426217
 20
30.5103377943
 30
0.0
  0
SPLINE
  5
27C
100
AcDbEntity
  8
0
100
AcDbSpline
 62
7
  6
BYLAYER
 70
0
 71
3
 72
9
 73
5
 74
0
 42
0.0000001
 43
0.0000001
 44
0.0000000001
 40
0.0
 40
0.0
 40
0.0
 40
0.0
 40
0.5000057665
 40
1.0
 40
1.0
 40
1.0
 40
1.0
 10
50.2616219318
 20
30.5103377943
 30
0.0
 10
50.2405036336
 20
30.6356918523
 30
0.0
 10
50.1973838666
 20
30.8862400141
 30
0.0
 10
50.1499311976
 20
31.1360698117
 30
0.0
 10
50.12316557
 20
31.2603375793
 30
0.0
  0
SPLINE
  5
27D
100
AcDbEntity
  8
0
100
AcDbSpline
 62
7
  6
BYLAYER
 70
0
 71
3
 72
15
 73
11
 74
0
 42
0.0000001
 43
0.0000001
 44
0.0000000001
 40
0.0
 40
0.0
 40
0.0
 40
0.0
 40
0.1249576149
 40
0.2499973005
 40
0.3750001374
 40
0.5000177914
 40
0.6250055109
 40
0.7499756246
 40
0.8750759342
 40
1.0
 40
1.0
 40
1.0
 40
1.0
 10
36.3960321959
 20
76.2103377992
 30
0.0
 10
36.1953398221
 20
76.2089931273
 30
0.0
 10
35.7934924533
 20
76.1822078468
 30
0.0
 10
35.2010238779
 20
76.0645046208
 30
0.0
 10
34.6300308092
 20
75.8665341059
 30
0.0
 10
34.0918348465
 20
75.5918584558
 30
0.0
 10
33.5973890136
 20
75.2443991961
 30
0.0
 10
33.1581862169
 20
74.8290447977
 30
0.0
 10
32.7824384275
 20
74.3558842655
 30
0.0
 10
32.5810891508
 20
74.0061395197
 30
0.0
 10
32.4959137738
 20
73.8244728842
 30
0.0
  0
SPLINE
  5
27E
100
AcDbEntity
  8
0
100
AcDbSpline
 62
7
  6
BYLAYER
 70
0
 71
3
 72
9
 73
5
 74
0
 42
0.0000001
 43
0.0000001
 44
0.0000000001
 40
0.0
 40
0.0
 40
0.0
 40
0.0
 40
0.2485823363
 40
1.0
 40
1.0
 40
1.0
 40
1.0
 10
60.6960331087
 20
75.9903257175
 30
0.0
 10
60.6865064378
 20
76.0018216978
 30
0.0
 10
60.6468973817
 20
76.0469429328
 30
0.0
 10
60.6011059064
 20
76.0870006914
 30
0.0
 10
60.5633444667
 20
76.1117178041
 30
0.0
  0
SPLINE
  5
27F
100
AcDbEntity
  8
0
100
AcDbSpline
 62
7
  6
BYLAYER
 70
0
 71
3
 72
9
 73
5
 74
0
 42
0.0000001
 43
0.0000001
 44
0.0000000001
 40
0.0
 40
0.0
 40
0.0
 40
0.0
 40
0.5004521756
 40
1.0
 40
1.0
 40
1.0
 40
1.0
 10
50.3665747975
 20
34.4915381385
 30
0.0
 10
50.4051831813
 20
34.0750559285
 30
0.0
 10
50.4262159489
 20
33.2378631272
 30
0.0
 10
50.3979967934
 20
32.402751224
 30
0.0
 10
50.3880214979
 20
31.9853583428
 30
0.0
  0
SPLINE
  5
280
100
AcDbEntity
  8
0
100
AcDbSpline
 62
7
  6
BYLAYER
 70
0
 71
3
 72
35
 73
31
 74
0
 42
0.0000001
 43
0.0000001
 44
0.0000000001
 40
0.0
 40
0.0
 40
0.0
 40
0.0
 40
0.0602895164
 40
0.1223969586
 40
0.154664078
 40
0.1878685544
 40
0.2216712778
 40
0.2556820217
 40
0.2895192399
 40
0.3228239732
 40
0.3552766565
 40
0.386619512
 40
0.4166878195
 40
0.4454535483
 40
0.4730827463
 40
0.4999997705
 40
0.5269168532
 40
0.5545461935
 40
0.5833121062
 40
0.6133806061
 40
0.6447236388
 40
0.6771764673
 40
0.7104813031
 40
0.7443185737
 40
0.7783293154
 40
0.8121319799
 40
0.8453363403
 40
0.8776033152
 40
0.9397105695
 40
1.0
 40
1.0
 40
1.0
 40
1.0
 10
42.4254954279
 20
34.4915999102
 30
0.0
 10
42.4518049155
 20
34.775389191
 30
0.0
 10
42.5317081544
 20
35.3496490296
 30
0.0
 10
42.7202912609
 20
36.0584872661
 30
0.0
 10
42.9363496076
 20
36.6220645271
 30
0.0
 10
43.1355528861
 20
37.0474241789
 30
0.0
 10
43.3670339002
 20
37.4655147118
 30
0.0
 10
43.6278007052
 20
37.8695839923
 30
0.0
 10
43.9146144551
 20
38.2527056946
 30
0.0
 10
44.2242997206
 20
38.6079622938
 30
0.0
 10
44.5537189987
 20
38.9284582589
 30
0.0
 10
44.8998337236
 20
39.2073068229
 30
0.0
 10
45.2597554826
 20
39.4375835056
 30
0.0
 10
45.6308243473
 20
39.612186881
 30
0.0
 10
46.0104731894
 20
39.7236067114
 30
0.0
 10
46.39606055
 20
39.7635321327
 30
0.0
 10
46.78164734
 20
39.7235953763
 30
0.0
 10
47.1612951102
 20
39.6121657859
 30
0.0
 10
47.532362531
 20
39.4375537126
 30
0.0
 10
47.8922824711
 20
39.2072694182
 30
0.0
 10
48.2383949696
 20
38.9284142565
 30
0.0
 10
48.5678115864
 20
38.6079127038
 30
0.0
 10
48.8774937376
 20
38.2526515238
 30
0.0
 10
49.1643039102
 20
37.8695262512
 30
0.0
 10
49.4250666695
 20
37.4654544126
 30
0.0
 10
49.6565431709
 20
37.0473623385
 30
0.0
 10
49.8557415104
 20
36.6220020344
 30
0.0
 10
50.0717930403
 20
36.0584244302
 30
0.0
 10
50.2603686778
 20
35.3495863191
 30
0.0
 10
50.3402672127
 20
34.7753271877
 30
0.0
 10
50.3665747883
 20
34.4915381377
 30
0.0
  0
SPLINE
  5
281
100
AcDbEntity
  8
0
100
AcDbSpline
 62
7
  6
BYLAYER
 70
0
 71
3
 72
9
 73
5
 74
0
 42
0.0000001
 43
0.0000001
 44
0.0000000001
 40
0.0
 40
0.0
 40
0.0
 40
0.0
 40
0.4995477556
 40
1.0
 40
1.0
 40
1.0
 40
1.0
 10
42.4040429942
 20
31.9853583428
 30
0.0
 10
42.3940674566
 20
32.4027614816
 30
0.0
 10
42.3658474014
 20
33.2378939998
 30
0.0
 10
42.3868833669
 20
34.0751076024
 30
0.0
 10
42.4254954766
 20
34.4915999057
 30
0.0
  0
ENDSEC
  0
SECTION
  2
OBJECTS
  0
DICTIONARY
  5
C
100
AcDbDictionary
280
0
281
1
  3
ACAD_GROUP
350
D
  3
ACAD_MLINESTYLE
350
17
  3
ACAD_LAYOUT
350
1A
  3
ACAD_PLOTSETTINGS
350
19
  3
ACAD_PLOTSTYLENAME
350
E
  0
DICTIONARY
  5
D
102
{ACAD_REACTORS
330
C
102
}
100
AcDbDictionary
280
0
281
1
  0
ACDBDICTIONARYWDFLT
  5
E
102
{ACAD_REACTORS
330
C
102
}
100
AcDbDictionary
281
1
  3
Normal
350
F
100
AcDbDictionaryWithDefault
340
F
  0
DICTIONARY
  5
17
102
{ACAD_REACTORS
330
C
102
}
100
AcDbDictionary
280
0
281
1
  3
Standard
350
18
  0
DICTIONARY
  5
19
102
{ACAD_REACTORS
330
C
102
}
100
AcDbDictionary
281
1
  0
DICTIONARY
  5
1A
102
{ACAD_REACTORS
330
C
102
}
100
AcDbDictionary
281
1
  3
Model
350
282
  3
Layout1
350
283
  0
ACDBPLACEHOLDER
  5
F
102
{ACAD_REACTORS
330
E
102
}
  0
MLINESTYLE
  5
18
102
{ACAD_REACTORS
330
17
102
}
100
AcDbMlineStyle
  2
STANDARD
 70
0
  3

 62
256
 51
90.0
 52
90.0
 71
2
 49
0.5
 62
256
  6
BYLAYER
 49
-0.5
 62
256
  6
BYLAYER
  0
LAYOUT
  5
282
102
{ACAD_REACTORS
330
1A
102
}
100
AcDbPlotSettings
  1

  2
none_device
  4

  6

 40
0.0
 41
0.0
 42
0.0
 43
0.0
 44
210.0
 45
297.0
 46
0.0
 47
0.0
 48
0.0
 49
0.0
140
0.0
141
0.0
142
1.0
143
1.0
 70
1024
 72
1
 73
0
 74
0
  7

 75
0
147
1.0
148
0.0
149
0.0
100
AcDbLayout
  1
Model
 70
0
 71
0
 10
0.0
 20
0.0
 11
210.0
 21
297.0
 12
0.0
 22
0.0
 32
0.0
 14
0.0
 24
0.0
 34
0.0
 15
0.0
 25
0.0
 35
0.0
146
0.0
 13
0.0
 23
0.0
 33
0.0
 16
1.0
 26
0.0
 36
0.0
 17
0.0
 27
1.0
 37
0.0
 76
0
330
211
345
0
346
0
  0
LAYOUT
  5
283
102
{ACAD_REACTORS
330
1A
102
}
100
AcDbPlotSettings
  1

  2
none_device
  4

  6

 40
0.0
 41
0.0
 42
0.0
 43
0.0
 44
210.0
 45
297.0
 46
0.0
 47
0.0
 48
0.0
 49
0.0
140
0.0
141
0.0
142
1.0
143
1.0
 70
0
 72
1
 73
0
 74
0
  7

 75
0
147
1.0
148
0.0
149
0.0
100
AcDbLayout
  1
Layout1
 70
0
 71
1
 10
0.0
 20
0.0
 11
210.0
 21
297.0
 12
0.0
 22
0.0
 32
0.0
 14
0.0
 24
0.0
 34
0.0
 15
0.0
 25
0.0
 35
0.0
146
0.0
 13
0.0
 23
0.0
 33
0.0
 16
1.0
 26
0.0
 36
0.0
 17
0.0
 27
1.0
 37
0.0
 76
0
330
212
345
0
346
0
  0
ENDSEC
  0
EOF
