  0
SECTION
  2
HEADER
  9
$ACADVER
  1
AC1009
  9
$DWGCODEPAGE
  3
ansi_1250
  9
$INSBASE
 10
0.0
 20
0.0
 30
0.0
  9
$EXTMIN
 10
-3.61
 20
-1.67
 30
0.0
  9
$EXTMAX
 10
0.025
 20
1.67
 30
0.0
  9
$LIMMIN
 10
0.0
 20
0.0
  9
$LIMMAX
 10
0.0
 20
0.0
  9
$ORTHOMODE
 70
     0
  9
$REGENMODE
 70
     1
  9
$FILLMODE
 70
     1
  9
$QTEXTMODE
 70
     0
  9
$MIRRTEXT
 70
     1
  9
$DRAGMODE
 70
     2
  9
$LTSCALE
 40
1.0
  9
$OSMODE
 70
     0
  9
$ATTMODE
 70
     1
  9
$TEXTSIZE
 40
0.2
  9
$TRACEWID
 40
0.05
  9
$TEXTSTYLE
  7
STANDARD
  9
$CLAYER
  8
0
  9
$CELTYPE
  6
CONTINUOUS
  9
$CECOLOR
 62
   256
  9
$DIMSCALE
 40
1.0
  9
$DIMASZ
 40
0.18
  9
$DIMEXO
 40
0.0625
  9
$DIMDLI
 40
0.38
  9
$DIMRND
 40
0.0
  9
$DIMDLE
 40
0.0
  9
$DIMEXE
 40
0.18
  9
$DIMTP
 40
0.0
  9
$DIMTM
 40
0.0
  9
$DIMTXT
 40
0.18
  9
$DIMCEN
 40
0.09
  9
$DIMTSZ
 40
0.0
  9
$DIMTOL
 70
     0
  9
$DIMLIM
 70
     0
  9
$DIMTIH
 70
     1
  9
$DIMTOH
 70
     1
  9
$DIMSE1
 70
     0
  9
$DIMSE2
 70
     0
  9
$DIMTAD
 70
     0
  9
$DIMZIN
 70
     0
  9
$DIMBLK
  1

  9
$DIMASO
 70
     1
  9
$DIMSHO
 70
     1
  9
$DIMPOST
  1

  9
$DIMAPOST
  1

  9
$DIMALT
 70
     0
  9
$DIMALTD
 70
     2
  9
$DIMALTF
 40
25.4
  9
$DIMLFAC
 40
1.0
  9
$DIMTOFL
 70
     0
  9
$DIMTVP
 40
0.0
  9
$DIMTIX
 70
     0
  9
$DIMSOXD
 70
     0
  9
$DIMSAH
 70
     0
  9
$DIMBLK1
  1

  9
$DIMBLK2
  1

  9
$DIMSTYLE
  2
STANDARD
  9
$DIMCLRD
 70
     0
  9
$DIMCLRE
 70
     0
  9
$DIMCLRT
 70
     0
  9
$DIMTFAC
 40
1.0
  9
$DIMGAP
 40
0.09
  9
$LUNITS
 70
     2
  9
$LUPREC
 70
     4
  9
$AXISMODE
 70
     0
  9
$AXISUNIT
 10
0.0
 20
0.0
  9
$SKETCHINC
 40
0.1
  9
$FILLETRAD
 40
0.0
  9
$AUNITS
 70
     0
  9
$AUPREC
 70
     0
  9
$MENU
  1
acad
  9
$ELEVATION
 40
0.0
  9
$PELEVATION
 40
0.0
  9
$THICKNESS
 40
0.0
  9
$LIMCHECK
 70
     0
  9
$BLIPMODE
 70
     1
  9
$CHAMFERA
 40
0.0
  9
$CHAMFERB
 40
0.0
  9
$SKPOLY
 70
     0
  9
$TDCREATE
 40
0.000000000
  9
$TDUPDATE
 40
0.000000000
  9
$TDINDWG
 40
0.0000000000
  9
$TDUSRTIMER
 40
0.0000000000
  9
$USRTIMER
 70
     1
  9
$ANGBASE
 50
0.0
  9
$ANGDIR
 70
     0
  9
$PDMODE
 70
     0
  9
$PDSIZE
 40
0.0
  9
$PLINEWID
 40
0.0
  9
$COORDS
 70
     0
  9
$SPLFRAME
 70
     0
  9
$SPLINETYPE
 70
     6
  9
$SPLINESEGS
 70
     8
  9
$ATTDIA
 70
     0
  9
$ATTREQ
 70
     1
  9
$HANDLING
 70
     1
  9
$HANDSEED
  5
698
  9
$SURFTAB1
 70
     6
  9
$SURFTAB2
 70
     6
  9
$SURFTYPE
 70
     6
  9
$SURFU
 70
     6
  9
$SURFV
 70
     6
  9
$UCSNAME
  2

  9
$UCSORG
 10
0.0
 20
0.0
 30
0.0
  9
$UCSXDIR
 10
1.0
 20
0.0
 30
0.0
  9
$UCSYDIR
 10
0.0
 20
1.0
 30
0.0
  9
$PUCSNAME
  2

  9
$PUCSORG
 10
0.0
 20
0.0
 30
0.0
  9
$PUCSXDIR
 10
1.0
 20
0.0
 30
0.0
  9
$PUCSYDIR
 10
0.0
 20
1.0
 30
0.0
  9
$USERI1
 70
     0
  9
$USERI2
 70
     0
  9
$USERI3
 70
     0
  9
$USERI4
 70
     0
  9
$USERI5
 70
     0
  9
$USERR1
 40
0.0
  9
$USERR2
 40
0.0
  9
$USERR3
 40
0.0
  9
$USERR4
 40
0.0
  9
$USERR5
 40
0.0
  9
$WORLDVIEW
 70
     1
  9
$SHADEDGE
 70
     3
  9
$SHADEDIF
 70
    70
  9
$TILEMODE
 70
     1
  9
$MAXACTVP
 70
    16
  9
$PINSBASE
 10
0.0
 20
0.0
 30
0.0
  9
$PLIMCHECK
 70
     0
  9
$PEXTMIN
 10
1.000000E+20
 20
1.000000E+20
 30
1.000000E+20
  9
$PEXTMAX
 10
-1.000000E+20
 20
-1.000000E+20
 30
-1.000000E+20
  9
$PLIMMIN
 10
0.0
 20
0.0
  9
$PLIMMAX
 10
12.0
 20
9.0
  9
$UNITMODE
 70
     0
  9
$VISRETAIN
 70
     0
  9
$PLINEGEN
 70
     1
  9
$PSLTSCALE
 70
     0
  9
$TREEDEPTH
 70
  3020
  0
ENDSEC
  0
SECTION
  2
TABLES
  0
TABLE
  2
VPORT
 70
     1
  0
VPORT
  2
*ACTIVE
 70
     0
 10
0.0
 20
0.0
 11
1.0
 21
1.0
 12
6.591288
 22
4.579184
 13
0.0
 23
0.0
 14
1.0
 24
1.0
 15
0.0
 25
0.0
 16
0.0
 26
0.0
 36
1.0
 17
0.0
 27
0.0
 37
0.0
 40
9.158369
 41
0.688564
 42
50.0
 43
0.0
 44
0.0
 50
0.0
 51
0.0
 71
     0
 72
   100
 73
     1
 74
     1
 75
     0
 76
     0
 77
     0
 78
     0
  0
ENDTAB
  0
TABLE
  2
LTYPE
 70
     5
  0
LTYPE
  2
CONTINUOUS
 70
    64
  3
Solid line
 72
    65
 73
     0
 40
0.0
  0
LTYPE
  2
CENTER
 70
    64
  3
Center ____ _ ____ _ ____ _ ____ _ ____ _ ____
 72
    65
 73
     4
 40
50.8
 49
31.75
 49
-6.35
 49
6.35
 49
-6.35
  0
LTYPE
  2
HIDDEN
 70
    64
  3
Hidden __ __ __ __ __ __ __ __ __ __ __ __ __ __
 72
    65
 73
     2
 40
9.525
 49
6.35
 49
-3.175
  0
LTYPE
  2
CENTER2
 70
    64
  3
Center (.5x) ___ _ ___ _ ___ _ ___ _ ___ _ ___
 72
    65
 73
     4
 40
28.575
 49
19.05
 49
-3.175
 49
3.175
 49
-3.175
  0
LTYPE
  2
HIDDEN2
 70
    64
  3
Hidden (.5x) _ _ _ _ _ _ _ _ _ _ _ _ _ _ _ _ _
 72
    65
 73
     2
 40
4.7625
 49
3.175
 49
-1.5875
  0
ENDTAB
  0
TABLE
  2
LAYER
 70
     1
  0
LAYER
  2
0
 70
     0
 62
     7
  6
CONTINUOUS
  0
ENDTAB
  0
TABLE
  2
STYLE
 70
     1
  0
STYLE
  2
STANDARD
 70
     0
 40
0.0
 41
1.0
 50
0.0
 71
     0
 42
0.0
  3
txt
  4

  0
ENDTAB
  0
TABLE
  2
VIEW
 70
     0
  0
ENDTAB
  0
TABLE
  2
UCS
 70
     0
  0
ENDTAB
  0
TABLE
  2
APPID
 70
     1
  0
APPID
  2
ACAD
 70
     0
  0
ENDTAB
  0
TABLE
  2
DIMSTYLE
 70
     1
  0
DIMSTYLE
  2
STANDARD
 70
     0
  3

  4

  5

  6

  7

 40
1.0
 41
0.18
 42
0.0625
 43
0.38
 44
0.18
 45
0.0
 46
0.0
 47
0.0
 48
0.0
 71
     0
 72
     0
 73
     1
 74
     1
 75
     0
 76
     0
 77
     0
 78
     0
140
0.18
141
0.09
142
0.0
143
25.4
144
1.0
145
0.0
146
1.0
147
0.09
170
     0
171
     2
172
     0
173
     0
174
     0
175
     0
176
     0
177
     0
178
     0
  0
ENDTAB
  0
ENDSEC
  0
SECTION
  2
BLOCKS
  0
ENDSEC
  0
SECTION
  2
ENTITIES
  0
LINE
  8
0
  6
CONTINUOUS
 62
     7
  5
36E
 10
0.0
 20
0.5785
 30
0.0
 11
-0.161
 21
0.5785
 31
0.0
  0
LINE
  8
0
  6
CONTINUOUS
 62
     7
  5
36F
 10
-0.161
 20
0.6885
 30
0.0
 11
-0.161
 21
0.5785
 31
0.0
  0
LINE
  8
0
  6
CONTINUOUS
 62
     7
  5
370
 10
0.0
 20
0.6885
 30
0.0
 11
0.0
 21
0.5785
 31
0.0
  0
LINE
  8
0
  6
CONTINUOUS
 62
     7
  5
371
 10
-0.1415
 20
-0.60588
 30
0.0
 11
-0.161
 21
-0.60588
 31
0.0
  0
LINE
  8
0
  6
CONTINUOUS
 62
     7
  5
372
 10
-0.161
 20
-0.60588
 30
0.0
 11
-0.161
 21
-0.6885
 31
0.0
  0
LINE
  8
0
  6
CONTINUOUS
 62
     7
  5
373
 10
-0.161
 20
-0.6885
 30
0.0
 11
-0.2
 21
-0.6885
 31
0.0
  0
LINE
  8
0
  6
CONTINUOUS
 62
     7
  5
374
 10
-0.2
 20
-0.6885
 30
0.0
 11
-0.2
 21
0.6885
 31
0.0
  0
LINE
  8
0
  6
CONTINUOUS
 62
     7
  5
375
 10
-0.2
 20
0.6885
 30
0.0
 11
0.0
 21
0.6885
 31
0.0
  0
LINE
  8
0
  6
CONTINUOUS
 62
     7
  5
376
 10
0.0
 20
1.365
 30
0.0
 11
0.0
 21
0.6885
 31
0.0
  0
LINE
  8
0
  6
CONTINUOUS
 62
     7
  5
377
 10
-0.25
 20
1.365
 30
0.0
 11
-0.25
 21
-1.365
 31
0.0
  0
LINE
  8
0
  6
CONTINUOUS
 62
     7
  5
378
 10
0.0
 20
-1.365
 30
0.0
 11
-0.25
 21
-1.365
 31
0.0
  0
LINE
  8
0
  6
CONTINUOUS
 62
     7
  5
379
 10
0.0
 20
-0.687575
 30
0.0
 11
0.0
 21
-1.365
 31
0.0
  0
LINE
  8
0
  6
CONTINUOUS
 62
     7
  5
37A
 10
0.0
 20
-0.687575
 30
0.0
 11
-0.1415
 21
-0.60588
 31
0.0
  0
LINE
  8
0
  6
CONTINUOUS
 62
     7
  5
37B
 10
0.0
 20
1.515
 30
0.0
 11
0.0
 21
1.365
 31
0.0
  0
LINE
  8
0
  6
CONTINUOUS
 62
     7
  5
37C
 10
-0.25
 20
-1.365
 30
0.0
 11
-0.25
 21
-1.515
 31
0.0
  0
LINE
  8
0
  6
CONTINUOUS
 62
     7
  5
37D
 10
-0.25
 20
1.365
 30
0.0
 11
-0.25
 21
1.515
 31
0.0
  0
LINE
  8
0
  6
CONTINUOUS
 62
     7
  5
37E
 10
-1.68
 20
1.175
 30
0.0
 11
-1.505
 21
1.175
 31
0.0
  0
LINE
  8
0
  6
CONTINUOUS
 62
     7
  5
37F
 10
-1.505
 20
-1.175
 30
0.0
 11
-1.68
 21
-1.175
 31
0.0
  0
LINE
  8
0
  6
CONTINUOUS
 62
     7
  5
380
 10
-1.68
 20
1.175
 30
0.0
 11
-1.68
 21
-1.175
 31
0.0
  0
LINE
  8
0
  6
CONTINUOUS
 62
     7
  5
381
 10
-1.505
 20
-1.175
 30
0.0
 11
-1.505
 21
-1.4
 31
0.0
  0
LINE
  8
0
  6
CONTINUOUS
 62
     7
  5
382
 10
-1.505
 20
1.4
 30
0.0
 11
-1.505
 21
1.175
 31
0.0
  0
LINE
  8
0
  6
CONTINUOUS
 62
     7
  5
383
 10
-1.355
 20
1.4
 30
0.0
 11
-1.355
 21
-1.4
 31
0.0
  0
LINE
  8
0
  6
CONTINUOUS
 62
     7
  5
384
 10
-1.505
 20
1.4
 30
0.0
 11
-1.355
 21
1.4
 31
0.0
  0
LINE
  8
0
  6
CONTINUOUS
 62
     7
  5
385
 10
-1.355
 20
-1.4
 30
0.0
 11
-1.505
 21
-1.4
 31
0.0
  0
LINE
  8
0
  6
CONTINUOUS
 62
     7
  5
386
 10
-1.205
 20
-1.155
 30
0.0
 11
-1.205
 21
-1.399
 31
0.0
  0
LINE
  8
0
  6
CONTINUOUS
 62
     7
  5
387
 10
-1.355
 20
1.399
 30
0.0
 11
-1.205
 21
1.399
 31
0.0
  0
LINE
  8
0
  6
CONTINUOUS
 62
     7
  5
388
 10
-1.205
 20
-1.399
 30
0.0
 11
-1.355
 21
-1.399
 31
0.0
  0
LINE
  8
0
  6
CONTINUOUS
 62
     7
  5
389
 10
-1.205
 20
1.399
 30
0.0
 11
-1.205
 21
1.155
 31
0.0
  0
LINE
  8
0
  6
CONTINUOUS
 62
     7
  5
38A
 10
-0.25
 20
1.225
 30
0.0
 11
-1.205
 21
1.225
 31
0.0
  0
LINE
  8
0
  6
CONTINUOUS
 62
     7
  5
38B
 10
-0.25
 20
-0.75
 30
0.0
 11
-1.355
 21
-0.75
 31
0.0
  0
LINE
  8
0
  6
CONTINUOUS
 62
     7
  5
38C
 10
-0.25
 20
0.75
 30
0.0
 11
-1.355
 21
0.75
 31
0.0
  0
LINE
  8
0
  6
CONTINUOUS
 62
     7
  5
38D
 10
-0.25
 20
-1.225
 30
0.0
 11
-1.205
 21
-1.225
 31
0.0
  0
LINE
  8
0
  6
CONTINUOUS
 62
     7
  5
38E
 10
0.0
 20
-1.365
 30
0.0
 11
0.0
 21
-1.515
 31
0.0
  0
LINE
  8
0
  6
CONTINUOUS
 62
     7
  5
38F
 10
-0.25
 20
1.515
 30
0.0
 11
0.0
 21
1.515
 31
0.0
  0
LINE
  8
0
  6
CONTINUOUS
 62
     7
  5
390
 10
-0.25
 20
-1.515
 30
0.0
 11
0.0
 21
-1.515
 31
0.0
  0
LINE
  8
0
  6
CONTINUOUS
 62
     7
  5
391
 10
-2.723689
 20
-1.09
 30
0.0
 11
-2.722607
 21
-1.090149
 31
0.0
  0
LINE
  8
0
  6
CONTINUOUS
 62
     7
  5
392
 10
-2.722607
 20
-1.090149
 30
0.0
 11
-2.721499
 21
-1.090604
 31
0.0
  0
LINE
  8
0
  6
CONTINUOUS
 62
     7
  5
393
 10
-2.721499
 20
-1.090604
 30
0.0
 11
-2.720368
 21
-1.091374
 31
0.0
  0
LINE
  8
0
  6
CONTINUOUS
 62
     7
  5
394
 10
-2.720368
 20
-1.091374
 30
0.0
 11
-2.71922
 21
-1.092465
 31
0.0
  0
LINE
  8
0
  6
CONTINUOUS
 62
     7
  5
395
 10
-2.71922
 20
-1.092465
 30
0.0
 11
-2.718057
 21
-1.093881
 31
0.0
  0
LINE
  8
0
  6
CONTINUOUS
 62
     7
  5
396
 10
-2.718057
 20
-1.093881
 30
0.0
 11
-2.716886
 21
-1.095622
 31
0.0
  0
LINE
  8
0
  6
CONTINUOUS
 62
     7
  5
397
 10
-2.716886
 20
-1.095622
 30
0.0
 11
-2.715711
 21
-1.097687
 31
0.0
  0
LINE
  8
0
  6
CONTINUOUS
 62
     7
  5
398
 10
-2.715711
 20
-1.097687
 30
0.0
 11
-2.714537
 21
-1.100071
 31
0.0
  0
LINE
  8
0
  6
CONTINUOUS
 62
     7
  5
399
 10
-2.714537
 20
-1.100071
 30
0.0
 11
-2.713367
 21
-1.102767
 31
0.0
  0
LINE
  8
0
  6
CONTINUOUS
 62
     7
  5
39A
 10
-2.713367
 20
-1.102767
 30
0.0
 11
-2.712207
 21
-1.105768
 31
0.0
  0
LINE
  8
0
  6
CONTINUOUS
 62
     7
  5
39B
 10
-2.712207
 20
-1.105768
 30
0.0
 11
-2.711061
 21
-1.109064
 31
0.0
  0
LINE
  8
0
  6
CONTINUOUS
 62
     7
  5
39C
 10
-2.711061
 20
-1.109064
 30
0.0
 11
-2.709933
 21
-1.112642
 31
0.0
  0
LINE
  8
0
  6
CONTINUOUS
 62
     7
  5
39D
 10
-2.709933
 20
-1.112642
 30
0.0
 11
-2.708829
 21
-1.116486
 31
0.0
  0
LINE
  8
0
  6
CONTINUOUS
 62
     7
  5
39E
 10
-2.708829
 20
-1.116486
 30
0.0
 11
-2.707753
 21
-1.120578
 31
0.0
  0
LINE
  8
0
  6
CONTINUOUS
 62
     7
  5
39F
 10
-2.707753
 20
-1.120578
 30
0.0
 11
-2.706709
 21
-1.124898
 31
0.0
  0
LINE
  8
0
  6
CONTINUOUS
 62
     7
  5
3A0
 10
-2.706709
 20
-1.124898
 30
0.0
 11
-2.705702
 21
-1.129422
 31
0.0
  0
LINE
  8
0
  6
CONTINUOUS
 62
     7
  5
3A1
 10
-2.705702
 20
-1.129422
 30
0.0
 11
-2.704736
 21
-1.134127
 31
0.0
  0
LINE
  8
0
  6
CONTINUOUS
 62
     7
  5
3A2
 10
-2.704736
 20
-1.134127
 30
0.0
 11
-2.703812
 21
-1.138997
 31
0.0
  0
LINE
  8
0
  6
CONTINUOUS
 62
     7
  5
3A3
 10
-2.703812
 20
-1.138997
 30
0.0
 11
-2.702914
 21
-1.144121
 31
0.0
  0
LINE
  8
0
  6
CONTINUOUS
 62
     7
  5
3A4
 10
-2.702914
 20
-1.144121
 30
0.0
 11
-2.702041
 21
-1.149519
 31
0.0
  0
LINE
  8
0
  6
CONTINUOUS
 62
     7
  5
3A5
 10
-2.702041
 20
-1.149519
 30
0.0
 11
-2.701201
 21
-1.155177
 31
0.0
  0
LINE
  8
0
  6
CONTINUOUS
 62
     7
  5
3A6
 10
-2.701201
 20
-1.155177
 30
0.0
 11
-2.700398
 21
-1.161078
 31
0.0
  0
LINE
  8
0
  6
CONTINUOUS
 62
     7
  5
3A7
 10
-2.700398
 20
-1.161078
 30
0.0
 11
-2.699637
 21
-1.167203
 31
0.0
  0
LINE
  8
0
  6
CONTINUOUS
 62
     7
  5
3A8
 10
-2.699637
 20
-1.167203
 30
0.0
 11
-2.698924
 21
-1.173533
 31
0.0
  0
LINE
  8
0
  6
CONTINUOUS
 62
     7
  5
3A9
 10
-2.698924
 20
-1.173533
 30
0.0
 11
-2.698262
 21
-1.180045
 31
0.0
  0
LINE
  8
0
  6
CONTINUOUS
 62
     7
  5
3AA
 10
-2.698262
 20
-1.180045
 30
0.0
 11
-2.697656
 21
-1.186717
 31
0.0
  0
LINE
  8
0
  6
CONTINUOUS
 62
     7
  5
3AB
 10
-2.697656
 20
-1.186717
 30
0.0
 11
-2.697108
 21
-1.193529
 31
0.0
  0
LINE
  8
0
  6
CONTINUOUS
 62
     7
  5
3AC
 10
-2.697108
 20
-1.193529
 30
0.0
 11
-2.696621
 21
-1.200458
 31
0.0
  0
LINE
  8
0
  6
CONTINUOUS
 62
     7
  5
3AD
 10
-2.696621
 20
-1.200458
 30
0.0
 11
-2.696198
 21
-1.207479
 31
0.0
  0
LINE
  8
0
  6
CONTINUOUS
 62
     7
  5
3AE
 10
-2.696198
 20
-1.207479
 30
0.0
 11
-2.69584
 21
-1.214567
 31
0.0
  0
LINE
  8
0
  6
CONTINUOUS
 62
     7
  5
3AF
 10
-2.69584
 20
-1.214567
 30
0.0
 11
-2.695548
 21
-1.221693
 31
0.0
  0
LINE
  8
0
  6
CONTINUOUS
 62
     7
  5
3B0
 10
-2.695548
 20
-1.221693
 30
0.0
 11
-2.695322
 21
-1.228829
 31
0.0
  0
LINE
  8
0
  6
CONTINUOUS
 62
     7
  5
3B1
 10
-2.695322
 20
-1.228829
 30
0.0
 11
-2.695163
 21
-1.235945
 31
0.0
  0
LINE
  8
0
  6
CONTINUOUS
 62
     7
  5
3B2
 10
-2.695163
 20
-1.235945
 30
0.0
 11
-2.695068
 21
-1.243011
 31
0.0
  0
LINE
  8
0
  6
CONTINUOUS
 62
     7
  5
3B3
 10
-2.695068
 20
-1.243011
 30
0.0
 11
-2.695037
 21
-1.25
 31
0.0
  0
LINE
  8
0
  6
CONTINUOUS
 62
     7
  5
3B4
 10
-2.723689
 20
-1.41
 30
0.0
 11
-2.725818
 21
-1.409399
 31
0.0
  0
LINE
  8
0
  6
CONTINUOUS
 62
     7
  5
3B5
 10
-2.725818
 20
-1.409399
 30
0.0
 11
-2.727924
 21
-1.407544
 31
0.0
  0
LINE
  8
0
  6
CONTINUOUS
 62
     7
  5
3B6
 10
-2.727924
 20
-1.407544
 30
0.0
 11
-2.729972
 21
-1.404391
 31
0.0
  0
LINE
  8
0
  6
CONTINUOUS
 62
     7
  5
3B7
 10
-2.729972
 20
-1.404391
 30
0.0
 11
-2.731931
 21
-1.399943
 31
0.0
  0
LINE
  8
0
  6
CONTINUOUS
 62
     7
  5
3B8
 10
-2.731931
 20
-1.399943
 30
0.0
 11
-2.733777
 21
-1.394241
 31
0.0
  0
LINE
  8
0
  6
CONTINUOUS
 62
     7
  5
3B9
 10
-2.733777
 20
-1.394241
 30
0.0
 11
-2.735492
 21
-1.387356
 31
0.0
  0
LINE
  8
0
  6
CONTINUOUS
 62
     7
  5
3BA
 10
-2.735492
 20
-1.387356
 30
0.0
 11
-2.737062
 21
-1.379403
 31
0.0
  0
LINE
  8
0
  6
CONTINUOUS
 62
     7
  5
3BB
 10
-2.737062
 20
-1.379403
 30
0.0
 11
-2.738473
 21
-1.37054
 31
0.0
  0
LINE
  8
0
  6
CONTINUOUS
 62
     7
  5
3BC
 10
-2.738473
 20
-1.37054
 30
0.0
 11
-2.739722
 21
-1.360944
 31
0.0
  0
LINE
  8
0
  6
CONTINUOUS
 62
     7
  5
3BD
 10
-2.739722
 20
-1.360944
 30
0.0
 11
-2.740848
 21
-1.350396
 31
0.0
  0
LINE
  8
0
  6
CONTINUOUS
 62
     7
  5
3BE
 10
-2.740848
 20
-1.350396
 30
0.0
 11
-2.741856
 21
-1.338818
 31
0.0
  0
LINE
  8
0
  6
CONTINUOUS
 62
     7
  5
3BF
 10
-2.741856
 20
-1.338818
 30
0.0
 11
-2.742732
 21
-1.326353
 31
0.0
  0
LINE
  8
0
  6
CONTINUOUS
 62
     7
  5
3C0
 10
-2.742732
 20
-1.326353
 30
0.0
 11
-2.743463
 21
-1.313167
 31
0.0
  0
LINE
  8
0
  6
CONTINUOUS
 62
     7
  5
3C1
 10
-2.743463
 20
-1.313167
 30
0.0
 11
-2.744046
 21
-1.299437
 31
0.0
  0
LINE
  8
0
  6
CONTINUOUS
 62
     7
  5
3C2
 10
-2.744046
 20
-1.299437
 30
0.0
 11
-2.744478
 21
-1.285347
 31
0.0
  0
LINE
  8
0
  6
CONTINUOUS
 62
     7
  5
3C3
 10
-2.744478
 20
-1.285347
 30
0.0
 11
-2.74476
 21
-1.271114
 31
0.0
  0
LINE
  8
0
  6
CONTINUOUS
 62
     7
  5
3C4
 10
-2.74476
 20
-1.271114
 30
0.0
 11
-2.744897
 21
-1.256968
 31
0.0
  0
LINE
  8
0
  6
CONTINUOUS
 62
     7
  5
3C5
 10
-2.744897
 20
-1.256968
 30
0.0
 11
-2.744897
 21
-1.243032
 31
0.0
  0
LINE
  8
0
  6
CONTINUOUS
 62
     7
  5
3C6
 10
-2.744897
 20
-1.243032
 30
0.0
 11
-2.74476
 21
-1.228886
 31
0.0
  0
LINE
  8
0
  6
CONTINUOUS
 62
     7
  5
3C7
 10
-2.74476
 20
-1.228886
 30
0.0
 11
-2.744478
 21
-1.214653
 31
0.0
  0
LINE
  8
0
  6
CONTINUOUS
 62
     7
  5
3C8
 10
-2.744478
 20
-1.214653
 30
0.0
 11
-2.744046
 21
-1.200563
 31
0.0
  0
LINE
  8
0
  6
CONTINUOUS
 62
     7
  5
3C9
 10
-2.744046
 20
-1.200563
 30
0.0
 11
-2.743463
 21
-1.186833
 31
0.0
  0
LINE
  8
0
  6
CONTINUOUS
 62
     7
  5
3CA
 10
-2.743463
 20
-1.186833
 30
0.0
 11
-2.742732
 21
-1.173647
 31
0.0
  0
LINE
  8
0
  6
CONTINUOUS
 62
     7
  5
3CB
 10
-2.742732
 20
-1.173647
 30
0.0
 11
-2.741856
 21
-1.161182
 31
0.0
  0
LINE
  8
0
  6
CONTINUOUS
 62
     7
  5
3CC
 10
-2.741856
 20
-1.161182
 30
0.0
 11
-2.740848
 21
-1.149604
 31
0.0
  0
LINE
  8
0
  6
CONTINUOUS
 62
     7
  5
3CD
 10
-2.740848
 20
-1.149604
 30
0.0
 11
-2.739722
 21
-1.139056
 31
0.0
  0
LINE
  8
0
  6
CONTINUOUS
 62
     7
  5
3CE
 10
-2.739722
 20
-1.139056
 30
0.0
 11
-2.738473
 21
-1.12946
 31
0.0
  0
LINE
  8
0
  6
CONTINUOUS
 62
     7
  5
3CF
 10
-2.738473
 20
-1.12946
 30
0.0
 11
-2.737062
 21
-1.120597
 31
0.0
  0
LINE
  8
0
  6
CONTINUOUS
 62
     7
  5
3D0
 10
-2.737062
 20
-1.120597
 30
0.0
 11
-2.735492
 21
-1.112644
 31
0.0
  0
LINE
  8
0
  6
CONTINUOUS
 62
     7
  5
3D1
 10
-2.735492
 20
-1.112644
 30
0.0
 11
-2.733777
 21
-1.105759
 31
0.0
  0
LINE
  8
0
  6
CONTINUOUS
 62
     7
  5
3D2
 10
-2.733777
 20
-1.105759
 30
0.0
 11
-2.731931
 21
-1.100057
 31
0.0
  0
LINE
  8
0
  6
CONTINUOUS
 62
     7
  5
3D3
 10
-2.731931
 20
-1.100057
 30
0.0
 11
-2.729972
 21
-1.095609
 31
0.0
  0
LINE
  8
0
  6
CONTINUOUS
 62
     7
  5
3D4
 10
-2.729972
 20
-1.095609
 30
0.0
 11
-2.727924
 21
-1.092456
 31
0.0
  0
LINE
  8
0
  6
CONTINUOUS
 62
     7
  5
3D5
 10
-2.727924
 20
-1.092456
 30
0.0
 11
-2.725818
 21
-1.090601
 31
0.0
  0
LINE
  8
0
  6
CONTINUOUS
 62
     7
  5
3D6
 10
-2.725818
 20
-1.090601
 30
0.0
 11
-2.723689
 21
-1.09
 31
0.0
  0
LINE
  8
0
  6
CONTINUOUS
 62
     7
  5
3D7
 10
-2.695037
 20
-1.25
 30
0.0
 11
-2.695068
 21
-1.256989
 31
0.0
  0
LINE
  8
0
  6
CONTINUOUS
 62
     7
  5
3D8
 10
-2.695068
 20
-1.256989
 30
0.0
 11
-2.695163
 21
-1.264055
 31
0.0
  0
LINE
  8
0
  6
CONTINUOUS
 62
     7
  5
3D9
 10
-2.695163
 20
-1.264055
 30
0.0
 11
-2.695322
 21
-1.271171
 31
0.0
  0
LINE
  8
0
  6
CONTINUOUS
 62
     7
  5
3DA
 10
-2.695322
 20
-1.271171
 30
0.0
 11
-2.695548
 21
-1.278307
 31
0.0
  0
LINE
  8
0
  6
CONTINUOUS
 62
     7
  5
3DB
 10
-2.695548
 20
-1.278307
 30
0.0
 11
-2.69584
 21
-1.285433
 31
0.0
  0
LINE
  8
0
  6
CONTINUOUS
 62
     7
  5
3DC
 10
-2.69584
 20
-1.285433
 30
0.0
 11
-2.696198
 21
-1.292521
 31
0.0
  0
LINE
  8
0
  6
CONTINUOUS
 62
     7
  5
3DD
 10
-2.696198
 20
-1.292521
 30
0.0
 11
-2.696621
 21
-1.299542
 31
0.0
  0
LINE
  8
0
  6
CONTINUOUS
 62
     7
  5
3DE
 10
-2.696621
 20
-1.299542
 30
0.0
 11
-2.697108
 21
-1.306471
 31
0.0
  0
LINE
  8
0
  6
CONTINUOUS
 62
     7
  5
3DF
 10
-2.697108
 20
-1.306471
 30
0.0
 11
-2.697656
 21
-1.313283
 31
0.0
  0
LINE
  8
0
  6
CONTINUOUS
 62
     7
  5
3E0
 10
-2.697656
 20
-1.313283
 30
0.0
 11
-2.698262
 21
-1.319955
 31
0.0
  0
LINE
  8
0
  6
CONTINUOUS
 62
     7
  5
3E1
 10
-2.698262
 20
-1.319955
 30
0.0
 11
-2.698924
 21
-1.326467
 31
0.0
  0
LINE
  8
0
  6
CONTINUOUS
 62
     7
  5
3E2
 10
-2.698924
 20
-1.326467
 30
0.0
 11
-2.699637
 21
-1.332797
 31
0.0
  0
LINE
  8
0
  6
CONTINUOUS
 62
     7
  5
3E3
 10
-2.699637
 20
-1.332797
 30
0.0
 11
-2.700398
 21
-1.338922
 31
0.0
  0
LINE
  8
0
  6
CONTINUOUS
 62
     7
  5
3E4
 10
-2.700398
 20
-1.338922
 30
0.0
 11
-2.701201
 21
-1.344823
 31
0.0
  0
LINE
  8
0
  6
CONTINUOUS
 62
     7
  5
3E5
 10
-2.701201
 20
-1.344823
 30
0.0
 11
-2.702041
 21
-1.350481
 31
0.0
  0
LINE
  8
0
  6
CONTINUOUS
 62
     7
  5
3E6
 10
-2.702041
 20
-1.350481
 30
0.0
 11
-2.702914
 21
-1.355879
 31
0.0
  0
LINE
  8
0
  6
CONTINUOUS
 62
     7
  5
3E7
 10
-2.702914
 20
-1.355879
 30
0.0
 11
-2.703812
 21
-1.361003
 31
0.0
  0
LINE
  8
0
  6
CONTINUOUS
 62
     7
  5
3E8
 10
-2.703812
 20
-1.361003
 30
0.0
 11
-2.704736
 21
-1.365873
 31
0.0
  0
LINE
  8
0
  6
CONTINUOUS
 62
     7
  5
3E9
 10
-2.704736
 20
-1.365873
 30
0.0
 11
-2.705702
 21
-1.370578
 31
0.0
  0
LINE
  8
0
  6
CONTINUOUS
 62
     7
  5
3EA
 10
-2.705702
 20
-1.370578
 30
0.0
 11
-2.706709
 21
-1.375102
 31
0.0
  0
LINE
  8
0
  6
CONTINUOUS
 62
     7
  5
3EB
 10
-2.706709
 20
-1.375102
 30
0.0
 11
-2.707753
 21
-1.379422
 31
0.0
  0
LINE
  8
0
  6
CONTINUOUS
 62
     7
  5
3EC
 10
-2.707753
 20
-1.379422
 30
0.0
 11
-2.708829
 21
-1.383514
 31
0.0
  0
LINE
  8
0
  6
CONTINUOUS
 62
     7
  5
3ED
 10
-2.708829
 20
-1.383514
 30
0.0
 11
-2.709933
 21
-1.387358
 31
0.0
  0
LINE
  8
0
  6
CONTINUOUS
 62
     7
  5
3EE
 10
-2.709933
 20
-1.387358
 30
0.0
 11
-2.711061
 21
-1.390936
 31
0.0
  0
LINE
  8
0
  6
CONTINUOUS
 62
     7
  5
3EF
 10
-2.711061
 20
-1.390936
 30
0.0
 11
-2.712207
 21
-1.394232
 31
0.0
  0
LINE
  8
0
  6
CONTINUOUS
 62
     7
  5
3F0
 10
-2.712207
 20
-1.394232
 30
0.0
 11
-2.713367
 21
-1.397233
 31
0.0
  0
LINE
  8
0
  6
CONTINUOUS
 62
     7
  5
3F1
 10
-2.713367
 20
-1.397233
 30
0.0
 11
-2.714537
 21
-1.399929
 31
0.0
  0
LINE
  8
0
  6
CONTINUOUS
 62
     7
  5
3F2
 10
-2.714537
 20
-1.399929
 30
0.0
 11
-2.715711
 21
-1.402313
 31
0.0
  0
LINE
  8
0
  6
CONTINUOUS
 62
     7
  5
3F3
 10
-2.715711
 20
-1.402313
 30
0.0
 11
-2.716886
 21
-1.404378
 31
0.0
  0
LINE
  8
0
  6
CONTINUOUS
 62
     7
  5
3F4
 10
-2.716886
 20
-1.404378
 30
0.0
 11
-2.718057
 21
-1.406119
 31
0.0
  0
LINE
  8
0
  6
CONTINUOUS
 62
     7
  5
3F5
 10
-2.718057
 20
-1.406119
 30
0.0
 11
-2.71922
 21
-1.407535
 31
0.0
  0
LINE
  8
0
  6
CONTINUOUS
 62
     7
  5
3F6
 10
-2.71922
 20
-1.407535
 30
0.0
 11
-2.720368
 21
-1.408626
 31
0.0
  0
LINE
  8
0
  6
CONTINUOUS
 62
     7
  5
3F7
 10
-2.720368
 20
-1.408626
 30
0.0
 11
-2.721499
 21
-1.409396
 31
0.0
  0
LINE
  8
0
  6
CONTINUOUS
 62
     7
  5
3F8
 10
-2.721499
 20
-1.409396
 30
0.0
 11
-2.722607
 21
-1.409851
 31
0.0
  0
LINE
  8
0
  6
CONTINUOUS
 62
     7
  5
3F9
 10
-2.722607
 20
-1.409851
 30
0.0
 11
-2.723689
 21
-1.41
 31
0.0
  0
LINE
  8
0
  6
CONTINUOUS
 62
     7
  5
3FA
 10
-2.723689
 20
1.41
 30
0.0
 11
-2.722607
 21
1.409851
 31
0.0
  0
LINE
  8
0
  6
CONTINUOUS
 62
     7
  5
3FB
 10
-2.722607
 20
1.409851
 30
0.0
 11
-2.721499
 21
1.409396
 31
0.0
  0
LINE
  8
0
  6
CONTINUOUS
 62
     7
  5
3FC
 10
-2.721499
 20
1.409396
 30
0.0
 11
-2.720368
 21
1.408626
 31
0.0
  0
LINE
  8
0
  6
CONTINUOUS
 62
     7
  5
3FD
 10
-2.720368
 20
1.408626
 30
0.0
 11
-2.71922
 21
1.407535
 31
0.0
  0
LINE
  8
0
  6
CONTINUOUS
 62
     7
  5
3FE
 10
-2.71922
 20
1.407535
 30
0.0
 11
-2.718057
 21
1.406119
 31
0.0
  0
LINE
  8
0
  6
CONTINUOUS
 62
     7
  5
3FF
 10
-2.718057
 20
1.406119
 30
0.0
 11
-2.716886
 21
1.404378
 31
0.0
  0
LINE
  8
0
  6
CONTINUOUS
 62
     7
  5
400
 10
-2.716886
 20
1.404378
 30
0.0
 11
-2.715711
 21
1.402313
 31
0.0
  0
LINE
  8
0
  6
CONTINUOUS
 62
     7
  5
401
 10
-2.715711
 20
1.402313
 30
0.0
 11
-2.714537
 21
1.399929
 31
0.0
  0
LINE
  8
0
  6
CONTINUOUS
 62
     7
  5
402
 10
-2.714537
 20
1.399929
 30
0.0
 11
-2.713367
 21
1.397233
 31
0.0
  0
LINE
  8
0
  6
CONTINUOUS
 62
     7
  5
403
 10
-2.713367
 20
1.397233
 30
0.0
 11
-2.712207
 21
1.394232
 31
0.0
  0
LINE
  8
0
  6
CONTINUOUS
 62
     7
  5
404
 10
-2.712207
 20
1.394232
 30
0.0
 11
-2.711061
 21
1.390936
 31
0.0
  0
LINE
  8
0
  6
CONTINUOUS
 62
     7
  5
405
 10
-2.711061
 20
1.390936
 30
0.0
 11
-2.709933
 21
1.387358
 31
0.0
  0
LINE
  8
0
  6
CONTINUOUS
 62
     7
  5
406
 10
-2.709933
 20
1.387358
 30
0.0
 11
-2.708829
 21
1.383514
 31
0.0
  0
LINE
  8
0
  6
CONTINUOUS
 62
     7
  5
407
 10
-2.708829
 20
1.383514
 30
0.0
 11
-2.707753
 21
1.379422
 31
0.0
  0
LINE
  8
0
  6
CONTINUOUS
 62
     7
  5
408
 10
-2.707753
 20
1.379422
 30
0.0
 11
-2.706709
 21
1.375102
 31
0.0
  0
LINE
  8
0
  6
CONTINUOUS
 62
     7
  5
409
 10
-2.706709
 20
1.375102
 30
0.0
 11
-2.705702
 21
1.370578
 31
0.0
  0
LINE
  8
0
  6
CONTINUOUS
 62
     7
  5
40A
 10
-2.705702
 20
1.370578
 30
0.0
 11
-2.704736
 21
1.365873
 31
0.0
  0
LINE
  8
0
  6
CONTINUOUS
 62
     7
  5
40B
 10
-2.704736
 20
1.365873
 30
0.0
 11
-2.703812
 21
1.361003
 31
0.0
  0
LINE
  8
0
  6
CONTINUOUS
 62
     7
  5
40C
 10
-2.703812
 20
1.361003
 30
0.0
 11
-2.702914
 21
1.355879
 31
0.0
  0
LINE
  8
0
  6
CONTINUOUS
 62
     7
  5
40D
 10
-2.702914
 20
1.355879
 30
0.0
 11
-2.702041
 21
1.350481
 31
0.0
  0
LINE
  8
0
  6
CONTINUOUS
 62
     7
  5
40E
 10
-2.702041
 20
1.350481
 30
0.0
 11
-2.701201
 21
1.344823
 31
0.0
  0
LINE
  8
0
  6
CONTINUOUS
 62
     7
  5
40F
 10
-2.701201
 20
1.344823
 30
0.0
 11
-2.700398
 21
1.338922
 31
0.0
  0
LINE
  8
0
  6
CONTINUOUS
 62
     7
  5
410
 10
-2.700398
 20
1.338922
 30
0.0
 11
-2.699637
 21
1.332797
 31
0.0
  0
LINE
  8
0
  6
CONTINUOUS
 62
     7
  5
411
 10
-2.699637
 20
1.332797
 30
0.0
 11
-2.698924
 21
1.326467
 31
0.0
  0
LINE
  8
0
  6
CONTINUOUS
 62
     7
  5
412
 10
-2.698924
 20
1.326467
 30
0.0
 11
-2.698262
 21
1.319955
 31
0.0
  0
LINE
  8
0
  6
CONTINUOUS
 62
     7
  5
413
 10
-2.698262
 20
1.319955
 30
0.0
 11
-2.697656
 21
1.313283
 31
0.0
  0
LINE
  8
0
  6
CONTINUOUS
 62
     7
  5
414
 10
-2.697656
 20
1.313283
 30
0.0
 11
-2.697108
 21
1.306471
 31
0.0
  0
LINE
  8
0
  6
CONTINUOUS
 62
     7
  5
415
 10
-2.697108
 20
1.306471
 30
0.0
 11
-2.696621
 21
1.299542
 31
0.0
  0
LINE
  8
0
  6
CONTINUOUS
 62
     7
  5
416
 10
-2.696621
 20
1.299542
 30
0.0
 11
-2.696198
 21
1.292521
 31
0.0
  0
LINE
  8
0
  6
CONTINUOUS
 62
     7
  5
417
 10
-2.696198
 20
1.292521
 30
0.0
 11
-2.69584
 21
1.285433
 31
0.0
  0
LINE
  8
0
  6
CONTINUOUS
 62
     7
  5
418
 10
-2.69584
 20
1.285433
 30
0.0
 11
-2.695548
 21
1.278307
 31
0.0
  0
LINE
  8
0
  6
CONTINUOUS
 62
     7
  5
419
 10
-2.695548
 20
1.278307
 30
0.0
 11
-2.695322
 21
1.271171
 31
0.0
  0
LINE
  8
0
  6
CONTINUOUS
 62
     7
  5
41A
 10
-2.695322
 20
1.271171
 30
0.0
 11
-2.695163
 21
1.264055
 31
0.0
  0
LINE
  8
0
  6
CONTINUOUS
 62
     7
  5
41B
 10
-2.695163
 20
1.264055
 30
0.0
 11
-2.695068
 21
1.256989
 31
0.0
  0
LINE
  8
0
  6
CONTINUOUS
 62
     7
  5
41C
 10
-2.695068
 20
1.256989
 30
0.0
 11
-2.695037
 21
1.25
 31
0.0
  0
LINE
  8
0
  6
CONTINUOUS
 62
     7
  5
41D
 10
-2.723689
 20
1.09
 30
0.0
 11
-2.725818
 21
1.090601
 31
0.0
  0
LINE
  8
0
  6
CONTINUOUS
 62
     7
  5
41E
 10
-2.725818
 20
1.090601
 30
0.0
 11
-2.727924
 21
1.092456
 31
0.0
  0
LINE
  8
0
  6
CONTINUOUS
 62
     7
  5
41F
 10
-2.727924
 20
1.092456
 30
0.0
 11
-2.729972
 21
1.095609
 31
0.0
  0
LINE
  8
0
  6
CONTINUOUS
 62
     7
  5
420
 10
-2.729972
 20
1.095609
 30
0.0
 11
-2.731931
 21
1.100057
 31
0.0
  0
LINE
  8
0
  6
CONTINUOUS
 62
     7
  5
421
 10
-2.731931
 20
1.100057
 30
0.0
 11
-2.733777
 21
1.105759
 31
0.0
  0
LINE
  8
0
  6
CONTINUOUS
 62
     7
  5
422
 10
-2.733777
 20
1.105759
 30
0.0
 11
-2.735492
 21
1.112644
 31
0.0
  0
LINE
  8
0
  6
CONTINUOUS
 62
     7
  5
423
 10
-2.735492
 20
1.112644
 30
0.0
 11
-2.737062
 21
1.120597
 31
0.0
  0
LINE
  8
0
  6
CONTINUOUS
 62
     7
  5
424
 10
-2.737062
 20
1.120597
 30
0.0
 11
-2.738473
 21
1.12946
 31
0.0
  0
LINE
  8
0
  6
CONTINUOUS
 62
     7
  5
425
 10
-2.738473
 20
1.12946
 30
0.0
 11
-2.739722
 21
1.139056
 31
0.0
  0
LINE
  8
0
  6
CONTINUOUS
 62
     7
  5
426
 10
-2.739722
 20
1.139056
 30
0.0
 11
-2.740848
 21
1.149604
 31
0.0
  0
LINE
  8
0
  6
CONTINUOUS
 62
     7
  5
427
 10
-2.740848
 20
1.149604
 30
0.0
 11
-2.741856
 21
1.161182
 31
0.0
  0
LINE
  8
0
  6
CONTINUOUS
 62
     7
  5
428
 10
-2.741856
 20
1.161182
 30
0.0
 11
-2.742732
 21
1.173647
 31
0.0
  0
LINE
  8
0
  6
CONTINUOUS
 62
     7
  5
429
 10
-2.742732
 20
1.173647
 30
0.0
 11
-2.743463
 21
1.186833
 31
0.0
  0
LINE
  8
0
  6
CONTINUOUS
 62
     7
  5
42A
 10
-2.743463
 20
1.186833
 30
0.0
 11
-2.744046
 21
1.200563
 31
0.0
  0
LINE
  8
0
  6
CONTINUOUS
 62
     7
  5
42B
 10
-2.744046
 20
1.200563
 30
0.0
 11
-2.744478
 21
1.214653
 31
0.0
  0
LINE
  8
0
  6
CONTINUOUS
 62
     7
  5
42C
 10
-2.744478
 20
1.214653
 30
0.0
 11
-2.74476
 21
1.228886
 31
0.0
  0
LINE
  8
0
  6
CONTINUOUS
 62
     7
  5
42D
 10
-2.74476
 20
1.228886
 30
0.0
 11
-2.744897
 21
1.243032
 31
0.0
  0
LINE
  8
0
  6
CONTINUOUS
 62
     7
  5
42E
 10
-2.744897
 20
1.243032
 30
0.0
 11
-2.744897
 21
1.256968
 31
0.0
  0
LINE
  8
0
  6
CONTINUOUS
 62
     7
  5
42F
 10
-2.744897
 20
1.256968
 30
0.0
 11
-2.74476
 21
1.271114
 31
0.0
  0
LINE
  8
0
  6
CONTINUOUS
 62
     7
  5
430
 10
-2.74476
 20
1.271114
 30
0.0
 11
-2.744478
 21
1.285347
 31
0.0
  0
LINE
  8
0
  6
CONTINUOUS
 62
     7
  5
431
 10
-2.744478
 20
1.285347
 30
0.0
 11
-2.744046
 21
1.299437
 31
0.0
  0
LINE
  8
0
  6
CONTINUOUS
 62
     7
  5
432
 10
-2.744046
 20
1.299437
 30
0.0
 11
-2.743463
 21
1.313167
 31
0.0
  0
LINE
  8
0
  6
CONTINUOUS
 62
     7
  5
433
 10
-2.743463
 20
1.313167
 30
0.0
 11
-2.742732
 21
1.326353
 31
0.0
  0
LINE
  8
0
  6
CONTINUOUS
 62
     7
  5
434
 10
-2.742732
 20
1.326353
 30
0.0
 11
-2.741856
 21
1.338818
 31
0.0
  0
LINE
  8
0
  6
CONTINUOUS
 62
     7
  5
435
 10
-2.741856
 20
1.338818
 30
0.0
 11
-2.740848
 21
1.350396
 31
0.0
  0
LINE
  8
0
  6
CONTINUOUS
 62
     7
  5
436
 10
-2.740848
 20
1.350396
 30
0.0
 11
-2.739722
 21
1.360944
 31
0.0
  0
LINE
  8
0
  6
CONTINUOUS
 62
     7
  5
437
 10
-2.739722
 20
1.360944
 30
0.0
 11
-2.738473
 21
1.37054
 31
0.0
  0
LINE
  8
0
  6
CONTINUOUS
 62
     7
  5
438
 10
-2.738473
 20
1.37054
 30
0.0
 11
-2.737062
 21
1.379403
 31
0.0
  0
LINE
  8
0
  6
CONTINUOUS
 62
     7
  5
439
 10
-2.737062
 20
1.379403
 30
0.0
 11
-2.735492
 21
1.387356
 31
0.0
  0
LINE
  8
0
  6
CONTINUOUS
 62
     7
  5
43A
 10
-2.735492
 20
1.387356
 30
0.0
 11
-2.733777
 21
1.394241
 31
0.0
  0
LINE
  8
0
  6
CONTINUOUS
 62
     7
  5
43B
 10
-2.733777
 20
1.394241
 30
0.0
 11
-2.731931
 21
1.399943
 31
0.0
  0
LINE
  8
0
  6
CONTINUOUS
 62
     7
  5
43C
 10
-2.731931
 20
1.399943
 30
0.0
 11
-2.729972
 21
1.404391
 31
0.0
  0
LINE
  8
0
  6
CONTINUOUS
 62
     7
  5
43D
 10
-2.729972
 20
1.404391
 30
0.0
 11
-2.727924
 21
1.407544
 31
0.0
  0
LINE
  8
0
  6
CONTINUOUS
 62
     7
  5
43E
 10
-2.727924
 20
1.407544
 30
0.0
 11
-2.725818
 21
1.409399
 31
0.0
  0
LINE
  8
0
  6
CONTINUOUS
 62
     7
  5
43F
 10
-2.725818
 20
1.409399
 30
0.0
 11
-2.723689
 21
1.41
 31
0.0
  0
LINE
  8
0
  6
CONTINUOUS
 62
     7
  5
440
 10
-2.695037
 20
1.25
 30
0.0
 11
-2.695068
 21
1.243011
 31
0.0
  0
LINE
  8
0
  6
CONTINUOUS
 62
     7
  5
441
 10
-2.695068
 20
1.243011
 30
0.0
 11
-2.695163
 21
1.235945
 31
0.0
  0
LINE
  8
0
  6
CONTINUOUS
 62
     7
  5
442
 10
-2.695163
 20
1.235945
 30
0.0
 11
-2.695322
 21
1.228829
 31
0.0
  0
LINE
  8
0
  6
CONTINUOUS
 62
     7
  5
443
 10
-2.695322
 20
1.228829
 30
0.0
 11
-2.695548
 21
1.221693
 31
0.0
  0
LINE
  8
0
  6
CONTINUOUS
 62
     7
  5
444
 10
-2.695548
 20
1.221693
 30
0.0
 11
-2.69584
 21
1.214567
 31
0.0
  0
LINE
  8
0
  6
CONTINUOUS
 62
     7
  5
445
 10
-2.69584
 20
1.214567
 30
0.0
 11
-2.696198
 21
1.207479
 31
0.0
  0
LINE
  8
0
  6
CONTINUOUS
 62
     7
  5
446
 10
-2.696198
 20
1.207479
 30
0.0
 11
-2.696621
 21
1.200458
 31
0.0
  0
LINE
  8
0
  6
CONTINUOUS
 62
     7
  5
447
 10
-2.696621
 20
1.200458
 30
0.0
 11
-2.697108
 21
1.193529
 31
0.0
  0
LINE
  8
0
  6
CONTINUOUS
 62
     7
  5
448
 10
-2.697108
 20
1.193529
 30
0.0
 11
-2.697656
 21
1.186717
 31
0.0
  0
LINE
  8
0
  6
CONTINUOUS
 62
     7
  5
449
 10
-2.697656
 20
1.186717
 30
0.0
 11
-2.698262
 21
1.180045
 31
0.0
  0
LINE
  8
0
  6
CONTINUOUS
 62
     7
  5
44A
 10
-2.698262
 20
1.180045
 30
0.0
 11
-2.698924
 21
1.173533
 31
0.0
  0
LINE
  8
0
  6
CONTINUOUS
 62
     7
  5
44B
 10
-2.698924
 20
1.173533
 30
0.0
 11
-2.699637
 21
1.167203
 31
0.0
  0
LINE
  8
0
  6
CONTINUOUS
 62
     7
  5
44C
 10
-2.699637
 20
1.167203
 30
0.0
 11
-2.700398
 21
1.161078
 31
0.0
  0
LINE
  8
0
  6
CONTINUOUS
 62
     7
  5
44D
 10
-2.700398
 20
1.161078
 30
0.0
 11
-2.701201
 21
1.155177
 31
0.0
  0
LINE
  8
0
  6
CONTINUOUS
 62
     7
  5
44E
 10
-2.701201
 20
1.155177
 30
0.0
 11
-2.702041
 21
1.149519
 31
0.0
  0
LINE
  8
0
  6
CONTINUOUS
 62
     7
  5
44F
 10
-2.702041
 20
1.149519
 30
0.0
 11
-2.702914
 21
1.144121
 31
0.0
  0
LINE
  8
0
  6
CONTINUOUS
 62
     7
  5
450
 10
-2.702914
 20
1.144121
 30
0.0
 11
-2.703812
 21
1.138997
 31
0.0
  0
LINE
  8
0
  6
CONTINUOUS
 62
     7
  5
451
 10
-2.703812
 20
1.138997
 30
0.0
 11
-2.704736
 21
1.134127
 31
0.0
  0
LINE
  8
0
  6
CONTINUOUS
 62
     7
  5
452
 10
-2.704736
 20
1.134127
 30
0.0
 11
-2.705702
 21
1.129422
 31
0.0
  0
LINE
  8
0
  6
CONTINUOUS
 62
     7
  5
453
 10
-2.705702
 20
1.129422
 30
0.0
 11
-2.706709
 21
1.124898
 31
0.0
  0
LINE
  8
0
  6
CONTINUOUS
 62
     7
  5
454
 10
-2.706709
 20
1.124898
 30
0.0
 11
-2.707753
 21
1.120578
 31
0.0
  0
LINE
  8
0
  6
CONTINUOUS
 62
     7
  5
455
 10
-2.707753
 20
1.120578
 30
0.0
 11
-2.708829
 21
1.116486
 31
0.0
  0
LINE
  8
0
  6
CONTINUOUS
 62
     7
  5
456
 10
-2.708829
 20
1.116486
 30
0.0
 11
-2.709933
 21
1.112642
 31
0.0
  0
LINE
  8
0
  6
CONTINUOUS
 62
     7
  5
457
 10
-2.709933
 20
1.112642
 30
0.0
 11
-2.711061
 21
1.109064
 31
0.0
  0
LINE
  8
0
  6
CONTINUOUS
 62
     7
  5
458
 10
-2.711061
 20
1.109064
 30
0.0
 11
-2.712207
 21
1.105768
 31
0.0
  0
LINE
  8
0
  6
CONTINUOUS
 62
     7
  5
459
 10
-2.712207
 20
1.105768
 30
0.0
 11
-2.713367
 21
1.102767
 31
0.0
  0
LINE
  8
0
  6
CONTINUOUS
 62
     7
  5
45A
 10
-2.713367
 20
1.102767
 30
0.0
 11
-2.714537
 21
1.100071
 31
0.0
  0
LINE
  8
0
  6
CONTINUOUS
 62
     7
  5
45B
 10
-2.714537
 20
1.100071
 30
0.0
 11
-2.715711
 21
1.097687
 31
0.0
  0
LINE
  8
0
  6
CONTINUOUS
 62
     7
  5
45C
 10
-2.715711
 20
1.097687
 30
0.0
 11
-2.716886
 21
1.095622
 31
0.0
  0
LINE
  8
0
  6
CONTINUOUS
 62
     7
  5
45D
 10
-2.716886
 20
1.095622
 30
0.0
 11
-2.718057
 21
1.093881
 31
0.0
  0
LINE
  8
0
  6
CONTINUOUS
 62
     7
  5
45E
 10
-2.718057
 20
1.093881
 30
0.0
 11
-2.71922
 21
1.092465
 31
0.0
  0
LINE
  8
0
  6
CONTINUOUS
 62
     7
  5
45F
 10
-2.71922
 20
1.092465
 30
0.0
 11
-2.720368
 21
1.091374
 31
0.0
  0
LINE
  8
0
  6
CONTINUOUS
 62
     7
  5
460
 10
-2.720368
 20
1.091374
 30
0.0
 11
-2.721499
 21
1.090604
 31
0.0
  0
LINE
  8
0
  6
CONTINUOUS
 62
     7
  5
461
 10
-2.721499
 20
1.090604
 30
0.0
 11
-2.722607
 21
1.090149
 31
0.0
  0
LINE
  8
0
  6
CONTINUOUS
 62
     7
  5
462
 10
-2.722607
 20
1.090149
 30
0.0
 11
-2.723689
 21
1.09
 31
0.0
  0
LINE
  8
0
  6
CONTINUOUS
 62
     7
  5
463
 10
-2.76625
 20
-1.41
 30
0.0
 11
-2.766223
 21
-1.40939
 31
0.0
  0
LINE
  8
0
  6
CONTINUOUS
 62
     7
  5
464
 10
-2.766223
 20
-1.40939
 30
0.0
 11
-2.766139
 21
-1.407511
 31
0.0
  0
LINE
  8
0
  6
CONTINUOUS
 62
     7
  5
465
 10
-2.766139
 20
-1.407511
 30
0.0
 11
-2.766
 21
-1.404323
 31
0.0
  0
LINE
  8
0
  6
CONTINUOUS
 62
     7
  5
466
 10
-2.766
 20
-1.404323
 30
0.0
 11
-2.765809
 21
-1.399831
 31
0.0
  0
LINE
  8
0
  6
CONTINUOUS
 62
     7
  5
467
 10
-2.765809
 20
-1.399831
 30
0.0
 11
-2.765573
 21
-1.394082
 31
0.0
  0
LINE
  8
0
  6
CONTINUOUS
 62
     7
  5
468
 10
-2.765573
 20
-1.394082
 30
0.0
 11
-2.7653
 21
-1.387152
 31
0.0
  0
LINE
  8
0
  6
CONTINUOUS
 62
     7
  5
469
 10
-2.7653
 20
-1.387152
 30
0.0
 11
-2.765003
 21
-1.379162
 31
0.0
  0
LINE
  8
0
  6
CONTINUOUS
 62
     7
  5
46A
 10
-2.765003
 20
-1.379162
 30
0.0
 11
-2.764692
 21
-1.370275
 31
0.0
  0
LINE
  8
0
  6
CONTINUOUS
 62
     7
  5
46B
 10
-2.764692
 20
-1.370275
 30
0.0
 11
-2.764382
 21
-1.360667
 31
0.0
  0
LINE
  8
0
  6
CONTINUOUS
 62
     7
  5
46C
 10
-2.764382
 20
-1.360667
 30
0.0
 11
-2.76407
 21
-1.350101
 31
0.0
  0
LINE
  8
0
  6
CONTINUOUS
 62
     7
  5
46D
 10
-2.76407
 20
-1.350101
 30
0.0
 11
-2.763765
 21
-1.338523
 31
0.0
  0
LINE
  8
0
  6
CONTINUOUS
 62
     7
  5
46E
 10
-2.763765
 20
-1.338523
 30
0.0
 11
-2.763478
 21
-1.326073
 31
0.0
  0
LINE
  8
0
  6
CONTINUOUS
 62
     7
  5
46F
 10
-2.763478
 20
-1.326073
 30
0.0
 11
-2.763222
 21
-1.312918
 31
0.0
  0
LINE
  8
0
  6
CONTINUOUS
 62
     7
  5
470
 10
-2.763222
 20
-1.312918
 30
0.0
 11
-2.763007
 21
-1.29923
 31
0.0
  0
LINE
  8
0
  6
CONTINUOUS
 62
     7
  5
471
 10
-2.763007
 20
-1.29923
 30
0.0
 11
-2.762841
 21
-1.285194
 31
0.0
  0
LINE
  8
0
  6
CONTINUOUS
 62
     7
  5
472
 10
-2.762841
 20
-1.285194
 30
0.0
 11
-2.76273
 21
-1.27102
 31
0.0
  0
LINE
  8
0
  6
CONTINUOUS
 62
     7
  5
473
 10
-2.76273
 20
-1.27102
 30
0.0
 11
-2.762675
 21
-1.256937
 31
0.0
  0
LINE
  8
0
  6
CONTINUOUS
 62
     7
  5
474
 10
-2.762675
 20
-1.256937
 30
0.0
 11
-2.762675
 21
-1.243063
 31
0.0
  0
LINE
  8
0
  6
CONTINUOUS
 62
     7
  5
475
 10
-2.762675
 20
-1.243063
 30
0.0
 11
-2.76273
 21
-1.22898
 31
0.0
  0
LINE
  8
0
  6
CONTINUOUS
 62
     7
  5
476
 10
-2.76273
 20
-1.22898
 30
0.0
 11
-2.762841
 21
-1.214806
 31
0.0
  0
LINE
  8
0
  6
CONTINUOUS
 62
     7
  5
477
 10
-2.762841
 20
-1.214806
 30
0.0
 11
-2.763007
 21
-1.20077
 31
0.0
  0
LINE
  8
0
  6
CONTINUOUS
 62
     7
  5
478
 10
-2.763007
 20
-1.20077
 30
0.0
 11
-2.763222
 21
-1.187082
 31
0.0
  0
LINE
  8
0
  6
CONTINUOUS
 62
     7
  5
479
 10
-2.763222
 20
-1.187082
 30
0.0
 11
-2.763478
 21
-1.173927
 31
0.0
  0
LINE
  8
0
  6
CONTINUOUS
 62
     7
  5
47A
 10
-2.763478
 20
-1.173927
 30
0.0
 11
-2.763765
 21
-1.161477
 31
0.0
  0
LINE
  8
0
  6
CONTINUOUS
 62
     7
  5
47B
 10
-2.763765
 20
-1.161477
 30
0.0
 11
-2.76407
 21
-1.149899
 31
0.0
  0
LINE
  8
0
  6
CONTINUOUS
 62
     7
  5
47C
 10
-2.76407
 20
-1.149899
 30
0.0
 11
-2.764382
 21
-1.139333
 31
0.0
  0
LINE
  8
0
  6
CONTINUOUS
 62
     7
  5
47D
 10
-2.764382
 20
-1.139333
 30
0.0
 11
-2.764692
 21
-1.129725
 31
0.0
  0
LINE
  8
0
  6
CONTINUOUS
 62
     7
  5
47E
 10
-2.764692
 20
-1.129725
 30
0.0
 11
-2.765003
 21
-1.120838
 31
0.0
  0
LINE
  8
0
  6
CONTINUOUS
 62
     7
  5
47F
 10
-2.765003
 20
-1.120838
 30
0.0
 11
-2.7653
 21
-1.112848
 31
0.0
  0
LINE
  8
0
  6
CONTINUOUS
 62
     7
  5
480
 10
-2.7653
 20
-1.112848
 30
0.0
 11
-2.765573
 21
-1.105918
 31
0.0
  0
LINE
  8
0
  6
CONTINUOUS
 62
     7
  5
481
 10
-2.765573
 20
-1.105918
 30
0.0
 11
-2.765809
 21
-1.100169
 31
0.0
  0
LINE
  8
0
  6
CONTINUOUS
 62
     7
  5
482
 10
-2.765809
 20
-1.100169
 30
0.0
 11
-2.766
 21
-1.095677
 31
0.0
  0
LINE
  8
0
  6
CONTINUOUS
 62
     7
  5
483
 10
-2.766
 20
-1.095677
 30
0.0
 11
-2.766139
 21
-1.092489
 31
0.0
  0
LINE
  8
0
  6
CONTINUOUS
 62
     7
  5
484
 10
-2.766139
 20
-1.092489
 30
0.0
 11
-2.766223
 21
-1.09061
 31
0.0
  0
LINE
  8
0
  6
CONTINUOUS
 62
     7
  5
485
 10
-2.766223
 20
-1.09061
 30
0.0
 11
-2.76625
 21
-1.09
 31
0.0
  0
LINE
  8
0
  6
CONTINUOUS
 62
     7
  5
486
 10
-2.76625
 20
-1.09
 30
0.0
 11
-2.766223
 21
-1.09061
 31
0.0
  0
LINE
  8
0
  6
CONTINUOUS
 62
     7
  5
487
 10
-2.766223
 20
-1.09061
 30
0.0
 11
-2.766139
 21
-1.092489
 31
0.0
  0
LINE
  8
0
  6
CONTINUOUS
 62
     7
  5
488
 10
-2.766139
 20
-1.092489
 30
0.0
 11
-2.766
 21
-1.095677
 31
0.0
  0
LINE
  8
0
  6
CONTINUOUS
 62
     7
  5
489
 10
-2.766
 20
-1.095677
 30
0.0
 11
-2.765809
 21
-1.100169
 31
0.0
  0
LINE
  8
0
  6
CONTINUOUS
 62
     7
  5
48A
 10
-2.765809
 20
-1.100169
 30
0.0
 11
-2.765573
 21
-1.105918
 31
0.0
  0
LINE
  8
0
  6
CONTINUOUS
 62
     7
  5
48B
 10
-2.765573
 20
-1.105918
 30
0.0
 11
-2.7653
 21
-1.112848
 31
0.0
  0
LINE
  8
0
  6
CONTINUOUS
 62
     7
  5
48C
 10
-2.7653
 20
-1.112848
 30
0.0
 11
-2.765003
 21
-1.120838
 31
0.0
  0
LINE
  8
0
  6
CONTINUOUS
 62
     7
  5
48D
 10
-2.765003
 20
-1.120838
 30
0.0
 11
-2.764692
 21
-1.129725
 31
0.0
  0
LINE
  8
0
  6
CONTINUOUS
 62
     7
  5
48E
 10
-2.764692
 20
-1.129725
 30
0.0
 11
-2.764382
 21
-1.139333
 31
0.0
  0
LINE
  8
0
  6
CONTINUOUS
 62
     7
  5
48F
 10
-2.764382
 20
-1.139333
 30
0.0
 11
-2.76407
 21
-1.149899
 31
0.0
  0
LINE
  8
0
  6
CONTINUOUS
 62
     7
  5
490
 10
-2.76407
 20
-1.149899
 30
0.0
 11
-2.763765
 21
-1.161477
 31
0.0
  0
LINE
  8
0
  6
CONTINUOUS
 62
     7
  5
491
 10
-2.763765
 20
-1.161477
 30
0.0
 11
-2.763478
 21
-1.173927
 31
0.0
  0
LINE
  8
0
  6
CONTINUOUS
 62
     7
  5
492
 10
-2.763478
 20
-1.173927
 30
0.0
 11
-2.763222
 21
-1.187082
 31
0.0
  0
LINE
  8
0
  6
CONTINUOUS
 62
     7
  5
493
 10
-2.763222
 20
-1.187082
 30
0.0
 11
-2.763007
 21
-1.20077
 31
0.0
  0
LINE
  8
0
  6
CONTINUOUS
 62
     7
  5
494
 10
-2.763007
 20
-1.20077
 30
0.0
 11
-2.762841
 21
-1.214806
 31
0.0
  0
LINE
  8
0
  6
CONTINUOUS
 62
     7
  5
495
 10
-2.762841
 20
-1.214806
 30
0.0
 11
-2.76273
 21
-1.22898
 31
0.0
  0
LINE
  8
0
  6
CONTINUOUS
 62
     7
  5
496
 10
-2.76273
 20
-1.22898
 30
0.0
 11
-2.762675
 21
-1.243063
 31
0.0
  0
LINE
  8
0
  6
CONTINUOUS
 62
     7
  5
497
 10
-2.762675
 20
-1.243063
 30
0.0
 11
-2.762675
 21
-1.256937
 31
0.0
  0
LINE
  8
0
  6
CONTINUOUS
 62
     7
  5
498
 10
-2.762675
 20
-1.256937
 30
0.0
 11
-2.76273
 21
-1.27102
 31
0.0
  0
LINE
  8
0
  6
CONTINUOUS
 62
     7
  5
499
 10
-2.76273
 20
-1.27102
 30
0.0
 11
-2.762841
 21
-1.285194
 31
0.0
  0
LINE
  8
0
  6
CONTINUOUS
 62
     7
  5
49A
 10
-2.762841
 20
-1.285194
 30
0.0
 11
-2.763007
 21
-1.29923
 31
0.0
  0
LINE
  8
0
  6
CONTINUOUS
 62
     7
  5
49B
 10
-2.763007
 20
-1.29923
 30
0.0
 11
-2.763222
 21
-1.312918
 31
0.0
  0
LINE
  8
0
  6
CONTINUOUS
 62
     7
  5
49C
 10
-2.763222
 20
-1.312918
 30
0.0
 11
-2.763478
 21
-1.326073
 31
0.0
  0
LINE
  8
0
  6
CONTINUOUS
 62
     7
  5
49D
 10
-2.763478
 20
-1.326073
 30
0.0
 11
-2.763765
 21
-1.338523
 31
0.0
  0
LINE
  8
0
  6
CONTINUOUS
 62
     7
  5
49E
 10
-2.763765
 20
-1.338523
 30
0.0
 11
-2.76407
 21
-1.350101
 31
0.0
  0
LINE
  8
0
  6
CONTINUOUS
 62
     7
  5
49F
 10
-2.76407
 20
-1.350101
 30
0.0
 11
-2.764382
 21
-1.360667
 31
0.0
  0
LINE
  8
0
  6
CONTINUOUS
 62
     7
  5
4A0
 10
-2.764382
 20
-1.360667
 30
0.0
 11
-2.764692
 21
-1.370275
 31
0.0
  0
LINE
  8
0
  6
CONTINUOUS
 62
     7
  5
4A1
 10
-2.764692
 20
-1.370275
 30
0.0
 11
-2.765003
 21
-1.379162
 31
0.0
  0
LINE
  8
0
  6
CONTINUOUS
 62
     7
  5
4A2
 10
-2.765003
 20
-1.379162
 30
0.0
 11
-2.7653
 21
-1.387152
 31
0.0
  0
LINE
  8
0
  6
CONTINUOUS
 62
     7
  5
4A3
 10
-2.7653
 20
-1.387152
 30
0.0
 11
-2.765573
 21
-1.394082
 31
0.0
  0
LINE
  8
0
  6
CONTINUOUS
 62
     7
  5
4A4
 10
-2.765573
 20
-1.394082
 30
0.0
 11
-2.765809
 21
-1.399831
 31
0.0
  0
LINE
  8
0
  6
CONTINUOUS
 62
     7
  5
4A5
 10
-2.765809
 20
-1.399831
 30
0.0
 11
-2.766
 21
-1.404323
 31
0.0
  0
LINE
  8
0
  6
CONTINUOUS
 62
     7
  5
4A6
 10
-2.766
 20
-1.404323
 30
0.0
 11
-2.766139
 21
-1.407511
 31
0.0
  0
LINE
  8
0
  6
CONTINUOUS
 62
     7
  5
4A7
 10
-2.766139
 20
-1.407511
 30
0.0
 11
-2.766223
 21
-1.40939
 31
0.0
  0
LINE
  8
0
  6
CONTINUOUS
 62
     7
  5
4A8
 10
-2.766223
 20
-1.40939
 30
0.0
 11
-2.76625
 21
-1.41
 31
0.0
  0
LINE
  8
0
  6
CONTINUOUS
 62
     7
  5
4A9
 10
-2.76625
 20
1.41
 30
0.0
 11
-2.766223
 21
1.40939
 31
0.0
  0
LINE
  8
0
  6
CONTINUOUS
 62
     7
  5
4AA
 10
-2.766223
 20
1.40939
 30
0.0
 11
-2.766139
 21
1.407511
 31
0.0
  0
LINE
  8
0
  6
CONTINUOUS
 62
     7
  5
4AB
 10
-2.766139
 20
1.407511
 30
0.0
 11
-2.766
 21
1.404323
 31
0.0
  0
LINE
  8
0
  6
CONTINUOUS
 62
     7
  5
4AC
 10
-2.766
 20
1.404323
 30
0.0
 11
-2.765809
 21
1.399831
 31
0.0
  0
LINE
  8
0
  6
CONTINUOUS
 62
     7
  5
4AD
 10
-2.765809
 20
1.399831
 30
0.0
 11
-2.765573
 21
1.394082
 31
0.0
  0
LINE
  8
0
  6
CONTINUOUS
 62
     7
  5
4AE
 10
-2.765573
 20
1.394082
 30
0.0
 11
-2.7653
 21
1.387152
 31
0.0
  0
LINE
  8
0
  6
CONTINUOUS
 62
     7
  5
4AF
 10
-2.7653
 20
1.387152
 30
0.0
 11
-2.765003
 21
1.379162
 31
0.0
  0
LINE
  8
0
  6
CONTINUOUS
 62
     7
  5
4B0
 10
-2.765003
 20
1.379162
 30
0.0
 11
-2.764692
 21
1.370275
 31
0.0
  0
LINE
  8
0
  6
CONTINUOUS
 62
     7
  5
4B1
 10
-2.764692
 20
1.370275
 30
0.0
 11
-2.764382
 21
1.360667
 31
0.0
  0
LINE
  8
0
  6
CONTINUOUS
 62
     7
  5
4B2
 10
-2.764382
 20
1.360667
 30
0.0
 11
-2.76407
 21
1.350101
 31
0.0
  0
LINE
  8
0
  6
CONTINUOUS
 62
     7
  5
4B3
 10
-2.76407
 20
1.350101
 30
0.0
 11
-2.763765
 21
1.338523
 31
0.0
  0
LINE
  8
0
  6
CONTINUOUS
 62
     7
  5
4B4
 10
-2.763765
 20
1.338523
 30
0.0
 11
-2.763478
 21
1.326073
 31
0.0
  0
LINE
  8
0
  6
CONTINUOUS
 62
     7
  5
4B5
 10
-2.763478
 20
1.326073
 30
0.0
 11
-2.763222
 21
1.312918
 31
0.0
  0
LINE
  8
0
  6
CONTINUOUS
 62
     7
  5
4B6
 10
-2.763222
 20
1.312918
 30
0.0
 11
-2.763007
 21
1.29923
 31
0.0
  0
LINE
  8
0
  6
CONTINUOUS
 62
     7
  5
4B7
 10
-2.763007
 20
1.29923
 30
0.0
 11
-2.762841
 21
1.285194
 31
0.0
  0
LINE
  8
0
  6
CONTINUOUS
 62
     7
  5
4B8
 10
-2.762841
 20
1.285194
 30
0.0
 11
-2.76273
 21
1.27102
 31
0.0
  0
LINE
  8
0
  6
CONTINUOUS
 62
     7
  5
4B9
 10
-2.76273
 20
1.27102
 30
0.0
 11
-2.762675
 21
1.256937
 31
0.0
  0
LINE
  8
0
  6
CONTINUOUS
 62
     7
  5
4BA
 10
-2.762675
 20
1.256937
 30
0.0
 11
-2.762675
 21
1.243063
 31
0.0
  0
LINE
  8
0
  6
CONTINUOUS
 62
     7
  5
4BB
 10
-2.762675
 20
1.243063
 30
0.0
 11
-2.76273
 21
1.22898
 31
0.0
  0
LINE
  8
0
  6
CONTINUOUS
 62
     7
  5
4BC
 10
-2.76273
 20
1.22898
 30
0.0
 11
-2.762841
 21
1.214806
 31
0.0
  0
LINE
  8
0
  6
CONTINUOUS
 62
     7
  5
4BD
 10
-2.762841
 20
1.214806
 30
0.0
 11
-2.763007
 21
1.20077
 31
0.0
  0
LINE
  8
0
  6
CONTINUOUS
 62
     7
  5
4BE
 10
-2.763007
 20
1.20077
 30
0.0
 11
-2.763222
 21
1.187082
 31
0.0
  0
LINE
  8
0
  6
CONTINUOUS
 62
     7
  5
4BF
 10
-2.763222
 20
1.187082
 30
0.0
 11
-2.763478
 21
1.173927
 31
0.0
  0
LINE
  8
0
  6
CONTINUOUS
 62
     7
  5
4C0
 10
-2.763478
 20
1.173927
 30
0.0
 11
-2.763765
 21
1.161477
 31
0.0
  0
LINE
  8
0
  6
CONTINUOUS
 62
     7
  5
4C1
 10
-2.763765
 20
1.161477
 30
0.0
 11
-2.76407
 21
1.149899
 31
0.0
  0
LINE
  8
0
  6
CONTINUOUS
 62
     7
  5
4C2
 10
-2.76407
 20
1.149899
 30
0.0
 11
-2.764382
 21
1.139333
 31
0.0
  0
LINE
  8
0
  6
CONTINUOUS
 62
     7
  5
4C3
 10
-2.764382
 20
1.139333
 30
0.0
 11
-2.764692
 21
1.129725
 31
0.0
  0
LINE
  8
0
  6
CONTINUOUS
 62
     7
  5
4C4
 10
-2.764692
 20
1.129725
 30
0.0
 11
-2.765003
 21
1.120838
 31
0.0
  0
LINE
  8
0
  6
CONTINUOUS
 62
     7
  5
4C5
 10
-2.765003
 20
1.120838
 30
0.0
 11
-2.7653
 21
1.112848
 31
0.0
  0
LINE
  8
0
  6
CONTINUOUS
 62
     7
  5
4C6
 10
-2.7653
 20
1.112848
 30
0.0
 11
-2.765573
 21
1.105918
 31
0.0
  0
LINE
  8
0
  6
CONTINUOUS
 62
     7
  5
4C7
 10
-2.765573
 20
1.105918
 30
0.0
 11
-2.765809
 21
1.100169
 31
0.0
  0
LINE
  8
0
  6
CONTINUOUS
 62
     7
  5
4C8
 10
-2.765809
 20
1.100169
 30
0.0
 11
-2.766
 21
1.095677
 31
0.0
  0
LINE
  8
0
  6
CONTINUOUS
 62
     7
  5
4C9
 10
-2.766
 20
1.095677
 30
0.0
 11
-2.766139
 21
1.092489
 31
0.0
  0
LINE
  8
0
  6
CONTINUOUS
 62
     7
  5
4CA
 10
-2.766139
 20
1.092489
 30
0.0
 11
-2.766223
 21
1.09061
 31
0.0
  0
LINE
  8
0
  6
CONTINUOUS
 62
     7
  5
4CB
 10
-2.766223
 20
1.09061
 30
0.0
 11
-2.76625
 21
1.09
 31
0.0
  0
LINE
  8
0
  6
CONTINUOUS
 62
     7
  5
4CC
 10
-1.505
 20
-1.4
 30
0.0
 11
-1.505
 21
-1.669
 31
0.0
  0
LINE
  8
0
  6
CONTINUOUS
 62
     7
  5
4CD
 10
-1.505
 20
1.669
 30
0.0
 11
-1.505
 21
1.4
 31
0.0
  0
LINE
  8
0
  6
CONTINUOUS
 62
     7
  5
4CE
 10
-1.506
 20
1.176
 30
0.0
 11
-1.506
 21
1.67
 31
0.0
  0
LINE
  8
0
  6
CONTINUOUS
 62
     7
  5
4CF
 10
-1.506
 20
-1.67
 30
0.0
 11
-1.506
 21
-1.176
 31
0.0
  0
LINE
  8
0
  6
CONTINUOUS
 62
     7
  5
4D0
 10
-1.506
 20
-1.176
 30
0.0
 11
-1.681
 21
-1.176
 31
0.0
  0
LINE
  8
0
  6
CONTINUOUS
 62
     7
  5
4D1
 10
-1.681
 20
1.176
 30
0.0
 11
-1.506
 21
1.176
 31
0.0
  0
LINE
  8
0
  6
CONTINUOUS
 62
     7
  5
4D2
 10
-1.681
 20
-1.176
 30
0.0
 11
-1.681
 21
1.176
 31
0.0
  0
LINE
  8
0
  6
CONTINUOUS
 62
     7
  5
4D3
 10
-2.65625
 20
1.67
 30
0.0
 11
-2.76625
 21
1.67
 31
0.0
  0
LINE
  8
0
  6
CONTINUOUS
 62
     7
  5
4D4
 10
-2.65625
 20
1.67
 30
0.0
 11
-1.506
 21
1.67
 31
0.0
  0
LINE
  8
0
  6
CONTINUOUS
 62
     7
  5
4D5
 10
-2.76625
 20
-1.67
 30
0.0
 11
-2.65625
 21
-1.67
 31
0.0
  0
LINE
  8
0
  6
CONTINUOUS
 62
     7
  5
4D6
 10
-2.65625
 20
1.67
 30
0.0
 11
-2.65625
 21
-1.67
 31
0.0
  0
LINE
  8
0
  6
CONTINUOUS
 62
     7
  5
4D7
 10
-1.506
 20
-1.67
 30
0.0
 11
-2.65625
 21
-1.67
 31
0.0
  0
LINE
  8
0
  6
CONTINUOUS
 62
     7
  5
4D8
 10
-2.76625
 20
1.67
 30
0.0
 11
-2.76625
 21
1.41
 31
0.0
  0
LINE
  8
0
  6
CONTINUOUS
 62
     7
  5
4D9
 10
-2.76625
 20
-0.95
 30
0.0
 11
-2.76625
 21
-1.09
 31
0.0
  0
LINE
  8
0
  6
CONTINUOUS
 62
     7
  5
4DA
 10
-2.76625
 20
1.09
 30
0.0
 11
-2.76625
 21
0.95
 31
0.0
  0
LINE
  8
0
  6
CONTINUOUS
 62
     7
  5
4DB
 10
-2.76625
 20
-1.41
 30
0.0
 11
-2.76625
 21
-1.67
 31
0.0
  0
LINE
  8
0
  6
CONTINUOUS
 62
     7
  5
4DC
 10
-3.21875
 20
0.95
 30
0.0
 11
-3.32875
 21
0.95
 31
0.0
  0
LINE
  8
0
  6
CONTINUOUS
 62
     7
  5
4DD
 10
-3.21875
 20
0.95
 30
0.0
 11
-2.65625
 21
0.95
 31
0.0
  0
LINE
  8
0
  6
CONTINUOUS
 62
     7
  5
4DE
 10
-2.65625
 20
-0.95
 30
0.0
 11
-3.21875
 21
-0.95
 31
0.0
  0
LINE
  8
0
  6
CONTINUOUS
 62
     7
  5
4DF
 10
-3.32875
 20
-0.95
 30
0.0
 11
-3.21875
 21
-0.95
 31
0.0
  0
LINE
  8
0
  6
CONTINUOUS
 62
     7
  5
4E0
 10
-3.323151
 20
-0.645
 30
0.0
 11
-3.322893
 21
-0.645099
 31
0.0
  0
LINE
  8
0
  6
CONTINUOUS
 62
     7
  5
4E1
 10
-3.322893
 20
-0.645099
 30
0.0
 11
-3.322627
 21
-0.6454
 31
0.0
  0
LINE
  8
0
  6
CONTINUOUS
 62
     7
  5
4E2
 10
-3.322627
 20
-0.6454
 30
0.0
 11
-3.322352
 21
-0.645909
 31
0.0
  0
LINE
  8
0
  6
CONTINUOUS
 62
     7
  5
4E3
 10
-3.322352
 20
-0.645909
 30
0.0
 11
-3.32207
 21
-0.646631
 31
0.0
  0
LINE
  8
0
  6
CONTINUOUS
 62
     7
  5
4E4
 10
-3.32207
 20
-0.646631
 30
0.0
 11
-3.321783
 21
-0.647568
 31
0.0
  0
LINE
  8
0
  6
CONTINUOUS
 62
     7
  5
4E5
 10
-3.321783
 20
-0.647568
 30
0.0
 11
-3.321491
 21
-0.648721
 31
0.0
  0
LINE
  8
0
  6
CONTINUOUS
 62
     7
  5
4E6
 10
-3.321491
 20
-0.648721
 30
0.0
 11
-3.321196
 21
-0.650087
 31
0.0
  0
LINE
  8
0
  6
CONTINUOUS
 62
     7
  5
4E7
 10
-3.321196
 20
-0.650087
 30
0.0
 11
-3.320898
 21
-0.651665
 31
0.0
  0
LINE
  8
0
  6
CONTINUOUS
 62
     7
  5
4E8
 10
-3.320898
 20
-0.651665
 30
0.0
 11
-3.3206
 21
-0.653448
 31
0.0
  0
LINE
  8
0
  6
CONTINUOUS
 62
     7
  5
4E9
 10
-3.3206
 20
-0.653448
 30
0.0
 11
-3.320302
 21
-0.655433
 31
0.0
  0
LINE
  8
0
  6
CONTINUOUS
 62
     7
  5
4EA
 10
-3.320302
 20
-0.655433
 30
0.0
 11
-3.320005
 21
-0.657612
 31
0.0
  0
LINE
  8
0
  6
CONTINUOUS
 62
     7
  5
4EB
 10
-3.320005
 20
-0.657612
 30
0.0
 11
-3.319712
 21
-0.659975
 31
0.0
  0
LINE
  8
0
  6
CONTINUOUS
 62
     7
  5
4EC
 10
-3.319712
 20
-0.659975
 30
0.0
 11
-3.319424
 21
-0.662514
 31
0.0
  0
LINE
  8
0
  6
CONTINUOUS
 62
     7
  5
4ED
 10
-3.319424
 20
-0.662514
 30
0.0
 11
-3.319141
 21
-0.665214
 31
0.0
  0
LINE
  8
0
  6
CONTINUOUS
 62
     7
  5
4EE
 10
-3.319141
 20
-0.665214
 30
0.0
 11
-3.318866
 21
-0.668062
 31
0.0
  0
LINE
  8
0
  6
CONTINUOUS
 62
     7
  5
4EF
 10
-3.318866
 20
-0.668062
 30
0.0
 11
-3.318599
 21
-0.671042
 31
0.0
  0
LINE
  8
0
  6
CONTINUOUS
 62
     7
  5
4F0
 10
-3.318599
 20
-0.671042
 30
0.0
 11
-3.318342
 21
-0.674138
 31
0.0
  0
LINE
  8
0
  6
CONTINUOUS
 62
     7
  5
4F1
 10
-3.318342
 20
-0.674138
 30
0.0
 11
-3.318095
 21
-0.677344
 31
0.0
  0
LINE
  8
0
  6
CONTINUOUS
 62
     7
  5
4F2
 10
-3.318095
 20
-0.677344
 30
0.0
 11
-3.317854
 21
-0.680721
 31
0.0
  0
LINE
  8
0
  6
CONTINUOUS
 62
     7
  5
4F3
 10
-3.317854
 20
-0.680721
 30
0.0
 11
-3.31762
 21
-0.684274
 31
0.0
  0
LINE
  8
0
  6
CONTINUOUS
 62
     7
  5
4F4
 10
-3.31762
 20
-0.684274
 30
0.0
 11
-3.317393
 21
-0.687994
 31
0.0
  0
LINE
  8
0
  6
CONTINUOUS
 62
     7
  5
4F5
 10
-3.317393
 20
-0.687994
 30
0.0
 11
-3.317176
 21
-0.69187
 31
0.0
  0
LINE
  8
0
  6
CONTINUOUS
 62
     7
  5
4F6
 10
-3.317176
 20
-0.69187
 30
0.0
 11
-3.31697
 21
-0.69589
 31
0.0
  0
LINE
  8
0
  6
CONTINUOUS
 62
     7
  5
4F7
 10
-3.31697
 20
-0.69589
 30
0.0
 11
-3.316776
 21
-0.70004
 31
0.0
  0
LINE
  8
0
  6
CONTINUOUS
 62
     7
  5
4F8
 10
-3.316776
 20
-0.70004
 30
0.0
 11
-3.316596
 21
-0.704307
 31
0.0
  0
LINE
  8
0
  6
CONTINUOUS
 62
     7
  5
4F9
 10
-3.316596
 20
-0.704307
 30
0.0
 11
-3.316431
 21
-0.708676
 31
0.0
  0
LINE
  8
0
  6
CONTINUOUS
 62
     7
  5
4FA
 10
-3.316431
 20
-0.708676
 30
0.0
 11
-3.316282
 21
-0.713133
 31
0.0
  0
LINE
  8
0
  6
CONTINUOUS
 62
     7
  5
4FB
 10
-3.316282
 20
-0.713133
 30
0.0
 11
-3.316149
 21
-0.717664
 31
0.0
  0
LINE
  8
0
  6
CONTINUOUS
 62
     7
  5
4FC
 10
-3.316149
 20
-0.717664
 30
0.0
 11
-3.316033
 21
-0.722252
 31
0.0
  0
LINE
  8
0
  6
CONTINUOUS
 62
     7
  5
4FD
 10
-3.316033
 20
-0.722252
 30
0.0
 11
-3.315935
 21
-0.726882
 31
0.0
  0
LINE
  8
0
  6
CONTINUOUS
 62
     7
  5
4FE
 10
-3.315935
 20
-0.726882
 30
0.0
 11
-3.315855
 21
-0.731535
 31
0.0
  0
LINE
  8
0
  6
CONTINUOUS
 62
     7
  5
4FF
 10
-3.315855
 20
-0.731535
 30
0.0
 11
-3.315794
 21
-0.736192
 31
0.0
  0
LINE
  8
0
  6
CONTINUOUS
 62
     7
  5
500
 10
-3.315794
 20
-0.736192
 30
0.0
 11
-3.31575
 21
-0.740834
 31
0.0
  0
LINE
  8
0
  6
CONTINUOUS
 62
     7
  5
501
 10
-3.31575
 20
-0.740834
 30
0.0
 11
-3.315724
 21
-0.745443
 31
0.0
  0
LINE
  8
0
  6
CONTINUOUS
 62
     7
  5
502
 10
-3.315724
 20
-0.745443
 30
0.0
 11
-3.315716
 21
-0.75
 31
0.0
  0
LINE
  8
0
  6
CONTINUOUS
 62
     7
  5
503
 10
-3.323151
 20
-0.855
 30
0.0
 11
-3.323652
 21
-0.854601
 31
0.0
  0
LINE
  8
0
  6
CONTINUOUS
 62
     7
  5
504
 10
-3.323652
 20
-0.854601
 30
0.0
 11
-3.324136
 21
-0.85337
 31
0.0
  0
LINE
  8
0
  6
CONTINUOUS
 62
     7
  5
505
 10
-3.324136
 20
-0.85337
 30
0.0
 11
-3.324595
 21
-0.851281
 31
0.0
  0
LINE
  8
0
  6
CONTINUOUS
 62
     7
  5
506
 10
-3.324595
 20
-0.851281
 30
0.0
 11
-3.325023
 21
-0.848337
 31
0.0
  0
LINE
  8
0
  6
CONTINUOUS
 62
     7
  5
507
 10
-3.325023
 20
-0.848337
 30
0.0
 11
-3.325415
 21
-0.844568
 31
0.0
  0
LINE
  8
0
  6
CONTINUOUS
 62
     7
  5
508
 10
-3.325415
 20
-0.844568
 30
0.0
 11
-3.325769
 21
-0.840024
 31
0.0
  0
LINE
  8
0
  6
CONTINUOUS
 62
     7
  5
509
 10
-3.325769
 20
-0.840024
 30
0.0
 11
-3.326083
 21
-0.834783
 31
0.0
  0
LINE
  8
0
  6
CONTINUOUS
 62
     7
  5
50A
 10
-3.326083
 20
-0.834783
 30
0.0
 11
-3.326357
 21
-0.828952
 31
0.0
  0
LINE
  8
0
  6
CONTINUOUS
 62
     7
  5
50B
 10
-3.326357
 20
-0.828952
 30
0.0
 11
-3.326592
 21
-0.822647
 31
0.0
  0
LINE
  8
0
  6
CONTINUOUS
 62
     7
  5
50C
 10
-3.326592
 20
-0.822647
 30
0.0
 11
-3.326799
 21
-0.815713
 31
0.0
  0
LINE
  8
0
  6
CONTINUOUS
 62
     7
  5
50D
 10
-3.326799
 20
-0.815713
 30
0.0
 11
-3.326978
 21
-0.808114
 31
0.0
  0
LINE
  8
0
  6
CONTINUOUS
 62
     7
  5
50E
 10
-3.326978
 20
-0.808114
 30
0.0
 11
-3.327129
 21
-0.799942
 31
0.0
  0
LINE
  8
0
  6
CONTINUOUS
 62
     7
  5
50F
 10
-3.327129
 20
-0.799942
 30
0.0
 11
-3.327252
 21
-0.791306
 31
0.0
  0
LINE
  8
0
  6
CONTINUOUS
 62
     7
  5
510
 10
-3.327252
 20
-0.791306
 30
0.0
 11
-3.327348
 21
-0.78232
 31
0.0
  0
LINE
  8
0
  6
CONTINUOUS
 62
     7
  5
511
 10
-3.327348
 20
-0.78232
 30
0.0
 11
-3.327418
 21
-0.773105
 31
0.0
  0
LINE
  8
0
  6
CONTINUOUS
 62
     7
  5
512
 10
-3.327418
 20
-0.773105
 30
0.0
 11
-3.327463
 21
-0.7638
 31
0.0
  0
LINE
  8
0
  6
CONTINUOUS
 62
     7
  5
513
 10
-3.327463
 20
-0.7638
 30
0.0
 11
-3.327485
 21
-0.754554
 31
0.0
  0
LINE
  8
0
  6
CONTINUOUS
 62
     7
  5
514
 10
-3.327485
 20
-0.754554
 30
0.0
 11
-3.327485
 21
-0.745446
 31
0.0
  0
LINE
  8
0
  6
CONTINUOUS
 62
     7
  5
515
 10
-3.327485
 20
-0.745446
 30
0.0
 11
-3.327463
 21
-0.7362
 31
0.0
  0
LINE
  8
0
  6
CONTINUOUS
 62
     7
  5
516
 10
-3.327463
 20
-0.7362
 30
0.0
 11
-3.327418
 21
-0.726895
 31
0.0
  0
LINE
  8
0
  6
CONTINUOUS
 62
     7
  5
517
 10
-3.327418
 20
-0.726895
 30
0.0
 11
-3.327348
 21
-0.71768
 31
0.0
  0
LINE
  8
0
  6
CONTINUOUS
 62
     7
  5
518
 10
-3.327348
 20
-0.71768
 30
0.0
 11
-3.327252
 21
-0.708694
 31
0.0
  0
LINE
  8
0
  6
CONTINUOUS
 62
     7
  5
519
 10
-3.327252
 20
-0.708694
 30
0.0
 11
-3.327129
 21
-0.700058
 31
0.0
  0
LINE
  8
0
  6
CONTINUOUS
 62
     7
  5
51A
 10
-3.327129
 20
-0.700058
 30
0.0
 11
-3.326978
 21
-0.691886
 31
0.0
  0
LINE
  8
0
  6
CONTINUOUS
 62
     7
  5
51B
 10
-3.326978
 20
-0.691886
 30
0.0
 11
-3.326799
 21
-0.684287
 31
0.0
  0
LINE
  8
0
  6
CONTINUOUS
 62
     7
  5
51C
 10
-3.326799
 20
-0.684287
 30
0.0
 11
-3.326592
 21
-0.677353
 31
0.0
  0
LINE
  8
0
  6
CONTINUOUS
 62
     7
  5
51D
 10
-3.326592
 20
-0.677353
 30
0.0
 11
-3.326357
 21
-0.671048
 31
0.0
  0
LINE
  8
0
  6
CONTINUOUS
 62
     7
  5
51E
 10
-3.326357
 20
-0.671048
 30
0.0
 11
-3.326083
 21
-0.665217
 31
0.0
  0
LINE
  8
0
  6
CONTINUOUS
 62
     7
  5
51F
 10
-3.326083
 20
-0.665217
 30
0.0
 11
-3.325769
 21
-0.659976
 31
0.0
  0
LINE
  8
0
  6
CONTINUOUS
 62
     7
  5
520
 10
-3.325769
 20
-0.659976
 30
0.0
 11
-3.325415
 21
-0.655432
 31
0.0
  0
LINE
  8
0
  6
CONTINUOUS
 62
     7
  5
521
 10
-3.325415
 20
-0.655432
 30
0.0
 11
-3.325023
 21
-0.651663
 31
0.0
  0
LINE
  8
0
  6
CONTINUOUS
 62
     7
  5
522
 10
-3.325023
 20
-0.651663
 30
0.0
 11
-3.324595
 21
-0.648719
 31
0.0
  0
LINE
  8
0
  6
CONTINUOUS
 62
     7
  5
523
 10
-3.324595
 20
-0.648719
 30
0.0
 11
-3.324136
 21
-0.64663
 31
0.0
  0
LINE
  8
0
  6
CONTINUOUS
 62
     7
  5
524
 10
-3.324136
 20
-0.64663
 30
0.0
 11
-3.323652
 21
-0.645399
 31
0.0
  0
LINE
  8
0
  6
CONTINUOUS
 62
     7
  5
525
 10
-3.323652
 20
-0.645399
 30
0.0
 11
-3.323151
 21
-0.645
 31
0.0
  0
LINE
  8
0
  6
CONTINUOUS
 62
     7
  5
526
 10
-3.315716
 20
-0.75
 30
0.0
 11
-3.315724
 21
-0.754557
 31
0.0
  0
LINE
  8
0
  6
CONTINUOUS
 62
     7
  5
527
 10
-3.315724
 20
-0.754557
 30
0.0
 11
-3.31575
 21
-0.759166
 31
0.0
  0
LINE
  8
0
  6
CONTINUOUS
 62
     7
  5
528
 10
-3.31575
 20
-0.759166
 30
0.0
 11
-3.315794
 21
-0.763808
 31
0.0
  0
LINE
  8
0
  6
CONTINUOUS
 62
     7
  5
529
 10
-3.315794
 20
-0.763808
 30
0.0
 11
-3.315855
 21
-0.768465
 31
0.0
  0
LINE
  8
0
  6
CONTINUOUS
 62
     7
  5
52A
 10
-3.315855
 20
-0.768465
 30
0.0
 11
-3.315935
 21
-0.773118
 31
0.0
  0
LINE
  8
0
  6
CONTINUOUS
 62
     7
  5
52B
 10
-3.315935
 20
-0.773118
 30
0.0
 11
-3.316033
 21
-0.777748
 31
0.0
  0
LINE
  8
0
  6
CONTINUOUS
 62
     7
  5
52C
 10
-3.316033
 20
-0.777748
 30
0.0
 11
-3.316149
 21
-0.782336
 31
0.0
  0
LINE
  8
0
  6
CONTINUOUS
 62
     7
  5
52D
 10
-3.316149
 20
-0.782336
 30
0.0
 11
-3.316282
 21
-0.786867
 31
0.0
  0
LINE
  8
0
  6
CONTINUOUS
 62
     7
  5
52E
 10
-3.316282
 20
-0.786867
 30
0.0
 11
-3.316431
 21
-0.791324
 31
0.0
  0
LINE
  8
0
  6
CONTINUOUS
 62
     7
  5
52F
 10
-3.316431
 20
-0.791324
 30
0.0
 11
-3.316596
 21
-0.795693
 31
0.0
  0
LINE
  8
0
  6
CONTINUOUS
 62
     7
  5
530
 10
-3.316596
 20
-0.795693
 30
0.0
 11
-3.316776
 21
-0.79996
 31
0.0
  0
LINE
  8
0
  6
CONTINUOUS
 62
     7
  5
531
 10
-3.316776
 20
-0.79996
 30
0.0
 11
-3.31697
 21
-0.80411
 31
0.0
  0
LINE
  8
0
  6
CONTINUOUS
 62
     7
  5
532
 10
-3.31697
 20
-0.80411
 30
0.0
 11
-3.317176
 21
-0.80813
 31
0.0
  0
LINE
  8
0
  6
CONTINUOUS
 62
     7
  5
533
 10
-3.317176
 20
-0.80813
 30
0.0
 11
-3.317393
 21
-0.812006
 31
0.0
  0
LINE
  8
0
  6
CONTINUOUS
 62
     7
  5
534
 10
-3.317393
 20
-0.812006
 30
0.0
 11
-3.31762
 21
-0.815726
 31
0.0
  0
LINE
  8
0
  6
CONTINUOUS
 62
     7
  5
535
 10
-3.31762
 20
-0.815726
 30
0.0
 11
-3.317854
 21
-0.819279
 31
0.0
  0
LINE
  8
0
  6
CONTINUOUS
 62
     7
  5
536
 10
-3.317854
 20
-0.819279
 30
0.0
 11
-3.318095
 21
-0.822656
 31
0.0
  0
LINE
  8
0
  6
CONTINUOUS
 62
     7
  5
537
 10
-3.318095
 20
-0.822656
 30
0.0
 11
-3.318342
 21
-0.825862
 31
0.0
  0
LINE
  8
0
  6
CONTINUOUS
 62
     7
  5
538
 10
-3.318342
 20
-0.825862
 30
0.0
 11
-3.318599
 21
-0.828958
 31
0.0
  0
LINE
  8
0
  6
CONTINUOUS
 62
     7
  5
539
 10
-3.318599
 20
-0.828958
 30
0.0
 11
-3.318866
 21
-0.831938
 31
0.0
  0
LINE
  8
0
  6
CONTINUOUS
 62
     7
  5
53A
 10
-3.318866
 20
-0.831938
 30
0.0
 11
-3.319141
 21
-0.834786
 31
0.0
  0
LINE
  8
0
  6
CONTINUOUS
 62
     7
  5
53B
 10
-3.319141
 20
-0.834786
 30
0.0
 11
-3.319424
 21
-0.837486
 31
0.0
  0
LINE
  8
0
  6
CONTINUOUS
 62
     7
  5
53C
 10
-3.319424
 20
-0.837486
 30
0.0
 11
-3.319712
 21
-0.840025
 31
0.0
  0
LINE
  8
0
  6
CONTINUOUS
 62
     7
  5
53D
 10
-3.319712
 20
-0.840025
 30
0.0
 11
-3.320005
 21
-0.842388
 31
0.0
  0
LINE
  8
0
  6
CONTINUOUS
 62
     7
  5
53E
 10
-3.320005
 20
-0.842388
 30
0.0
 11
-3.320302
 21
-0.844567
 31
0.0
  0
LINE
  8
0
  6
CONTINUOUS
 62
     7
  5
53F
 10
-3.320302
 20
-0.844567
 30
0.0
 11
-3.3206
 21
-0.846552
 31
0.0
  0
LINE
  8
0
  6
CONTINUOUS
 62
     7
  5
540
 10
-3.3206
 20
-0.846552
 30
0.0
 11
-3.320898
 21
-0.848335
 31
0.0
  0
LINE
  8
0
  6
CONTINUOUS
 62
     7
  5
541
 10
-3.320898
 20
-0.848335
 30
0.0
 11
-3.321196
 21
-0.849913
 31
0.0
  0
LINE
  8
0
  6
CONTINUOUS
 62
     7
  5
542
 10
-3.321196
 20
-0.849913
 30
0.0
 11
-3.321491
 21
-0.851279
 31
0.0
  0
LINE
  8
0
  6
CONTINUOUS
 62
     7
  5
543
 10
-3.321491
 20
-0.851279
 30
0.0
 11
-3.321783
 21
-0.852432
 31
0.0
  0
LINE
  8
0
  6
CONTINUOUS
 62
     7
  5
544
 10
-3.321783
 20
-0.852432
 30
0.0
 11
-3.32207
 21
-0.853369
 31
0.0
  0
LINE
  8
0
  6
CONTINUOUS
 62
     7
  5
545
 10
-3.32207
 20
-0.853369
 30
0.0
 11
-3.322352
 21
-0.854091
 31
0.0
  0
LINE
  8
0
  6
CONTINUOUS
 62
     7
  5
546
 10
-3.322352
 20
-0.854091
 30
0.0
 11
-3.322627
 21
-0.8546
 31
0.0
  0
LINE
  8
0
  6
CONTINUOUS
 62
     7
  5
547
 10
-3.322627
 20
-0.8546
 30
0.0
 11
-3.322893
 21
-0.854901
 31
0.0
  0
LINE
  8
0
  6
CONTINUOUS
 62
     7
  5
548
 10
-3.322893
 20
-0.854901
 30
0.0
 11
-3.323151
 21
-0.855
 31
0.0
  0
LINE
  8
0
  6
CONTINUOUS
 62
     7
  5
549
 10
-3.323151
 20
0.855
 30
0.0
 11
-3.322893
 21
0.854901
 31
0.0
  0
LINE
  8
0
  6
CONTINUOUS
 62
     7
  5
54A
 10
-3.322893
 20
0.854901
 30
0.0
 11
-3.322627
 21
0.8546
 31
0.0
  0
LINE
  8
0
  6
CONTINUOUS
 62
     7
  5
54B
 10
-3.322627
 20
0.8546
 30
0.0
 11
-3.322352
 21
0.854091
 31
0.0
  0
LINE
  8
0
  6
CONTINUOUS
 62
     7
  5
54C
 10
-3.322352
 20
0.854091
 30
0.0
 11
-3.32207
 21
0.853369
 31
0.0
  0
LINE
  8
0
  6
CONTINUOUS
 62
     7
  5
54D
 10
-3.32207
 20
0.853369
 30
0.0
 11
-3.321783
 21
0.852432
 31
0.0
  0
LINE
  8
0
  6
CONTINUOUS
 62
     7
  5
54E
 10
-3.321783
 20
0.852432
 30
0.0
 11
-3.321491
 21
0.851279
 31
0.0
  0
LINE
  8
0
  6
CONTINUOUS
 62
     7
  5
54F
 10
-3.321491
 20
0.851279
 30
0.0
 11
-3.321196
 21
0.849913
 31
0.0
  0
LINE
  8
0
  6
CONTINUOUS
 62
     7
  5
550
 10
-3.321196
 20
0.849913
 30
0.0
 11
-3.320898
 21
0.848335
 31
0.0
  0
LINE
  8
0
  6
CONTINUOUS
 62
     7
  5
551
 10
-3.320898
 20
0.848335
 30
0.0
 11
-3.3206
 21
0.846552
 31
0.0
  0
LINE
  8
0
  6
CONTINUOUS
 62
     7
  5
552
 10
-3.3206
 20
0.846552
 30
0.0
 11
-3.320302
 21
0.844567
 31
0.0
  0
LINE
  8
0
  6
CONTINUOUS
 62
     7
  5
553
 10
-3.320302
 20
0.844567
 30
0.0
 11
-3.320005
 21
0.842388
 31
0.0
  0
LINE
  8
0
  6
CONTINUOUS
 62
     7
  5
554
 10
-3.320005
 20
0.842388
 30
0.0
 11
-3.319712
 21
0.840025
 31
0.0
  0
LINE
  8
0
  6
CONTINUOUS
 62
     7
  5
555
 10
-3.319712
 20
0.840025
 30
0.0
 11
-3.319424
 21
0.837486
 31
0.0
  0
LINE
  8
0
  6
CONTINUOUS
 62
     7
  5
556
 10
-3.319424
 20
0.837486
 30
0.0
 11
-3.319141
 21
0.834786
 31
0.0
  0
LINE
  8
0
  6
CONTINUOUS
 62
     7
  5
557
 10
-3.319141
 20
0.834786
 30
0.0
 11
-3.318866
 21
0.831938
 31
0.0
  0
LINE
  8
0
  6
CONTINUOUS
 62
     7
  5
558
 10
-3.318866
 20
0.831938
 30
0.0
 11
-3.318599
 21
0.828958
 31
0.0
  0
LINE
  8
0
  6
CONTINUOUS
 62
     7
  5
559
 10
-3.318599
 20
0.828958
 30
0.0
 11
-3.318342
 21
0.825862
 31
0.0
  0
LINE
  8
0
  6
CONTINUOUS
 62
     7
  5
55A
 10
-3.318342
 20
0.825862
 30
0.0
 11
-3.318095
 21
0.822656
 31
0.0
  0
LINE
  8
0
  6
CONTINUOUS
 62
     7
  5
55B
 10
-3.318095
 20
0.822656
 30
0.0
 11
-3.317854
 21
0.819279
 31
0.0
  0
LINE
  8
0
  6
CONTINUOUS
 62
     7
  5
55C
 10
-3.317854
 20
0.819279
 30
0.0
 11
-3.31762
 21
0.815726
 31
0.0
  0
LINE
  8
0
  6
CONTINUOUS
 62
     7
  5
55D
 10
-3.31762
 20
0.815726
 30
0.0
 11
-3.317393
 21
0.812006
 31
0.0
  0
LINE
  8
0
  6
CONTINUOUS
 62
     7
  5
55E
 10
-3.317393
 20
0.812006
 30
0.0
 11
-3.317176
 21
0.80813
 31
0.0
  0
LINE
  8
0
  6
CONTINUOUS
 62
     7
  5
55F
 10
-3.317176
 20
0.80813
 30
0.0
 11
-3.31697
 21
0.80411
 31
0.0
  0
LINE
  8
0
  6
CONTINUOUS
 62
     7
  5
560
 10
-3.31697
 20
0.80411
 30
0.0
 11
-3.316776
 21
0.79996
 31
0.0
  0
LINE
  8
0
  6
CONTINUOUS
 62
     7
  5
561
 10
-3.316776
 20
0.79996
 30
0.0
 11
-3.316596
 21
0.795693
 31
0.0
  0
LINE
  8
0
  6
CONTINUOUS
 62
     7
  5
562
 10
-3.316596
 20
0.795693
 30
0.0
 11
-3.316431
 21
0.791324
 31
0.0
  0
LINE
  8
0
  6
CONTINUOUS
 62
     7
  5
563
 10
-3.316431
 20
0.791324
 30
0.0
 11
-3.316282
 21
0.786867
 31
0.0
  0
LINE
  8
0
  6
CONTINUOUS
 62
     7
  5
564
 10
-3.316282
 20
0.786867
 30
0.0
 11
-3.316149
 21
0.782336
 31
0.0
  0
LINE
  8
0
  6
CONTINUOUS
 62
     7
  5
565
 10
-3.316149
 20
0.782336
 30
0.0
 11
-3.316033
 21
0.777748
 31
0.0
  0
LINE
  8
0
  6
CONTINUOUS
 62
     7
  5
566
 10
-3.316033
 20
0.777748
 30
0.0
 11
-3.315935
 21
0.773118
 31
0.0
  0
LINE
  8
0
  6
CONTINUOUS
 62
     7
  5
567
 10
-3.315935
 20
0.773118
 30
0.0
 11
-3.315855
 21
0.768465
 31
0.0
  0
LINE
  8
0
  6
CONTINUOUS
 62
     7
  5
568
 10
-3.315855
 20
0.768465
 30
0.0
 11
-3.315794
 21
0.763808
 31
0.0
  0
LINE
  8
0
  6
CONTINUOUS
 62
     7
  5
569
 10
-3.315794
 20
0.763808
 30
0.0
 11
-3.31575
 21
0.759166
 31
0.0
  0
LINE
  8
0
  6
CONTINUOUS
 62
     7
  5
56A
 10
-3.31575
 20
0.759166
 30
0.0
 11
-3.315724
 21
0.754557
 31
0.0
  0
LINE
  8
0
  6
CONTINUOUS
 62
     7
  5
56B
 10
-3.315724
 20
0.754557
 30
0.0
 11
-3.315716
 21
0.75
 31
0.0
  0
LINE
  8
0
  6
CONTINUOUS
 62
     7
  5
56C
 10
-3.323151
 20
0.645
 30
0.0
 11
-3.323652
 21
0.645399
 31
0.0
  0
LINE
  8
0
  6
CONTINUOUS
 62
     7
  5
56D
 10
-3.323652
 20
0.645399
 30
0.0
 11
-3.324136
 21
0.64663
 31
0.0
  0
LINE
  8
0
  6
CONTINUOUS
 62
     7
  5
56E
 10
-3.324136
 20
0.64663
 30
0.0
 11
-3.324595
 21
0.648719
 31
0.0
  0
LINE
  8
0
  6
CONTINUOUS
 62
     7
  5
56F
 10
-3.324595
 20
0.648719
 30
0.0
 11
-3.325023
 21
0.651663
 31
0.0
  0
LINE
  8
0
  6
CONTINUOUS
 62
     7
  5
570
 10
-3.325023
 20
0.651663
 30
0.0
 11
-3.325415
 21
0.655432
 31
0.0
  0
LINE
  8
0
  6
CONTINUOUS
 62
     7
  5
571
 10
-3.325415
 20
0.655432
 30
0.0
 11
-3.325769
 21
0.659976
 31
0.0
  0
LINE
  8
0
  6
CONTINUOUS
 62
     7
  5
572
 10
-3.325769
 20
0.659976
 30
0.0
 11
-3.326083
 21
0.665217
 31
0.0
  0
LINE
  8
0
  6
CONTINUOUS
 62
     7
  5
573
 10
-3.326083
 20
0.665217
 30
0.0
 11
-3.326357
 21
0.671048
 31
0.0
  0
LINE
  8
0
  6
CONTINUOUS
 62
     7
  5
574
 10
-3.326357
 20
0.671048
 30
0.0
 11
-3.326592
 21
0.677353
 31
0.0
  0
LINE
  8
0
  6
CONTINUOUS
 62
     7
  5
575
 10
-3.326592
 20
0.677353
 30
0.0
 11
-3.326799
 21
0.684287
 31
0.0
  0
LINE
  8
0
  6
CONTINUOUS
 62
     7
  5
576
 10
-3.326799
 20
0.684287
 30
0.0
 11
-3.326978
 21
0.691886
 31
0.0
  0
LINE
  8
0
  6
CONTINUOUS
 62
     7
  5
577
 10
-3.326978
 20
0.691886
 30
0.0
 11
-3.327129
 21
0.700058
 31
0.0
  0
LINE
  8
0
  6
CONTINUOUS
 62
     7
  5
578
 10
-3.327129
 20
0.700058
 30
0.0
 11
-3.327252
 21
0.708694
 31
0.0
  0
LINE
  8
0
  6
CONTINUOUS
 62
     7
  5
579
 10
-3.327252
 20
0.708694
 30
0.0
 11
-3.327348
 21
0.71768
 31
0.0
  0
LINE
  8
0
  6
CONTINUOUS
 62
     7
  5
57A
 10
-3.327348
 20
0.71768
 30
0.0
 11
-3.327418
 21
0.726895
 31
0.0
  0
LINE
  8
0
  6
CONTINUOUS
 62
     7
  5
57B
 10
-3.327418
 20
0.726895
 30
0.0
 11
-3.327463
 21
0.7362
 31
0.0
  0
LINE
  8
0
  6
CONTINUOUS
 62
     7
  5
57C
 10
-3.327463
 20
0.7362
 30
0.0
 11
-3.327485
 21
0.745446
 31
0.0
  0
LINE
  8
0
  6
CONTINUOUS
 62
     7
  5
57D
 10
-3.327485
 20
0.745446
 30
0.0
 11
-3.327485
 21
0.754554
 31
0.0
  0
LINE
  8
0
  6
CONTINUOUS
 62
     7
  5
57E
 10
-3.327485
 20
0.754554
 30
0.0
 11
-3.327463
 21
0.7638
 31
0.0
  0
LINE
  8
0
  6
CONTINUOUS
 62
     7
  5
57F
 10
-3.327463
 20
0.7638
 30
0.0
 11
-3.327418
 21
0.773105
 31
0.0
  0
LINE
  8
0
  6
CONTINUOUS
 62
     7
  5
580
 10
-3.327418
 20
0.773105
 30
0.0
 11
-3.327348
 21
0.78232
 31
0.0
  0
LINE
  8
0
  6
CONTINUOUS
 62
     7
  5
581
 10
-3.327348
 20
0.78232
 30
0.0
 11
-3.327252
 21
0.791306
 31
0.0
  0
LINE
  8
0
  6
CONTINUOUS
 62
     7
  5
582
 10
-3.327252
 20
0.791306
 30
0.0
 11
-3.327129
 21
0.799942
 31
0.0
  0
LINE
  8
0
  6
CONTINUOUS
 62
     7
  5
583
 10
-3.327129
 20
0.799942
 30
0.0
 11
-3.326978
 21
0.808114
 31
0.0
  0
LINE
  8
0
  6
CONTINUOUS
 62
     7
  5
584
 10
-3.326978
 20
0.808114
 30
0.0
 11
-3.326799
 21
0.815713
 31
0.0
  0
LINE
  8
0
  6
CONTINUOUS
 62
     7
  5
585
 10
-3.326799
 20
0.815713
 30
0.0
 11
-3.326592
 21
0.822647
 31
0.0
  0
LINE
  8
0
  6
CONTINUOUS
 62
     7
  5
586
 10
-3.326592
 20
0.822647
 30
0.0
 11
-3.326357
 21
0.828952
 31
0.0
  0
LINE
  8
0
  6
CONTINUOUS
 62
     7
  5
587
 10
-3.326357
 20
0.828952
 30
0.0
 11
-3.326083
 21
0.834783
 31
0.0
  0
LINE
  8
0
  6
CONTINUOUS
 62
     7
  5
588
 10
-3.326083
 20
0.834783
 30
0.0
 11
-3.325769
 21
0.840024
 31
0.0
  0
LINE
  8
0
  6
CONTINUOUS
 62
     7
  5
589
 10
-3.325769
 20
0.840024
 30
0.0
 11
-3.325415
 21
0.844568
 31
0.0
  0
LINE
  8
0
  6
CONTINUOUS
 62
     7
  5
58A
 10
-3.325415
 20
0.844568
 30
0.0
 11
-3.325023
 21
0.848337
 31
0.0
  0
LINE
  8
0
  6
CONTINUOUS
 62
     7
  5
58B
 10
-3.325023
 20
0.848337
 30
0.0
 11
-3.324595
 21
0.851281
 31
0.0
  0
LINE
  8
0
  6
CONTINUOUS
 62
     7
  5
58C
 10
-3.324595
 20
0.851281
 30
0.0
 11
-3.324136
 21
0.85337
 31
0.0
  0
LINE
  8
0
  6
CONTINUOUS
 62
     7
  5
58D
 10
-3.324136
 20
0.85337
 30
0.0
 11
-3.323652
 21
0.854601
 31
0.0
  0
LINE
  8
0
  6
CONTINUOUS
 62
     7
  5
58E
 10
-3.323652
 20
0.854601
 30
0.0
 11
-3.323151
 21
0.855
 31
0.0
  0
LINE
  8
0
  6
CONTINUOUS
 62
     7
  5
58F
 10
-3.315716
 20
0.75
 30
0.0
 11
-3.315724
 21
0.745443
 31
0.0
  0
LINE
  8
0
  6
CONTINUOUS
 62
     7
  5
590
 10
-3.315724
 20
0.745443
 30
0.0
 11
-3.31575
 21
0.740834
 31
0.0
  0
LINE
  8
0
  6
CONTINUOUS
 62
     7
  5
591
 10
-3.31575
 20
0.740834
 30
0.0
 11
-3.315794
 21
0.736192
 31
0.0
  0
LINE
  8
0
  6
CONTINUOUS
 62
     7
  5
592
 10
-3.315794
 20
0.736192
 30
0.0
 11
-3.315855
 21
0.731535
 31
0.0
  0
LINE
  8
0
  6
CONTINUOUS
 62
     7
  5
593
 10
-3.315855
 20
0.731535
 30
0.0
 11
-3.315935
 21
0.726882
 31
0.0
  0
LINE
  8
0
  6
CONTINUOUS
 62
     7
  5
594
 10
-3.315935
 20
0.726882
 30
0.0
 11
-3.316033
 21
0.722252
 31
0.0
  0
LINE
  8
0
  6
CONTINUOUS
 62
     7
  5
595
 10
-3.316033
 20
0.722252
 30
0.0
 11
-3.316149
 21
0.717664
 31
0.0
  0
LINE
  8
0
  6
CONTINUOUS
 62
     7
  5
596
 10
-3.316149
 20
0.717664
 30
0.0
 11
-3.316282
 21
0.713133
 31
0.0
  0
LINE
  8
0
  6
CONTINUOUS
 62
     7
  5
597
 10
-3.316282
 20
0.713133
 30
0.0
 11
-3.316431
 21
0.708676
 31
0.0
  0
LINE
  8
0
  6
CONTINUOUS
 62
     7
  5
598
 10
-3.316431
 20
0.708676
 30
0.0
 11
-3.316596
 21
0.704307
 31
0.0
  0
LINE
  8
0
  6
CONTINUOUS
 62
     7
  5
599
 10
-3.316596
 20
0.704307
 30
0.0
 11
-3.316776
 21
0.70004
 31
0.0
  0
LINE
  8
0
  6
CONTINUOUS
 62
     7
  5
59A
 10
-3.316776
 20
0.70004
 30
0.0
 11
-3.31697
 21
0.69589
 31
0.0
  0
LINE
  8
0
  6
CONTINUOUS
 62
     7
  5
59B
 10
-3.31697
 20
0.69589
 30
0.0
 11
-3.317176
 21
0.69187
 31
0.0
  0
LINE
  8
0
  6
CONTINUOUS
 62
     7
  5
59C
 10
-3.317176
 20
0.69187
 30
0.0
 11
-3.317393
 21
0.687994
 31
0.0
  0
LINE
  8
0
  6
CONTINUOUS
 62
     7
  5
59D
 10
-3.317393
 20
0.687994
 30
0.0
 11
-3.31762
 21
0.684274
 31
0.0
  0
LINE
  8
0
  6
CONTINUOUS
 62
     7
  5
59E
 10
-3.31762
 20
0.684274
 30
0.0
 11
-3.317854
 21
0.680721
 31
0.0
  0
LINE
  8
0
  6
CONTINUOUS
 62
     7
  5
59F
 10
-3.317854
 20
0.680721
 30
0.0
 11
-3.318095
 21
0.677344
 31
0.0
  0
LINE
  8
0
  6
CONTINUOUS
 62
     7
  5
5A0
 10
-3.318095
 20
0.677344
 30
0.0
 11
-3.318342
 21
0.674138
 31
0.0
  0
LINE
  8
0
  6
CONTINUOUS
 62
     7
  5
5A1
 10
-3.318342
 20
0.674138
 30
0.0
 11
-3.318599
 21
0.671042
 31
0.0
  0
LINE
  8
0
  6
CONTINUOUS
 62
     7
  5
5A2
 10
-3.318599
 20
0.671042
 30
0.0
 11
-3.318866
 21
0.668062
 31
0.0
  0
LINE
  8
0
  6
CONTINUOUS
 62
     7
  5
5A3
 10
-3.318866
 20
0.668062
 30
0.0
 11
-3.319141
 21
0.665214
 31
0.0
  0
LINE
  8
0
  6
CONTINUOUS
 62
     7
  5
5A4
 10
-3.319141
 20
0.665214
 30
0.0
 11
-3.319424
 21
0.662514
 31
0.0
  0
LINE
  8
0
  6
CONTINUOUS
 62
     7
  5
5A5
 10
-3.319424
 20
0.662514
 30
0.0
 11
-3.319712
 21
0.659975
 31
0.0
  0
LINE
  8
0
  6
CONTINUOUS
 62
     7
  5
5A6
 10
-3.319712
 20
0.659975
 30
0.0
 11
-3.320005
 21
0.657612
 31
0.0
  0
LINE
  8
0
  6
CONTINUOUS
 62
     7
  5
5A7
 10
-3.320005
 20
0.657612
 30
0.0
 11
-3.320302
 21
0.655433
 31
0.0
  0
LINE
  8
0
  6
CONTINUOUS
 62
     7
  5
5A8
 10
-3.320302
 20
0.655433
 30
0.0
 11
-3.3206
 21
0.653448
 31
0.0
  0
LINE
  8
0
  6
CONTINUOUS
 62
     7
  5
5A9
 10
-3.3206
 20
0.653448
 30
0.0
 11
-3.320898
 21
0.651665
 31
0.0
  0
LINE
  8
0
  6
CONTINUOUS
 62
     7
  5
5AA
 10
-3.320898
 20
0.651665
 30
0.0
 11
-3.321196
 21
0.650087
 31
0.0
  0
LINE
  8
0
  6
CONTINUOUS
 62
     7
  5
5AB
 10
-3.321196
 20
0.650087
 30
0.0
 11
-3.321491
 21
0.648721
 31
0.0
  0
LINE
  8
0
  6
CONTINUOUS
 62
     7
  5
5AC
 10
-3.321491
 20
0.648721
 30
0.0
 11
-3.321783
 21
0.647568
 31
0.0
  0
LINE
  8
0
  6
CONTINUOUS
 62
     7
  5
5AD
 10
-3.321783
 20
0.647568
 30
0.0
 11
-3.32207
 21
0.646631
 31
0.0
  0
LINE
  8
0
  6
CONTINUOUS
 62
     7
  5
5AE
 10
-3.32207
 20
0.646631
 30
0.0
 11
-3.322352
 21
0.645909
 31
0.0
  0
LINE
  8
0
  6
CONTINUOUS
 62
     7
  5
5AF
 10
-3.322352
 20
0.645909
 30
0.0
 11
-3.322627
 21
0.6454
 31
0.0
  0
LINE
  8
0
  6
CONTINUOUS
 62
     7
  5
5B0
 10
-3.322627
 20
0.6454
 30
0.0
 11
-3.322893
 21
0.645099
 31
0.0
  0
LINE
  8
0
  6
CONTINUOUS
 62
     7
  5
5B1
 10
-3.322893
 20
0.645099
 30
0.0
 11
-3.323151
 21
0.645
 31
0.0
  0
LINE
  8
0
  6
CONTINUOUS
 62
     7
  5
5B2
 10
-3.278041
 20
-0.645
 30
0.0
 11
-3.277267
 21
-0.645098
 31
0.0
  0
LINE
  8
0
  6
CONTINUOUS
 62
     7
  5
5B3
 10
-3.277267
 20
-0.645098
 30
0.0
 11
-3.276479
 21
-0.645395
 31
0.0
  0
LINE
  8
0
  6
CONTINUOUS
 62
     7
  5
5B4
 10
-3.276479
 20
-0.645395
 30
0.0
 11
-3.275679
 21
-0.645899
 31
0.0
  0
LINE
  8
0
  6
CONTINUOUS
 62
     7
  5
5B5
 10
-3.275679
 20
-0.645899
 30
0.0
 11
-3.27487
 21
-0.646613
 31
0.0
  0
LINE
  8
0
  6
CONTINUOUS
 62
     7
  5
5B6
 10
-3.27487
 20
-0.646613
 30
0.0
 11
-3.274056
 21
-0.64754
 31
0.0
  0
LINE
  8
0
  6
CONTINUOUS
 62
     7
  5
5B7
 10
-3.274056
 20
-0.64754
 30
0.0
 11
-3.273239
 21
-0.64868
 31
0.0
  0
LINE
  8
0
  6
CONTINUOUS
 62
     7
  5
5B8
 10
-3.273239
 20
-0.64868
 30
0.0
 11
-3.272422
 21
-0.650032
 31
0.0
  0
LINE
  8
0
  6
CONTINUOUS
 62
     7
  5
5B9
 10
-3.272422
 20
-0.650032
 30
0.0
 11
-3.27161
 21
-0.651594
 31
0.0
  0
LINE
  8
0
  6
CONTINUOUS
 62
     7
  5
5BA
 10
-3.27161
 20
-0.651594
 30
0.0
 11
-3.270804
 21
-0.65336
 31
0.0
  0
LINE
  8
0
  6
CONTINUOUS
 62
     7
  5
5BB
 10
-3.270804
 20
-0.65336
 30
0.0
 11
-3.270008
 21
-0.655327
 31
0.0
  0
LINE
  8
0
  6
CONTINUOUS
 62
     7
  5
5BC
 10
-3.270008
 20
-0.655327
 30
0.0
 11
-3.269225
 21
-0.657487
 31
0.0
  0
LINE
  8
0
  6
CONTINUOUS
 62
     7
  5
5BD
 10
-3.269225
 20
-0.657487
 30
0.0
 11
-3.268457
 21
-0.659832
 31
0.0
  0
LINE
  8
0
  6
CONTINUOUS
 62
     7
  5
5BE
 10
-3.268457
 20
-0.659832
 30
0.0
 11
-3.267708
 21
-0.662353
 31
0.0
  0
LINE
  8
0
  6
CONTINUOUS
 62
     7
  5
5BF
 10
-3.267708
 20
-0.662353
 30
0.0
 11
-3.26698
 21
-0.665036
 31
0.0
  0
LINE
  8
0
  6
CONTINUOUS
 62
     7
  5
5C0
 10
-3.26698
 20
-0.665036
 30
0.0
 11
-3.266277
 21
-0.66787
 31
0.0
  0
LINE
  8
0
  6
CONTINUOUS
 62
     7
  5
5C1
 10
-3.266277
 20
-0.66787
 30
0.0
 11
-3.2656
 21
-0.670838
 31
0.0
  0
LINE
  8
0
  6
CONTINUOUS
 62
     7
  5
5C2
 10
-3.2656
 20
-0.670838
 30
0.0
 11
-3.264952
 21
-0.673925
 31
0.0
  0
LINE
  8
0
  6
CONTINUOUS
 62
     7
  5
5C3
 10
-3.264952
 20
-0.673925
 30
0.0
 11
-3.264335
 21
-0.677121
 31
0.0
  0
LINE
  8
0
  6
CONTINUOUS
 62
     7
  5
5C4
 10
-3.264335
 20
-0.677121
 30
0.0
 11
-3.263736
 21
-0.680483
 31
0.0
  0
LINE
  8
0
  6
CONTINUOUS
 62
     7
  5
5C5
 10
-3.263736
 20
-0.680483
 30
0.0
 11
-3.263156
 21
-0.684025
 31
0.0
  0
LINE
  8
0
  6
CONTINUOUS
 62
     7
  5
5C6
 10
-3.263156
 20
-0.684025
 30
0.0
 11
-3.262599
 21
-0.687738
 31
0.0
  0
LINE
  8
0
  6
CONTINUOUS
 62
     7
  5
5C7
 10
-3.262599
 20
-0.687738
 30
0.0
 11
-3.262067
 21
-0.691611
 31
0.0
  0
LINE
  8
0
  6
CONTINUOUS
 62
     7
  5
5C8
 10
-3.262067
 20
-0.691611
 30
0.0
 11
-3.261564
 21
-0.695632
 31
0.0
  0
LINE
  8
0
  6
CONTINUOUS
 62
     7
  5
5C9
 10
-3.261564
 20
-0.695632
 30
0.0
 11
-3.261094
 21
-0.699787
 31
0.0
  0
LINE
  8
0
  6
CONTINUOUS
 62
     7
  5
5CA
 10
-3.261094
 20
-0.699787
 30
0.0
 11
-3.260659
 21
-0.704063
 31
0.0
  0
LINE
  8
0
  6
CONTINUOUS
 62
     7
  5
5CB
 10
-3.260659
 20
-0.704063
 30
0.0
 11
-3.26026
 21
-0.708444
 31
0.0
  0
LINE
  8
0
  6
CONTINUOUS
 62
     7
  5
5CC
 10
-3.26026
 20
-0.708444
 30
0.0
 11
-3.259901
 21
-0.712917
 31
0.0
  0
LINE
  8
0
  6
CONTINUOUS
 62
     7
  5
5CD
 10
-3.259901
 20
-0.712917
 30
0.0
 11
-3.259582
 21
-0.717466
 31
0.0
  0
LINE
  8
0
  6
CONTINUOUS
 62
     7
  5
5CE
 10
-3.259582
 20
-0.717466
 30
0.0
 11
-3.259305
 21
-0.722077
 31
0.0
  0
LINE
  8
0
  6
CONTINUOUS
 62
     7
  5
5CF
 10
-3.259305
 20
-0.722077
 30
0.0
 11
-3.259071
 21
-0.726731
 31
0.0
  0
LINE
  8
0
  6
CONTINUOUS
 62
     7
  5
5D0
 10
-3.259071
 20
-0.726731
 30
0.0
 11
-3.25888
 21
-0.731411
 31
0.0
  0
LINE
  8
0
  6
CONTINUOUS
 62
     7
  5
5D1
 10
-3.25888
 20
-0.731411
 30
0.0
 11
-3.258733
 21
-0.736097
 31
0.0
  0
LINE
  8
0
  6
CONTINUOUS
 62
     7
  5
5D2
 10
-3.258733
 20
-0.736097
 30
0.0
 11
-3.258628
 21
-0.74077
 31
0.0
  0
LINE
  8
0
  6
CONTINUOUS
 62
     7
  5
5D3
 10
-3.258628
 20
-0.74077
 30
0.0
 11
-3.258567
 21
-0.74541
 31
0.0
  0
LINE
  8
0
  6
CONTINUOUS
 62
     7
  5
5D4
 10
-3.258567
 20
-0.74541
 30
0.0
 11
-3.258547
 21
-0.75
 31
0.0
  0
LINE
  8
0
  6
CONTINUOUS
 62
     7
  5
5D5
 10
-3.278041
 20
-0.855
 30
0.0
 11
-3.279575
 21
-0.854606
 31
0.0
  0
LINE
  8
0
  6
CONTINUOUS
 62
     7
  5
5D6
 10
-3.279575
 20
-0.854606
 30
0.0
 11
-3.281109
 21
-0.853391
 31
0.0
  0
LINE
  8
0
  6
CONTINUOUS
 62
     7
  5
5D7
 10
-3.281109
 20
-0.853391
 30
0.0
 11
-3.282617
 21
-0.851326
 31
0.0
  0
LINE
  8
0
  6
CONTINUOUS
 62
     7
  5
5D8
 10
-3.282617
 20
-0.851326
 30
0.0
 11
-3.284077
 21
-0.848413
 31
0.0
  0
LINE
  8
0
  6
CONTINUOUS
 62
     7
  5
5D9
 10
-3.284077
 20
-0.848413
 30
0.0
 11
-3.28547
 21
-0.844677
 31
0.0
  0
LINE
  8
0
  6
CONTINUOUS
 62
     7
  5
5DA
 10
-3.28547
 20
-0.844677
 30
0.0
 11
-3.286779
 21
-0.840167
 31
0.0
  0
LINE
  8
0
  6
CONTINUOUS
 62
     7
  5
5DB
 10
-3.286779
 20
-0.840167
 30
0.0
 11
-3.287992
 21
-0.834955
 31
0.0
  0
LINE
  8
0
  6
CONTINUOUS
 62
     7
  5
5DC
 10
-3.287992
 20
-0.834955
 30
0.0
 11
-3.289095
 21
-0.829144
 31
0.0
  0
LINE
  8
0
  6
CONTINUOUS
 62
     7
  5
5DD
 10
-3.289095
 20
-0.829144
 30
0.0
 11
-3.290082
 21
-0.822852
 31
0.0
  0
LINE
  8
0
  6
CONTINUOUS
 62
     7
  5
5DE
 10
-3.290082
 20
-0.822852
 30
0.0
 11
-3.290982
 21
-0.815935
 31
0.0
  0
LINE
  8
0
  6
CONTINUOUS
 62
     7
  5
5DF
 10
-3.290982
 20
-0.815935
 30
0.0
 11
-3.291795
 21
-0.80834
 31
0.0
  0
LINE
  8
0
  6
CONTINUOUS
 62
     7
  5
5E0
 10
-3.291795
 20
-0.80834
 30
0.0
 11
-3.292508
 21
-0.800158
 31
0.0
  0
LINE
  8
0
  6
CONTINUOUS
 62
     7
  5
5E1
 10
-3.292508
 20
-0.800158
 30
0.0
 11
-3.293109
 21
-0.791502
 31
0.0
  0
LINE
  8
0
  6
CONTINUOUS
 62
     7
  5
5E2
 10
-3.293109
 20
-0.791502
 30
0.0
 11
-3.293591
 21
-0.782484
 31
0.0
  0
LINE
  8
0
  6
CONTINUOUS
 62
     7
  5
5E3
 10
-3.293591
 20
-0.782484
 30
0.0
 11
-3.29395
 21
-0.773228
 31
0.0
  0
LINE
  8
0
  6
CONTINUOUS
 62
     7
  5
5E4
 10
-3.29395
 20
-0.773228
 30
0.0
 11
-3.294186
 21
-0.763876
 31
0.0
  0
LINE
  8
0
  6
CONTINUOUS
 62
     7
  5
5E5
 10
-3.294186
 20
-0.763876
 30
0.0
 11
-3.294301
 21
-0.75458
 31
0.0
  0
LINE
  8
0
  6
CONTINUOUS
 62
     7
  5
5E6
 10
-3.294301
 20
-0.75458
 30
0.0
 11
-3.294301
 21
-0.74542
 31
0.0
  0
LINE
  8
0
  6
CONTINUOUS
 62
     7
  5
5E7
 10
-3.294301
 20
-0.74542
 30
0.0
 11
-3.294186
 21
-0.736124
 31
0.0
  0
LINE
  8
0
  6
CONTINUOUS
 62
     7
  5
5E8
 10
-3.294186
 20
-0.736124
 30
0.0
 11
-3.29395
 21
-0.726772
 31
0.0
  0
LINE
  8
0
  6
CONTINUOUS
 62
     7
  5
5E9
 10
-3.29395
 20
-0.726772
 30
0.0
 11
-3.293591
 21
-0.717516
 31
0.0
  0
LINE
  8
0
  6
CONTINUOUS
 62
     7
  5
5EA
 10
-3.293591
 20
-0.717516
 30
0.0
 11
-3.293109
 21
-0.708498
 31
0.0
  0
LINE
  8
0
  6
CONTINUOUS
 62
     7
  5
5EB
 10
-3.293109
 20
-0.708498
 30
0.0
 11
-3.292508
 21
-0.699842
 31
0.0
  0
LINE
  8
0
  6
CONTINUOUS
 62
     7
  5
5EC
 10
-3.292508
 20
-0.699842
 30
0.0
 11
-3.291795
 21
-0.69166
 31
0.0
  0
LINE
  8
0
  6
CONTINUOUS
 62
     7
  5
5ED
 10
-3.291795
 20
-0.69166
 30
0.0
 11
-3.290982
 21
-0.684065
 31
0.0
  0
LINE
  8
0
  6
CONTINUOUS
 62
     7
  5
5EE
 10
-3.290982
 20
-0.684065
 30
0.0
 11
-3.290082
 21
-0.677148
 31
0.0
  0
LINE
  8
0
  6
CONTINUOUS
 62
     7
  5
5EF
 10
-3.290082
 20
-0.677148
 30
0.0
 11
-3.289095
 21
-0.670856
 31
0.0
  0
LINE
  8
0
  6
CONTINUOUS
 62
     7
  5
5F0
 10
-3.289095
 20
-0.670856
 30
0.0
 11
-3.287992
 21
-0.665045
 31
0.0
  0
LINE
  8
0
  6
CONTINUOUS
 62
     7
  5
5F1
 10
-3.287992
 20
-0.665045
 30
0.0
 11
-3.286779
 21
-0.659833
 31
0.0
  0
LINE
  8
0
  6
CONTINUOUS
 62
     7
  5
5F2
 10
-3.286779
 20
-0.659833
 30
0.0
 11
-3.28547
 21
-0.655323
 31
0.0
  0
LINE
  8
0
  6
CONTINUOUS
 62
     7
  5
5F3
 10
-3.28547
 20
-0.655323
 30
0.0
 11
-3.284077
 21
-0.651587
 31
0.0
  0
LINE
  8
0
  6
CONTINUOUS
 62
     7
  5
5F4
 10
-3.284077
 20
-0.651587
 30
0.0
 11
-3.282617
 21
-0.648674
 31
0.0
  0
LINE
  8
0
  6
CONTINUOUS
 62
     7
  5
5F5
 10
-3.282617
 20
-0.648674
 30
0.0
 11
-3.281109
 21
-0.646609
 31
0.0
  0
LINE
  8
0
  6
CONTINUOUS
 62
     7
  5
5F6
 10
-3.281109
 20
-0.646609
 30
0.0
 11
-3.279575
 21
-0.645394
 31
0.0
  0
LINE
  8
0
  6
CONTINUOUS
 62
     7
  5
5F7
 10
-3.279575
 20
-0.645394
 30
0.0
 11
-3.278041
 21
-0.645
 31
0.0
  0
LINE
  8
0
  6
CONTINUOUS
 62
     7
  5
5F8
 10
-3.258547
 20
-0.75
 30
0.0
 11
-3.258567
 21
-0.75459
 31
0.0
  0
LINE
  8
0
  6
CONTINUOUS
 62
     7
  5
5F9
 10
-3.258567
 20
-0.75459
 30
0.0
 11
-3.258628
 21
-0.75923
 31
0.0
  0
LINE
  8
0
  6
CONTINUOUS
 62
     7
  5
5FA
 10
-3.258628
 20
-0.75923
 30
0.0
 11
-3.258733
 21
-0.763903
 31
0.0
  0
LINE
  8
0
  6
CONTINUOUS
 62
     7
  5
5FB
 10
-3.258733
 20
-0.763903
 30
0.0
 11
-3.25888
 21
-0.768589
 31
0.0
  0
LINE
  8
0
  6
CONTINUOUS
 62
     7
  5
5FC
 10
-3.25888
 20
-0.768589
 30
0.0
 11
-3.259071
 21
-0.773269
 31
0.0
  0
LINE
  8
0
  6
CONTINUOUS
 62
     7
  5
5FD
 10
-3.259071
 20
-0.773269
 30
0.0
 11
-3.259305
 21
-0.777923
 31
0.0
  0
LINE
  8
0
  6
CONTINUOUS
 62
     7
  5
5FE
 10
-3.259305
 20
-0.777923
 30
0.0
 11
-3.259582
 21
-0.782534
 31
0.0
  0
LINE
  8
0
  6
CONTINUOUS
 62
     7
  5
5FF
 10
-3.259582
 20
-0.782534
 30
0.0
 11
-3.259901
 21
-0.787083
 31
0.0
  0
LINE
  8
0
  6
CONTINUOUS
 62
     7
  5
600
 10
-3.259901
 20
-0.787083
 30
0.0
 11
-3.26026
 21
-0.791556
 31
0.0
  0
LINE
  8
0
  6
CONTINUOUS
 62
     7
  5
601
 10
-3.26026
 20
-0.791556
 30
0.0
 11
-3.260659
 21
-0.795937
 31
0.0
  0
LINE
  8
0
  6
CONTINUOUS
 62
     7
  5
602
 10
-3.260659
 20
-0.795937
 30
0.0
 11
-3.261094
 21
-0.800213
 31
0.0
  0
LINE
  8
0
  6
CONTINUOUS
 62
     7
  5
603
 10
-3.261094
 20
-0.800213
 30
0.0
 11
-3.261564
 21
-0.804368
 31
0.0
  0
LINE
  8
0
  6
CONTINUOUS
 62
     7
  5
604
 10
-3.261564
 20
-0.804368
 30
0.0
 11
-3.262067
 21
-0.808389
 31
0.0
  0
LINE
  8
0
  6
CONTINUOUS
 62
     7
  5
605
 10
-3.262067
 20
-0.808389
 30
0.0
 11
-3.262599
 21
-0.812262
 31
0.0
  0
LINE
  8
0
  6
CONTINUOUS
 62
     7
  5
606
 10
-3.262599
 20
-0.812262
 30
0.0
 11
-3.263156
 21
-0.815975
 31
0.0
  0
LINE
  8
0
  6
CONTINUOUS
 62
     7
  5
607
 10
-3.263156
 20
-0.815975
 30
0.0
 11
-3.263736
 21
-0.819517
 31
0.0
  0
LINE
  8
0
  6
CONTINUOUS
 62
     7
  5
608
 10
-3.263736
 20
-0.819517
 30
0.0
 11
-3.264335
 21
-0.822879
 31
0.0
  0
LINE
  8
0
  6
CONTINUOUS
 62
     7
  5
609
 10
-3.264335
 20
-0.822879
 30
0.0
 11
-3.264952
 21
-0.826075
 31
0.0
  0
LINE
  8
0
  6
CONTINUOUS
 62
     7
  5
60A
 10
-3.264952
 20
-0.826075
 30
0.0
 11
-3.2656
 21
-0.829162
 31
0.0
  0
LINE
  8
0
  6
CONTINUOUS
 62
     7
  5
60B
 10
-3.2656
 20
-0.829162
 30
0.0
 11
-3.266277
 21
-0.83213
 31
0.0
  0
LINE
  8
0
  6
CONTINUOUS
 62
     7
  5
60C
 10
-3.266277
 20
-0.83213
 30
0.0
 11
-3.26698
 21
-0.834964
 31
0.0
  0
LINE
  8
0
  6
CONTINUOUS
 62
     7
  5
60D
 10
-3.26698
 20
-0.834964
 30
0.0
 11
-3.267708
 21
-0.837647
 31
0.0
  0
LINE
  8
0
  6
CONTINUOUS
 62
     7
  5
60E
 10
-3.267708
 20
-0.837647
 30
0.0
 11
-3.268457
 21
-0.840168
 31
0.0
  0
LINE
  8
0
  6
CONTINUOUS
 62
     7
  5
60F
 10
-3.268457
 20
-0.840168
 30
0.0
 11
-3.269225
 21
-0.842513
 31
0.0
  0
LINE
  8
0
  6
CONTINUOUS
 62
     7
  5
610
 10
-3.269225
 20
-0.842513
 30
0.0
 11
-3.270008
 21
-0.844673
 31
0.0
  0
LINE
  8
0
  6
CONTINUOUS
 62
     7
  5
611
 10
-3.270008
 20
-0.844673
 30
0.0
 11
-3.270804
 21
-0.84664
 31
0.0
  0
LINE
  8
0
  6
CONTINUOUS
 62
     7
  5
612
 10
-3.270804
 20
-0.84664
 30
0.0
 11
-3.27161
 21
-0.848406
 31
0.0
  0
LINE
  8
0
  6
CONTINUOUS
 62
     7
  5
613
 10
-3.27161
 20
-0.848406
 30
0.0
 11
-3.272422
 21
-0.849968
 31
0.0
  0
LINE
  8
0
  6
CONTINUOUS
 62
     7
  5
614
 10
-3.272422
 20
-0.849968
 30
0.0
 11
-3.273239
 21
-0.85132
 31
0.0
  0
LINE
  8
0
  6
CONTINUOUS
 62
     7
  5
615
 10
-3.273239
 20
-0.85132
 30
0.0
 11
-3.274056
 21
-0.85246
 31
0.0
  0
LINE
  8
0
  6
CONTINUOUS
 62
     7
  5
616
 10
-3.274056
 20
-0.85246
 30
0.0
 11
-3.27487
 21
-0.853387
 31
0.0
  0
LINE
  8
0
  6
CONTINUOUS
 62
     7
  5
617
 10
-3.27487
 20
-0.853387
 30
0.0
 11
-3.275679
 21
-0.854101
 31
0.0
  0
LINE
  8
0
  6
CONTINUOUS
 62
     7
  5
618
 10
-3.275679
 20
-0.854101
 30
0.0
 11
-3.276479
 21
-0.854605
 31
0.0
  0
LINE
  8
0
  6
CONTINUOUS
 62
     7
  5
619
 10
-3.276479
 20
-0.854605
 30
0.0
 11
-3.277267
 21
-0.854902
 31
0.0
  0
LINE
  8
0
  6
CONTINUOUS
 62
     7
  5
61A
 10
-3.277267
 20
-0.854902
 30
0.0
 11
-3.278041
 21
-0.855
 31
0.0
  0
LINE
  8
0
  6
CONTINUOUS
 62
     7
  5
61B
 10
-3.278041
 20
0.855
 30
0.0
 11
-3.277267
 21
0.854902
 31
0.0
  0
LINE
  8
0
  6
CONTINUOUS
 62
     7
  5
61C
 10
-3.277267
 20
0.854902
 30
0.0
 11
-3.276479
 21
0.854605
 31
0.0
  0
LINE
  8
0
  6
CONTINUOUS
 62
     7
  5
61D
 10
-3.276479
 20
0.854605
 30
0.0
 11
-3.275679
 21
0.854101
 31
0.0
  0
LINE
  8
0
  6
CONTINUOUS
 62
     7
  5
61E
 10
-3.275679
 20
0.854101
 30
0.0
 11
-3.27487
 21
0.853387
 31
0.0
  0
LINE
  8
0
  6
CONTINUOUS
 62
     7
  5
61F
 10
-3.27487
 20
0.853387
 30
0.0
 11
-3.274056
 21
0.85246
 31
0.0
  0
LINE
  8
0
  6
CONTINUOUS
 62
     7
  5
620
 10
-3.274056
 20
0.85246
 30
0.0
 11
-3.273239
 21
0.85132
 31
0.0
  0
LINE
  8
0
  6
CONTINUOUS
 62
     7
  5
621
 10
-3.273239
 20
0.85132
 30
0.0
 11
-3.272422
 21
0.849968
 31
0.0
  0
LINE
  8
0
  6
CONTINUOUS
 62
     7
  5
622
 10
-3.272422
 20
0.849968
 30
0.0
 11
-3.27161
 21
0.848406
 31
0.0
  0
LINE
  8
0
  6
CONTINUOUS
 62
     7
  5
623
 10
-3.27161
 20
0.848406
 30
0.0
 11
-3.270804
 21
0.84664
 31
0.0
  0
LINE
  8
0
  6
CONTINUOUS
 62
     7
  5
624
 10
-3.270804
 20
0.84664
 30
0.0
 11
-3.270008
 21
0.844673
 31
0.0
  0
LINE
  8
0
  6
CONTINUOUS
 62
     7
  5
625
 10
-3.270008
 20
0.844673
 30
0.0
 11
-3.269225
 21
0.842513
 31
0.0
  0
LINE
  8
0
  6
CONTINUOUS
 62
     7
  5
626
 10
-3.269225
 20
0.842513
 30
0.0
 11
-3.268457
 21
0.840168
 31
0.0
  0
LINE
  8
0
  6
CONTINUOUS
 62
     7
  5
627
 10
-3.268457
 20
0.840168
 30
0.0
 11
-3.267708
 21
0.837647
 31
0.0
  0
LINE
  8
0
  6
CONTINUOUS
 62
     7
  5
628
 10
-3.267708
 20
0.837647
 30
0.0
 11
-3.26698
 21
0.834964
 31
0.0
  0
LINE
  8
0
  6
CONTINUOUS
 62
     7
  5
629
 10
-3.26698
 20
0.834964
 30
0.0
 11
-3.266277
 21
0.83213
 31
0.0
  0
LINE
  8
0
  6
CONTINUOUS
 62
     7
  5
62A
 10
-3.266277
 20
0.83213
 30
0.0
 11
-3.2656
 21
0.829162
 31
0.0
  0
LINE
  8
0
  6
CONTINUOUS
 62
     7
  5
62B
 10
-3.2656
 20
0.829162
 30
0.0
 11
-3.264952
 21
0.826075
 31
0.0
  0
LINE
  8
0
  6
CONTINUOUS
 62
     7
  5
62C
 10
-3.264952
 20
0.826075
 30
0.0
 11
-3.264335
 21
0.822879
 31
0.0
  0
LINE
  8
0
  6
CONTINUOUS
 62
     7
  5
62D
 10
-3.264335
 20
0.822879
 30
0.0
 11
-3.263736
 21
0.819517
 31
0.0
  0
LINE
  8
0
  6
CONTINUOUS
 62
     7
  5
62E
 10
-3.263736
 20
0.819517
 30
0.0
 11
-3.263156
 21
0.815975
 31
0.0
  0
LINE
  8
0
  6
CONTINUOUS
 62
     7
  5
62F
 10
-3.263156
 20
0.815975
 30
0.0
 11
-3.262599
 21
0.812262
 31
0.0
  0
LINE
  8
0
  6
CONTINUOUS
 62
     7
  5
630
 10
-3.262599
 20
0.812262
 30
0.0
 11
-3.262067
 21
0.808389
 31
0.0
  0
LINE
  8
0
  6
CONTINUOUS
 62
     7
  5
631
 10
-3.262067
 20
0.808389
 30
0.0
 11
-3.261564
 21
0.804368
 31
0.0
  0
LINE
  8
0
  6
CONTINUOUS
 62
     7
  5
632
 10
-3.261564
 20
0.804368
 30
0.0
 11
-3.261094
 21
0.800213
 31
0.0
  0
LINE
  8
0
  6
CONTINUOUS
 62
     7
  5
633
 10
-3.261094
 20
0.800213
 30
0.0
 11
-3.260659
 21
0.795937
 31
0.0
  0
LINE
  8
0
  6
CONTINUOUS
 62
     7
  5
634
 10
-3.260659
 20
0.795937
 30
0.0
 11
-3.26026
 21
0.791556
 31
0.0
  0
LINE
  8
0
  6
CONTINUOUS
 62
     7
  5
635
 10
-3.26026
 20
0.791556
 30
0.0
 11
-3.259901
 21
0.787083
 31
0.0
  0
LINE
  8
0
  6
CONTINUOUS
 62
     7
  5
636
 10
-3.259901
 20
0.787083
 30
0.0
 11
-3.259582
 21
0.782534
 31
0.0
  0
LINE
  8
0
  6
CONTINUOUS
 62
     7
  5
637
 10
-3.259582
 20
0.782534
 30
0.0
 11
-3.259305
 21
0.777923
 31
0.0
  0
LINE
  8
0
  6
CONTINUOUS
 62
     7
  5
638
 10
-3.259305
 20
0.777923
 30
0.0
 11
-3.259071
 21
0.773269
 31
0.0
  0
LINE
  8
0
  6
CONTINUOUS
 62
     7
  5
639
 10
-3.259071
 20
0.773269
 30
0.0
 11
-3.25888
 21
0.768589
 31
0.0
  0
LINE
  8
0
  6
CONTINUOUS
 62
     7
  5
63A
 10
-3.25888
 20
0.768589
 30
0.0
 11
-3.258733
 21
0.763903
 31
0.0
  0
LINE
  8
0
  6
CONTINUOUS
 62
     7
  5
63B
 10
-3.258733
 20
0.763903
 30
0.0
 11
-3.258628
 21
0.75923
 31
0.0
  0
LINE
  8
0
  6
CONTINUOUS
 62
     7
  5
63C
 10
-3.258628
 20
0.75923
 30
0.0
 11
-3.258567
 21
0.75459
 31
0.0
  0
LINE
  8
0
  6
CONTINUOUS
 62
     7
  5
63D
 10
-3.258567
 20
0.75459
 30
0.0
 11
-3.258547
 21
0.75
 31
0.0
  0
LINE
  8
0
  6
CONTINUOUS
 62
     7
  5
63E
 10
-3.278041
 20
0.645
 30
0.0
 11
-3.279575
 21
0.645394
 31
0.0
  0
LINE
  8
0
  6
CONTINUOUS
 62
     7
  5
63F
 10
-3.279575
 20
0.645394
 30
0.0
 11
-3.281109
 21
0.646609
 31
0.0
  0
LINE
  8
0
  6
CONTINUOUS
 62
     7
  5
640
 10
-3.281109
 20
0.646609
 30
0.0
 11
-3.282617
 21
0.648674
 31
0.0
  0
LINE
  8
0
  6
CONTINUOUS
 62
     7
  5
641
 10
-3.282617
 20
0.648674
 30
0.0
 11
-3.284077
 21
0.651587
 31
0.0
  0
LINE
  8
0
  6
CONTINUOUS
 62
     7
  5
642
 10
-3.284077
 20
0.651587
 30
0.0
 11
-3.28547
 21
0.655323
 31
0.0
  0
LINE
  8
0
  6
CONTINUOUS
 62
     7
  5
643
 10
-3.28547
 20
0.655323
 30
0.0
 11
-3.286779
 21
0.659833
 31
0.0
  0
LINE
  8
0
  6
CONTINUOUS
 62
     7
  5
644
 10
-3.286779
 20
0.659833
 30
0.0
 11
-3.287992
 21
0.665045
 31
0.0
  0
LINE
  8
0
  6
CONTINUOUS
 62
     7
  5
645
 10
-3.287992
 20
0.665045
 30
0.0
 11
-3.289095
 21
0.670856
 31
0.0
  0
LINE
  8
0
  6
CONTINUOUS
 62
     7
  5
646
 10
-3.289095
 20
0.670856
 30
0.0
 11
-3.290082
 21
0.677148
 31
0.0
  0
LINE
  8
0
  6
CONTINUOUS
 62
     7
  5
647
 10
-3.290082
 20
0.677148
 30
0.0
 11
-3.290982
 21
0.684065
 31
0.0
  0
LINE
  8
0
  6
CONTINUOUS
 62
     7
  5
648
 10
-3.290982
 20
0.684065
 30
0.0
 11
-3.291795
 21
0.69166
 31
0.0
  0
LINE
  8
0
  6
CONTINUOUS
 62
     7
  5
649
 10
-3.291795
 20
0.69166
 30
0.0
 11
-3.292508
 21
0.699842
 31
0.0
  0
LINE
  8
0
  6
CONTINUOUS
 62
     7
  5
64A
 10
-3.292508
 20
0.699842
 30
0.0
 11
-3.293109
 21
0.708498
 31
0.0
  0
LINE
  8
0
  6
CONTINUOUS
 62
     7
  5
64B
 10
-3.293109
 20
0.708498
 30
0.0
 11
-3.293591
 21
0.717516
 31
0.0
  0
LINE
  8
0
  6
CONTINUOUS
 62
     7
  5
64C
 10
-3.293591
 20
0.717516
 30
0.0
 11
-3.29395
 21
0.726772
 31
0.0
  0
LINE
  8
0
  6
CONTINUOUS
 62
     7
  5
64D
 10
-3.29395
 20
0.726772
 30
0.0
 11
-3.294186
 21
0.736124
 31
0.0
  0
LINE
  8
0
  6
CONTINUOUS
 62
     7
  5
64E
 10
-3.294186
 20
0.736124
 30
0.0
 11
-3.294301
 21
0.74542
 31
0.0
  0
LINE
  8
0
  6
CONTINUOUS
 62
     7
  5
64F
 10
-3.294301
 20
0.74542
 30
0.0
 11
-3.294301
 21
0.75458
 31
0.0
  0
LINE
  8
0
  6
CONTINUOUS
 62
     7
  5
650
 10
-3.294301
 20
0.75458
 30
0.0
 11
-3.294186
 21
0.763876
 31
0.0
  0
LINE
  8
0
  6
CONTINUOUS
 62
     7
  5
651
 10
-3.294186
 20
0.763876
 30
0.0
 11
-3.29395
 21
0.773228
 31
0.0
  0
LINE
  8
0
  6
CONTINUOUS
 62
     7
  5
652
 10
-3.29395
 20
0.773228
 30
0.0
 11
-3.293591
 21
0.782484
 31
0.0
  0
LINE
  8
0
  6
CONTINUOUS
 62
     7
  5
653
 10
-3.293591
 20
0.782484
 30
0.0
 11
-3.293109
 21
0.791502
 31
0.0
  0
LINE
  8
0
  6
CONTINUOUS
 62
     7
  5
654
 10
-3.293109
 20
0.791502
 30
0.0
 11
-3.292508
 21
0.800158
 31
0.0
  0
LINE
  8
0
  6
CONTINUOUS
 62
     7
  5
655
 10
-3.292508
 20
0.800158
 30
0.0
 11
-3.291795
 21
0.80834
 31
0.0
  0
LINE
  8
0
  6
CONTINUOUS
 62
     7
  5
656
 10
-3.291795
 20
0.80834
 30
0.0
 11
-3.290982
 21
0.815935
 31
0.0
  0
LINE
  8
0
  6
CONTINUOUS
 62
     7
  5
657
 10
-3.290982
 20
0.815935
 30
0.0
 11
-3.290082
 21
0.822852
 31
0.0
  0
LINE
  8
0
  6
CONTINUOUS
 62
     7
  5
658
 10
-3.290082
 20
0.822852
 30
0.0
 11
-3.289095
 21
0.829144
 31
0.0
  0
LINE
  8
0
  6
CONTINUOUS
 62
     7
  5
659
 10
-3.289095
 20
0.829144
 30
0.0
 11
-3.287992
 21
0.834955
 31
0.0
  0
LINE
  8
0
  6
CONTINUOUS
 62
     7
  5
65A
 10
-3.287992
 20
0.834955
 30
0.0
 11
-3.286779
 21
0.840167
 31
0.0
  0
LINE
  8
0
  6
CONTINUOUS
 62
     7
  5
65B
 10
-3.286779
 20
0.840167
 30
0.0
 11
-3.28547
 21
0.844677
 31
0.0
  0
LINE
  8
0
  6
CONTINUOUS
 62
     7
  5
65C
 10
-3.28547
 20
0.844677
 30
0.0
 11
-3.284077
 21
0.848413
 31
0.0
  0
LINE
  8
0
  6
CONTINUOUS
 62
     7
  5
65D
 10
-3.284077
 20
0.848413
 30
0.0
 11
-3.282617
 21
0.851326
 31
0.0
  0
LINE
  8
0
  6
CONTINUOUS
 62
     7
  5
65E
 10
-3.282617
 20
0.851326
 30
0.0
 11
-3.281109
 21
0.853391
 31
0.0
  0
LINE
  8
0
  6
CONTINUOUS
 62
     7
  5
65F
 10
-3.281109
 20
0.853391
 30
0.0
 11
-3.279575
 21
0.854606
 31
0.0
  0
LINE
  8
0
  6
CONTINUOUS
 62
     7
  5
660
 10
-3.279575
 20
0.854606
 30
0.0
 11
-3.278041
 21
0.855
 31
0.0
  0
LINE
  8
0
  6
CONTINUOUS
 62
     7
  5
661
 10
-3.258547
 20
0.75
 30
0.0
 11
-3.258567
 21
0.74541
 31
0.0
  0
LINE
  8
0
  6
CONTINUOUS
 62
     7
  5
662
 10
-3.258567
 20
0.74541
 30
0.0
 11
-3.258628
 21
0.74077
 31
0.0
  0
LINE
  8
0
  6
CONTINUOUS
 62
     7
  5
663
 10
-3.258628
 20
0.74077
 30
0.0
 11
-3.258733
 21
0.736097
 31
0.0
  0
LINE
  8
0
  6
CONTINUOUS
 62
     7
  5
664
 10
-3.258733
 20
0.736097
 30
0.0
 11
-3.25888
 21
0.731411
 31
0.0
  0
LINE
  8
0
  6
CONTINUOUS
 62
     7
  5
665
 10
-3.25888
 20
0.731411
 30
0.0
 11
-3.259071
 21
0.726731
 31
0.0
  0
LINE
  8
0
  6
CONTINUOUS
 62
     7
  5
666
 10
-3.259071
 20
0.726731
 30
0.0
 11
-3.259305
 21
0.722077
 31
0.0
  0
LINE
  8
0
  6
CONTINUOUS
 62
     7
  5
667
 10
-3.259305
 20
0.722077
 30
0.0
 11
-3.259582
 21
0.717466
 31
0.0
  0
LINE
  8
0
  6
CONTINUOUS
 62
     7
  5
668
 10
-3.259582
 20
0.717466
 30
0.0
 11
-3.259901
 21
0.712917
 31
0.0
  0
LINE
  8
0
  6
CONTINUOUS
 62
     7
  5
669
 10
-3.259901
 20
0.712917
 30
0.0
 11
-3.26026
 21
0.708444
 31
0.0
  0
LINE
  8
0
  6
CONTINUOUS
 62
     7
  5
66A
 10
-3.26026
 20
0.708444
 30
0.0
 11
-3.260659
 21
0.704063
 31
0.0
  0
LINE
  8
0
  6
CONTINUOUS
 62
     7
  5
66B
 10
-3.260659
 20
0.704063
 30
0.0
 11
-3.261094
 21
0.699787
 31
0.0
  0
LINE
  8
0
  6
CONTINUOUS
 62
     7
  5
66C
 10
-3.261094
 20
0.699787
 30
0.0
 11
-3.261564
 21
0.695632
 31
0.0
  0
LINE
  8
0
  6
CONTINUOUS
 62
     7
  5
66D
 10
-3.261564
 20
0.695632
 30
0.0
 11
-3.262067
 21
0.691611
 31
0.0
  0
LINE
  8
0
  6
CONTINUOUS
 62
     7
  5
66E
 10
-3.262067
 20
0.691611
 30
0.0
 11
-3.262599
 21
0.687738
 31
0.0
  0
LINE
  8
0
  6
CONTINUOUS
 62
     7
  5
66F
 10
-3.262599
 20
0.687738
 30
0.0
 11
-3.263156
 21
0.684025
 31
0.0
  0
LINE
  8
0
  6
CONTINUOUS
 62
     7
  5
670
 10
-3.263156
 20
0.684025
 30
0.0
 11
-3.263736
 21
0.680483
 31
0.0
  0
LINE
  8
0
  6
CONTINUOUS
 62
     7
  5
671
 10
-3.263736
 20
0.680483
 30
0.0
 11
-3.264335
 21
0.677121
 31
0.0
  0
LINE
  8
0
  6
CONTINUOUS
 62
     7
  5
672
 10
-3.264335
 20
0.677121
 30
0.0
 11
-3.264952
 21
0.673925
 31
0.0
  0
LINE
  8
0
  6
CONTINUOUS
 62
     7
  5
673
 10
-3.264952
 20
0.673925
 30
0.0
 11
-3.2656
 21
0.670838
 31
0.0
  0
LINE
  8
0
  6
CONTINUOUS
 62
     7
  5
674
 10
-3.2656
 20
0.670838
 30
0.0
 11
-3.266277
 21
0.66787
 31
0.0
  0
LINE
  8
0
  6
CONTINUOUS
 62
     7
  5
675
 10
-3.266277
 20
0.66787
 30
0.0
 11
-3.26698
 21
0.665036
 31
0.0
  0
LINE
  8
0
  6
CONTINUOUS
 62
     7
  5
676
 10
-3.26698
 20
0.665036
 30
0.0
 11
-3.267708
 21
0.662353
 31
0.0
  0
LINE
  8
0
  6
CONTINUOUS
 62
     7
  5
677
 10
-3.267708
 20
0.662353
 30
0.0
 11
-3.268457
 21
0.659832
 31
0.0
  0
LINE
  8
0
  6
CONTINUOUS
 62
     7
  5
678
 10
-3.268457
 20
0.659832
 30
0.0
 11
-3.269225
 21
0.657487
 31
0.0
  0
LINE
  8
0
  6
CONTINUOUS
 62
     7
  5
679
 10
-3.269225
 20
0.657487
 30
0.0
 11
-3.270008
 21
0.655327
 31
0.0
  0
LINE
  8
0
  6
CONTINUOUS
 62
     7
  5
67A
 10
-3.270008
 20
0.655327
 30
0.0
 11
-3.270804
 21
0.65336
 31
0.0
  0
LINE
  8
0
  6
CONTINUOUS
 62
     7
  5
67B
 10
-3.270804
 20
0.65336
 30
0.0
 11
-3.27161
 21
0.651594
 31
0.0
  0
LINE
  8
0
  6
CONTINUOUS
 62
     7
  5
67C
 10
-3.27161
 20
0.651594
 30
0.0
 11
-3.272422
 21
0.650032
 31
0.0
  0
LINE
  8
0
  6
CONTINUOUS
 62
     7
  5
67D
 10
-3.272422
 20
0.650032
 30
0.0
 11
-3.273239
 21
0.64868
 31
0.0
  0
LINE
  8
0
  6
CONTINUOUS
 62
     7
  5
67E
 10
-3.273239
 20
0.64868
 30
0.0
 11
-3.274056
 21
0.64754
 31
0.0
  0
LINE
  8
0
  6
CONTINUOUS
 62
     7
  5
67F
 10
-3.274056
 20
0.64754
 30
0.0
 11
-3.27487
 21
0.646613
 31
0.0
  0
LINE
  8
0
  6
CONTINUOUS
 62
     7
  5
680
 10
-3.27487
 20
0.646613
 30
0.0
 11
-3.275679
 21
0.645899
 31
0.0
  0
LINE
  8
0
  6
CONTINUOUS
 62
     7
  5
681
 10
-3.275679
 20
0.645899
 30
0.0
 11
-3.276479
 21
0.645395
 31
0.0
  0
LINE
  8
0
  6
CONTINUOUS
 62
     7
  5
682
 10
-3.276479
 20
0.645395
 30
0.0
 11
-3.277267
 21
0.645098
 31
0.0
  0
LINE
  8
0
  6
CONTINUOUS
 62
     7
  5
683
 10
-3.277267
 20
0.645098
 30
0.0
 11
-3.278041
 21
0.645
 31
0.0
  0
LINE
  8
0
  6
CONTINUOUS
 62
     7
  5
684
 10
-3.61
 20
0.125
 30
0.0
 11
-3.581565
 21
0.125
 31
0.0
  0
LINE
  8
0
  6
CONTINUOUS
 62
     7
  5
685
 10
-3.581565
 20
0.125
 30
0.0
 11
-3.581565
 21
-0.125
 31
0.0
  0
LINE
  8
0
  6
CONTINUOUS
 62
     7
  5
686
 10
-3.581565
 20
-0.125
 30
0.0
 11
-3.61
 21
-0.125
 31
0.0
  0
LINE
  8
0
  6
CONTINUOUS
 62
     7
  5
687
 10
-3.61
 20
-0.6
 30
0.0
 11
-3.5
 21
-0.6
 31
0.0
  0
LINE
  8
0
  6
CONTINUOUS
 62
     7
  5
688
 10
-3.5
 20
0.6
 30
0.0
 11
-3.5
 21
-0.6
 31
0.0
  0
LINE
  8
0
  6
CONTINUOUS
 62
     7
  5
689
 10
-3.5
 20
0.6
 30
0.0
 11
-3.61
 21
0.6
 31
0.0
  0
LINE
  8
0
  6
CONTINUOUS
 62
     7
  5
68A
 10
-3.5
 20
0.6
 30
0.0
 11
-3.21875
 21
0.6
 31
0.0
  0
LINE
  8
0
  6
CONTINUOUS
 62
     7
  5
68B
 10
-3.21875
 20
-0.6
 30
0.0
 11
-3.5
 21
-0.6
 31
0.0
  0
LINE
  8
0
  6
CONTINUOUS
 62
     7
  5
68C
 10
-3.21875
 20
-0.6
 30
0.0
 11
-3.21875
 21
-0.95
 31
0.0
  0
LINE
  8
0
  6
CONTINUOUS
 62
     7
  5
68D
 10
-3.21875
 20
0.95
 30
0.0
 11
-3.21875
 21
0.6
 31
0.0
  0
LINE
  8
0
  6
CONTINUOUS
 62
     7
  5
68E
 10
-3.61
 20
0.6
 30
0.0
 11
-3.61
 21
0.125
 31
0.0
  0
LINE
  8
0
  6
CONTINUOUS
 62
     7
  5
68F
 10
-3.61
 20
-0.125
 30
0.0
 11
-3.61
 21
-0.6
 31
0.0
  0
LINE
  8
0
  6
CONTINUOUS
 62
     7
  5
690
 10
-3.32875
 20
-0.6
 30
0.0
 11
-3.32875
 21
-0.95
 31
0.0
  0
LINE
  8
0
  6
CONTINUOUS
 62
     7
  5
691
 10
-3.32875
 20
0.95
 30
0.0
 11
-3.32875
 21
0.6
 31
0.0
  0
LINE
  8
0
  6
CONTINUOUS
 62
     3
  5
692
 10
-0.275
 20
1.18
 30
0.0
 11
0.025
 21
1.18
 31
0.0
  0
LINE
  8
0
  6
CONTINUOUS
 62
     3
  5
693
 10
-0.275
 20
1.38
 30
0.0
 11
0.025
 21
1.38
 31
0.0
  0
LINE
  8
0
  6
CONTINUOUS
 62
     3
  5
694
 10
-0.275
 20
-1.18
 30
0.0
 11
0.025
 21
-1.18
 31
0.0
  0
LINE
  8
0
  6
CONTINUOUS
 62
     3
  5
695
 10
-0.275
 20
-1.38
 30
0.0
 11
0.025
 21
-1.38
 31
0.0
  0
ENDSEC
  0
EOF
