999
DXF file: C:\Users\sesa63760\Dev\_Creo\CAD\MCADID0005781_3D-CAD\mcadid0005781_3d-simplified_4.dxf
999
Pro/ENGINEER 2019471 by Parametric Technology Corporation
  0
SECTION
  2
HEADER
  9
$ACADVER
  1
AC1024
  9
$DWGCODEPAGE
  3
ANSI_1252
  9
$EXTMAX
 10
37.8060024708
 20
53.4684892086
 30
0.0
  9
$EXTMIN
 10
0.0
 20
0.0
 30
0.0
  9
$LIMMIN
 10
0.0
 20
0.0
  9
$LIMMAX
 10
37.8060024708
 20
53.4684892086
  9
$VIEWCTR
 10
18.9030012354
 20
26.7342446043
  9
$VIEWSIZE
 40
53.4684892086
  9
$CLAYER
  8
0
  9
$LTSCALE
 40
3.4853533706
  9
$CELTYPE
  6
BYLAYER
  9
$DIMSCALE
 40
1.0
  9
$DIMASZ
 40
0.450071458
  9
$DIMEXO
 40
1.0
  9
$DIMDLI
 40
2.4080623288
  9
$DIMEXE
 40
1.0
  9
$DIMCEN
 40
0.5703305516
  9
$DIMLFAC
 40
1.0
  9
$DIMBLK
  1
_FILLED
  9
$DIMALT
 70
0
  9
$DIMALTF
 40
0.0393700787
  9
$DIMTXT
 40
0.6301000412
  9
$DIMTOL
 70
1
  9
$DIMLIM
 70
0
  9
$DIMTFAC
 40
1.0
  9
$DIMTP
 40
0.01
  9
$DIMTM
 40
0.01
  9
$DIMGAP
 40
0.625
  9
$DIMDSEP
 70
46
  9
$AUNITS
 70
0
  9
$PDMODE
 70
3
  9
$PDSIZE
 40
0.3125
  9
$HANDSEED
  5
268
  9
$TILEMODE
 70
1
  9
$MEASUREMENT
 70
1
  9
$INSUNITS
 70
4
  0
ENDSEC
  0
SECTION
  2
CLASSES
  0
CLASS
  1
ACDBDICTIONARYWDFLT
  2
AcDbDictionaryWithDefault
  3
AutoCAD 2000
 90
0
 91
1
280
0
281
0
  0
CLASS
  1
ACDBPLACEHOLDER
  2
AcDbPlaceHolder
  3
AutoCAD 2000
 90
0
 91
1
280
0
281
0
  0
CLASS
  1
LAYOUT
  2
AcDbLayout
  3
AutoCAD 2000
 90
0
 91
0
280
0
281
0
  0
ENDSEC
  0
SECTION
  2
TABLES
  0
TABLE
  2
VPORT
  5
8
100
AcDbSymbolTable
 70
2
  0
VPORT
  5
1F4
100
AcDbSymbolTableRecord
100
AcDbViewportTableRecord
  2
*ACTIVE
 70
0
 10
0.0
 20
0.0
 11
1.0
 21
1.0
 12
18.9030012354
 22
26.7342446043
 13
0.0
 23
0.0
 14
1.0
 24
1.0
 15
0.0
 25
0.0
 16
0.0
 26
0.0
 36
1.0
 17
0.0
 27
0.0
 37
0.0
 40
53.4684892086
 41
0.7070707071
 42
50.0
 43
0.0
 44
0.0
 50
0.0
 51
0.0
 71
0
 72
100
 73
1
 74
1
 75
0
 76
0
 77
0
 78
0
  0
ENDTAB
  0
TABLE
  2
LTYPE
  5
5
100
AcDbSymbolTable
 70
6
  0
LTYPE
  5
14
100
AcDbSymbolTableRecord
100
AcDbLinetypeTableRecord
  2
BYBLOCK
 70
0
  3

 72
65
 73
0
 40
0.0
  0
LTYPE
  5
15
100
AcDbSymbolTableRecord
100
AcDbLinetypeTableRecord
  2
BYLAYER
 70
0
  3

 72
65
 73
0
 40
0.0
  0
LTYPE
  5
16
100
AcDbSymbolTableRecord
100
AcDbLinetypeTableRecord
  2
CONTINUOUS
 70
64
  3
Solid line
 72
65
 73
0
 40
0.0
  0
LTYPE
  5
1F5
100
AcDbSymbolTableRecord
100
AcDbLinetypeTableRecord
  2
CENTER
 70
64
  3
____ _ ____ _ ____ _ ____ _ ____ _ ____ _ ____
 72
65
 73
4
 40
0.6
 49
0.375
 74
0
 49
-0.075
 74
0
 49
0.075
 74
0
 49
-0.075
 74
0
  0
LTYPE
  5
1F6
100
AcDbSymbolTableRecord
100
AcDbLinetypeTableRecord
  2
HIDDEN
 70
64
  3
- - - - - - - - - - - - - - - - - - - -
 72
65
 73
2
 40
0.2
 49
0.1
 74
0
 49
-0.1
 74
0
  0
LTYPE
  5
1F7
100
AcDbSymbolTableRecord
100
AcDbLinetypeTableRecord
  2
PHANTOM
 70
64
  3
_____ _ _ _____ _ _ _____ _ _ _____
 72
65
 73
6
 40
0.8
 49
0.45
 74
0
 49
-0.05
 74
0
 49
0.1
 74
0
 49
-0.05
 74
0
 49
0.1
 74
0
 49
-0.05
 74
0
  0
LTYPE
  5
1F8
100
AcDbSymbolTableRecord
100
AcDbLinetypeTableRecord
  2
DOT
 70
64
  3
. . . . . . . . . . . . . . . . . . . .
 72
65
 73
2
 40
0.2
 49
0.1
 74
0
 49
-0.1
 74
0
  0
LTYPE
  5
1F9
100
AcDbSymbolTableRecord
100
AcDbLinetypeTableRecord
  2
DASHED
 70
64
  3
- - - - - - - - - - - - - - - - - - - -
 72
65
 73
2
 40
0.2
 49
0.1
 74
0
 49
-0.1
 74
0
  0
ENDTAB
  0
TABLE
  2
LAYER
  5
2
100
AcDbSymbolTable
 70
36
  0
LAYER
  5
10
100
AcDbSymbolTableRecord
100
AcDbLayerTableRecord
  2
0
 70
0
 62
7
  6
CONTINUOUS
370
-3
390
F
  0
LAYER
  5
1FA
100
AcDbSymbolTableRecord
100
AcDbLayerTableRecord
  2
DEFAULT_1
 70
0
 62
7
  6
CENTER
370
-3
390
F
  0
LAYER
  5
1FB
100
AcDbSymbolTableRecord
100
AcDbLayerTableRecord
  2
DEFAULT_2
 70
0
 62
7
  6
HIDDEN
370
-3
390
F
  0
LAYER
  5
1FC
100
AcDbSymbolTableRecord
100
AcDbLayerTableRecord
  2
DEFAULT_3
 70
0
 62
7
  6
PHANTOM
370
-3
390
F
  0
LAYER
  5
1FD
100
AcDbSymbolTableRecord
100
AcDbLayerTableRecord
  2
00_COMPONENTS
 70
0
 62
7
  6
CONTINUOUS
370
-3
390
F
  0
LAYER
  5
1FE
100
AcDbSymbolTableRecord
100
AcDbLayerTableRecord
  2
01_1_DEFAULT_DATUMS
 70
0
 62
7
  6
CONTINUOUS
370
-3
390
F
  0
LAYER
  5
1FF
100
AcDbSymbolTableRecord
100
AcDbLayerTableRecord
  2
01_PLANES
 70
0
 62
7
  6
CONTINUOUS
370
-3
390
F
  0
LAYER
  5
200
100
AcDbSymbolTableRecord
100
AcDbLayerTableRecord
  2
02_COORD_SYS
 70
0
 62
7
  6
CONTINUOUS
370
-3
390
F
  0
LAYER
  5
201
100
AcDbSymbolTableRecord
100
AcDbLayerTableRecord
  2
03_AXES
 70
0
 62
7
  6
CONTINUOUS
370
-3
390
F
  0
LAYER
  5
202
100
AcDbSymbolTableRecord
100
AcDbLayerTableRecord
  2
04_POINTS
 70
0
 62
7
  6
CONTINUOUS
370
-3
390
F
  0
LAYER
  5
203
100
AcDbSymbolTableRecord
100
AcDbLayerTableRecord
  2
05_CURVES
 70
0
 62
7
  6
CONTINUOUS
370
-3
390
F
  0
LAYER
  5
204
100
AcDbSymbolTableRecord
100
AcDbLayerTableRecord
  2
06_SURFS
 70
0
 62
7
  6
CONTINUOUS
370
-3
390
F
  0
LAYER
  5
205
100
AcDbSymbolTableRecord
100
AcDbLayerTableRecord
  2
07_COSMETICS
 70
0
 62
7
  6
CONTINUOUS
370
-3
390
F
  0
LAYER
  5
206
100
AcDbSymbolTableRecord
100
AcDbLayerTableRecord
  2
10_NOTES
 70
0
 62
7
  6
CONTINUOUS
370
-3
390
F
  0
LAYER
  5
207
100
AcDbSymbolTableRecord
100
AcDbLayerTableRecord
  2
11_NOTES_PUB
 70
0
 62
7
  6
CONTINUOUS
370
-3
390
F
  0
LAYER
  5
208
100
AcDbSymbolTableRecord
100
AcDbLayerTableRecord
  2
13_REF_GTOL
 70
0
 62
7
  6
CONTINUOUS
370
-3
390
F
  0
LAYER
  5
209
100
AcDbSymbolTableRecord
100
AcDbLayerTableRecord
  2
16_MISC
 70
0
 62
7
  6
CONTINUOUS
370
-3
390
F
  0
LAYER
  5
20A
100
AcDbSymbolTableRecord
100
AcDbLayerTableRecord
  2
17_NO_PRINT
 70
0
 62
7
  6
CONTINUOUS
370
-3
390
F
  0
LAYER
  5
20B
100
AcDbSymbolTableRecord
100
AcDbLayerTableRecord
  2
18_DATUM_CAMS_JOINTS
 70
0
 62
7
  6
CONTINUOUS
370
-3
390
F
  0
LAYER
  5
20C
100
AcDbSymbolTableRecord
100
AcDbLayerTableRecord
  2
19_DATUM_FUNCTIONAL
 70
0
 62
7
  6
CONTINUOUS
370
-3
390
F
  0
LAYER
  5
20D
100
AcDbSymbolTableRecord
100
AcDbLayerTableRecord
  2
20_DATUM_KINEMATIC_SCHEME
 70
0
 62
7
  6
CONTINUOUS
370
-3
390
F
  0
ENDTAB
  0
TABLE
  2
STYLE
  5
3
100
AcDbSymbolTable
 70
1
  0
STYLE
  5
11
100
AcDbSymbolTableRecord
100
AcDbTextStyleTableRecord
  2
STANDARD
 70
0
 40
0.0
 41
1.0
 50
0.0
 71
0
 42
0.2
  3
ARIAL.TTF
  4

  0
STYLE
  5
20E
100
AcDbSymbolTableRecord
100
AcDbTextStyleTableRecord
  2
TEXTSTYLE_1
 70
0
 40
0.0
 41
0.8
 50
0.0
 71
0
 42
0.2
  3
gdt
  4

  0
ENDTAB
  0
TABLE
  2
VIEW
  5
6
100
AcDbSymbolTable
 70
0
  0
ENDTAB
  0
TABLE
  2
UCS
  5
7
100
AcDbSymbolTable
 70
0
  0
ENDTAB
  0
TABLE
  2
APPID
  5
9
100
AcDbSymbolTable
 70
1
  0
APPID
  5
20F
100
AcDbSymbolTableRecord
100
AcDbRegAppTableRecord
  2
ACAD
 70
0
  0
ENDTAB
  0
TABLE
  2
BLOCK_RECORD
  5
1
100
AcDbSymbolTable
 70
0
  0
BLOCK_RECORD
  5
210
100
AcDbSymbolTableRecord
100
AcDbBlockTableRecord
  2
*Model_Space
  0
BLOCK_RECORD
  5
211
100
AcDbSymbolTableRecord
100
AcDbBlockTableRecord
  2
*Paper_Space
  0
BLOCK_RECORD
  5
212
100
AcDbSymbolTableRecord
100
AcDbBlockTableRecord
  2
_FILLED
  0
ENDTAB
  0
TABLE
  2
DIMSTYLE
  5
A
100
AcDbSymbolTable
 70
1
100
AcDbDimStyleTable
 71
0
  0
DIMSTYLE
105
213
100
AcDbSymbolTableRecord
100
AcDbDimStyleTableRecord
  2
STANDARD
 70
0
  3

  4

 40
1.0
 41
0.450071458
 42
1.0
 43
0.38
 44
1.0
 45
0.0
 46
0.0
 47
0.01
 48
0.01
140
0.6301000412
141
0.09
142
0.0
143
25.4
144
1.0
145
0.0
146
1.0
147
0.625
 71
1
 72
0
 73
0
 74
0
 75
0
 76
0
 77
1
 78
8
 79
2
170
0
171
1
172
0
173
0
174
0
175
0
176
0
177
0
178
0
270
2
179
2
271
2
272
2
273
2
274
2
275
0
280
0
281
0
282
0
283
1
284
8
285
0
286
0
287
3
288
0
340
11
278
46
341
212
342
212
343
212
344
212
  0
ENDTAB
  0
ENDSEC
  0
SECTION
  2
BLOCKS
  0
BLOCK
  5
20
100
AcDbEntity
  8
0
100
AcDbBlockBegin
  2
*Model_Space
 70
0
 10
0.0
 20
0.0
 30
0.0
  3
*Model_Space
  1

  0
ENDBLK
  5
21
100
AcDbEntity
  8
0
100
AcDbBlockEnd
  0
BLOCK
  5
1C
100
AcDbEntity
  8
0
100
AcDbBlockBegin
  2
*Paper_Space
 70
0
 10
0.0
 20
0.0
 30
0.0
  3
*Paper_Space
  1

  0
ENDBLK
  5
1D
100
AcDbEntity
  8
0
100
AcDbBlockEnd
  0
BLOCK
  5
214
100
AcDbEntity
  8
0
100
AcDbBlockBegin
  2
_FILLED
 70
64
 10
0.0
 20
0.0
  3
_FILLED
  1

  0
SOLID
  5
215
100
AcDbEntity
  8
0
  6
BYBLOCK
 62
0
100
AcDbTrace
 10
0.0
 20
0.0
 11
-1.0
 21
0.25
 12
-1.0
 22
-0.25
 13
-1.0
 23
-0.25
  0
ENDBLK
  5
216
100
AcDbEntity
  8
0
  6
BYBLOCK
 62
0
100
AcDbBlockEnd
  0
ENDSEC
  0
SECTION
  2
ENTITIES
  0
LINE
  5
217
100
AcDbEntity
  8
0
100
AcDbLine
 62
7
  6
BYLAYER
 10
16.4438380396
 20
3.8285270731
 11
22.3438380396
 21
3.8285270731
  0
LINE
  5
218
100
AcDbEntity
  8
0
100
AcDbLine
 62
7
  6
BYLAYER
 10
23.1438380396
 20
5.6127375994
 11
15.6438380396
 21
5.6127375994
  0
LINE
  5
219
100
AcDbEntity
  8
0
100
AcDbLine
 62
7
  6
BYLAYER
 10
18.6773034716
 20
5.9627375994
 11
20.1103725211
 21
5.9627375994
  0
LINE
  5
21A
100
AcDbEntity
  8
0
100
AcDbLine
 62
7
  6
BYLAYER
 10
21.836471581
 20
6.7627375994
 11
16.9512044368
 21
6.7627375994
  0
LINE
  5
21B
100
AcDbEntity
  8
0
100
AcDbLine
 62
7
  6
BYLAYER
 10
18.6773034716
 20
5.9627375994
 11
15.1438380396
 21
7.6004028137
  0
LINE
  5
21C
100
AcDbEntity
  8
0
100
AcDbLine
 62
7
  6
BYLAYER
 10
28.0438380396
 20
8.7127375994
 11
26.1438380396
 21
8.7127375994
  0
LINE
  5
21D
100
AcDbEntity
  8
0
100
AcDbLine
 62
7
  6
BYLAYER
 10
12.6438380396
 20
9.7127375994
 11
10.7438380396
 21
9.7127375994
  0
LINE
  5
21E
100
AcDbEntity
  8
0
100
AcDbLine
 62
7
  6
BYLAYER
 10
34.3438380396
 20
10.2127375994
 11
28.0438380396
 21
10.2127375994
  0
LINE
  5
21F
100
AcDbEntity
  8
0
100
AcDbLine
 62
7
  6
BYLAYER
 10
10.7438380396
 20
10.2127375994
 11
4.4438380396
 21
10.2127375994
  0
LINE
  5
220
100
AcDbEntity
  8
0
100
AcDbLine
 62
7
  6
BYLAYER
 10
17.7948640794
 20
10.4127375994
 11
17.6690361345
 21
10.4127375994
  0
LINE
  5
221
100
AcDbEntity
  8
0
100
AcDbLine
 62
7
  6
BYLAYER
 10
4.4438380396
 20
42.9127375994
 11
4.4438380396
 21
10.2127375994
  0
LINE
  5
222
100
AcDbEntity
  8
0
100
AcDbLine
 62
7
  6
BYLAYER
 10
4.7288380396
 20
49.3127375994
 11
4.7288380396
 21
17.2127375994
  0
LINE
  5
223
100
AcDbEntity
  8
0
100
AcDbLine
 62
7
  6
BYLAYER
 10
7.7688316029
 20
36.6269511618
 11
10.8938380396
 21
39.7519511618
  0
LINE
  5
224
100
AcDbEntity
  8
0
100
AcDbLine
 62
7
  6
BYLAYER
 10
8.5288380396
 20
13.4127375994
 11
12.6438380396
 21
13.4127375994
  0
LINE
  5
225
100
AcDbEntity
  8
0
100
AcDbLine
 62
7
  6
BYLAYER
 10
26.1438380396
 20
13.4127375994
 11
30.2588380396
 21
13.4127375994
  0
LINE
  5
226
100
AcDbEntity
  8
0
100
AcDbLine
 62
7
  6
BYLAYER
 10
4.4438380396
 20
13.4311039862
 11
8.4366094079
 21
13.4311039862
  0
LINE
  5
227
100
AcDbEntity
  8
0
100
AcDbLine
 62
7
  6
BYLAYER
 10
30.3510696122
 20
13.4311039862
 11
34.3438380396
 21
13.4311039862
  0
LINE
  5
228
100
AcDbEntity
  8
0
100
AcDbLine
 62
7
  6
BYLAYER
 10
7.2288380396
 20
16.4127375994
 11
7.2288380396
 21
19.1976198329
  0
LINE
  5
229
100
AcDbEntity
  8
0
100
AcDbLine
 62
7
  6
BYLAYER
 10
7.2288380396
 20
33.6278553659
 11
7.2288380396
 21
49.3127375994
  0
LINE
  5
22A
100
AcDbEntity
  8
0
100
AcDbLine
 62
7
  6
BYLAYER
 10
7.7688316029
 20
34.6004750887
 11
7.7688316029
 21
36.6269511618
  0
LINE
  5
22B
100
AcDbEntity
  8
0
100
AcDbLine
 62
7
  6
BYLAYER
 10
34.3438380396
 20
15.0127375994
 11
33.3572247166
 21
15.0127375994
  0
LINE
  5
22C
100
AcDbEntity
  8
0
100
AcDbLine
 62
7
  6
BYLAYER
 10
5.4304513627
 20
15.0127375994
 11
4.4438380396
 21
15.0127375994
  0
LINE
  5
22D
100
AcDbEntity
  8
0
100
AcDbLine
 62
7
  6
BYLAYER
 10
31.0588380396
 20
15.9127375994
 11
28.8733784007
 21
15.9127375994
  0
LINE
  5
22E
100
AcDbEntity
  8
0
100
AcDbLine
 62
7
  6
BYLAYER
 10
9.9142976781
 20
15.9127375994
 11
7.7288380396
 21
15.9127375994
  0
LINE
  5
22F
100
AcDbEntity
  8
0
100
AcDbLine
 62
7
  6
BYLAYER
 10
10.7438380396
 20
9.7127375994
 11
10.7438380396
 21
10.2127375994
  0
LINE
  5
230
100
AcDbEntity
  8
0
100
AcDbLine
 62
7
  6
BYLAYER
 10
10.8938380396
 20
39.7519511618
 11
10.8938380396
 21
42.9127375994
  0
LINE
  5
231
100
AcDbEntity
  8
0
100
AcDbLine
 62
7
  6
BYLAYER
 10
12.6438380396
 20
13.4127375994
 11
12.6438380396
 21
7.6285270731
  0
LINE
  5
232
100
AcDbEntity
  8
0
100
AcDbLine
 62
7
  6
BYLAYER
 10
15.1438380396
 20
6.1127375994
 11
15.1438380396
 21
12.1127375994
  0
LINE
  5
233
100
AcDbEntity
  8
0
100
AcDbLine
 62
7
  6
BYLAYER
 10
17.7948640794
 20
11.6279786528
 11
17.7948640794
 21
8.8496078101
  0
LINE
  5
234
100
AcDbEntity
  8
0
100
AcDbLine
 62
7
  6
BYLAYER
 10
21.7948640794
 20
11.6279786528
 11
21.7948640794
 21
9.3127375994
  0
LINE
  5
235
100
AcDbEntity
  8
0
100
AcDbLine
 62
7
  6
BYLAYER
 10
23.6438380396
 20
12.1127375994
 11
23.6438380396
 21
6.1127375994
  0
LWPOLYLINE
  5
236
100
AcDbEntity
  8
0
100
AcDbPolyline
 62
7
  6
BYLAYER
 90
3
 70
0
 10
17.3460890319
 20
9.3639185893
 10
17.6544205084
 20
9.998980321
 10
17.7948640794
 20
10.1099476108
  0
LINE
  5
237
100
AcDbEntity
  8
0
100
AcDbLine
 62
7
  6
BYLAYER
 10
26.1438380396
 20
7.6285270731
 11
26.1438380396
 21
13.4127375994
  0
LINE
  5
238
100
AcDbEntity
  8
0
100
AcDbLine
 62
7
  6
BYLAYER
 10
28.0438380396
 20
10.2127375994
 11
28.0438380396
 21
8.7127375994
  0
LINE
  5
239
100
AcDbEntity
  8
0
100
AcDbLine
 62
7
  6
BYLAYER
 10
31.0188380396
 20
38.2906232488
 11
31.0188380396
 21
34.6004820254
  0
LINE
  5
23A
100
AcDbEntity
  8
0
100
AcDbLine
 62
7
  6
BYLAYER
 10
31.5588380396
 20
49.3127375994
 11
31.5588380396
 21
33.627855365
  0
LINE
  5
23B
100
AcDbEntity
  8
0
100
AcDbLine
 62
7
  6
BYLAYER
 10
31.5588380396
 20
19.1976198338
 11
31.5588380396
 21
16.4127375994
  0
LINE
  5
23C
100
AcDbEntity
  8
0
100
AcDbLine
 62
7
  6
BYLAYER
 10
34.0588380396
 20
17.2127375994
 11
34.0588380396
 21
49.3127375994
  0
LWPOLYLINE
  5
23D
100
AcDbEntity
  8
0
100
AcDbPolyline
 62
7
  6
BYLAYER
 90
4
 70
0
 10
21.9994005335
 20
6.8382507406
 10
21.4788153844
 20
6.2113229124
 10
20.3957204446
 20
5.7050786915
 10
19.7948640794
 20
5.6391757207
  0
LINE
  5
23E
100
AcDbEntity
  8
0
100
AcDbLine
 62
7
  6
BYLAYER
 10
34.3438380396
 20
10.2127375994
 11
34.3438380396
 21
42.9127375994
  0
LINE
  5
23F
100
AcDbEntity
  8
0
100
AcDbLine
 62
7
  6
BYLAYER
 10
4.4438380396
 20
42.9127375994
 11
4.7288380396
 21
42.9127375994
  0
LINE
  5
240
100
AcDbEntity
  8
0
100
AcDbLine
 62
7
  6
BYLAYER
 10
7.2288380396
 20
42.9127375994
 11
31.5588380396
 21
42.9127375994
  0
LINE
  5
241
100
AcDbEntity
  8
0
100
AcDbLine
 62
7
  6
BYLAYER
 10
34.0588380396
 20
42.9127375994
 11
34.3438380396
 21
42.9127375994
  0
LINE
  5
242
100
AcDbEntity
  8
0
100
AcDbLine
 62
7
  6
BYLAYER
 10
26.4433338316
 20
42.9127375994
 11
31.0188380396
 21
38.2906232488
  0
LINE
  5
243
100
AcDbEntity
  8
0
100
AcDbLine
 62
7
  6
BYLAYER
 10
23.6438380396
 20
7.6004028299
 11
20.1103725211
 21
5.9627375994
  0
LINE
  5
244
100
AcDbEntity
  8
0
100
AcDbLine
 62
7
  6
BYLAYER
 10
34.0588380396
 20
49.3127375994
 11
31.5588380396
 21
49.3127375994
  0
LINE
  5
245
100
AcDbEntity
  8
0
100
AcDbLine
 62
7
  6
BYLAYER
 10
7.2288380396
 20
49.3127375994
 11
4.7288380396
 21
49.3127375994
  0
CIRCLE
  5
246
100
AcDbEntity
  8
0
100
AcDbCircle
 62
7
  6
BYLAYER
 10
19.3938380394
 20
26.4127375994
 40
14.2499378637
  0
CIRCLE
  5
247
100
AcDbEntity
  8
0
100
AcDbCircle
 62
7
  6
BYLAYER
 10
19.3938380394
 20
26.4127375994
 40
13.6015132603
  0
ARC
  5
248
100
AcDbEntity
  8
0
100
AcDbCircle
 62
7
  6
BYLAYER
 10
30.2588380396
 20
17.2127375994
 40
3.8
100
AcDbArc
 50
270.0
 51
360.0
  0
ARC
  5
249
100
AcDbEntity
  8
0
100
AcDbCircle
 62
7
  6
BYLAYER
 10
22.3438380396
 20
7.6285270731
 40
3.8
100
AcDbArc
 50
270.0
 51
360.0
  0
ARC
  5
24A
100
AcDbEntity
  8
0
100
AcDbCircle
 62
7
  6
BYLAYER
 10
16.4438380396
 20
7.6285270731
 40
3.8
100
AcDbArc
 50
180.0
 51
270.0
  0
ARC
  5
24B
100
AcDbEntity
  8
0
100
AcDbCircle
 62
7
  6
BYLAYER
 10
8.5288380396
 20
17.2127375994
 40
3.8
100
AcDbArc
 50
180.0
 51
270.0
  0
ARC
  5
24C
100
AcDbEntity
  8
0
100
AcDbCircle
 62
7
  6
BYLAYER
 10
11.3438380396
 20
12.1127375994
 40
3.8
100
AcDbArc
 50
0.0
 51
13.2433551028
  0
ARC
  5
24D
100
AcDbEntity
  8
0
100
AcDbCircle
 62
7
  6
BYLAYER
 10
27.4438380396
 20
12.1127375994
 40
3.8
100
AcDbArc
 50
166.756547476
 51
180.0
  0
ARC
  5
24E
100
AcDbEntity
  8
0
100
AcDbCircle
 62
7
  6
BYLAYER
 10
19.7943098074
 20
8.4059020295
 40
2.7667263643
100
AcDbArc
 50
245.7294983404
 51
270.0114783484
  0
ARC
  5
24F
100
AcDbEntity
  8
0
100
AcDbCircle
 62
7
  6
BYLAYER
 10
19.7868116681
 20
8.3864325619
 40
2.7458978399
100
AcDbArc
 50
237.2871087919
 51
244.6089023657
  0
ARC
  5
250
100
AcDbEntity
  8
0
100
AcDbCircle
 62
7
  6
BYLAYER
 10
19.7854806273
 20
8.3838011295
 40
2.7429498565
100
AcDbArc
 50
244.6104506191
 51
245.7078652283
  0
ARC
  5
251
100
AcDbEntity
  8
0
100
AcDbCircle
 62
7
  6
BYLAYER
 10
19.7673143692
 20
7.9242701932
 40
2.71181814
100
AcDbArc
 50
212.3896141505
 51
239.9055129638
  0
ARC
  5
252
100
AcDbEntity
  8
0
100
AcDbCircle
 62
7
  6
BYLAYER
 10
19.4635032706
 20
9.3500392477
 40
2.116083755
100
AcDbArc
 50
143.9730300567
 51
179.6425565007
  0
ARC
  5
253
100
AcDbEntity
  8
0
100
AcDbCircle
 62
7
  6
BYLAYER
 10
19.3939167966
 20
9.3494914113
 40
2.100370263
100
AcDbArc
 50
139.6213119044
 51
280.1691725937
  0
ARC
  5
254
100
AcDbEntity
  8
0
100
AcDbCircle
 62
7
  6
BYLAYER
 10
19.4380749688
 20
9.3484067618
 40
2.090547686
100
AcDbArc
 50
179.5934701976
 51
234.1342792621
  0
ARC
  5
255
100
AcDbEntity
  8
0
100
AcDbCircle
 62
7
  6
BYLAYER
 10
19.7944371547
 20
9.2498281408
 40
1.9679438114
100
AcDbArc
 50
269.13562484
 51
270.0124297178
  0
ARC
  5
256
100
AcDbEntity
  8
0
100
AcDbCircle
 62
7
  6
BYLAYER
 10
19.7544280029
 20
8.8560137854
 40
1.9606203973
100
AcDbArc
 50
196.9922370716
 51
218.3818447433
  0
ARC
  5
257
100
AcDbEntity
  8
0
100
AcDbCircle
 62
7
  6
BYLAYER
 10
19.7511900426
 20
8.8524660815
 40
1.9558795764
100
AcDbArc
 50
218.3592717815
 51
218.8903896029
  0
ARC
  5
258
100
AcDbEntity
  8
0
100
AcDbCircle
 62
7
  6
BYLAYER
 10
19.8501012641
 20
11.6274943078
 40
1.9447447149
100
AcDbArc
 50
0.0142696992
 51
25.8184807224
  0
ARC
  5
259
100
AcDbEntity
  8
0
100
AcDbCircle
 62
7
  6
BYLAYER
 10
19.737697844
 20
11.6277938126
 40
1.9428156127
100
AcDbArc
 50
159.6331978032
 51
179.9945488594
  0
ARC
  5
25A
100
AcDbEntity
  8
0
100
AcDbCircle
 62
7
  6
BYLAYER
 10
19.7364436352
 20
8.849617416
 40
1.9415520512
100
AcDbArc
 50
180.0002804808
 51
196.9668186196
  0
ARC
  5
25B
100
AcDbEntity
  8
0
100
AcDbCircle
 62
7
  6
BYLAYER
 10
7.7288380396
 20
16.4127375994
 40
0.5
100
AcDbArc
 50
180.0
 51
270.0
  0
ARC
  5
25C
100
AcDbEntity
  8
0
100
AcDbCircle
 62
7
  6
BYLAYER
 10
15.6438380396
 20
6.1127375994
 40
0.5
100
AcDbArc
 50
180.0
 51
270.0
  0
ARC
  5
25D
100
AcDbEntity
  8
0
100
AcDbCircle
 62
7
  6
BYLAYER
 10
23.1438380396
 20
6.1127375994
 40
0.5
100
AcDbArc
 50
270.0
 51
360.0
  0
ARC
  5
25E
100
AcDbEntity
  8
0
100
AcDbCircle
 62
7
  6
BYLAYER
 10
31.0588380396
 20
16.4127375994
 40
0.5
100
AcDbArc
 50
270.0
 51
360.0
  0
SPLINE
  5
25F
100
AcDbEntity
  8
0
100
AcDbSpline
 62
7
  6
BYLAYER
 70
0
 71
3
 72
11
 73
7
 74
0
 42
0.0000001
 43
0.0000001
 44
0.0000000001
 40
0.0
 40
0.0
 40
0.0
 40
0.0
 40
0.2509507233
 40
0.5012465432
 40
0.7509054397
 40
1.0
 40
1.0
 40
1.0
 40
1.0
 10
21.1814059148
 20
5.5775033782
 30
0.0
 10
21.31504832
 20
5.6550769061
 30
0.0
 10
21.5694130417
 20
5.8329673765
 30
0.0
 10
21.8993511048
 20
6.160006786
 30
0.0
 10
22.1681221099
 20
6.5375266159
 30
0.0
 10
22.3015012084
 20
6.8161588254
 30
0.0
 10
22.3555312222
 20
6.9597094473
 30
0.0
  0
SPLINE
  5
260
100
AcDbEntity
  8
0
100
AcDbSpline
 62
7
  6
BYLAYER
 70
0
 71
3
 72
17
 73
13
 74
0
 42
0.0000001
 43
0.0000001
 44
0.0000000001
 40
0.0
 40
0.0
 40
0.0
 40
0.0
 40
0.1240220245
 40
0.2481887979
 40
0.3726216677
 40
0.4350391122
 40
0.4975502215
 40
0.6227049598
 40
0.7481834696
 40
0.8111091389
 40
0.874123205
 40
1.0
 40
1.0
 40
1.0
 40
1.0
 10
21.7948459187
 20
11.6279786528
 30
0.0
 10
21.7948459187
 20
11.4992568022
 30
0.0
 10
21.7690219438
 20
11.2409178018
 30
0.0
 10
21.6544036129
 20
10.8690561336
 30
0.0
 10
21.4992296749
 20
10.5833471378
 30
0.0
 10
21.343260098
 20
10.3763672629
 30
0.0
 10
21.1672582695
 20
10.1850896814
 30
0.0
 10
20.9127045682
 20
9.9794662549
 30
0.0
 10
20.6227568838
 20
9.826945742
 30
0.0
 10
20.3762845676
 20
9.7401126195
 30
0.0
 10
20.1222401324
 20
9.6774781897
 30
0.0
 10
19.9255109871
 20
9.6583631467
 30
0.0
 10
19.7948640794
 20
9.6583631467
 30
0.0
  0
SPLINE
  5
261
100
AcDbEntity
  8
0
100
AcDbSpline
 62
7
  6
BYLAYER
 70
0
 71
3
 72
15
 73
11
 74
0
 42
0.0000001
 43
0.0000001
 44
0.0000000001
 40
0.0
 40
0.0
 40
0.0
 40
0.0
 40
0.1260483179
 40
0.2519446189
 40
0.3774617185
 40
0.5025667539
 40
0.6272465492
 40
0.751599207
 40
0.8757849347
 40
1.0
 40
1.0
 40
1.0
 40
1.0
 10
19.7948640794
 20
10.2391732879
 30
0.0
 10
19.6729986933
 20
10.2391732879
 30
0.0
 10
19.4285288561
 20
10.2668300405
 30
0.0
 10
19.0814881456
 20
10.3890179325
 30
0.0
 10
18.7714334656
 20
10.5857704773
 30
0.0
 10
18.5147544824
 20
10.8467158226
 30
0.0
 10
18.3249023901
 20
11.1583870355
 30
0.0
 10
18.2118832632
 20
11.5045218775
 30
0.0
 10
18.1816301552
 20
11.8667640623
 30
0.0
 10
18.2178464875
 20
12.1067688471
 30
0.0
 10
18.2493731999
 20
12.2226497683
 30
0.0
  0
SPLINE
  5
262
100
AcDbEntity
  8
0
100
AcDbSpline
 62
7
  6
BYLAYER
 70
0
 71
3
 72
19
 73
15
 74
0
 42
0.0000001
 43
0.0000001
 44
0.0000000001
 40
0.0
 40
0.0
 40
0.0
 40
0.0
 40
0.0622558513
 40
0.1244541648
 40
0.186621422
 40
0.2487850101
 40
0.3109749052
 40
0.3732158215
 40
0.4355341666
 40
0.4979453605
 40
0.6228720732
 40
0.7482509048
 40
0.874027629
 40
1.0
 40
1.0
 40
1.0
 40
1.0
 10
21.2816060535
 20
12.397097396
 30
0.0
 10
21.3055886772
 20
12.3377114562
 30
0.0
 10
21.3462909688
 20
12.2159140798
 30
0.0
 10
21.3842256098
 20
12.0272377491
 30
0.0
 10
21.3987102196
 20
11.8353956908
 30
0.0
 10
21.3892991793
 20
11.6432538811
 30
0.0
 10
21.3563367507
 20
11.4536483533
 30
0.0
 10
21.3001432163
 20
11.2694257087
 30
0.0
 10
21.221667385
 20
11.0932626626
 30
0.0
 10
21.0889069748
 20
10.8727759845
 30
0.0
 10
20.8730687325
 20
10.629535518
 30
0.0
 10
20.5509633414
 20
10.4084904258
 30
0.0
 10
20.1845121085
 20
10.2704545366
 30
0.0
 10
19.9244582113
 20
10.2391732879
 30
0.0
 10
19.7948640794
 20
10.2391732879
 30
0.0
  0
SPLINE
  5
263
100
AcDbEntity
  8
0
100
AcDbSpline
 62
7
  6
BYLAYER
 70
0
 71
3
 72
17
 73
13
 74
0
 42
0.0000001
 43
0.0000001
 44
0.0000000001
 40
0.0
 40
0.0
 40
0.0
 40
0.0
 40
0.125876795
 40
0.1888908611
 40
0.2518165304
 40
0.3772950402
 40
0.5024497785
 40
0.5649608878
 40
0.6273783323
 40
0.7518112021
 40
0.8759779755
 40
1.0
 40
1.0
 40
1.0
 40
1.0
 10
19.7948640794
 20
9.6583631467
 30
0.0
 10
19.6642171717
 20
9.6583631467
 30
0.0
 10
19.4674880264
 20
9.6774781897
 30
0.0
 10
19.2134435912
 20
9.7401126195
 30
0.0
 10
18.9669712751
 20
9.826945742
 30
0.0
 10
18.6770235906
 20
9.9794662549
 30
0.0
 10
18.4224698893
 20
10.1850896814
 30
0.0
 10
18.2464680608
 20
10.3763672629
 30
0.0
 10
18.090498484
 20
10.5833471378
 30
0.0
 10
17.9353245459
 20
10.8690561336
 30
0.0
 10
17.820706215
 20
11.2409178018
 30
0.0
 10
17.7948822402
 20
11.4992568022
 30
0.0
 10
17.7948822402
 20
11.6279786528
 30
0.0
  0
SPLINE
  5
264
100
AcDbEntity
  8
0
100
AcDbSpline
 62
7
  6
BYLAYER
 70
0
 71
3
 72
13
 73
9
 74
0
 42
0.0000001
 43
0.0000001
 44
0.0000000001
 40
0.0
 40
0.0
 40
0.0
 40
0.0
 40
0.1522293523
 40
0.3006520403
 40
0.4428076928
 40
0.5766999018
 40
0.812448937
 40
1.0
 40
1.0
 40
1.0
 40
1.0
 10
19.7647234215
 20
7.2821102017
 30
0.0
 10
19.6840696101
 20
7.2677134469
 30
0.0
 10
19.5228913394
 20
7.2489857773
 30
0.0
 10
19.2840636455
 20
7.2491126748
 30
0.0
 10
19.0566755085
 20
7.2758732591
 30
0.0
 10
18.7877412314
 20
7.3373582221
 30
0.0
 10
18.5066286891
 20
7.4472619326
 30
0.0
 10
18.3108587447
 20
7.5656748188
 30
0.0
 10
18.2288341713
 20
7.6245012945
 30
0.0
  0
SPLINE
  5
265
100
AcDbEntity
  8
0
100
AcDbSpline
 62
7
  6
BYLAYER
 70
0
 71
3
 72
15
 73
11
 74
0
 42
0.0000001
 43
0.0000001
 44
0.0000000001
 40
0.0
 40
0.0
 40
0.0
 40
0.0
 40
0.1249933641
 40
0.2499847377
 40
0.3749801774
 40
0.4999786295
 40
0.624980419
 40
0.7499849731
 40
0.8749919248
 40
1.0
 40
1.0
 40
1.0
 40
1.0
 10
19.7948640794
 20
7.2818843756
 30
0.0
 10
19.9265564983
 20
7.2818843756
 30
0.0
 10
20.1907018966
 20
7.3084864455
 30
0.0
 10
20.5704025808
 20
7.426445026
 30
0.0
 10
20.919316962
 20
7.6173499934
 30
0.0
 10
21.2237771486
 20
7.8731520032
 30
0.0
 10
21.4724955431
 20
8.1833795204
 30
0.0
 10
21.656519325
 20
8.5358524591
 30
0.0
 10
21.7694816349
 20
8.9169161586
 30
0.0
 10
21.7948616824
 20
9.181029684
 30
0.0
 10
21.7948632934
 20
9.3127376025
 30
0.0
  0
ENDSEC
  0
SECTION
  2
OBJECTS
  0
DICTIONARY
  5
C
100
AcDbDictionary
280
0
281
1
  3
ACAD_GROUP
350
D
  3
ACAD_MLINESTYLE
350
17
  3
ACAD_LAYOUT
350
1A
  3
ACAD_PLOTSETTINGS
350
19
  3
ACAD_PLOTSTYLENAME
350
E
  0
DICTIONARY
  5
D
102
{ACAD_REACTORS
330
C
102
}
100
AcDbDictionary
280
0
281
1
  0
ACDBDICTIONARYWDFLT
  5
E
102
{ACAD_REACTORS
330
C
102
}
100
AcDbDictionary
281
1
  3
Normal
350
F
100
AcDbDictionaryWithDefault
340
F
  0
DICTIONARY
  5
17
102
{ACAD_REACTORS
330
C
102
}
100
AcDbDictionary
280
0
281
1
  3
Standard
350
18
  0
DICTIONARY
  5
19
102
{ACAD_REACTORS
330
C
102
}
100
AcDbDictionary
281
1
  0
DICTIONARY
  5
1A
102
{ACAD_REACTORS
330
C
102
}
100
AcDbDictionary
281
1
  3
Model
350
266
  3
Layout1
350
267
  0
ACDBPLACEHOLDER
  5
F
102
{ACAD_REACTORS
330
E
102
}
  0
MLINESTYLE
  5
18
102
{ACAD_REACTORS
330
17
102
}
100
AcDbMlineStyle
  2
STANDARD
 70
0
  3

 62
256
 51
90.0
 52
90.0
 71
2
 49
0.5
 62
256
  6
BYLAYER
 49
-0.5
 62
256
  6
BYLAYER
  0
LAYOUT
  5
266
102
{ACAD_REACTORS
330
1A
102
}
100
AcDbPlotSettings
  1

  2
none_device
  4

  6

 40
0.0
 41
0.0
 42
0.0
 43
0.0
 44
210.0
 45
297.0
 46
0.0
 47
0.0
 48
0.0
 49
0.0
140
0.0
141
0.0
142
1.0
143
1.0
 70
1024
 72
1
 73
0
 74
0
  7

 75
0
147
1.0
148
0.0
149
0.0
100
AcDbLayout
  1
Model
 70
0
 71
0
 10
0.0
 20
0.0
 11
210.0
 21
297.0
 12
0.0
 22
0.0
 32
0.0
 14
0.0
 24
0.0
 34
0.0
 15
0.0
 25
0.0
 35
0.0
146
0.0
 13
0.0
 23
0.0
 33
0.0
 16
1.0
 26
0.0
 36
0.0
 17
0.0
 27
1.0
 37
0.0
 76
0
330
210
345
0
346
0
  0
LAYOUT
  5
267
102
{ACAD_REACTORS
330
1A
102
}
100
AcDbPlotSettings
  1

  2
none_device
  4

  6

 40
0.0
 41
0.0
 42
0.0
 43
0.0
 44
210.0
 45
297.0
 46
0.0
 47
0.0
 48
0.0
 49
0.0
140
0.0
141
0.0
142
1.0
143
1.0
 70
0
 72
1
 73
0
 74
0
  7

 75
0
147
1.0
148
0.0
149
0.0
100
AcDbLayout
  1
Layout1
 70
0
 71
1
 10
0.0
 20
0.0
 11
210.0
 21
297.0
 12
0.0
 22
0.0
 32
0.0
 14
0.0
 24
0.0
 34
0.0
 15
0.0
 25
0.0
 35
0.0
146
0.0
 13
0.0
 23
0.0
 33
0.0
 16
1.0
 26
0.0
 36
0.0
 17
0.0
 27
1.0
 37
0.0
 76
0
330
211
345
0
346
0
  0
ENDSEC
  0
EOF
