999
DXF file: C:\Users\sesa63760\Dev\_Creo\CAD\MCADPD0004191_3D-CAD\drw0001_4.dxf
999
Pro/ENGINEER 2019471 by Parametric Technology Corporation
  0
SECTION
  2
HEADER
  9
$ACADVER
  1
AC1024
  9
$DWGCODEPAGE
  3
ANSI_1252
  9
$EXTMAX
 10
56.0246865204
 20
79.2349137931
 30
0.0
  9
$EXTMIN
 10
0.0
 20
0.0
 30
0.0
  9
$LIMMIN
 10
0.0
 20
0.0
  9
$LIMMAX
 10
56.0246865204
 20
79.2349137931
  9
$VIEWCTR
 10
28.0123432602
 20
39.6174568966
  9
$VIEWSIZE
 40
79.2349137931
  9
$CLAYER
  8
0
  9
$LTSCALE
 40
5.1649425287
  9
$CELTYPE
  6
BYLAYER
  9
$DIMSCALE
 40
1.0
  9
$DIMASZ
 40
0.6669605538
  9
$DIMEXO
 40
1.0
  9
$DIMDLI
 40
3.5685057471
  9
$DIMEXE
 40
1.0
  9
$DIMCEN
 40
0.8451724138
  9
$DIMLFAC
 40
1.0
  9
$DIMBLK
  1
_FILLED
  9
$DIMALT
 70
0
  9
$DIMALTF
 40
0.0393700787
  9
$DIMTXT
 40
0.9337447753
  9
$DIMTOL
 70
1
  9
$DIMLIM
 70
0
  9
$DIMTFAC
 40
1.0
  9
$DIMTP
 40
0.01
  9
$DIMTM
 40
0.01
  9
$DIMGAP
 40
0.625
  9
$DIMDSEP
 70
46
  9
$AUNITS
 70
0
  9
$PDMODE
 70
3
  9
$PDSIZE
 40
0.3125
  9
$HANDSEED
  5
399
  9
$TILEMODE
 70
1
  9
$MEASUREMENT
 70
1
  9
$INSUNITS
 70
4
  0
ENDSEC
  0
SECTION
  2
CLASSES
  0
CLASS
  1
ACDBDICTIONARYWDFLT
  2
AcDbDictionaryWithDefault
  3
AutoCAD 2000
 90
0
 91
1
280
0
281
0
  0
CLASS
  1
ACDBPLACEHOLDER
  2
AcDbPlaceHolder
  3
AutoCAD 2000
 90
0
 91
1
280
0
281
0
  0
CLASS
  1
LAYOUT
  2
AcDbLayout
  3
AutoCAD 2000
 90
0
 91
0
280
0
281
0
  0
ENDSEC
  0
SECTION
  2
TABLES
  0
TABLE
  2
VPORT
  5
8
100
AcDbSymbolTable
 70
2
  0
VPORT
  5
1F4
100
AcDbSymbolTableRecord
100
AcDbViewportTableRecord
  2
*ACTIVE
 70
0
 10
0.0
 20
0.0
 11
1.0
 21
1.0
 12
28.0123432602
 22
39.6174568966
 13
0.0
 23
0.0
 14
1.0
 24
1.0
 15
0.0
 25
0.0
 16
0.0
 26
0.0
 36
1.0
 17
0.0
 27
0.0
 37
0.0
 40
79.2349137931
 41
0.7070707071
 42
50.0
 43
0.0
 44
0.0
 50
0.0
 51
0.0
 71
0
 72
100
 73
1
 74
1
 75
0
 76
0
 77
0
 78
0
  0
ENDTAB
  0
TABLE
  2
LTYPE
  5
5
100
AcDbSymbolTable
 70
6
  0
LTYPE
  5
14
100
AcDbSymbolTableRecord
100
AcDbLinetypeTableRecord
  2
BYBLOCK
 70
0
  3

 72
65
 73
0
 40
0.0
  0
LTYPE
  5
15
100
AcDbSymbolTableRecord
100
AcDbLinetypeTableRecord
  2
BYLAYER
 70
0
  3

 72
65
 73
0
 40
0.0
  0
LTYPE
  5
16
100
AcDbSymbolTableRecord
100
AcDbLinetypeTableRecord
  2
CONTINUOUS
 70
64
  3
Solid line
 72
65
 73
0
 40
0.0
  0
LTYPE
  5
1F5
100
AcDbSymbolTableRecord
100
AcDbLinetypeTableRecord
  2
CENTER
 70
64
  3
____ _ ____ _ ____ _ ____ _ ____ _ ____ _ ____
 72
65
 73
4
 40
0.6
 49
0.375
 74
0
 49
-0.075
 74
0
 49
0.075
 74
0
 49
-0.075
 74
0
  0
LTYPE
  5
1F6
100
AcDbSymbolTableRecord
100
AcDbLinetypeTableRecord
  2
HIDDEN
 70
64
  3
- - - - - - - - - - - - - - - - - - - -
 72
65
 73
2
 40
0.2
 49
0.1
 74
0
 49
-0.1
 74
0
  0
LTYPE
  5
1F7
100
AcDbSymbolTableRecord
100
AcDbLinetypeTableRecord
  2
PHANTOM
 70
64
  3
_____ _ _ _____ _ _ _____ _ _ _____
 72
65
 73
6
 40
0.8
 49
0.45
 74
0
 49
-0.05
 74
0
 49
0.1
 74
0
 49
-0.05
 74
0
 49
0.1
 74
0
 49
-0.05
 74
0
  0
LTYPE
  5
1F8
100
AcDbSymbolTableRecord
100
AcDbLinetypeTableRecord
  2
DOT
 70
64
  3
. . . . . . . . . . . . . . . . . . . .
 72
65
 73
2
 40
0.2
 49
0.1
 74
0
 49
-0.1
 74
0
  0
LTYPE
  5
1F9
100
AcDbSymbolTableRecord
100
AcDbLinetypeTableRecord
  2
DASHED
 70
64
  3
- - - - - - - - - - - - - - - - - - - -
 72
65
 73
2
 40
0.2
 49
0.1
 74
0
 49
-0.1
 74
0
  0
ENDTAB
  0
TABLE
  2
LAYER
  5
2
100
AcDbSymbolTable
 70
36
  0
LAYER
  5
10
100
AcDbSymbolTableRecord
100
AcDbLayerTableRecord
  2
0
 70
0
 62
7
  6
CONTINUOUS
370
-3
390
F
  0
LAYER
  5
1FA
100
AcDbSymbolTableRecord
100
AcDbLayerTableRecord
  2
DEFAULT_1
 70
0
 62
7
  6
CENTER
370
-3
390
F
  0
LAYER
  5
1FB
100
AcDbSymbolTableRecord
100
AcDbLayerTableRecord
  2
DEFAULT_2
 70
0
 62
7
  6
HIDDEN
370
-3
390
F
  0
LAYER
  5
1FC
100
AcDbSymbolTableRecord
100
AcDbLayerTableRecord
  2
DEFAULT_3
 70
0
 62
7
  6
PHANTOM
370
-3
390
F
  0
LAYER
  5
1FD
100
AcDbSymbolTableRecord
100
AcDbLayerTableRecord
  2
00_COMPONENTS
 70
0
 62
7
  6
CONTINUOUS
370
-3
390
F
  0
LAYER
  5
1FE
100
AcDbSymbolTableRecord
100
AcDbLayerTableRecord
  2
01_1_DEFAULT_DATUMS
 70
0
 62
7
  6
CONTINUOUS
370
-3
390
F
  0
LAYER
  5
1FF
100
AcDbSymbolTableRecord
100
AcDbLayerTableRecord
  2
01_PLANES
 70
0
 62
7
  6
CONTINUOUS
370
-3
390
F
  0
LAYER
  5
200
100
AcDbSymbolTableRecord
100
AcDbLayerTableRecord
  2
02_COORD_SYS
 70
0
 62
7
  6
CONTINUOUS
370
-3
390
F
  0
LAYER
  5
201
100
AcDbSymbolTableRecord
100
AcDbLayerTableRecord
  2
03_AXES
 70
0
 62
7
  6
CONTINUOUS
370
-3
390
F
  0
LAYER
  5
202
100
AcDbSymbolTableRecord
100
AcDbLayerTableRecord
  2
04_POINTS
 70
0
 62
7
  6
CONTINUOUS
370
-3
390
F
  0
LAYER
  5
203
100
AcDbSymbolTableRecord
100
AcDbLayerTableRecord
  2
05_CURVES
 70
0
 62
7
  6
CONTINUOUS
370
-3
390
F
  0
LAYER
  5
204
100
AcDbSymbolTableRecord
100
AcDbLayerTableRecord
  2
06_SURFS
 70
0
 62
7
  6
CONTINUOUS
370
-3
390
F
  0
LAYER
  5
205
100
AcDbSymbolTableRecord
100
AcDbLayerTableRecord
  2
07_COSMETICS
 70
0
 62
7
  6
CONTINUOUS
370
-3
390
F
  0
LAYER
  5
206
100
AcDbSymbolTableRecord
100
AcDbLayerTableRecord
  2
10_NOTES
 70
0
 62
7
  6
CONTINUOUS
370
-3
390
F
  0
LAYER
  5
207
100
AcDbSymbolTableRecord
100
AcDbLayerTableRecord
  2
11_NOTES_PUB
 70
0
 62
7
  6
CONTINUOUS
370
-3
390
F
  0
LAYER
  5
208
100
AcDbSymbolTableRecord
100
AcDbLayerTableRecord
  2
13_REF_GTOL
 70
0
 62
7
  6
CONTINUOUS
370
-3
390
F
  0
LAYER
  5
209
100
AcDbSymbolTableRecord
100
AcDbLayerTableRecord
  2
16_MISC
 70
0
 62
7
  6
CONTINUOUS
370
-3
390
F
  0
LAYER
  5
20A
100
AcDbSymbolTableRecord
100
AcDbLayerTableRecord
  2
17_NO_PRINT
 70
0
 62
7
  6
CONTINUOUS
370
-3
390
F
  0
LAYER
  5
20B
100
AcDbSymbolTableRecord
100
AcDbLayerTableRecord
  2
18_DATUM_CAMS_JOINTS
 70
0
 62
7
  6
CONTINUOUS
370
-3
390
F
  0
LAYER
  5
20C
100
AcDbSymbolTableRecord
100
AcDbLayerTableRecord
  2
19_DATUM_FUNCTIONAL
 70
0
 62
7
  6
CONTINUOUS
370
-3
390
F
  0
LAYER
  5
20D
100
AcDbSymbolTableRecord
100
AcDbLayerTableRecord
  2
20_DATUM_KINEMATIC_SCHEME
 70
0
 62
7
  6
CONTINUOUS
370
-3
390
F
  0
ENDTAB
  0
TABLE
  2
STYLE
  5
3
100
AcDbSymbolTable
 70
1
  0
STYLE
  5
11
100
AcDbSymbolTableRecord
100
AcDbTextStyleTableRecord
  2
STANDARD
 70
0
 40
0.0
 41
1.0
 50
0.0
 71
0
 42
0.2
  3
ARIAL.TTF
  4

  0
STYLE
  5
20E
100
AcDbSymbolTableRecord
100
AcDbTextStyleTableRecord
  2
TEXTSTYLE_1
 70
0
 40
0.0
 41
0.8
 50
0.0
 71
0
 42
0.2
  3
gdt
  4

  0
ENDTAB
  0
TABLE
  2
VIEW
  5
6
100
AcDbSymbolTable
 70
0
  0
ENDTAB
  0
TABLE
  2
UCS
  5
7
100
AcDbSymbolTable
 70
0
  0
ENDTAB
  0
TABLE
  2
APPID
  5
9
100
AcDbSymbolTable
 70
1
  0
APPID
  5
20F
100
AcDbSymbolTableRecord
100
AcDbRegAppTableRecord
  2
ACAD
 70
0
  0
ENDTAB
  0
TABLE
  2
BLOCK_RECORD
  5
1
100
AcDbSymbolTable
 70
0
  0
BLOCK_RECORD
  5
210
100
AcDbSymbolTableRecord
100
AcDbBlockTableRecord
  2
*Model_Space
  0
BLOCK_RECORD
  5
211
100
AcDbSymbolTableRecord
100
AcDbBlockTableRecord
  2
*Paper_Space
  0
BLOCK_RECORD
  5
212
100
AcDbSymbolTableRecord
100
AcDbBlockTableRecord
  2
_FILLED
  0
ENDTAB
  0
TABLE
  2
DIMSTYLE
  5
A
100
AcDbSymbolTable
 70
1
100
AcDbDimStyleTable
 71
0
  0
DIMSTYLE
105
213
100
AcDbSymbolTableRecord
100
AcDbDimStyleTableRecord
  2
STANDARD
 70
0
  3

  4

 40
1.0
 41
0.6669605538
 42
1.0
 43
0.38
 44
1.0
 45
0.0
 46
0.0
 47
0.01
 48
0.01
140
0.9337447753
141
0.09
142
0.0
143
25.4
144
1.0
145
0.0
146
1.0
147
0.625
 71
1
 72
0
 73
0
 74
0
 75
0
 76
0
 77
1
 78
8
 79
2
170
0
171
1
172
0
173
0
174
0
175
0
176
0
177
0
178
0
270
2
179
2
271
2
272
2
273
2
274
2
275
0
280
0
281
0
282
0
283
1
284
8
285
0
286
0
287
3
288
0
340
11
278
46
341
212
342
212
343
212
344
212
  0
ENDTAB
  0
ENDSEC
  0
SECTION
  2
BLOCKS
  0
BLOCK
  5
20
100
AcDbEntity
  8
0
100
AcDbBlockBegin
  2
*Model_Space
 70
0
 10
0.0
 20
0.0
 30
0.0
  3
*Model_Space
  1

  0
ENDBLK
  5
21
100
AcDbEntity
  8
0
100
AcDbBlockEnd
  0
BLOCK
  5
1C
100
AcDbEntity
  8
0
100
AcDbBlockBegin
  2
*Paper_Space
 70
0
 10
0.0
 20
0.0
 30
0.0
  3
*Paper_Space
  1

  0
ENDBLK
  5
1D
100
AcDbEntity
  8
0
100
AcDbBlockEnd
  0
BLOCK
  5
214
100
AcDbEntity
  8
0
100
AcDbBlockBegin
  2
_FILLED
 70
64
 10
0.0
 20
0.0
  3
_FILLED
  1

  0
SOLID
  5
215
100
AcDbEntity
  8
0
  6
BYBLOCK
 62
0
100
AcDbTrace
 10
0.0
 20
0.0
 11
-1.0
 21
0.25
 12
-1.0
 22
-0.25
 13
-1.0
 23
-0.25
  0
ENDBLK
  5
216
100
AcDbEntity
  8
0
  6
BYBLOCK
 62
0
100
AcDbBlockEnd
  0
ENDSEC
  0
SECTION
  2
ENTITIES
  0
LINE
  5
217
100
AcDbEntity
  8
0
100
AcDbLine
 62
7
  6
BYLAYER
 10
6.2397139498
 20
39.425
 11
6.2397139498
 21
59.425
  0
LINE
  5
218
100
AcDbEntity
  8
0
100
AcDbLine
 62
7
  6
BYLAYER
 10
6.2897139498
 20
59.425
 11
6.2897139498
 21
48.875
  0
LINE
  5
219
100
AcDbEntity
  8
0
100
AcDbLine
 62
7
  6
BYLAYER
 10
6.8897139498
 20
48.875
 11
6.8897139498
 21
59.125
  0
LINE
  5
21A
100
AcDbEntity
  8
0
100
AcDbLine
 62
7
  6
BYLAYER
 10
7.6897139498
 20
35.825
 11
7.6897139498
 21
39.425
  0
LINE
  5
21B
100
AcDbEntity
  8
0
100
AcDbLine
 62
7
  6
BYLAYER
 10
8.0397139498
 20
39.425
 11
8.0397139498
 21
32.7250828122
  0
LINE
  5
21C
100
AcDbEntity
  8
0
100
AcDbLine
 62
7
  6
BYLAYER
 10
8.7397139498
 20
32.325
 11
8.7397139498
 21
19.325
  0
LINE
  5
21D
100
AcDbEntity
  8
0
100
AcDbLine
 62
7
  6
BYLAYER
 10
12.1405594637
 20
53.5497806073
 11
12.43898111
 21
54.2205611083
  0
LINE
  5
21E
100
AcDbEntity
  8
0
100
AcDbLine
 62
7
  6
BYLAYER
 10
13.538868436
 20
53.5497806073
 11
13.3793672841
 21
53.3958399743
  0
LINE
  5
21F
100
AcDbEntity
  8
0
100
AcDbLine
 62
7
  6
BYLAYER
 10
12.1405594637
 20
52.2002193927
 11
12.3000606156
 21
52.3541600257
  0
LINE
  5
220
100
AcDbEntity
  8
0
100
AcDbLine
 62
7
  6
BYLAYER
 10
11.8414805174
 20
53.4038045137
 11
12.1405594637
 21
53.5497806073
  0
LINE
  5
221
100
AcDbEntity
  8
0
100
AcDbLine
 62
7
  6
BYLAYER
 10
11.6231855752
 20
53.1771110845
 11
12.0286246228
 21
53.375
  0
LINE
  5
222
100
AcDbEntity
  8
0
100
AcDbLine
 62
7
  6
BYLAYER
 10
48.739704389
 20
19.325
 11
47.1397292778
 21
19.325
  0
LINE
  5
223
100
AcDbEntity
  8
0
100
AcDbLine
 62
7
  6
BYLAYER
 10
10.339704389
 20
19.325
 11
8.7397235106
 21
19.325
  0
LINE
  5
224
100
AcDbEntity
  8
0
100
AcDbLine
 62
7
  6
BYLAYER
 10
10.3397139498
 20
32.325
 11
10.3397139498
 21
19.325
  0
LINE
  5
225
100
AcDbEntity
  8
0
100
AcDbLine
 62
7
  6
BYLAYER
 10
12.4389811105
 20
51.5294388907
 11
12.490568692
 21
51.8877924873
  0
LINE
  5
226
100
AcDbEntity
  8
0
100
AcDbLine
 62
7
  6
BYLAYER
 10
13.538868436
 20
52.2002193928
 11
13.2404467895
 21
51.5294388913
  0
LINE
  5
227
100
AcDbEntity
  8
0
100
AcDbLine
 62
7
  6
BYLAYER
 10
14.0562423245
 20
52.5728889155
 11
13.6508032769
 21
52.375
  0
LINE
  5
228
100
AcDbEntity
  8
0
100
AcDbLine
 62
7
  6
BYLAYER
 10
13.8379473823
 20
52.3461954863
 11
13.538868436
 21
52.2002193928
  0
LINE
  5
229
100
AcDbEntity
  8
0
100
AcDbLine
 62
7
  6
BYLAYER
 10
8.4397746755
 20
32.325
 11
8.0397139498
 21
32.7250828122
  0
LINE
  5
22A
100
AcDbEntity
  8
0
100
AcDbLine
 62
7
  6
BYLAYER
 10
12.43898111
 20
54.2205611083
 11
12.4387734324
 21
55.3135559015
  0
LINE
  5
22B
100
AcDbEntity
  8
0
100
AcDbLine
 62
7
  6
BYLAYER
 10
11.0397139498
 20
32.7250828122
 11
11.0397139498
 21
39.425
  0
LINE
  5
22C
100
AcDbEntity
  8
0
100
AcDbLine
 62
7
  6
BYLAYER
 10
12.4387734479
 20
50.4364440989
 11
12.4389811105
 21
51.5294388907
  0
LINE
  5
22D
100
AcDbEntity
  8
0
100
AcDbLine
 62
7
  6
BYLAYER
 10
13.2404467895
 20
54.2205611087
 11
13.1888592077
 21
53.8622075127
  0
LINE
  5
22E
100
AcDbEntity
  8
0
100
AcDbLine
 62
7
  6
BYLAYER
 10
13.2404467895
 20
51.5294388913
 11
13.2406544605
 21
50.4364440987
  0
LINE
  5
22F
100
AcDbEntity
  8
0
100
AcDbLine
 62
7
  6
BYLAYER
 10
13.2406544614
 20
55.3135559013
 11
13.2404467895
 21
54.2205611087
  0
LINE
  5
230
100
AcDbEntity
  8
0
100
AcDbLine
 62
7
  6
BYLAYER
 10
22.4414805174
 20
53.4038045137
 11
22.7405594637
 21
53.5497806072
  0
LINE
  5
231
100
AcDbEntity
  8
0
100
AcDbLine
 62
7
  6
BYLAYER
 10
22.2231855752
 20
53.1771110845
 11
22.6286246228
 21
53.375
  0
LINE
  5
232
100
AcDbEntity
  8
0
100
AcDbLine
 62
7
  6
BYLAYER
 10
12.4390330267
 20
54.2205611231
 11
12.490568702
 21
53.8622075845
  0
LINE
  5
233
100
AcDbEntity
  8
0
100
AcDbLine
 62
7
  6
BYLAYER
 10
24.138868436
 20
53.5497806073
 11
23.9793672841
 21
53.3958399743
  0
LINE
  5
234
100
AcDbEntity
  8
0
100
AcDbLine
 62
7
  6
BYLAYER
 10
22.7405594637
 20
52.2002193927
 11
22.9000606156
 21
52.3541600257
  0
LINE
  5
235
100
AcDbEntity
  8
0
100
AcDbLine
 62
7
  6
BYLAYER
 10
24.6562423245
 20
52.5728889155
 11
24.2508032769
 21
52.375
  0
LINE
  5
236
100
AcDbEntity
  8
0
100
AcDbLine
 62
7
  6
BYLAYER
 10
24.4379473823
 20
52.3461954863
 11
24.138868436
 21
52.2002193928
  0
LINE
  5
237
100
AcDbEntity
  8
0
100
AcDbLine
 62
7
  6
BYLAYER
 10
13.240394873
 20
51.5294388765
 11
13.1888591976
 21
51.8877924155
  0
LINE
  5
238
100
AcDbEntity
  8
0
100
AcDbLine
 62
7
  6
BYLAYER
 10
22.7405594637
 20
53.5497806072
 11
23.03898111
 21
54.2205611083
  0
LINE
  5
239
100
AcDbEntity
  8
0
100
AcDbLine
 62
7
  6
BYLAYER
 10
33.0414805174
 20
53.4038045137
 11
33.3405594637
 21
53.5497806072
  0
LINE
  5
23A
100
AcDbEntity
  8
0
100
AcDbLine
 62
7
  6
BYLAYER
 10
32.8231855752
 20
53.1771110845
 11
33.2286246228
 21
53.375
  0
LINE
  5
23B
100
AcDbEntity
  8
0
100
AcDbLine
 62
7
  6
BYLAYER
 10
12.4389811105
 20
51.5294388907
 11
12.1405594637
 21
52.2002193927
  0
LINE
  5
23C
100
AcDbEntity
  8
0
100
AcDbLine
 62
7
  6
BYLAYER
 10
24.138868436
 20
52.2002193928
 11
23.8404467895
 21
51.5294388913
  0
LINE
  5
23D
100
AcDbEntity
  8
0
100
AcDbLine
 62
7
  6
BYLAYER
 10
11.0397139498
 20
32.7250828122
 11
10.6396532242
 21
32.325
  0
LINE
  5
23E
100
AcDbEntity
  8
0
100
AcDbLine
 62
7
  6
BYLAYER
 10
35.2562423245
 20
52.5728889155
 11
34.8508032769
 21
52.375
  0
LINE
  5
23F
100
AcDbEntity
  8
0
100
AcDbLine
 62
7
  6
BYLAYER
 10
35.0379473823
 20
52.3461954863
 11
34.738868436
 21
52.2002193928
  0
LINE
  5
240
100
AcDbEntity
  8
0
100
AcDbLine
 62
7
  6
BYLAYER
 10
13.2404467895
 20
54.2205611087
 11
13.538868436
 21
53.5497806073
  0
LINE
  5
241
100
AcDbEntity
  8
0
100
AcDbLine
 62
7
  6
BYLAYER
 10
21.2397139498
 20
39.425
 11
21.2397139498
 21
35.825
  0
LINE
  5
242
100
AcDbEntity
  8
0
100
AcDbLine
 62
7
  6
BYLAYER
 10
23.0389811105
 20
51.5294388907
 11
23.090568692
 21
51.8877924873
  0
LINE
  5
243
100
AcDbEntity
  8
0
100
AcDbLine
 62
7
  6
BYLAYER
 10
23.8404467895
 20
54.2205611087
 11
23.7888592077
 21
53.8622075127
  0
LINE
  5
244
100
AcDbEntity
  8
0
100
AcDbLine
 62
7
  6
BYLAYER
 10
34.738868436
 20
53.5497806073
 11
34.5793672841
 21
53.3958399743
  0
LINE
  5
245
100
AcDbEntity
  8
0
100
AcDbLine
 62
7
  6
BYLAYER
 10
33.3405594637
 20
52.2002193927
 11
33.5000606156
 21
52.3541600257
  0
LINE
  5
246
100
AcDbEntity
  8
0
100
AcDbLine
 62
7
  6
BYLAYER
 10
43.6414805174
 20
53.4038045137
 11
43.9405594637
 21
53.5497806072
  0
LINE
  5
247
100
AcDbEntity
  8
0
100
AcDbLine
 62
7
  6
BYLAYER
 10
43.4231855752
 20
53.1771110845
 11
43.8286246228
 21
53.375
  0
LINE
  5
248
100
AcDbEntity
  8
0
100
AcDbLine
 62
7
  6
BYLAYER
 10
49.0396532242
 20
32.325
 11
46.8397746755
 21
32.325
  0
LINE
  5
249
100
AcDbEntity
  8
0
100
AcDbLine
 62
7
  6
BYLAYER
 10
10.6396532242
 20
32.325
 11
8.4397746755
 21
32.325
  0
LINE
  5
24A
100
AcDbEntity
  8
0
100
AcDbLine
 62
7
  6
BYLAYER
 10
49.4397139498
 20
32.7250828122
 11
46.4397139498
 21
32.7250828122
  0
LINE
  5
24B
100
AcDbEntity
  8
0
100
AcDbLine
 62
7
  6
BYLAYER
 10
11.0397139498
 20
32.7250828122
 11
8.0397139498
 21
32.7250828122
  0
LINE
  5
24C
100
AcDbEntity
  8
0
100
AcDbLine
 62
7
  6
BYLAYER
 10
26.8397139498
 20
32.925
 11
30.6397139498
 21
32.925
  0
LINE
  5
24D
100
AcDbEntity
  8
0
100
AcDbLine
 62
7
  6
BYLAYER
 10
23.03898111
 20
54.2205611083
 11
23.0387734324
 21
55.3135559015
  0
LINE
  5
24E
100
AcDbEntity
  8
0
100
AcDbLine
 62
7
  6
BYLAYER
 10
23.8404467895
 20
51.5294388913
 11
23.8406544605
 21
50.4364440987
  0
LINE
  5
24F
100
AcDbEntity
  8
0
100
AcDbLine
 62
7
  6
BYLAYER
 10
23.0387734479
 20
50.4364440989
 11
23.0389811105
 21
51.5294388907
  0
LINE
  5
250
100
AcDbEntity
  8
0
100
AcDbLine
 62
7
  6
BYLAYER
 10
23.8406544614
 20
55.3135559013
 11
23.8404467895
 21
54.2205611087
  0
LINE
  5
251
100
AcDbEntity
  8
0
100
AcDbLine
 62
7
  6
BYLAYER
 10
45.8562423245
 20
52.5728889155
 11
45.4508032769
 21
52.375
  0
LINE
  5
252
100
AcDbEntity
  8
0
100
AcDbLine
 62
7
  6
BYLAYER
 10
45.6379473823
 20
52.3461954863
 11
45.338868436
 21
52.2002193928
  0
LINE
  5
253
100
AcDbEntity
  8
0
100
AcDbLine
 62
7
  6
BYLAYER
 10
30.6397139498
 20
34.425
 11
26.8397139498
 21
34.425
  0
LINE
  5
254
100
AcDbEntity
  8
0
100
AcDbLine
 62
7
  6
BYLAYER
 10
26.8397139498
 20
32.925
 11
26.8397139498
 21
39.425
  0
LINE
  5
255
100
AcDbEntity
  8
0
100
AcDbLine
 62
7
  6
BYLAYER
 10
21.2397139498
 20
35.825
 11
11.0397139498
 21
35.825
  0
LINE
  5
256
100
AcDbEntity
  8
0
100
AcDbLine
 62
7
  6
BYLAYER
 10
8.0397139498
 20
35.825
 11
7.6897139498
 21
35.825
  0
LINE
  5
257
100
AcDbEntity
  8
0
100
AcDbLine
 62
7
  6
BYLAYER
 10
36.2397139498
 20
35.825
 11
46.4397139498
 21
35.825
  0
LINE
  5
258
100
AcDbEntity
  8
0
100
AcDbLine
 62
7
  6
BYLAYER
 10
49.4397139498
 20
35.825
 11
49.7897139498
 21
35.825
  0
LINE
  5
259
100
AcDbEntity
  8
0
100
AcDbLine
 62
7
  6
BYLAYER
 10
23.0390330267
 20
54.2205611231
 11
23.090568702
 21
53.8622075845
  0
LINE
  5
25A
100
AcDbEntity
  8
0
100
AcDbLine
 62
7
  6
BYLAYER
 10
23.840394873
 20
51.5294388765
 11
23.7888591976
 21
51.8877924155
  0
LINE
  5
25B
100
AcDbEntity
  8
0
100
AcDbLine
 62
7
  6
BYLAYER
 10
33.3405594637
 20
53.5497806072
 11
33.63898111
 21
54.2205611083
  0
LINE
  5
25C
100
AcDbEntity
  8
0
100
AcDbLine
 62
7
  6
BYLAYER
 10
34.738868436
 20
52.2002193928
 11
34.4404467895
 21
51.5294388913
  0
LINE
  5
25D
100
AcDbEntity
  8
0
100
AcDbLine
 62
7
  6
BYLAYER
 10
26.8397139498
 20
38.925
 11
30.6397139498
 21
38.925
  0
LINE
  5
25E
100
AcDbEntity
  8
0
100
AcDbLine
 62
7
  6
BYLAYER
 10
7.6897139498
 20
39.125
 11
8.0397139498
 21
39.125
  0
LINE
  5
25F
100
AcDbEntity
  8
0
100
AcDbLine
 62
7
  6
BYLAYER
 10
11.0397139498
 20
39.125
 11
21.2397139498
 21
39.125
  0
LINE
  5
260
100
AcDbEntity
  8
0
100
AcDbLine
 62
7
  6
BYLAYER
 10
36.2397139498
 20
39.125
 11
46.4397139498
 21
39.125
  0
LINE
  5
261
100
AcDbEntity
  8
0
100
AcDbLine
 62
7
  6
BYLAYER
 10
49.4397139498
 20
39.125
 11
49.7897139498
 21
39.125
  0
LINE
  5
262
100
AcDbEntity
  8
0
100
AcDbLine
 62
7
  6
BYLAYER
 10
51.2397139498
 20
39.425
 11
6.2397139498
 21
39.425
  0
LINE
  5
263
100
AcDbEntity
  8
0
100
AcDbLine
 62
7
  6
BYLAYER
 10
12.1405594637
 20
53.5497806072
 11
12.3000606156
 21
53.3958399743
  0
LINE
  5
264
100
AcDbEntity
  8
0
100
AcDbLine
 62
7
  6
BYLAYER
 10
13.538868436
 20
52.2002193928
 11
13.3793672841
 21
52.3541600257
  0
LINE
  5
265
100
AcDbEntity
  8
0
100
AcDbLine
 62
7
  6
BYLAYER
 10
23.0389811105
 20
51.5294388907
 11
22.7405594637
 21
52.2002193927
  0
LINE
  5
266
100
AcDbEntity
  8
0
100
AcDbLine
 62
7
  6
BYLAYER
 10
30.6397139498
 20
32.925
 11
30.6397139498
 21
39.425
  0
LINE
  5
267
100
AcDbEntity
  8
0
100
AcDbLine
 62
7
  6
BYLAYER
 10
45.338868436
 20
53.5497806073
 11
45.1793672841
 21
53.3958399743
  0
LINE
  5
268
100
AcDbEntity
  8
0
100
AcDbLine
 62
7
  6
BYLAYER
 10
43.9405594637
 20
52.2002193927
 11
44.1000606156
 21
52.3541600257
  0
LINE
  5
269
100
AcDbEntity
  8
0
100
AcDbLine
 62
7
  6
BYLAYER
 10
23.8404467895
 20
54.2205611087
 11
24.138868436
 21
53.5497806073
  0
LINE
  5
26A
100
AcDbEntity
  8
0
100
AcDbLine
 62
7
  6
BYLAYER
 10
33.6389811105
 20
51.5294388907
 11
33.690568692
 21
51.8877924873
  0
LINE
  5
26B
100
AcDbEntity
  8
0
100
AcDbLine
 62
7
  6
BYLAYER
 10
34.4404467895
 20
54.2205611087
 11
34.3888592077
 21
53.8622075127
  0
LINE
  5
26C
100
AcDbEntity
  8
0
100
AcDbLine
 62
7
  6
BYLAYER
 10
12.1405594637
 20
52.2002193927
 11
11.8414805174
 21
52.3461954863
  0
LINE
  5
26D
100
AcDbEntity
  8
0
100
AcDbLine
 62
7
  6
BYLAYER
 10
33.63898111
 20
54.2205611083
 11
33.6387734324
 21
55.3135559015
  0
LINE
  5
26E
100
AcDbEntity
  8
0
100
AcDbLine
 62
7
  6
BYLAYER
 10
34.4404467895
 20
51.5294388913
 11
34.4406544605
 21
50.4364440987
  0
LINE
  5
26F
100
AcDbEntity
  8
0
100
AcDbLine
 62
7
  6
BYLAYER
 10
33.6387734479
 20
50.4364440989
 11
33.6389811105
 21
51.5294388907
  0
LINE
  5
270
100
AcDbEntity
  8
0
100
AcDbLine
 62
7
  6
BYLAYER
 10
34.4406544614
 20
55.3135559013
 11
34.4404467895
 21
54.2205611087
  0
LINE
  5
271
100
AcDbEntity
  8
0
100
AcDbLine
 62
7
  6
BYLAYER
 10
12.0286246228
 20
52.375
 11
11.6231855752
 21
52.5728889155
  0
LINE
  5
272
100
AcDbEntity
  8
0
100
AcDbLine
 62
7
  6
BYLAYER
 10
13.6508032768
 20
53.375
 11
14.0562423245
 21
53.1771110845
  0
LINE
  5
273
100
AcDbEntity
  8
0
100
AcDbLine
 62
7
  6
BYLAYER
 10
13.538868436
 20
53.5497806073
 11
13.8379473823
 21
53.4038045137
  0
LINE
  5
274
100
AcDbEntity
  8
0
100
AcDbLine
 62
7
  6
BYLAYER
 10
22.7405594637
 20
53.5497806072
 11
22.9000606156
 21
53.3958399743
  0
LINE
  5
275
100
AcDbEntity
  8
0
100
AcDbLine
 62
7
  6
BYLAYER
 10
24.138868436
 20
52.2002193928
 11
23.9793672841
 21
52.3541600257
  0
LINE
  5
276
100
AcDbEntity
  8
0
100
AcDbLine
 62
7
  6
BYLAYER
 10
36.2397139498
 20
35.825
 11
36.2397139498
 21
39.425
  0
LINE
  5
277
100
AcDbEntity
  8
0
100
AcDbLine
 62
7
  6
BYLAYER
 10
43.9405594637
 20
53.5497806072
 11
44.23898111
 21
54.2205611083
  0
LINE
  5
278
100
AcDbEntity
  8
0
100
AcDbLine
 62
7
  6
BYLAYER
 10
46.8397746755
 20
32.325
 11
46.4397139498
 21
32.7250828122
  0
LINE
  5
279
100
AcDbEntity
  8
0
100
AcDbLine
 62
7
  6
BYLAYER
 10
33.6390330267
 20
54.2205611231
 11
33.690568702
 21
53.8622075845
  0
LINE
  5
27A
100
AcDbEntity
  8
0
100
AcDbLine
 62
7
  6
BYLAYER
 10
34.440394873
 20
51.5294388765
 11
34.3888591976
 21
51.8877924155
  0
LINE
  5
27B
100
AcDbEntity
  8
0
100
AcDbLine
 62
7
  6
BYLAYER
 10
45.338868436
 20
52.2002193928
 11
45.0404467895
 21
51.5294388913
  0
LINE
  5
27C
100
AcDbEntity
  8
0
100
AcDbLine
 62
7
  6
BYLAYER
 10
51.2397139498
 20
48.875
 11
6.2397139498
 21
48.875
  0
LINE
  5
27D
100
AcDbEntity
  8
0
100
AcDbLine
 62
7
  6
BYLAYER
 10
22.7405594637
 20
52.2002193927
 11
22.4414805174
 21
52.3461954863
  0
LINE
  5
27E
100
AcDbEntity
  8
0
100
AcDbLine
 62
7
  6
BYLAYER
 10
22.6286246228
 20
52.375
 11
22.2231855752
 21
52.5728889155
  0
LINE
  5
27F
100
AcDbEntity
  8
0
100
AcDbLine
 62
7
  6
BYLAYER
 10
33.6389811105
 20
51.5294388907
 11
33.3405594637
 21
52.2002193927
  0
LINE
  5
280
100
AcDbEntity
  8
0
100
AcDbLine
 62
7
  6
BYLAYER
 10
43.6414805174
 20
52.3461954863
 11
43.8286246228
 21
52.375
  0
LINE
  5
281
100
AcDbEntity
  8
0
100
AcDbLine
 62
7
  6
BYLAYER
 10
45.6379473823
 20
53.4038045137
 11
45.4508032769
 21
53.375
  0
LINE
  5
282
100
AcDbEntity
  8
0
100
AcDbLine
 62
7
  6
BYLAYER
 10
33.0414805174
 20
52.3461954863
 11
33.2286246228
 21
52.375
  0
LINE
  5
283
100
AcDbEntity
  8
0
100
AcDbLine
 62
7
  6
BYLAYER
 10
13.8379473823
 20
52.3461954863
 11
13.6508032769
 21
52.375
  0
LINE
  5
284
100
AcDbEntity
  8
0
100
AcDbLine
 62
7
  6
BYLAYER
 10
11.8414805174
 20
53.4038045137
 11
12.0286246228
 21
53.375
  0
LINE
  5
285
100
AcDbEntity
  8
0
100
AcDbLine
 62
7
  6
BYLAYER
 10
24.4379473823
 20
52.3461954863
 11
24.2508032769
 21
52.375
  0
LINE
  5
286
100
AcDbEntity
  8
0
100
AcDbLine
 62
7
  6
BYLAYER
 10
24.2508032768
 20
53.375
 11
24.6562423245
 21
53.1771110845
  0
LINE
  5
287
100
AcDbEntity
  8
0
100
AcDbLine
 62
7
  6
BYLAYER
 10
24.138868436
 20
53.5497806073
 11
24.4379473823
 21
53.4038045137
  0
LINE
  5
288
100
AcDbEntity
  8
0
100
AcDbLine
 62
7
  6
BYLAYER
 10
34.4404467895
 20
54.2205611087
 11
34.738868436
 21
53.5497806073
  0
LINE
  5
289
100
AcDbEntity
  8
0
100
AcDbLine
 62
7
  6
BYLAYER
 10
44.2389811105
 20
51.5294388907
 11
44.290568692
 21
51.8877924873
  0
LINE
  5
28A
100
AcDbEntity
  8
0
100
AcDbLine
 62
7
  6
BYLAYER
 10
45.0404467895
 20
54.2205611087
 11
44.9888592077
 21
53.8622075127
  0
LINE
  5
28B
100
AcDbEntity
  8
0
100
AcDbLine
 62
7
  6
BYLAYER
 10
35.0379473823
 20
53.4038045137
 11
34.8508032769
 21
53.375
  0
LINE
  5
28C
100
AcDbEntity
  8
0
100
AcDbLine
 62
7
  6
BYLAYER
 10
22.4414805174
 20
52.3461954863
 11
22.6286246228
 21
52.375
  0
LINE
  5
28D
100
AcDbEntity
  8
0
100
AcDbLine
 62
7
  6
BYLAYER
 10
46.1636860411
 20
52.5837128293
 11
45.6489055967
 21
52.5655893795
  0
LINE
  5
28E
100
AcDbEntity
  8
0
100
AcDbLine
 62
7
  6
BYLAYER
 10
35.5636860411
 20
52.5837128293
 11
35.0489055967
 21
52.5655893795
  0
LINE
  5
28F
100
AcDbEntity
  8
0
100
AcDbLine
 62
7
  6
BYLAYER
 10
43.1157418586
 20
53.1662871707
 11
43.630522303
 21
53.1844106205
  0
LINE
  5
290
100
AcDbEntity
  8
0
100
AcDbLine
 62
7
  6
BYLAYER
 10
24.9636860411
 20
52.5837128293
 11
24.4489055967
 21
52.5655893795
  0
LINE
  5
291
100
AcDbEntity
  8
0
100
AcDbLine
 62
7
  6
BYLAYER
 10
32.5157418586
 20
53.1662871707
 11
33.030522303
 21
53.1844106205
  0
LINE
  5
292
100
AcDbEntity
  8
0
100
AcDbLine
 62
7
  6
BYLAYER
 10
14.3636860411
 20
52.5837128293
 11
13.8489055967
 21
52.5655893795
  0
LINE
  5
293
100
AcDbEntity
  8
0
100
AcDbLine
 62
7
  6
BYLAYER
 10
21.9157418586
 20
53.1662871707
 11
22.430522303
 21
53.1844106205
  0
LINE
  5
294
100
AcDbEntity
  8
0
100
AcDbLine
 62
7
  6
BYLAYER
 10
43.6414805174
 20
52.3461954863
 11
42.1990964172
 21
52.3461954602
  0
LINE
  5
295
100
AcDbEntity
  8
0
100
AcDbLine
 62
7
  6
BYLAYER
 10
36.480331591
 20
52.3461954602
 11
35.0379473823
 21
52.3461954863
  0
LINE
  5
296
100
AcDbEntity
  8
0
100
AcDbLine
 62
7
  6
BYLAYER
 10
33.0414805174
 20
52.3461954863
 11
31.5990964172
 21
52.3461954602
  0
LINE
  5
297
100
AcDbEntity
  8
0
100
AcDbLine
 62
7
  6
BYLAYER
 10
25.880331591
 20
52.3461954602
 11
24.4379473823
 21
52.3461954863
  0
LINE
  5
298
100
AcDbEntity
  8
0
100
AcDbLine
 62
7
  6
BYLAYER
 10
22.4414805174
 20
52.3461954863
 11
20.9990964172
 21
52.3461954602
  0
LINE
  5
299
100
AcDbEntity
  8
0
100
AcDbLine
 62
7
  6
BYLAYER
 10
15.280331591
 20
52.3461954602
 11
13.8379473823
 21
52.3461954863
  0
LINE
  5
29A
100
AcDbEntity
  8
0
100
AcDbLine
 62
7
  6
BYLAYER
 10
47.080331591
 20
52.3461954602
 11
45.6379473823
 21
52.3461954863
  0
LINE
  5
29B
100
AcDbEntity
  8
0
100
AcDbLine
 62
7
  6
BYLAYER
 10
11.8414805174
 20
52.3461954863
 11
10.3990964172
 21
52.3461954602
  0
LINE
  5
29C
100
AcDbEntity
  8
0
100
AcDbLine
 62
7
  6
BYLAYER
 10
9.9222308943
 20
52.375
 11
12.0286246228
 21
52.375
  0
LINE
  5
29D
100
AcDbEntity
  8
0
100
AcDbLine
 62
7
  6
BYLAYER
 10
13.6508032769
 20
52.375
 11
15.7571970054
 21
52.375
  0
LINE
  5
29E
100
AcDbEntity
  8
0
100
AcDbLine
 62
7
  6
BYLAYER
 10
20.5222308943
 20
52.375
 11
22.6286246228
 21
52.375
  0
LINE
  5
29F
100
AcDbEntity
  8
0
100
AcDbLine
 62
7
  6
BYLAYER
 10
24.2508032769
 20
52.375
 11
26.3571970054
 21
52.375
  0
LINE
  5
2A0
100
AcDbEntity
  8
0
100
AcDbLine
 62
7
  6
BYLAYER
 10
31.1222308943
 20
52.375
 11
33.2286246228
 21
52.375
  0
LINE
  5
2A1
100
AcDbEntity
  8
0
100
AcDbLine
 62
7
  6
BYLAYER
 10
34.8508032769
 20
52.375
 11
36.9571970054
 21
52.375
  0
LINE
  5
2A2
100
AcDbEntity
  8
0
100
AcDbLine
 62
7
  6
BYLAYER
 10
41.7222308943
 20
52.375
 11
43.8286246228
 21
52.375
  0
LINE
  5
2A3
100
AcDbEntity
  8
0
100
AcDbLine
 62
7
  6
BYLAYER
 10
45.4508032769
 20
52.375
 11
47.5571970054
 21
52.375
  0
LINE
  5
2A4
100
AcDbEntity
  8
0
100
AcDbLine
 62
7
  6
BYLAYER
 10
9.9222308943
 20
53.375
 11
12.0286246228
 21
53.375
  0
LINE
  5
2A5
100
AcDbEntity
  8
0
100
AcDbLine
 62
7
  6
BYLAYER
 10
13.6508032769
 20
53.375
 11
15.7571970054
 21
53.375
  0
LINE
  5
2A6
100
AcDbEntity
  8
0
100
AcDbLine
 62
7
  6
BYLAYER
 10
20.5222308943
 20
53.375
 11
22.6286246228
 21
53.375
  0
LINE
  5
2A7
100
AcDbEntity
  8
0
100
AcDbLine
 62
7
  6
BYLAYER
 10
24.2508032769
 20
53.375
 11
26.3571970054
 21
53.375
  0
LINE
  5
2A8
100
AcDbEntity
  8
0
100
AcDbLine
 62
7
  6
BYLAYER
 10
31.1222308943
 20
53.375
 11
33.2286246228
 21
53.375
  0
LINE
  5
2A9
100
AcDbEntity
  8
0
100
AcDbLine
 62
7
  6
BYLAYER
 10
34.8508032769
 20
53.375
 11
36.9571970054
 21
53.375
  0
LINE
  5
2AA
100
AcDbEntity
  8
0
100
AcDbLine
 62
7
  6
BYLAYER
 10
41.7222308943
 20
53.375
 11
43.8286246228
 21
53.375
  0
LINE
  5
2AB
100
AcDbEntity
  8
0
100
AcDbLine
 62
7
  6
BYLAYER
 10
45.4508032769
 20
53.375
 11
47.5571970054
 21
53.375
  0
LINE
  5
2AC
100
AcDbEntity
  8
0
100
AcDbLine
 62
7
  6
BYLAYER
 10
47.0803315305
 20
53.4038045137
 11
45.6379473823
 21
53.4038045137
  0
LINE
  5
2AD
100
AcDbEntity
  8
0
100
AcDbLine
 62
7
  6
BYLAYER
 10
43.6414805174
 20
53.4038045137
 11
42.199100023
 21
53.4038045137
  0
LINE
  5
2AE
100
AcDbEntity
  8
0
100
AcDbLine
 62
7
  6
BYLAYER
 10
36.4803315305
 20
53.4038045137
 11
35.0379473823
 21
53.4038045137
  0
LINE
  5
2AF
100
AcDbEntity
  8
0
100
AcDbLine
 62
7
  6
BYLAYER
 10
33.0414805174
 20
53.4038045137
 11
31.599100023
 21
53.4038045137
  0
LINE
  5
2B0
100
AcDbEntity
  8
0
100
AcDbLine
 62
7
  6
BYLAYER
 10
25.8803315305
 20
53.4038045137
 11
24.4379473823
 21
53.4038045137
  0
LINE
  5
2B1
100
AcDbEntity
  8
0
100
AcDbLine
 62
7
  6
BYLAYER
 10
22.4414805174
 20
53.4038045137
 11
20.999100023
 21
53.4038045137
  0
LINE
  5
2B2
100
AcDbEntity
  8
0
100
AcDbLine
 62
7
  6
BYLAYER
 10
15.2803315305
 20
53.4038045137
 11
13.8379473823
 21
53.4038045137
  0
LINE
  5
2B3
100
AcDbEntity
  8
0
100
AcDbLine
 62
7
  6
BYLAYER
 10
11.8414805174
 20
53.4038045137
 11
10.399100023
 21
53.4038045137
  0
LINE
  5
2B4
100
AcDbEntity
  8
0
100
AcDbLine
 62
7
  6
BYLAYER
 10
11.3157418586
 20
52.5837128293
 11
11.8305222622
 21
52.5655893862
  0
LINE
  5
2B5
100
AcDbEntity
  8
0
100
AcDbLine
 62
7
  6
BYLAYER
 10
21.9157418586
 20
52.5837128293
 11
22.4305222622
 21
52.5655893862
  0
LINE
  5
2B6
100
AcDbEntity
  8
0
100
AcDbLine
 62
7
  6
BYLAYER
 10
13.8489056375
 20
53.1844106138
 11
14.3636860411
 21
53.1662871707
  0
LINE
  5
2B7
100
AcDbEntity
  8
0
100
AcDbLine
 62
7
  6
BYLAYER
 10
32.5157418586
 20
52.5837128293
 11
33.0305222622
 21
52.5655893862
  0
LINE
  5
2B8
100
AcDbEntity
  8
0
100
AcDbLine
 62
7
  6
BYLAYER
 10
24.4489056375
 20
53.1844106138
 11
24.9636860411
 21
53.1662871707
  0
LINE
  5
2B9
100
AcDbEntity
  8
0
100
AcDbLine
 62
7
  6
BYLAYER
 10
43.1157418586
 20
52.5837128293
 11
43.6305222622
 21
52.5655893862
  0
LINE
  5
2BA
100
AcDbEntity
  8
0
100
AcDbLine
 62
7
  6
BYLAYER
 10
35.0489056375
 20
53.1844106138
 11
35.5636860411
 21
53.1662871707
  0
LINE
  5
2BB
100
AcDbEntity
  8
0
100
AcDbLine
 62
7
  6
BYLAYER
 10
22.4414805174
 20
53.4038045137
 11
22.6286246228
 21
53.375
  0
LINE
  5
2BC
100
AcDbEntity
  8
0
100
AcDbLine
 62
7
  6
BYLAYER
 10
35.0379473823
 20
52.3461954863
 11
34.8508032769
 21
52.375
  0
LINE
  5
2BD
100
AcDbEntity
  8
0
100
AcDbLine
 62
7
  6
BYLAYER
 10
33.3405594637
 20
52.2002193927
 11
33.0414805174
 21
52.3461954863
  0
LINE
  5
2BE
100
AcDbEntity
  8
0
100
AcDbLine
 62
7
  6
BYLAYER
 10
33.2286246228
 20
52.375
 11
32.8231855752
 21
52.5728889155
  0
LINE
  5
2BF
100
AcDbEntity
  8
0
100
AcDbLine
 62
7
  6
BYLAYER
 10
34.738868436
 20
52.2002193928
 11
34.5793672841
 21
52.3541600257
  0
LINE
  5
2C0
100
AcDbEntity
  8
0
100
AcDbLine
 62
7
  6
BYLAYER
 10
33.3405594637
 20
53.5497806072
 11
33.5000606156
 21
53.3958399743
  0
LINE
  5
2C1
100
AcDbEntity
  8
0
100
AcDbLine
 62
7
  6
BYLAYER
 10
44.23898111
 20
54.2205611083
 11
44.2387734324
 21
55.3135559015
  0
LINE
  5
2C2
100
AcDbEntity
  8
0
100
AcDbLine
 62
7
  6
BYLAYER
 10
45.0404467895
 20
51.5294388913
 11
45.0406544605
 21
50.4364440987
  0
LINE
  5
2C3
100
AcDbEntity
  8
0
100
AcDbLine
 62
7
  6
BYLAYER
 10
44.2387734479
 20
50.4364440989
 11
44.2389811105
 21
51.5294388907
  0
LINE
  5
2C4
100
AcDbEntity
  8
0
100
AcDbLine
 62
7
  6
BYLAYER
 10
45.0406544614
 20
55.3135559013
 11
45.0404467895
 21
54.2205611087
  0
LINE
  5
2C5
100
AcDbEntity
  8
0
100
AcDbLine
 62
7
  6
BYLAYER
 10
24.4379473823
 20
53.4038045137
 11
24.2508032769
 21
53.375
  0
LINE
  5
2C6
100
AcDbEntity
  8
0
100
AcDbLine
 62
7
  6
BYLAYER
 10
11.8414805174
 20
52.3461954863
 11
12.0286246228
 21
52.375
  0
LINE
  5
2C7
100
AcDbEntity
  8
0
100
AcDbLine
 62
7
  6
BYLAYER
 10
13.8379473823
 20
53.4038045137
 11
13.6508032769
 21
53.375
  0
LINE
  5
2C8
100
AcDbEntity
  8
0
100
AcDbLine
 62
7
  6
BYLAYER
 10
11.3157418586
 20
53.1662871707
 11
11.830522303
 21
53.1844106205
  0
LINE
  5
2C9
100
AcDbEntity
  8
0
100
AcDbLine
 62
7
  6
BYLAYER
 10
45.6489056375
 20
53.1844106138
 11
46.1636860411
 21
53.1662871707
  0
LINE
  5
2CA
100
AcDbEntity
  8
0
100
AcDbLine
 62
7
  6
BYLAYER
 10
33.0414805174
 20
53.4038045137
 11
33.2286246228
 21
53.375
  0
LINE
  5
2CB
100
AcDbEntity
  8
0
100
AcDbLine
 62
7
  6
BYLAYER
 10
45.6379473823
 20
52.3461954863
 11
45.4508032769
 21
52.375
  0
LINE
  5
2CC
100
AcDbEntity
  8
0
100
AcDbLine
 62
7
  6
BYLAYER
 10
43.6414805174
 20
53.4038045137
 11
43.8286246228
 21
53.375
  0
LINE
  5
2CD
100
AcDbEntity
  8
0
100
AcDbLine
 62
7
  6
BYLAYER
 10
34.8508032768
 20
53.375
 11
35.2562423245
 21
53.1771110845
  0
LINE
  5
2CE
100
AcDbEntity
  8
0
100
AcDbLine
 62
7
  6
BYLAYER
 10
34.738868436
 20
53.5497806073
 11
35.0379473823
 21
53.4038045137
  0
LINE
  5
2CF
100
AcDbEntity
  8
0
100
AcDbLine
 62
7
  6
BYLAYER
 10
46.4397139498
 20
39.425
 11
46.4397139498
 21
32.7250828122
  0
LINE
  5
2D0
100
AcDbEntity
  8
0
100
AcDbLine
 62
7
  6
BYLAYER
 10
43.9405594637
 20
52.2002193927
 11
43.6414805174
 21
52.3461954863
  0
LINE
  5
2D1
100
AcDbEntity
  8
0
100
AcDbLine
 62
7
  6
BYLAYER
 10
43.8286246228
 20
52.375
 11
43.4231855752
 21
52.5728889155
  0
LINE
  5
2D2
100
AcDbEntity
  8
0
100
AcDbLine
 62
7
  6
BYLAYER
 10
44.2390330267
 20
54.2205611231
 11
44.290568702
 21
53.8622075845
  0
LINE
  5
2D3
100
AcDbEntity
  8
0
100
AcDbLine
 62
7
  6
BYLAYER
 10
45.040394873
 20
51.5294388765
 11
44.9888591976
 21
51.8877924155
  0
LINE
  5
2D4
100
AcDbEntity
  8
0
100
AcDbLine
 62
7
  6
BYLAYER
 10
47.1397139498
 20
19.325
 11
47.1397139498
 21
32.325
  0
LINE
  5
2D5
100
AcDbEntity
  8
0
100
AcDbLine
 62
7
  6
BYLAYER
 10
48.7397139498
 20
19.325
 11
48.7397139498
 21
32.325
  0
LINE
  5
2D6
100
AcDbEntity
  8
0
100
AcDbLine
 62
7
  6
BYLAYER
 10
49.4397139498
 20
32.7250828122
 11
49.0396532242
 21
32.325
  0
LINE
  5
2D7
100
AcDbEntity
  8
0
100
AcDbLine
 62
7
  6
BYLAYER
 10
6.8897139498
 20
59.125
 11
50.5897139498
 21
59.125
  0
LINE
  5
2D8
100
AcDbEntity
  8
0
100
AcDbLine
 62
7
  6
BYLAYER
 10
6.2397139498
 20
59.425
 11
51.2397139498
 21
59.425
  0
LINE
  5
2D9
100
AcDbEntity
  8
0
100
AcDbLine
 62
7
  6
BYLAYER
 10
45.4508032768
 20
53.375
 11
45.8562423245
 21
53.1771110845
  0
LINE
  5
2DA
100
AcDbEntity
  8
0
100
AcDbLine
 62
7
  6
BYLAYER
 10
45.338868436
 20
53.5497806073
 11
45.6379473823
 21
53.4038045137
  0
LINE
  5
2DB
100
AcDbEntity
  8
0
100
AcDbLine
 62
7
  6
BYLAYER
 10
44.2389811105
 20
51.5294388907
 11
43.9405594637
 21
52.2002193927
  0
LINE
  5
2DC
100
AcDbEntity
  8
0
100
AcDbLine
 62
7
  6
BYLAYER
 10
49.4397139498
 20
32.7250828122
 11
49.4397139498
 21
39.425
  0
LINE
  5
2DD
100
AcDbEntity
  8
0
100
AcDbLine
 62
7
  6
BYLAYER
 10
49.7897139498
 20
39.425
 11
49.7897139498
 21
35.825
  0
LINE
  5
2DE
100
AcDbEntity
  8
0
100
AcDbLine
 62
7
  6
BYLAYER
 10
50.5897139498
 20
59.125
 11
50.5897139498
 21
48.875
  0
LINE
  5
2DF
100
AcDbEntity
  8
0
100
AcDbLine
 62
7
  6
BYLAYER
 10
45.338868436
 20
52.2002193928
 11
45.1793672841
 21
52.3541600257
  0
LINE
  5
2E0
100
AcDbEntity
  8
0
100
AcDbLine
 62
7
  6
BYLAYER
 10
43.9405594637
 20
53.5497806072
 11
44.1000606156
 21
53.3958399743
  0
LINE
  5
2E1
100
AcDbEntity
  8
0
100
AcDbLine
 62
7
  6
BYLAYER
 10
45.0404467895
 20
54.2205611087
 11
45.338868436
 21
53.5497806073
  0
LINE
  5
2E2
100
AcDbEntity
  8
0
100
AcDbLine
 62
7
  6
BYLAYER
 10
51.1897139498
 20
48.875
 11
51.1897139498
 21
59.425
  0
LINE
  5
2E3
100
AcDbEntity
  8
0
100
AcDbLine
 62
7
  6
BYLAYER
 10
51.2397139498
 20
39.425
 11
51.2397139498
 21
59.425
  0
CIRCLE
  5
2E4
100
AcDbEntity
  8
0
100
AcDbCircle
 62
7
  6
BYLAYER
 10
17.3097139498
 20
46.125
 40
1.75
  0
CIRCLE
  5
2E5
100
AcDbEntity
  8
0
100
AcDbCircle
 62
7
  6
BYLAYER
 10
23.4397139498
 20
52.875
 40
3.25
  0
CIRCLE
  5
2E6
100
AcDbEntity
  8
0
100
AcDbCircle
 62
7
  6
BYLAYER
 10
12.8397139498
 20
52.875
 40
3.25
  0
CIRCLE
  5
2E7
100
AcDbEntity
  8
0
100
AcDbCircle
 62
7
  6
BYLAYER
 10
12.8397139498
 20
52.875
 40
3.1
  0
CIRCLE
  5
2E8
100
AcDbEntity
  8
0
100
AcDbCircle
 62
7
  6
BYLAYER
 10
23.4397139498
 20
52.875
 40
3.1
  0
ARC
  5
2E9
100
AcDbEntity
  8
0
100
AcDbCircle
 62
7
  6
BYLAYER
 10
12.8397139498
 20
52.875
 40
2.9600181384
100
AcDbArc
 50
170.2750914965
 51
189.7249085035
  0
ARC
  5
2EA
100
AcDbEntity
  8
0
100
AcDbCircle
 62
7
  6
BYLAYER
 10
12.8397139498
 20
52.875
 40
2.9600181384
100
AcDbArc
 50
350.2750914965
 51
9.7249085035
  0
ARC
  5
2EB
100
AcDbEntity
  8
0
100
AcDbCircle
 62
7
  6
BYLAYER
 10
23.4397139498
 20
52.875
 40
2.9600181384
100
AcDbArc
 50
350.2750914965
 51
9.7249085035
  0
ARC
  5
2EC
100
AcDbEntity
  8
0
100
AcDbCircle
 62
7
  6
BYLAYER
 10
23.4397139498
 20
52.875
 40
2.9600181384
100
AcDbArc
 50
170.2750914965
 51
189.7249085035
  0
ARC
  5
2ED
100
AcDbEntity
  8
0
100
AcDbCircle
 62
7
  6
BYLAYER
 10
12.8397139498
 20
52.875
 40
2.8957260181
100
AcDbArc
 50
10.3297812987
 51
169.6702187013
  0
ARC
  5
2EE
100
AcDbEntity
  8
0
100
AcDbCircle
 62
7
  6
BYLAYER
 10
12.8397139498
 20
52.875
 40
2.8957260181
100
AcDbArc
 50
190.3297812987
 51
349.6702187013
  0
ARC
  5
2EF
100
AcDbEntity
  8
0
100
AcDbCircle
 62
7
  6
BYLAYER
 10
23.4397139498
 20
52.875
 40
2.8957260181
100
AcDbArc
 50
190.3297812987
 51
349.6702187013
  0
ARC
  5
2F0
100
AcDbEntity
  8
0
100
AcDbCircle
 62
7
  6
BYLAYER
 10
23.4397139498
 20
52.875
 40
2.8957260181
100
AcDbArc
 50
10.3297812987
 51
169.6702187013
  0
ARC
  5
2F1
100
AcDbEntity
  8
0
100
AcDbCircle
 62
7
  6
BYLAYER
 10
12.8397139498
 20
52.875
 40
2.4972481389
100
AcDbArc
 50
192.2252140368
 51
347.7747864901
  0
ARC
  5
2F2
100
AcDbEntity
  8
0
100
AcDbCircle
 62
7
  6
BYLAYER
 10
12.8397139498
 20
52.875
 40
2.4972481389
100
AcDbArc
 50
12.2252140369
 51
167.7747860097
  0
ARC
  5
2F3
100
AcDbEntity
  8
0
100
AcDbCircle
 62
7
  6
BYLAYER
 10
23.4397139498
 20
52.875
 40
2.4972481389
100
AcDbArc
 50
192.2252140368
 51
347.7747864901
  0
ARC
  5
2F4
100
AcDbEntity
  8
0
100
AcDbCircle
 62
7
  6
BYLAYER
 10
23.4397139498
 20
52.875
 40
2.4972481389
100
AcDbArc
 50
12.2252140369
 51
167.7747860097
  0
ARC
  5
2F5
100
AcDbEntity
  8
0
100
AcDbCircle
 62
7
  6
BYLAYER
 10
12.8397139498
 20
52.875
 40
2.471291266
100
AcDbArc
 50
260.6631256376
 51
279.3368745609
  0
ARC
  5
2F6
100
AcDbEntity
  8
0
100
AcDbCircle
 62
7
  6
BYLAYER
 10
12.8397139498
 20
52.875
 40
2.471291266
100
AcDbArc
 50
80.6631254189
 51
99.3368747142
  0
ARC
  5
2F7
100
AcDbEntity
  8
0
100
AcDbCircle
 62
7
  6
BYLAYER
 10
23.4397139498
 20
52.875
 40
2.471291266
100
AcDbArc
 50
260.6631256375
 51
279.336874561
  0
ARC
  5
2F8
100
AcDbEntity
  8
0
100
AcDbCircle
 62
7
  6
BYLAYER
 10
23.4397139498
 20
52.875
 40
2.471291266
100
AcDbArc
 50
80.6631254189
 51
99.3368747141
  0
ARC
  5
2F9
100
AcDbEntity
  8
0
100
AcDbCircle
 62
7
  6
BYLAYER
 10
12.8397139498
 20
52.875
 40
1.9343306491
100
AcDbArc
 50
258.303675512
 51
281.696324488
  0
ARC
  5
2FA
100
AcDbEntity
  8
0
100
AcDbCircle
 62
7
  6
BYLAYER
 10
12.8397139498
 20
52.875
 40
1.9343306491
100
AcDbArc
 50
78.303675512
 51
101.696324488
  0
ARC
  5
2FB
100
AcDbEntity
  8
0
100
AcDbCircle
 62
7
  6
BYLAYER
 10
23.4397139498
 20
52.875
 40
1.9343306491
100
AcDbArc
 50
258.3036755121
 51
281.6963244879
  0
ARC
  5
2FC
100
AcDbEntity
  8
0
100
AcDbCircle
 62
7
  6
BYLAYER
 10
23.4397139498
 20
52.875
 40
1.9343306491
100
AcDbArc
 50
78.3036755121
 51
101.6963244879
  0
ARC
  5
2FD
100
AcDbEntity
  8
0
100
AcDbCircle
 62
7
  6
BYLAYER
 10
12.8397139498
 20
52.875
 40
1.5515602311
100
AcDbArc
 50
349.179180809
 51
10.8208191912
  0
ARC
  5
2FE
100
AcDbEntity
  8
0
100
AcDbCircle
 62
7
  6
BYLAYER
 10
12.8397139498
 20
52.875
 40
1.5515602311
100
AcDbArc
 50
169.179180809
 51
190.8208191912
  0
ARC
  5
2FF
100
AcDbEntity
  8
0
100
AcDbCircle
 62
7
  6
BYLAYER
 10
23.4397139498
 20
52.875
 40
1.5515602311
100
AcDbArc
 50
349.179180809
 51
10.8208191912
  0
ARC
  5
300
100
AcDbEntity
  8
0
100
AcDbCircle
 62
7
  6
BYLAYER
 10
23.4397139498
 20
52.875
 40
1.5515602311
100
AcDbArc
 50
169.179180809
 51
190.8208191912
  0
ARC
  5
301
100
AcDbEntity
  8
0
100
AcDbCircle
 62
7
  6
BYLAYER
 10
12.8397139498
 20
52.875
 40
1.1472431439
100
AcDbArc
 50
72.2072209287
 51
107.7927810317
  0
ARC
  5
302
100
AcDbEntity
  8
0
100
AcDbCircle
 62
7
  6
BYLAYER
 10
12.8397139498
 20
52.875
 40
1.1472431439
100
AcDbArc
 50
164.5297279701
 51
195.4702733453
  0
ARC
  5
303
100
AcDbEntity
  8
0
100
AcDbCircle
 62
7
  6
BYLAYER
 10
12.8397139498
 20
52.875
 40
1.1472431439
100
AcDbArc
 50
252.2072209289
 51
287.7927810317
  0
ARC
  5
304
100
AcDbEntity
  8
0
100
AcDbCircle
 62
7
  6
BYLAYER
 10
12.8397139498
 20
52.875
 40
1.1472431439
100
AcDbArc
 50
344.5302342463
 51
15.4704155212
  0
ARC
  5
305
100
AcDbEntity
  8
0
100
AcDbCircle
 62
7
  6
BYLAYER
 10
23.4397139498
 20
52.875
 40
1.1472431439
100
AcDbArc
 50
344.5302342473
 51
15.4704155227
  0
ARC
  5
306
100
AcDbEntity
  8
0
100
AcDbCircle
 62
7
  6
BYLAYER
 10
23.4397139498
 20
52.875
 40
1.1472431439
100
AcDbArc
 50
164.5297279697
 51
195.4702733453
  0
ARC
  5
307
100
AcDbEntity
  8
0
100
AcDbCircle
 62
7
  6
BYLAYER
 10
23.4397139498
 20
52.875
 40
1.1472431439
100
AcDbArc
 50
72.2072209289
 51
107.7927810319
  0
ARC
  5
308
100
AcDbEntity
  8
0
100
AcDbCircle
 62
7
  6
BYLAYER
 10
23.4397139498
 20
52.875
 40
1.1472431439
100
AcDbArc
 50
252.207220929
 51
287.7927810318
  0
CIRCLE
  5
309
100
AcDbEntity
  8
0
100
AcDbCircle
 62
7
  6
BYLAYER
 10
44.6397139498
 20
52.875
 40
3.25
  0
CIRCLE
  5
30A
100
AcDbEntity
  8
0
100
AcDbCircle
 62
7
  6
BYLAYER
 10
34.0397139498
 20
52.875
 40
3.25
  0
CIRCLE
  5
30B
100
AcDbEntity
  8
0
100
AcDbCircle
 62
7
  6
BYLAYER
 10
44.6397139498
 20
52.875
 40
3.1
  0
CIRCLE
  5
30C
100
AcDbEntity
  8
0
100
AcDbCircle
 62
7
  6
BYLAYER
 10
34.0397139498
 20
52.875
 40
3.1
  0
ARC
  5
30D
100
AcDbEntity
  8
0
100
AcDbCircle
 62
7
  6
BYLAYER
 10
44.6397139498
 20
52.875
 40
2.9600181384
100
AcDbArc
 50
170.2750914965
 51
189.7249085035
  0
ARC
  5
30E
100
AcDbEntity
  8
0
100
AcDbCircle
 62
7
  6
BYLAYER
 10
44.6397139498
 20
52.875
 40
2.9600181384
100
AcDbArc
 50
350.2750914965
 51
9.7249085035
  0
ARC
  5
30F
100
AcDbEntity
  8
0
100
AcDbCircle
 62
7
  6
BYLAYER
 10
34.0397139498
 20
52.875
 40
2.9600181384
100
AcDbArc
 50
170.2750914965
 51
189.7249085035
  0
ARC
  5
310
100
AcDbEntity
  8
0
100
AcDbCircle
 62
7
  6
BYLAYER
 10
34.0397139498
 20
52.875
 40
2.9600181384
100
AcDbArc
 50
350.2750914965
 51
9.7249085035
  0
ARC
  5
311
100
AcDbEntity
  8
0
100
AcDbCircle
 62
7
  6
BYLAYER
 10
44.6397139498
 20
52.875
 40
2.8957260181
100
AcDbArc
 50
190.3297812987
 51
349.6702187013
  0
ARC
  5
312
100
AcDbEntity
  8
0
100
AcDbCircle
 62
7
  6
BYLAYER
 10
44.6397139498
 20
52.875
 40
2.8957260181
100
AcDbArc
 50
10.3297812987
 51
169.6702187013
  0
ARC
  5
313
100
AcDbEntity
  8
0
100
AcDbCircle
 62
7
  6
BYLAYER
 10
34.0397139498
 20
52.875
 40
2.8957260181
100
AcDbArc
 50
190.3297812987
 51
349.6702187013
  0
ARC
  5
314
100
AcDbEntity
  8
0
100
AcDbCircle
 62
7
  6
BYLAYER
 10
34.0397139498
 20
52.875
 40
2.8957260181
100
AcDbArc
 50
10.3297812987
 51
169.6702187013
  0
ARC
  5
315
100
AcDbEntity
  8
0
100
AcDbCircle
 62
7
  6
BYLAYER
 10
44.6397139498
 20
52.875
 40
2.4972481389
100
AcDbArc
 50
192.2252140368
 51
347.7747864901
  0
ARC
  5
316
100
AcDbEntity
  8
0
100
AcDbCircle
 62
7
  6
BYLAYER
 10
44.6397139498
 20
52.875
 40
2.4972481389
100
AcDbArc
 50
12.2252140369
 51
167.7747860097
  0
ARC
  5
317
100
AcDbEntity
  8
0
100
AcDbCircle
 62
7
  6
BYLAYER
 10
34.0397139498
 20
52.875
 40
2.4972481389
100
AcDbArc
 50
192.2252140368
 51
347.7747864901
  0
ARC
  5
318
100
AcDbEntity
  8
0
100
AcDbCircle
 62
7
  6
BYLAYER
 10
34.0397139498
 20
52.875
 40
2.4972481389
100
AcDbArc
 50
12.2252140369
 51
167.7747860097
  0
ARC
  5
319
100
AcDbEntity
  8
0
100
AcDbCircle
 62
7
  6
BYLAYER
 10
44.6397139498
 20
52.875
 40
2.471291266
100
AcDbArc
 50
260.6631256375
 51
279.336874561
  0
ARC
  5
31A
100
AcDbEntity
  8
0
100
AcDbCircle
 62
7
  6
BYLAYER
 10
44.6397139498
 20
52.875
 40
2.471291266
100
AcDbArc
 50
80.6631254189
 51
99.3368747141
  0
ARC
  5
31B
100
AcDbEntity
  8
0
100
AcDbCircle
 62
7
  6
BYLAYER
 10
34.0397139498
 20
52.875
 40
2.471291266
100
AcDbArc
 50
260.6631256375
 51
279.336874561
  0
ARC
  5
31C
100
AcDbEntity
  8
0
100
AcDbCircle
 62
7
  6
BYLAYER
 10
34.0397139498
 20
52.875
 40
2.471291266
100
AcDbArc
 50
80.6631254189
 51
99.3368747141
  0
ARC
  5
31D
100
AcDbEntity
  8
0
100
AcDbCircle
 62
7
  6
BYLAYER
 10
44.6397139498
 20
52.875
 40
1.9343306491
100
AcDbArc
 50
78.3036755121
 51
101.6963244879
  0
ARC
  5
31E
100
AcDbEntity
  8
0
100
AcDbCircle
 62
7
  6
BYLAYER
 10
44.6397139498
 20
52.875
 40
1.9343306491
100
AcDbArc
 50
258.3036755121
 51
281.6963244879
  0
ARC
  5
31F
100
AcDbEntity
  8
0
100
AcDbCircle
 62
7
  6
BYLAYER
 10
34.0397139498
 20
52.875
 40
1.9343306491
100
AcDbArc
 50
78.3036755121
 51
101.6963244879
  0
ARC
  5
320
100
AcDbEntity
  8
0
100
AcDbCircle
 62
7
  6
BYLAYER
 10
34.0397139498
 20
52.875
 40
1.9343306491
100
AcDbArc
 50
258.3036755121
 51
281.6963244879
  0
ARC
  5
321
100
AcDbEntity
  8
0
100
AcDbCircle
 62
7
  6
BYLAYER
 10
44.6397139498
 20
52.875
 40
1.5515602311
100
AcDbArc
 50
169.179180809
 51
190.8208191912
  0
ARC
  5
322
100
AcDbEntity
  8
0
100
AcDbCircle
 62
7
  6
BYLAYER
 10
44.6397139498
 20
52.875
 40
1.5515602311
100
AcDbArc
 50
349.179180809
 51
10.8208191912
  0
ARC
  5
323
100
AcDbEntity
  8
0
100
AcDbCircle
 62
7
  6
BYLAYER
 10
34.0397139498
 20
52.875
 40
1.5515602311
100
AcDbArc
 50
169.179180809
 51
190.8208191912
  0
ARC
  5
324
100
AcDbEntity
  8
0
100
AcDbCircle
 62
7
  6
BYLAYER
 10
34.0397139498
 20
52.875
 40
1.5515602311
100
AcDbArc
 50
349.179180809
 51
10.8208191912
  0
ARC
  5
325
100
AcDbEntity
  8
0
100
AcDbCircle
 62
7
  6
BYLAYER
 10
44.6397139498
 20
52.875
 40
1.1472431439
100
AcDbArc
 50
164.5297279702
 51
195.4702733453
  0
ARC
  5
326
100
AcDbEntity
  8
0
100
AcDbCircle
 62
7
  6
BYLAYER
 10
44.6397139498
 20
52.875
 40
1.1472431439
100
AcDbArc
 50
72.2072209289
 51
107.7927810319
  0
ARC
  5
327
100
AcDbEntity
  8
0
100
AcDbCircle
 62
7
  6
BYLAYER
 10
44.6397139498
 20
52.875
 40
1.1472431439
100
AcDbArc
 50
252.2072209289
 51
287.7927810318
  0
ARC
  5
328
100
AcDbEntity
  8
0
100
AcDbCircle
 62
7
  6
BYLAYER
 10
44.6397139498
 20
52.875
 40
1.1472431439
100
AcDbArc
 50
344.5302342467
 51
15.4704155213
  0
ARC
  5
329
100
AcDbEntity
  8
0
100
AcDbCircle
 62
7
  6
BYLAYER
 10
34.0397139498
 20
52.875
 40
1.1472431439
100
AcDbArc
 50
164.5297279701
 51
195.4702733453
  0
ARC
  5
32A
100
AcDbEntity
  8
0
100
AcDbCircle
 62
7
  6
BYLAYER
 10
34.0397139498
 20
52.875
 40
1.1472431439
100
AcDbArc
 50
72.2072209289
 51
107.7927810319
  0
ARC
  5
32B
100
AcDbEntity
  8
0
100
AcDbCircle
 62
7
  6
BYLAYER
 10
34.0397139498
 20
52.875
 40
1.1472431439
100
AcDbArc
 50
252.207220929
 51
287.7927810318
  0
ARC
  5
32C
100
AcDbEntity
  8
0
100
AcDbCircle
 62
7
  6
BYLAYER
 10
34.0397139498
 20
52.875
 40
1.1472431439
100
AcDbArc
 50
344.5302342463
 51
15.4704155204
  0
SPLINE
  5
32D
100
AcDbEntity
  8
0
100
AcDbSpline
 62
7
  6
BYLAYER
 70
0
 71
3
 72
9
 73
5
 74
0
 42
0.0000001
 43
0.0000001
 44
0.0000000001
 40
0.0
 40
0.0
 40
0.0
 40
0.0
 40
0.2448130219
 40
1.0
 40
1.0
 40
1.0
 40
1.0
 10
13.8489055967
 20
52.5655893795
 30
0.0
 10
13.8104428719
 20
52.548663778
 30
0.0
 10
13.6534294594
 20
52.479309006
 30
0.0
 10
13.4969062479
 20
52.4088219762
 30
0.0
 10
13.3793672841
 20
52.3541600257
 30
0.0
  0
SPLINE
  5
32E
100
AcDbEntity
  8
0
100
AcDbSpline
 62
7
  6
BYLAYER
 70
0
 71
3
 72
16
 73
12
 74
0
 42
0.0000001
 43
0.0000001
 44
0.0000000001
 40
0.0
 40
0.0
 40
0.0
 40
0.0
 40
0.3598723869
 40
0.5252434588
 40
0.6731831145
 40
0.7986747151
 40
0.8973189081
 40
0.9352936362
 40
0.9652270523
 40
0.986868348
 40
1.0
 40
1.0
 40
1.0
 40
1.0
 10
10.399100023
 20
53.4038045137
 30
0.0
 10
10.350103143
 20
53.4038045137
 30
0.0
 10
10.2785899258
 20
53.4034911148
 30
0.0
 10
10.1869424429
 20
53.4023529091
 30
0.0
 10
10.127208649
 20
53.4012361323
 30
0.0
 10
10.0765694954
 20
53.3998613173
 30
0.0
 10
10.0409052284
 20
53.3984904515
 30
0.0
 10
10.0182675256
 20
53.3972067673
 30
0.0
 10
10.0061009491
 20
53.3963255252
 30
0.0
 10
9.9973489116
 20
53.395406403
 30
0.0
 10
9.9926438651
 20
53.3947242462
 30
0.0
 10
9.9909219549
 20
53.3942430465
 30
0.0
  0
SPLINE
  5
32F
100
AcDbEntity
  8
0
100
AcDbSpline
 62
7
  6
BYLAYER
 70
0
 71
3
 72
9
 73
5
 74
0
 42
0.0000001
 43
0.0000001
 44
0.0000000001
 40
0.0
 40
0.0
 40
0.0
 40
0.0
 40
0.2448816132
 40
1.0
 40
1.0
 40
1.0
 40
1.0
 10
12.490568692
 20
51.8877924873
 30
0.0
 10
12.4753415205
 20
51.9259916518
 30
0.0
 10
12.4129428768
 20
52.0818943263
 30
0.0
 10
12.3494203809
 20
52.2373563138
 30
0.0
 10
12.3000606156
 20
52.3541600257
 30
0.0
  0
SPLINE
  5
330
100
AcDbEntity
  8
0
100
AcDbSpline
 62
7
  6
BYLAYER
 70
0
 71
3
 72
16
 73
12
 74
0
 42
0.0000001
 43
0.0000001
 44
0.0000000001
 40
0.0
 40
0.0
 40
0.0
 40
0.0
 40
0.0131332057
 40
0.0347777636
 40
0.0647140601
 40
0.1026892008
 40
0.2013306208
 40
0.3268152038
 40
0.47474251
 40
0.6401108653
 40
1.0
 40
1.0
 40
1.0
 40
1.0
 10
9.9909219549
 20
52.3557569535
 30
0.0
 10
9.9926440534
 20
52.3552757012
 30
0.0
 10
9.9973497379
 20
52.3545936043
 30
0.0
 10
10.0061027362
 20
52.3536744375
 30
0.0
 10
10.0182700991
 20
52.3527931734
 30
0.0
 10
10.0409076611
 20
52.3515093768
 30
0.0
 10
10.0765703362
 20
52.3501386087
 30
0.0
 10
10.1272060229
 20
52.348763961
 30
0.0
 10
10.1869362728
 20
52.3476471386
 30
0.0
 10
10.278583163
 20
52.3465089816
 30
0.0
 10
10.3500976485
 20
52.3461954863
 30
0.0
 10
10.3990963692
 20
52.3461954863
 30
0.0
  0
LINE
  5
331
100
AcDbEntity
  8
0
100
AcDbLine
 62
7
  6
BYLAYER
 10
41.7222308943
 20
53.375
 11
41.7909219549
 21
53.3942430465
  0
LINE
  5
332
100
AcDbEntity
  8
0
100
AcDbLine
 62
7
  6
BYLAYER
 10
41.7909219549
 20
52.3557569535
 11
41.7222308943
 21
52.375
  0
LINE
  5
333
100
AcDbEntity
  8
0
100
AcDbLine
 62
7
  6
BYLAYER
 10
47.5571970054
 20
52.375
 11
47.4885059448
 21
52.3557569535
  0
LINE
  5
334
100
AcDbEntity
  8
0
100
AcDbLine
 62
7
  6
BYLAYER
 10
47.4885059448
 20
53.3942430465
 11
47.5571970054
 21
53.375
  0
LINE
  5
335
100
AcDbEntity
  8
0
100
AcDbLine
 62
7
  6
BYLAYER
 10
44.2891448168
 20
51.7826318366
 11
44.2905687192
 21
51.8877926221
  0
SPLINE
  5
336
100
AcDbEntity
  8
0
100
AcDbSpline
 62
7
  6
BYLAYER
 70
0
 71
3
 72
9
 73
5
 74
0
 42
0.0000001
 43
0.0000001
 44
0.0000000001
 40
0.0
 40
0.0
 40
0.0
 40
0.0
 40
0.2486255926
 40
1.0
 40
1.0
 40
1.0
 40
1.0
 10
44.2475777787
 20
50.9808341458
 30
0.0
 10
44.2510511229
 20
51.0472818073
 30
0.0
 10
44.2650025475
 20
51.3145427212
 30
0.0
 10
44.2788798789
 20
51.5818075685
 30
0.0
 10
44.2891448168
 20
51.7826318366
 30
0.0
  0
SPLINE
  5
337
100
AcDbEntity
  8
0
100
AcDbSpline
 62
7
  6
BYLAYER
 70
0
 71
3
 72
10
 73
6
 74
0
 42
0.0000001
 43
0.0000001
 44
0.0000000001
 40
0.0
 40
0.0
 40
0.0
 40
0.0
 40
0.5863646063
 40
0.8244955517
 40
1.0
 40
1.0
 40
1.0
 40
1.0
 10
44.23872155
 20
50.4364558175
 30
0.0
 10
44.2387518851
 20
50.5428783723
 30
0.0
 10
44.2396732967
 20
50.6925283811
 30
0.0
 10
44.2433980903
 20
50.8739847602
 30
0.0
 10
44.2459150183
 20
50.9490242999
 30
0.0
 10
44.2475777787
 20
50.9808341458
 30
0.0
  0
SPLINE
  5
338
100
AcDbEntity
  8
0
100
AcDbSpline
 62
7
  6
BYLAYER
 70
0
 71
3
 72
9
 73
5
 74
0
 42
0.0000001
 43
0.0000001
 44
0.0000000001
 40
0.0
 40
0.0
 40
0.0
 40
0.0
 40
0.244829168
 40
1.0
 40
1.0
 40
1.0
 40
1.0
 10
43.6305223006
 20
52.5655894067
 30
0.0
 10
43.6689875627
 20
52.5486626885
 30
0.0
 10
43.8260003841
 20
52.4793065735
 30
0.0
 10
43.9825241629
 20
52.4088208085
 30
0.0
 10
44.1000606156
 20
52.3541600257
 30
0.0
  0
SPLINE
  5
339
100
AcDbEntity
  8
0
100
AcDbSpline
 62
7
  6
BYLAYER
 70
0
 71
3
 72
9
 73
5
 74
0
 42
0.0000001
 43
0.0000001
 44
0.0000000001
 40
0.0
 40
0.0
 40
0.0
 40
0.0
 40
0.2448971265
 40
1.0
 40
1.0
 40
1.0
 40
1.0
 10
44.2905687393
 20
53.8622075504
 30
0.0
 10
44.2753406015
 20
53.8240059624
 30
0.0
 10
44.2129406506
 20
53.6681037946
 30
0.0
 10
44.1494193716
 20
53.5126412977
 30
0.0
 10
44.1000606156
 20
53.3958399743
 30
0.0
  0
SPLINE
  5
33A
100
AcDbEntity
  8
0
100
AcDbSpline
 62
7
  6
BYLAYER
 70
0
 71
3
 72
9
 73
5
 74
0
 42
0.0000001
 43
0.0000001
 44
0.0000000001
 40
0.0
 40
0.0
 40
0.0
 40
0.0
 40
0.244829168
 40
1.0
 40
1.0
 40
1.0
 40
1.0
 10
45.6489055991
 20
53.1844105933
 30
0.0
 10
45.610440337
 20
53.2013373115
 30
0.0
 10
45.4534275156
 20
53.2706934265
 30
0.0
 10
45.2969037368
 20
53.3411791915
 30
0.0
 10
45.1793672841
 20
53.3958399743
 30
0.0
  0
SPLINE
  5
33B
100
AcDbEntity
  8
0
100
AcDbSpline
 62
7
  6
BYLAYER
 70
0
 71
3
 72
9
 73
5
 74
0
 42
0.0000001
 43
0.0000001
 44
0.0000000001
 40
0.0
 40
0.0
 40
0.0
 40
0.0
 40
0.2448971265
 40
1.0
 40
1.0
 40
1.0
 40
1.0
 10
44.9888591604
 20
51.8877924496
 30
0.0
 10
45.0040872982
 20
51.9259940376
 30
0.0
 10
45.0664872491
 20
52.0818962054
 30
0.0
 10
45.1300085281
 20
52.2373587023
 30
0.0
 10
45.1793672841
 20
52.3541600257
 30
0.0
  0
SPLINE
  5
33C
100
AcDbEntity
  8
0
100
AcDbSpline
 62
7
  6
BYLAYER
 70
0
 71
3
 72
9
 73
5
 74
0
 42
0.0000001
 43
0.0000001
 44
0.0000000001
 40
0.0
 40
0.0
 40
0.0
 40
0.0
 40
0.2517981331
 40
1.0
 40
1.0
 40
1.0
 40
1.0
 10
44.2891447972
 20
53.9673685574
 30
0.0
 10
44.2857048465
 20
54.034668097
 30
0.0
 10
44.271961682
 20
54.3019396933
 30
0.0
 10
44.258030288
 20
54.5692015619
 30
0.0
 10
44.2475777787
 20
54.7691658542
 30
0.0
  0
LINE
  5
33D
100
AcDbEntity
  8
0
100
AcDbLine
 62
7
  6
BYLAYER
 10
44.290568702
 20
53.8622075845
 11
44.2891447972
 21
53.9673685574
  0
SPLINE
  5
33E
100
AcDbEntity
  8
0
100
AcDbSpline
 62
7
  6
BYLAYER
 70
0
 71
3
 72
9
 73
5
 74
0
 42
0.0000001
 43
0.0000001
 44
0.0000000001
 40
0.0
 40
0.0
 40
0.0
 40
0.0
 40
0.2448130219
 40
1.0
 40
1.0
 40
1.0
 40
1.0
 10
43.630522303
 20
53.1844106205
 30
0.0
 10
43.6689850278
 20
53.201336222
 30
0.0
 10
43.8259984403
 20
53.270690994
 30
0.0
 10
43.9825216518
 20
53.3411780238
 30
0.0
 10
44.1000606156
 20
53.3958399743
 30
0.0
  0
SPLINE
  5
33F
100
AcDbEntity
  8
0
100
AcDbSpline
 62
7
  6
BYLAYER
 70
0
 71
3
 72
16
 73
12
 74
0
 42
0.0000001
 43
0.0000001
 44
0.0000000001
 40
0.0
 40
0.0
 40
0.0
 40
0.0
 40
0.3598723869
 40
0.5252434588
 40
0.6731831145
 40
0.7986747151
 40
0.8973189081
 40
0.9352936362
 40
0.9652270523
 40
0.986868348
 40
1.0
 40
1.0
 40
1.0
 40
1.0
 10
15.2803278767
 20
52.3461954863
 30
0.0
 10
15.3293247567
 20
52.3461954863
 30
0.0
 10
15.4008379739
 20
52.3465088852
 30
0.0
 10
15.4924854568
 20
52.3476470909
 30
0.0
 10
15.5522192507
 20
52.3487638677
 30
0.0
 10
15.6028584042
 20
52.3501386827
 30
0.0
 10
15.6385226713
 20
52.3515095485
 30
0.0
 10
15.6611603741
 20
52.3527932327
 30
0.0
 10
15.6733269506
 20
52.3536744748
 30
0.0
 10
15.6820789881
 20
52.354593597
 30
0.0
 10
15.6867840345
 20
52.3552757538
 30
0.0
 10
15.6885059448
 20
52.3557569535
 30
0.0
  0
SPLINE
  5
340
100
AcDbEntity
  8
0
100
AcDbSpline
 62
7
  6
BYLAYER
 70
0
 71
3
 72
16
 73
12
 74
0
 42
0.0000001
 43
0.0000001
 44
0.0000000001
 40
0.0
 40
0.0
 40
0.0
 40
0.0
 40
0.0131332057
 40
0.0347777636
 40
0.0647140601
 40
0.1026892008
 40
0.2013306208
 40
0.3268152038
 40
0.47474251
 40
0.6401108653
 40
1.0
 40
1.0
 40
1.0
 40
1.0
 10
41.7909219549
 20
52.3557569535
 30
0.0
 10
41.7926440534
 20
52.3552757012
 30
0.0
 10
41.7973497379
 20
52.3545936043
 30
0.0
 10
41.8061027362
 20
52.3536744375
 30
0.0
 10
41.8182700991
 20
52.3527931734
 30
0.0
 10
41.8409076611
 20
52.3515093768
 30
0.0
 10
41.8765703362
 20
52.3501386087
 30
0.0
 10
41.9272060229
 20
52.348763961
 30
0.0
 10
41.9869362728
 20
52.3476471386
 30
0.0
 10
42.078583163
 20
52.3465089816
 30
0.0
 10
42.1500976485
 20
52.3461954863
 30
0.0
 10
42.1990963692
 20
52.3461954863
 30
0.0
  0
SPLINE
  5
341
100
AcDbEntity
  8
0
100
AcDbSpline
 62
7
  6
BYLAYER
 70
0
 71
3
 72
9
 73
5
 74
0
 42
0.0000001
 43
0.0000001
 44
0.0000000001
 40
0.0
 40
0.0
 40
0.0
 40
0.0
 40
0.2448816132
 40
1.0
 40
1.0
 40
1.0
 40
1.0
 10
44.290568692
 20
51.8877924873
 30
0.0
 10
44.2753415205
 20
51.9259916518
 30
0.0
 10
44.2129428768
 20
52.0818943263
 30
0.0
 10
44.1494203809
 20
52.2373563138
 30
0.0
 10
44.1000606156
 20
52.3541600257
 30
0.0
  0
SPLINE
  5
342
100
AcDbEntity
  8
0
100
AcDbSpline
 62
7
  6
BYLAYER
 70
0
 71
3
 72
16
 73
12
 74
0
 42
0.0000001
 43
0.0000001
 44
0.0000000001
 40
0.0
 40
0.0
 40
0.0
 40
0.0
 40
0.3598723869
 40
0.5252434588
 40
0.6731831145
 40
0.7986747151
 40
0.8973189081
 40
0.9352936362
 40
0.9652270523
 40
0.986868348
 40
1.0
 40
1.0
 40
1.0
 40
1.0
 10
42.199100023
 20
53.4038045137
 30
0.0
 10
42.150103143
 20
53.4038045137
 30
0.0
 10
42.0785899258
 20
53.4034911148
 30
0.0
 10
41.9869424429
 20
53.4023529091
 30
0.0
 10
41.927208649
 20
53.4012361323
 30
0.0
 10
41.8765694954
 20
53.3998613173
 30
0.0
 10
41.8409052284
 20
53.3984904515
 30
0.0
 10
41.8182675256
 20
53.3972067673
 30
0.0
 10
41.8061009491
 20
53.3963255252
 30
0.0
 10
41.7973489116
 20
53.395406403
 30
0.0
 10
41.7926438651
 20
53.3947242462
 30
0.0
 10
41.7909219549
 20
53.3942430465
 30
0.0
  0
SPLINE
  5
343
100
AcDbEntity
  8
0
100
AcDbSpline
 62
7
  6
BYLAYER
 70
0
 71
3
 72
16
 73
12
 74
0
 42
0.0000001
 43
0.0000001
 44
0.0000000001
 40
0.0
 40
0.0
 40
0.0
 40
0.0
 40
0.0131332057
 40
0.0347777636
 40
0.0647140601
 40
0.1026892008
 40
0.2013306208
 40
0.3268152038
 40
0.47474251
 40
0.6401108653
 40
1.0
 40
1.0
 40
1.0
 40
1.0
 10
47.4885059448
 20
53.3942430465
 30
0.0
 10
47.4867838463
 20
53.3947242988
 30
0.0
 10
47.4820781618
 20
53.3954063957
 30
0.0
 10
47.4733251635
 20
53.3963255625
 30
0.0
 10
47.4611578006
 20
53.3972068266
 30
0.0
 10
47.4385202386
 20
53.3984906232
 30
0.0
 10
47.4028575635
 20
53.3998613913
 30
0.0
 10
47.3522218768
 20
53.401236039
 30
0.0
 10
47.2924916269
 20
53.4023528614
 30
0.0
 10
47.2008447366
 20
53.4034910184
 30
0.0
 10
47.1293302512
 20
53.4038045137
 30
0.0
 10
47.0803315305
 20
53.4038045137
 30
0.0
  0
LINE
  5
344
100
AcDbEntity
  8
0
100
AcDbLine
 62
7
  6
BYLAYER
 10
44.9902830829
 20
53.9673681634
 11
44.9888591804
 21
53.8622073779
  0
SPLINE
  5
345
100
AcDbEntity
  8
0
100
AcDbSpline
 62
7
  6
BYLAYER
 70
0
 71
3
 72
9
 73
5
 74
0
 42
0.0000001
 43
0.0000001
 44
0.0000000001
 40
0.0
 40
0.0
 40
0.0
 40
0.0
 40
0.2486255926
 40
1.0
 40
1.0
 40
1.0
 40
1.0
 10
45.031850121
 20
54.7691658542
 30
0.0
 10
45.0283767768
 20
54.7027181927
 30
0.0
 10
45.0144253522
 20
54.4354572787
 30
0.0
 10
45.0005480207
 20
54.1681924315
 30
0.0
 10
44.9902830829
 20
53.9673681634
 30
0.0
  0
SPLINE
  5
346
100
AcDbEntity
  8
0
100
AcDbSpline
 62
7
  6
BYLAYER
 70
0
 71
3
 72
10
 73
6
 74
0
 42
0.0000001
 43
0.0000001
 44
0.0000000001
 40
0.0
 40
0.0
 40
0.0
 40
0.0
 40
0.5863645511
 40
0.8244955575
 40
1.0
 40
1.0
 40
1.0
 40
1.0
 10
45.0407063502
 20
55.3135461573
 30
0.0
 10
45.0406760151
 20
55.2071232266
 30
0.0
 10
45.0397546195
 20
55.0574726739
 30
0.0
 10
45.0360298208
 20
54.8760156365
 30
0.0
 10
45.0335128874
 20
54.8009758144
 30
0.0
 10
45.031850121
 20
54.7691658542
 30
0.0
  0
SPLINE
  5
347
100
AcDbEntity
  8
0
100
AcDbSpline
 62
7
  6
BYLAYER
 70
0
 71
3
 72
9
 73
5
 74
0
 42
0.0000001
 43
0.0000001
 44
0.0000000001
 40
0.0
 40
0.0
 40
0.0
 40
0.0
 40
0.2448816132
 40
1.0
 40
1.0
 40
1.0
 40
1.0
 10
44.9888592077
 20
53.8622075127
 30
0.0
 10
45.0040863792
 20
53.8240083482
 30
0.0
 10
45.0664850229
 20
53.6681056737
 30
0.0
 10
45.1300075187
 20
53.5126436862
 30
0.0
 10
45.1793672841
 20
53.3958399743
 30
0.0
  0
SPLINE
  5
348
100
AcDbEntity
  8
0
100
AcDbSpline
 62
7
  6
BYLAYER
 70
0
 71
3
 72
16
 73
12
 74
0
 42
0.0000001
 43
0.0000001
 44
0.0000000001
 40
0.0
 40
0.0
 40
0.0
 40
0.0
 40
0.3598723869
 40
0.5252434588
 40
0.6731831145
 40
0.7986747151
 40
0.8973189081
 40
0.9352936362
 40
0.9652270523
 40
0.986868348
 40
1.0
 40
1.0
 40
1.0
 40
1.0
 10
47.0803278767
 20
52.3461954863
 30
0.0
 10
47.1293247567
 20
52.3461954863
 30
0.0
 10
47.2008379739
 20
52.3465088852
 30
0.0
 10
47.2924854568
 20
52.3476470909
 30
0.0
 10
47.3522192507
 20
52.3487638677
 30
0.0
 10
47.4028584042
 20
52.3501386827
 30
0.0
 10
47.4385226713
 20
52.3515095485
 30
0.0
 10
47.4611603741
 20
52.3527932327
 30
0.0
 10
47.4733269506
 20
52.3536744748
 30
0.0
 10
47.4820789881
 20
52.354593597
 30
0.0
 10
47.4867840345
 20
52.3552757538
 30
0.0
 10
47.4885059448
 20
52.3557569535
 30
0.0
  0
SPLINE
  5
349
100
AcDbEntity
  8
0
100
AcDbSpline
 62
7
  6
BYLAYER
 70
0
 71
3
 72
9
 73
5
 74
0
 42
0.0000001
 43
0.0000001
 44
0.0000000001
 40
0.0
 40
0.0
 40
0.0
 40
0.0
 40
0.2448130219
 40
1.0
 40
1.0
 40
1.0
 40
1.0
 10
45.6489055967
 20
52.5655893795
 30
0.0
 10
45.6104428719
 20
52.548663778
 30
0.0
 10
45.4534294594
 20
52.479309006
 30
0.0
 10
45.2969062478
 20
52.4088219762
 30
0.0
 10
45.1793672841
 20
52.3541600257
 30
0.0
  0
LINE
  5
34A
100
AcDbEntity
  8
0
100
AcDbLine
 62
7
  6
BYLAYER
 10
13.1888591976
 20
51.8877924155
 11
13.1902831024
 21
51.7826314426
  0
SPLINE
  5
34B
100
AcDbEntity
  8
0
100
AcDbSpline
 62
7
  6
BYLAYER
 70
0
 71
3
 72
9
 73
5
 74
0
 42
0.0000001
 43
0.0000001
 44
0.0000000001
 40
0.0
 40
0.0
 40
0.0
 40
0.0
 40
0.2517981331
 40
1.0
 40
1.0
 40
1.0
 40
1.0
 10
44.9902831024
 20
51.7826314426
 30
0.0
 10
44.9937230532
 20
51.715331903
 30
0.0
 10
45.0074662176
 20
51.4480603067
 30
0.0
 10
45.0213976116
 20
51.1807984381
 30
0.0
 10
45.031850121
 20
50.9808341458
 30
0.0
  0
LINE
  5
34C
100
AcDbEntity
  8
0
100
AcDbLine
 62
7
  6
BYLAYER
 10
44.9888591976
 20
51.8877924155
 11
44.9902831024
 21
51.7826314426
  0
SPLINE
  5
34D
100
AcDbEntity
  8
0
100
AcDbSpline
 62
7
  6
BYLAYER
 70
0
 71
3
 72
9
 73
5
 74
0
 42
0.0000001
 43
0.0000001
 44
0.0000000001
 40
0.0
 40
0.0
 40
0.0
 40
0.0
 40
0.2448130219
 40
1.0
 40
1.0
 40
1.0
 40
1.0
 10
11.830522303
 20
53.1844106205
 30
0.0
 10
11.8689850278
 20
53.201336222
 30
0.0
 10
12.0259984403
 20
53.270690994
 30
0.0
 10
12.1825216518
 20
53.3411780238
 30
0.0
 10
12.3000606156
 20
53.3958399743
 30
0.0
  0
LINE
  5
34E
100
AcDbEntity
  8
0
100
AcDbLine
 62
7
  6
BYLAYER
 10
12.490568702
 20
53.8622075845
 11
12.4891447972
 21
53.9673685574
  0
SPLINE
  5
34F
100
AcDbEntity
  8
0
100
AcDbSpline
 62
7
  6
BYLAYER
 70
0
 71
3
 72
9
 73
5
 74
0
 42
0.0000001
 43
0.0000001
 44
0.0000000001
 40
0.0
 40
0.0
 40
0.0
 40
0.0
 40
0.2517981331
 40
1.0
 40
1.0
 40
1.0
 40
1.0
 10
12.4891447972
 20
53.9673685574
 30
0.0
 10
12.4857048465
 20
54.034668097
 30
0.0
 10
12.471961682
 20
54.3019396933
 30
0.0
 10
12.458030288
 20
54.5692015619
 30
0.0
 10
12.4475777787
 20
54.7691658542
 30
0.0
  0
SPLINE
  5
350
100
AcDbEntity
  8
0
100
AcDbSpline
 62
7
  6
BYLAYER
 70
0
 71
3
 72
9
 73
5
 74
0
 42
0.0000001
 43
0.0000001
 44
0.0000000001
 40
0.0
 40
0.0
 40
0.0
 40
0.0
 40
0.2448971265
 40
1.0
 40
1.0
 40
1.0
 40
1.0
 10
13.1888591604
 20
51.8877924496
 30
0.0
 10
13.2040872982
 20
51.9259940376
 30
0.0
 10
13.2664872491
 20
52.0818962054
 30
0.0
 10
13.3300085281
 20
52.2373587023
 30
0.0
 10
13.3793672841
 20
52.3541600257
 30
0.0
  0
SPLINE
  5
351
100
AcDbEntity
  8
0
100
AcDbSpline
 62
7
  6
BYLAYER
 70
0
 71
3
 72
9
 73
5
 74
0
 42
0.0000001
 43
0.0000001
 44
0.0000000001
 40
0.0
 40
0.0
 40
0.0
 40
0.0
 40
0.244829168
 40
1.0
 40
1.0
 40
1.0
 40
1.0
 10
13.8489055991
 20
53.1844105933
 30
0.0
 10
13.810440337
 20
53.2013373115
 30
0.0
 10
13.6534275156
 20
53.2706934265
 30
0.0
 10
13.4969037368
 20
53.3411791915
 30
0.0
 10
13.3793672841
 20
53.3958399743
 30
0.0
  0
SPLINE
  5
352
100
AcDbEntity
  8
0
100
AcDbSpline
 62
7
  6
BYLAYER
 70
0
 71
3
 72
9
 73
5
 74
0
 42
0.0000001
 43
0.0000001
 44
0.0000000001
 40
0.0
 40
0.0
 40
0.0
 40
0.0
 40
0.2448971265
 40
1.0
 40
1.0
 40
1.0
 40
1.0
 10
12.4905687393
 20
53.8622075504
 30
0.0
 10
12.4753406015
 20
53.8240059624
 30
0.0
 10
12.4129406506
 20
53.6681037946
 30
0.0
 10
12.3494193716
 20
53.5126412977
 30
0.0
 10
12.3000606156
 20
53.3958399743
 30
0.0
  0
SPLINE
  5
353
100
AcDbEntity
  8
0
100
AcDbSpline
 62
7
  6
BYLAYER
 70
0
 71
3
 72
9
 73
5
 74
0
 42
0.0000001
 43
0.0000001
 44
0.0000000001
 40
0.0
 40
0.0
 40
0.0
 40
0.0
 40
0.244829168
 40
1.0
 40
1.0
 40
1.0
 40
1.0
 10
11.8305223006
 20
52.5655894067
 30
0.0
 10
11.8689875627
 20
52.5486626885
 30
0.0
 10
12.0260003841
 20
52.4793065735
 30
0.0
 10
12.1825241629
 20
52.4088208085
 30
0.0
 10
12.3000606156
 20
52.3541600257
 30
0.0
  0
SPLINE
  5
354
100
AcDbEntity
  8
0
100
AcDbSpline
 62
7
  6
BYLAYER
 70
0
 71
3
 72
9
 73
5
 74
0
 42
0.0000001
 43
0.0000001
 44
0.0000000001
 40
0.0
 40
0.0
 40
0.0
 40
0.0
 40
0.2486255926
 40
1.0
 40
1.0
 40
1.0
 40
1.0
 10
12.4475777787
 20
50.9808341458
 30
0.0
 10
12.4510511229
 20
51.0472818073
 30
0.0
 10
12.4650025475
 20
51.3145427213
 30
0.0
 10
12.4788798789
 20
51.5818075685
 30
0.0
 10
12.4891448168
 20
51.7826318366
 30
0.0
  0
LINE
  5
355
100
AcDbEntity
  8
0
100
AcDbLine
 62
7
  6
BYLAYER
 10
12.4891448168
 20
51.7826318366
 11
12.4905687192
 21
51.8877926221
  0
SPLINE
  5
356
100
AcDbEntity
  8
0
100
AcDbSpline
 62
7
  6
BYLAYER
 70
0
 71
3
 72
9
 73
5
 74
0
 42
0.0000001
 43
0.0000001
 44
0.0000000001
 40
0.0
 40
0.0
 40
0.0
 40
0.0
 40
0.2517981331
 40
1.0
 40
1.0
 40
1.0
 40
1.0
 10
13.1902831024
 20
51.7826314426
 30
0.0
 10
13.1937230532
 20
51.715331903
 30
0.0
 10
13.2074662176
 20
51.4480603067
 30
0.0
 10
13.2213976116
 20
51.1807984381
 30
0.0
 10
13.231850121
 20
50.9808341458
 30
0.0
  0
LINE
  5
357
100
AcDbEntity
  8
0
100
AcDbLine
 62
7
  6
BYLAYER
 10
31.1222308943
 20
53.375
 11
31.1909219549
 21
53.3942430465
  0
LINE
  5
358
100
AcDbEntity
  8
0
100
AcDbLine
 62
7
  6
BYLAYER
 10
31.1909219549
 20
52.3557569535
 11
31.1222308943
 21
52.375
  0
LINE
  5
359
100
AcDbEntity
  8
0
100
AcDbLine
 62
7
  6
BYLAYER
 10
36.9571970054
 20
52.375
 11
36.8885059448
 21
52.3557569535
  0
LINE
  5
35A
100
AcDbEntity
  8
0
100
AcDbLine
 62
7
  6
BYLAYER
 10
36.8885059448
 20
53.3942430465
 11
36.9571970054
 21
53.375
  0
LINE
  5
35B
100
AcDbEntity
  8
0
100
AcDbLine
 62
7
  6
BYLAYER
 10
33.6891448168
 20
51.7826318366
 11
33.6905687192
 21
51.8877926221
  0
SPLINE
  5
35C
100
AcDbEntity
  8
0
100
AcDbSpline
 62
7
  6
BYLAYER
 70
0
 71
3
 72
9
 73
5
 74
0
 42
0.0000001
 43
0.0000001
 44
0.0000000001
 40
0.0
 40
0.0
 40
0.0
 40
0.0
 40
0.2486255926
 40
1.0
 40
1.0
 40
1.0
 40
1.0
 10
33.6475777787
 20
50.9808341458
 30
0.0
 10
33.6510511229
 20
51.0472818073
 30
0.0
 10
33.6650025475
 20
51.3145427213
 30
0.0
 10
33.6788798789
 20
51.5818075685
 30
0.0
 10
33.6891448168
 20
51.7826318366
 30
0.0
  0
SPLINE
  5
35D
100
AcDbEntity
  8
0
100
AcDbSpline
 62
7
  6
BYLAYER
 70
0
 71
3
 72
9
 73
5
 74
0
 42
0.0000001
 43
0.0000001
 44
0.0000000001
 40
0.0
 40
0.0
 40
0.0
 40
0.0
 40
0.244829168
 40
1.0
 40
1.0
 40
1.0
 40
1.0
 10
33.0305223006
 20
52.5655894067
 30
0.0
 10
33.0689875627
 20
52.5486626885
 30
0.0
 10
33.2260003841
 20
52.4793065735
 30
0.0
 10
33.3825241629
 20
52.4088208085
 30
0.0
 10
33.5000606156
 20
52.3541600257
 30
0.0
  0
SPLINE
  5
35E
100
AcDbEntity
  8
0
100
AcDbSpline
 62
7
  6
BYLAYER
 70
0
 71
3
 72
9
 73
5
 74
0
 42
0.0000001
 43
0.0000001
 44
0.0000000001
 40
0.0
 40
0.0
 40
0.0
 40
0.0
 40
0.2448971265
 40
1.0
 40
1.0
 40
1.0
 40
1.0
 10
33.6905687393
 20
53.8622075504
 30
0.0
 10
33.6753406015
 20
53.8240059624
 30
0.0
 10
33.6129406506
 20
53.6681037946
 30
0.0
 10
33.5494193716
 20
53.5126412977
 30
0.0
 10
33.5000606156
 20
53.3958399743
 30
0.0
  0
SPLINE
  5
35F
100
AcDbEntity
  8
0
100
AcDbSpline
 62
7
  6
BYLAYER
 70
0
 71
3
 72
9
 73
5
 74
0
 42
0.0000001
 43
0.0000001
 44
0.0000000001
 40
0.0
 40
0.0
 40
0.0
 40
0.0
 40
0.244829168
 40
1.0
 40
1.0
 40
1.0
 40
1.0
 10
35.0489055991
 20
53.1844105933
 30
0.0
 10
35.010440337
 20
53.2013373115
 30
0.0
 10
34.8534275156
 20
53.2706934265
 30
0.0
 10
34.6969037368
 20
53.3411791915
 30
0.0
 10
34.5793672841
 20
53.3958399743
 30
0.0
  0
SPLINE
  5
360
100
AcDbEntity
  8
0
100
AcDbSpline
 62
7
  6
BYLAYER
 70
0
 71
3
 72
9
 73
5
 74
0
 42
0.0000001
 43
0.0000001
 44
0.0000000001
 40
0.0
 40
0.0
 40
0.0
 40
0.0
 40
0.2448971265
 40
1.0
 40
1.0
 40
1.0
 40
1.0
 10
34.3888591604
 20
51.8877924496
 30
0.0
 10
34.4040872982
 20
51.9259940376
 30
0.0
 10
34.4664872491
 20
52.0818962054
 30
0.0
 10
34.5300085281
 20
52.2373587023
 30
0.0
 10
34.5793672841
 20
52.3541600257
 30
0.0
  0
SPLINE
  5
361
100
AcDbEntity
  8
0
100
AcDbSpline
 62
7
  6
BYLAYER
 70
0
 71
3
 72
9
 73
5
 74
0
 42
0.0000001
 43
0.0000001
 44
0.0000000001
 40
0.0
 40
0.0
 40
0.0
 40
0.0
 40
0.2517981331
 40
1.0
 40
1.0
 40
1.0
 40
1.0
 10
33.6891447972
 20
53.9673685574
 30
0.0
 10
33.6857048465
 20
54.034668097
 30
0.0
 10
33.671961682
 20
54.3019396933
 30
0.0
 10
33.658030288
 20
54.5692015619
 30
0.0
 10
33.6475777787
 20
54.7691658542
 30
0.0
  0
LINE
  5
362
100
AcDbEntity
  8
0
100
AcDbLine
 62
7
  6
BYLAYER
 10
33.690568702
 20
53.8622075845
 11
33.6891447972
 21
53.9673685574
  0
SPLINE
  5
363
100
AcDbEntity
  8
0
100
AcDbSpline
 62
7
  6
BYLAYER
 70
0
 71
3
 72
9
 73
5
 74
0
 42
0.0000001
 43
0.0000001
 44
0.0000000001
 40
0.0
 40
0.0
 40
0.0
 40
0.0
 40
0.2448130219
 40
1.0
 40
1.0
 40
1.0
 40
1.0
 10
33.030522303
 20
53.1844106205
 30
0.0
 10
33.0689850278
 20
53.201336222
 30
0.0
 10
33.2259984403
 20
53.270690994
 30
0.0
 10
33.3825216518
 20
53.3411780238
 30
0.0
 10
33.5000606156
 20
53.3958399743
 30
0.0
  0
SPLINE
  5
364
100
AcDbEntity
  8
0
100
AcDbSpline
 62
7
  6
BYLAYER
 70
0
 71
3
 72
13
 73
9
 74
0
 42
0.0000001
 43
0.0000001
 44
0.0000000001
 40
0.0
 40
0.0
 40
0.0
 40
0.0
 40
0.0829675084
 40
0.1858126319
 40
0.3036418252
 40
0.4323025192
 40
0.709985724
 40
1.0
 40
1.0
 40
1.0
 40
1.0
 10
6.3700987076
 20
59.425
 30
0.0
 10
6.3868201211
 20
59.425
 30
0.0
 10
6.4239849271
 20
59.4163407358
 30
0.0
 10
6.4802087888
 20
59.3922619554
 30
0.0
 10
6.5421974128
 20
59.3586493359
 30
0.0
 10
6.63231699
 20
59.3035164335
 30
0.0
 10
6.7485761486
 20
59.2247944244
 30
0.0
 10
6.8419897467
 20
59.1587461077
 30
0.0
 10
6.8897139498
 20
59.125
 30
0.0
  0
SPLINE
  5
365
100
AcDbEntity
  8
0
100
AcDbSpline
 62
7
  6
BYLAYER
 70
0
 71
3
 72
16
 73
12
 74
0
 42
0.0000001
 43
0.0000001
 44
0.0000000001
 40
0.0
 40
0.0
 40
0.0
 40
0.0
 40
0.0131332057
 40
0.0347777636
 40
0.0647140601
 40
0.1026892008
 40
0.2013306208
 40
0.3268152038
 40
0.47474251
 40
0.6401108653
 40
1.0
 40
1.0
 40
1.0
 40
1.0
 10
31.1909219549
 20
52.3557569535
 30
0.0
 10
31.1926440534
 20
52.3552757012
 30
0.0
 10
31.1973497379
 20
52.3545936043
 30
0.0
 10
31.2061027362
 20
52.3536744375
 30
0.0
 10
31.2182700991
 20
52.3527931734
 30
0.0
 10
31.2409076611
 20
52.3515093768
 30
0.0
 10
31.2765703362
 20
52.3501386087
 30
0.0
 10
31.3272060229
 20
52.348763961
 30
0.0
 10
31.3869362728
 20
52.3476471386
 30
0.0
 10
31.478583163
 20
52.3465089816
 30
0.0
 10
31.5500976485
 20
52.3461954863
 30
0.0
 10
31.5990963692
 20
52.3461954863
 30
0.0
  0
SPLINE
  5
366
100
AcDbEntity
  8
0
100
AcDbSpline
 62
7
  6
BYLAYER
 70
0
 71
3
 72
9
 73
5
 74
0
 42
0.0000001
 43
0.0000001
 44
0.0000000001
 40
0.0
 40
0.0
 40
0.0
 40
0.0
 40
0.2448816132
 40
1.0
 40
1.0
 40
1.0
 40
1.0
 10
33.690568692
 20
51.8877924873
 30
0.0
 10
33.6753415205
 20
51.9259916518
 30
0.0
 10
33.6129428768
 20
52.0818943263
 30
0.0
 10
33.5494203809
 20
52.2373563138
 30
0.0
 10
33.5000606156
 20
52.3541600257
 30
0.0
  0
SPLINE
  5
367
100
AcDbEntity
  8
0
100
AcDbSpline
 62
7
  6
BYLAYER
 70
0
 71
3
 72
16
 73
12
 74
0
 42
0.0000001
 43
0.0000001
 44
0.0000000001
 40
0.0
 40
0.0
 40
0.0
 40
0.0
 40
0.3598723869
 40
0.5252434588
 40
0.6731831145
 40
0.7986747151
 40
0.8973189081
 40
0.9352936362
 40
0.9652270523
 40
0.986868348
 40
1.0
 40
1.0
 40
1.0
 40
1.0
 10
31.599100023
 20
53.4038045137
 30
0.0
 10
31.550103143
 20
53.4038045137
 30
0.0
 10
31.4785899258
 20
53.4034911148
 30
0.0
 10
31.3869424429
 20
53.4023529091
 30
0.0
 10
31.327208649
 20
53.4012361323
 30
0.0
 10
31.2765694954
 20
53.3998613173
 30
0.0
 10
31.2409052284
 20
53.3984904515
 30
0.0
 10
31.2182675256
 20
53.3972067673
 30
0.0
 10
31.2061009491
 20
53.3963255252
 30
0.0
 10
31.1973489116
 20
53.395406403
 30
0.0
 10
31.1926438651
 20
53.3947242462
 30
0.0
 10
31.1909219549
 20
53.3942430465
 30
0.0
  0
SPLINE
  5
368
100
AcDbEntity
  8
0
100
AcDbSpline
 62
7
  6
BYLAYER
 70
0
 71
3
 72
16
 73
12
 74
0
 42
0.0000001
 43
0.0000001
 44
0.0000000001
 40
0.0
 40
0.0
 40
0.0
 40
0.0
 40
0.0131332057
 40
0.0347777636
 40
0.0647140601
 40
0.1026892008
 40
0.2013306208
 40
0.3268152038
 40
0.47474251
 40
0.6401108653
 40
1.0
 40
1.0
 40
1.0
 40
1.0
 10
36.8885059448
 20
53.3942430465
 30
0.0
 10
36.8867838463
 20
53.3947242988
 30
0.0
 10
36.8820781618
 20
53.3954063957
 30
0.0
 10
36.8733251635
 20
53.3963255625
 30
0.0
 10
36.8611578006
 20
53.3972068266
 30
0.0
 10
36.8385202386
 20
53.3984906232
 30
0.0
 10
36.8028575635
 20
53.3998613913
 30
0.0
 10
36.7522218768
 20
53.401236039
 30
0.0
 10
36.6924916269
 20
53.4023528614
 30
0.0
 10
36.6008447366
 20
53.4034910184
 30
0.0
 10
36.5293302512
 20
53.4038045137
 30
0.0
 10
36.4803315305
 20
53.4038045137
 30
0.0
  0
LINE
  5
369
100
AcDbEntity
  8
0
100
AcDbLine
 62
7
  6
BYLAYER
 10
34.3902830829
 20
53.9673681634
 11
34.3888591804
 21
53.8622073779
  0
SPLINE
  5
36A
100
AcDbEntity
  8
0
100
AcDbSpline
 62
7
  6
BYLAYER
 70
0
 71
3
 72
9
 73
5
 74
0
 42
0.0000001
 43
0.0000001
 44
0.0000000001
 40
0.0
 40
0.0
 40
0.0
 40
0.0
 40
0.2486255926
 40
1.0
 40
1.0
 40
1.0
 40
1.0
 10
34.431850121
 20
54.7691658542
 30
0.0
 10
34.4283767768
 20
54.7027181927
 30
0.0
 10
34.4144253522
 20
54.4354572787
 30
0.0
 10
34.4005480207
 20
54.1681924315
 30
0.0
 10
34.3902830829
 20
53.9673681634
 30
0.0
  0
SPLINE
  5
36B
100
AcDbEntity
  8
0
100
AcDbSpline
 62
7
  6
BYLAYER
 70
0
 71
3
 72
10
 73
6
 74
0
 42
0.0000001
 43
0.0000001
 44
0.0000000001
 40
0.0
 40
0.0
 40
0.0
 40
0.0
 40
0.5863645511
 40
0.8244955575
 40
1.0
 40
1.0
 40
1.0
 40
1.0
 10
34.4407063502
 20
55.3135461573
 30
0.0
 10
34.4406760151
 20
55.2071232266
 30
0.0
 10
34.4397546195
 20
55.0574726739
 30
0.0
 10
34.4360298208
 20
54.8760156365
 30
0.0
 10
34.4335128874
 20
54.8009758144
 30
0.0
 10
34.431850121
 20
54.7691658542
 30
0.0
  0
SPLINE
  5
36C
100
AcDbEntity
  8
0
100
AcDbSpline
 62
7
  6
BYLAYER
 70
0
 71
3
 72
9
 73
5
 74
0
 42
0.0000001
 43
0.0000001
 44
0.0000000001
 40
0.0
 40
0.0
 40
0.0
 40
0.0
 40
0.2448816132
 40
1.0
 40
1.0
 40
1.0
 40
1.0
 10
34.3888592077
 20
53.8622075127
 30
0.0
 10
34.4040863792
 20
53.8240083482
 30
0.0
 10
34.4664850229
 20
53.6681056737
 30
0.0
 10
34.5300075187
 20
53.5126436862
 30
0.0
 10
34.5793672841
 20
53.3958399743
 30
0.0
  0
SPLINE
  5
36D
100
AcDbEntity
  8
0
100
AcDbSpline
 62
7
  6
BYLAYER
 70
0
 71
3
 72
13
 73
9
 74
0
 42
0.0000001
 43
0.0000001
 44
0.0000000001
 40
0.0
 40
0.0
 40
0.0
 40
0.0
 40
0.0829646436
 40
0.1858011554
 40
0.3036304395
 40
0.4322911362
 40
0.7099799585
 40
1.0
 40
1.0
 40
1.0
 40
1.0
 10
51.1093291921
 20
59.425
 30
0.0
 10
51.0926083716
 20
59.425
 30
0.0
 10
51.0554460661
 20
59.4163403434
 30
0.0
 10
50.9992241317
 20
59.3922633472
 30
0.0
 10
50.9372369305
 20
59.3586517012
 30
0.0
 10
50.8471170039
 20
59.303517313
 30
0.0
 10
50.7308594916
 20
59.2247891062
 30
0.0
 10
50.6374390571
 20
59.1587467469
 30
0.0
 10
50.5897139498
 20
59.125
 30
0.0
  0
SPLINE
  5
36E
100
AcDbEntity
  8
0
100
AcDbSpline
 62
7
  6
BYLAYER
 70
0
 71
3
 72
16
 73
12
 74
0
 42
0.0000001
 43
0.0000001
 44
0.0000000001
 40
0.0
 40
0.0
 40
0.0
 40
0.0
 40
0.3598723869
 40
0.5252434588
 40
0.6731831145
 40
0.7986747151
 40
0.8973189081
 40
0.9352936362
 40
0.9652270523
 40
0.986868348
 40
1.0
 40
1.0
 40
1.0
 40
1.0
 10
36.4803278767
 20
52.3461954863
 30
0.0
 10
36.5293247567
 20
52.3461954863
 30
0.0
 10
36.6008379739
 20
52.3465088852
 30
0.0
 10
36.6924854568
 20
52.3476470909
 30
0.0
 10
36.7522192507
 20
52.3487638677
 30
0.0
 10
36.8028584042
 20
52.3501386827
 30
0.0
 10
36.8385226713
 20
52.3515095485
 30
0.0
 10
36.8611603741
 20
52.3527932327
 30
0.0
 10
36.8733269506
 20
52.3536744748
 30
0.0
 10
36.8820789881
 20
52.354593597
 30
0.0
 10
36.8867840345
 20
52.3552757538
 30
0.0
 10
36.8885059448
 20
52.3557569535
 30
0.0
  0
SPLINE
  5
36F
100
AcDbEntity
  8
0
100
AcDbSpline
 62
7
  6
BYLAYER
 70
0
 71
3
 72
9
 73
5
 74
0
 42
0.0000001
 43
0.0000001
 44
0.0000000001
 40
0.0
 40
0.0
 40
0.0
 40
0.0
 40
0.2448130219
 40
1.0
 40
1.0
 40
1.0
 40
1.0
 10
35.0489055967
 20
52.5655893795
 30
0.0
 10
35.0104428719
 20
52.548663778
 30
0.0
 10
34.8534294594
 20
52.479309006
 30
0.0
 10
34.6969062478
 20
52.4088219762
 30
0.0
 10
34.5793672841
 20
52.3541600257
 30
0.0
  0
LINE
  5
370
100
AcDbEntity
  8
0
100
AcDbLine
 62
7
  6
BYLAYER
 10
15.6885059448
 20
53.3942430465
 11
15.7571970054
 21
53.375
  0
LINE
  5
371
100
AcDbEntity
  8
0
100
AcDbLine
 62
7
  6
BYLAYER
 10
15.7571970054
 20
52.375
 11
15.6885059448
 21
52.3557569535
  0
LINE
  5
372
100
AcDbEntity
  8
0
100
AcDbLine
 62
7
  6
BYLAYER
 10
9.9909219549
 20
52.3557569535
 11
9.9222308943
 21
52.375
  0
SPLINE
  5
373
100
AcDbEntity
  8
0
100
AcDbSpline
 62
7
  6
BYLAYER
 70
0
 71
3
 72
9
 73
5
 74
0
 42
0.0000001
 43
0.0000001
 44
0.0000000001
 40
0.0
 40
0.0
 40
0.0
 40
0.0
 40
0.2517981331
 40
1.0
 40
1.0
 40
1.0
 40
1.0
 10
34.3902831024
 20
51.7826314426
 30
0.0
 10
34.3937230532
 20
51.715331903
 30
0.0
 10
34.4074662176
 20
51.4480603067
 30
0.0
 10
34.4213976116
 20
51.1807984381
 30
0.0
 10
34.431850121
 20
50.9808341458
 30
0.0
  0
LINE
  5
374
100
AcDbEntity
  8
0
100
AcDbLine
 62
7
  6
BYLAYER
 10
34.3888591976
 20
51.8877924155
 11
34.3902831024
 21
51.7826314426
  0
LINE
  5
375
100
AcDbEntity
  8
0
100
AcDbLine
 62
7
  6
BYLAYER
 10
9.9222308943
 20
53.375
 11
9.9909219549
 21
53.3942430465
  0
SPLINE
  5
376
100
AcDbEntity
  8
0
100
AcDbSpline
 62
7
  6
BYLAYER
 70
0
 71
3
 72
9
 73
5
 74
0
 42
0.0000001
 43
0.0000001
 44
0.0000000001
 40
0.0
 40
0.0
 40
0.0
 40
0.0
 40
0.2448816132
 40
1.0
 40
1.0
 40
1.0
 40
1.0
 10
13.1888592077
 20
53.8622075127
 30
0.0
 10
13.2040863792
 20
53.8240083482
 30
0.0
 10
13.2664850229
 20
53.6681056737
 30
0.0
 10
13.3300075187
 20
53.5126436862
 30
0.0
 10
13.3793672841
 20
53.3958399743
 30
0.0
  0
SPLINE
  5
377
100
AcDbEntity
  8
0
100
AcDbSpline
 62
7
  6
BYLAYER
 70
0
 71
3
 72
10
 73
6
 74
0
 42
0.0000001
 43
0.0000001
 44
0.0000000001
 40
0.0
 40
0.0
 40
0.0
 40
0.0
 40
0.5863645511
 40
0.8244955575
 40
1.0
 40
1.0
 40
1.0
 40
1.0
 10
13.2407063502
 20
55.3135461573
 30
0.0
 10
13.2406760151
 20
55.2071232266
 30
0.0
 10
13.2397546195
 20
55.0574726739
 30
0.0
 10
13.2360298208
 20
54.8760156365
 30
0.0
 10
13.2335128874
 20
54.8009758144
 30
0.0
 10
13.231850121
 20
54.7691658542
 30
0.0
  0
LINE
  5
378
100
AcDbEntity
  8
0
100
AcDbLine
 62
7
  6
BYLAYER
 10
23.7888591976
 20
51.8877924155
 11
23.7902831024
 21
51.7826314426
  0
SPLINE
  5
379
100
AcDbEntity
  8
0
100
AcDbSpline
 62
7
  6
BYLAYER
 70
0
 71
3
 72
9
 73
5
 74
0
 42
0.0000001
 43
0.0000001
 44
0.0000000001
 40
0.0
 40
0.0
 40
0.0
 40
0.0
 40
0.2517981331
 40
1.0
 40
1.0
 40
1.0
 40
1.0
 10
23.7902831024
 20
51.7826314426
 30
0.0
 10
23.7937230532
 20
51.715331903
 30
0.0
 10
23.8074662176
 20
51.4480603067
 30
0.0
 10
23.8213976116
 20
51.1807984381
 30
0.0
 10
23.831850121
 20
50.9808341458
 30
0.0
  0
SPLINE
  5
37A
100
AcDbEntity
  8
0
100
AcDbSpline
 62
7
  6
BYLAYER
 70
0
 71
3
 72
10
 73
6
 74
0
 42
0.0000001
 43
0.0000001
 44
0.0000000001
 40
0.0
 40
0.0
 40
0.0
 40
0.0
 40
0.1755056294
 40
0.4136343364
 40
1.0
 40
1.0
 40
1.0
 40
1.0
 10
23.831850121
 20
50.9808341458
 30
0.0
 10
23.833512898
 20
50.9490239814
 30
0.0
 10
23.8360298177
 20
50.8739843866
 30
0.0
 10
23.839754615
 20
50.6925274117
 30
0.0
 10
23.840676015
 20
50.5428771257
 30
0.0
 10
23.8407063502
 20
50.4364540296
 30
0.0
  0
SPLINE
  5
37B
100
AcDbEntity
  8
0
100
AcDbSpline
 62
7
  6
BYLAYER
 70
0
 71
3
 72
9
 73
5
 74
0
 42
0.0000001
 43
0.0000001
 44
0.0000000001
 40
0.0
 40
0.0
 40
0.0
 40
0.0
 40
0.2486255926
 40
1.0
 40
1.0
 40
1.0
 40
1.0
 10
13.231850121
 20
54.7691658542
 30
0.0
 10
13.2283767768
 20
54.7027181927
 30
0.0
 10
13.2144253522
 20
54.4354572788
 30
0.0
 10
13.2005480207
 20
54.1681924315
 30
0.0
 10
13.1902830829
 20
53.9673681634
 30
0.0
  0
SPLINE
  5
37C
100
AcDbEntity
  8
0
100
AcDbSpline
 62
7
  6
BYLAYER
 70
0
 71
3
 72
9
 73
5
 74
0
 42
0.0000001
 43
0.0000001
 44
0.0000000001
 40
0.0
 40
0.0
 40
0.0
 40
0.0
 40
0.2448130219
 40
1.0
 40
1.0
 40
1.0
 40
1.0
 10
24.4489055967
 20
52.5655893795
 30
0.0
 10
24.4104428719
 20
52.548663778
 30
0.0
 10
24.2534294594
 20
52.479309006
 30
0.0
 10
24.0969062478
 20
52.4088219762
 30
0.0
 10
23.9793672841
 20
52.3541600257
 30
0.0
  0
LINE
  5
37D
100
AcDbEntity
  8
0
100
AcDbLine
 62
7
  6
BYLAYER
 10
13.1902830829
 20
53.9673681634
 11
13.1888591804
 21
53.8622073779
  0
SPLINE
  5
37E
100
AcDbEntity
  8
0
100
AcDbSpline
 62
7
  6
BYLAYER
 70
0
 71
3
 72
16
 73
12
 74
0
 42
0.0000001
 43
0.0000001
 44
0.0000000001
 40
0.0
 40
0.0
 40
0.0
 40
0.0
 40
0.3598723869
 40
0.5252434588
 40
0.6731831145
 40
0.7986747151
 40
0.8973189081
 40
0.9352936362
 40
0.9652270523
 40
0.986868348
 40
1.0
 40
1.0
 40
1.0
 40
1.0
 10
25.8803278767
 20
52.3461954863
 30
0.0
 10
25.9293247567
 20
52.3461954863
 30
0.0
 10
26.0008379739
 20
52.3465088852
 30
0.0
 10
26.0924854568
 20
52.3476470909
 30
0.0
 10
26.1522192507
 20
52.3487638677
 30
0.0
 10
26.2028584042
 20
52.3501386827
 30
0.0
 10
26.2385226713
 20
52.3515095485
 30
0.0
 10
26.2611603741
 20
52.3527932327
 30
0.0
 10
26.2733269506
 20
52.3536744748
 30
0.0
 10
26.2820789881
 20
52.354593597
 30
0.0
 10
26.2867840345
 20
52.3552757538
 30
0.0
 10
26.2885059448
 20
52.3557569535
 30
0.0
  0
LINE
  5
37F
100
AcDbEntity
  8
0
100
AcDbLine
 62
7
  6
BYLAYER
 10
20.5222308943
 20
53.375
 11
20.5909219549
 21
53.3942430465
  0
LINE
  5
380
100
AcDbEntity
  8
0
100
AcDbLine
 62
7
  6
BYLAYER
 10
20.5909219549
 20
52.3557569535
 11
20.5222308943
 21
52.375
  0
LINE
  5
381
100
AcDbEntity
  8
0
100
AcDbLine
 62
7
  6
BYLAYER
 10
26.3571970054
 20
52.375
 11
26.2885059448
 21
52.3557569535
  0
LINE
  5
382
100
AcDbEntity
  8
0
100
AcDbLine
 62
7
  6
BYLAYER
 10
26.2885059448
 20
53.3942430465
 11
26.3571970054
 21
53.375
  0
LINE
  5
383
100
AcDbEntity
  8
0
100
AcDbLine
 62
7
  6
BYLAYER
 10
23.0891448168
 20
51.7826318366
 11
23.0905687192
 21
51.8877926221
  0
SPLINE
  5
384
100
AcDbEntity
  8
0
100
AcDbSpline
 62
7
  6
BYLAYER
 70
0
 71
3
 72
9
 73
5
 74
0
 42
0.0000001
 43
0.0000001
 44
0.0000000001
 40
0.0
 40
0.0
 40
0.0
 40
0.0
 40
0.2486255926
 40
1.0
 40
1.0
 40
1.0
 40
1.0
 10
23.0475777787
 20
50.9808341458
 30
0.0
 10
23.0510511229
 20
51.0472818073
 30
0.0
 10
23.0650025475
 20
51.3145427213
 30
0.0
 10
23.0788798789
 20
51.5818075685
 30
0.0
 10
23.0891448168
 20
51.7826318366
 30
0.0
  0
SPLINE
  5
385
100
AcDbEntity
  8
0
100
AcDbSpline
 62
7
  6
BYLAYER
 70
0
 71
3
 72
10
 73
6
 74
0
 42
0.0000001
 43
0.0000001
 44
0.0000000001
 40
0.0
 40
0.0
 40
0.0
 40
0.0
 40
0.5863646063
 40
0.8244955517
 40
1.0
 40
1.0
 40
1.0
 40
1.0
 10
23.03872155
 20
50.4364558175
 30
0.0
 10
23.0387518851
 20
50.5428783723
 30
0.0
 10
23.0396732967
 20
50.6925283811
 30
0.0
 10
23.0433980903
 20
50.8739847602
 30
0.0
 10
23.0459150183
 20
50.9490242999
 30
0.0
 10
23.0475777787
 20
50.9808341458
 30
0.0
  0
SPLINE
  5
386
100
AcDbEntity
  8
0
100
AcDbSpline
 62
7
  6
BYLAYER
 70
0
 71
3
 72
9
 73
5
 74
0
 42
0.0000001
 43
0.0000001
 44
0.0000000001
 40
0.0
 40
0.0
 40
0.0
 40
0.0
 40
0.244829168
 40
1.0
 40
1.0
 40
1.0
 40
1.0
 10
22.4305223006
 20
52.5655894067
 30
0.0
 10
22.4689875627
 20
52.5486626885
 30
0.0
 10
22.6260003841
 20
52.4793065735
 30
0.0
 10
22.7825241629
 20
52.4088208085
 30
0.0
 10
22.9000606156
 20
52.3541600257
 30
0.0
  0
SPLINE
  5
387
100
AcDbEntity
  8
0
100
AcDbSpline
 62
7
  6
BYLAYER
 70
0
 71
3
 72
9
 73
5
 74
0
 42
0.0000001
 43
0.0000001
 44
0.0000000001
 40
0.0
 40
0.0
 40
0.0
 40
0.0
 40
0.2448971265
 40
1.0
 40
1.0
 40
1.0
 40
1.0
 10
23.0905687393
 20
53.8622075504
 30
0.0
 10
23.0753406015
 20
53.8240059624
 30
0.0
 10
23.0129406506
 20
53.6681037946
 30
0.0
 10
22.9494193716
 20
53.5126412977
 30
0.0
 10
22.9000606156
 20
53.3958399743
 30
0.0
  0
SPLINE
  5
388
100
AcDbEntity
  8
0
100
AcDbSpline
 62
7
  6
BYLAYER
 70
0
 71
3
 72
9
 73
5
 74
0
 42
0.0000001
 43
0.0000001
 44
0.0000000001
 40
0.0
 40
0.0
 40
0.0
 40
0.0
 40
0.244829168
 40
1.0
 40
1.0
 40
1.0
 40
1.0
 10
24.4489055991
 20
53.1844105933
 30
0.0
 10
24.410440337
 20
53.2013373115
 30
0.0
 10
24.2534275156
 20
53.2706934265
 30
0.0
 10
24.0969037368
 20
53.3411791915
 30
0.0
 10
23.9793672841
 20
53.3958399743
 30
0.0
  0
SPLINE
  5
389
100
AcDbEntity
  8
0
100
AcDbSpline
 62
7
  6
BYLAYER
 70
0
 71
3
 72
9
 73
5
 74
0
 42
0.0000001
 43
0.0000001
 44
0.0000000001
 40
0.0
 40
0.0
 40
0.0
 40
0.0
 40
0.2448971265
 40
1.0
 40
1.0
 40
1.0
 40
1.0
 10
23.7888591604
 20
51.8877924496
 30
0.0
 10
23.8040872982
 20
51.9259940376
 30
0.0
 10
23.8664872491
 20
52.0818962054
 30
0.0
 10
23.9300085281
 20
52.2373587023
 30
0.0
 10
23.9793672841
 20
52.3541600257
 30
0.0
  0
SPLINE
  5
38A
100
AcDbEntity
  8
0
100
AcDbSpline
 62
7
  6
BYLAYER
 70
0
 71
3
 72
10
 73
6
 74
0
 42
0.0000001
 43
0.0000001
 44
0.0000000001
 40
0.0
 40
0.0
 40
0.0
 40
0.0
 40
0.1755056205
 40
0.4136343699
 40
1.0
 40
1.0
 40
1.0
 40
1.0
 10
23.0475777787
 20
54.7691658542
 30
0.0
 10
23.0459149975
 20
54.8009760981
 30
0.0
 10
23.043398074
 20
54.8760158904
 30
0.0
 10
23.039673273
 20
55.0574733281
 30
0.0
 10
23.0387518844
 20
55.2071239973
 30
0.0
 10
23.0387215491
 20
55.3135473586
 30
0.0
  0
SPLINE
  5
38B
100
AcDbEntity
  8
0
100
AcDbSpline
 62
7
  6
BYLAYER
 70
0
 71
3
 72
9
 73
5
 74
0
 42
0.0000001
 43
0.0000001
 44
0.0000000001
 40
0.0
 40
0.0
 40
0.0
 40
0.0
 40
0.2517981331
 40
1.0
 40
1.0
 40
1.0
 40
1.0
 10
23.0891447972
 20
53.9673685574
 30
0.0
 10
23.0857048465
 20
54.034668097
 30
0.0
 10
23.071961682
 20
54.3019396933
 30
0.0
 10
23.058030288
 20
54.5692015619
 30
0.0
 10
23.0475777787
 20
54.7691658542
 30
0.0
  0
LINE
  5
38C
100
AcDbEntity
  8
0
100
AcDbLine
 62
7
  6
BYLAYER
 10
23.090568702
 20
53.8622075845
 11
23.0891447972
 21
53.9673685574
  0
SPLINE
  5
38D
100
AcDbEntity
  8
0
100
AcDbSpline
 62
7
  6
BYLAYER
 70
0
 71
3
 72
9
 73
5
 74
0
 42
0.0000001
 43
0.0000001
 44
0.0000000001
 40
0.0
 40
0.0
 40
0.0
 40
0.0
 40
0.2448130219
 40
1.0
 40
1.0
 40
1.0
 40
1.0
 10
22.430522303
 20
53.1844106205
 30
0.0
 10
22.4689850278
 20
53.201336222
 30
0.0
 10
22.6259984403
 20
53.270690994
 30
0.0
 10
22.7825216518
 20
53.3411780238
 30
0.0
 10
22.9000606156
 20
53.3958399743
 30
0.0
  0
SPLINE
  5
38E
100
AcDbEntity
  8
0
100
AcDbSpline
 62
7
  6
BYLAYER
 70
0
 71
3
 72
16
 73
12
 74
0
 42
0.0000001
 43
0.0000001
 44
0.0000000001
 40
0.0
 40
0.0
 40
0.0
 40
0.0
 40
0.0131332057
 40
0.0347777636
 40
0.0647140601
 40
0.1026892008
 40
0.2013306208
 40
0.3268152038
 40
0.47474251
 40
0.6401108653
 40
1.0
 40
1.0
 40
1.0
 40
1.0
 10
20.5909219549
 20
52.3557569535
 30
0.0
 10
20.5926440534
 20
52.3552757012
 30
0.0
 10
20.5973497379
 20
52.3545936043
 30
0.0
 10
20.6061027362
 20
52.3536744375
 30
0.0
 10
20.6182700991
 20
52.3527931734
 30
0.0
 10
20.6409076611
 20
52.3515093768
 30
0.0
 10
20.6765703362
 20
52.3501386087
 30
0.0
 10
20.7272060229
 20
52.348763961
 30
0.0
 10
20.7869362728
 20
52.3476471386
 30
0.0
 10
20.878583163
 20
52.3465089816
 30
0.0
 10
20.9500976485
 20
52.3461954863
 30
0.0
 10
20.9990963692
 20
52.3461954863
 30
0.0
  0
SPLINE
  5
38F
100
AcDbEntity
  8
0
100
AcDbSpline
 62
7
  6
BYLAYER
 70
0
 71
3
 72
16
 73
12
 74
0
 42
0.0000001
 43
0.0000001
 44
0.0000000001
 40
0.0
 40
0.0
 40
0.0
 40
0.0
 40
0.0131332057
 40
0.0347777636
 40
0.0647140601
 40
0.1026892008
 40
0.2013306208
 40
0.3268152038
 40
0.47474251
 40
0.6401108653
 40
1.0
 40
1.0
 40
1.0
 40
1.0
 10
15.6885059448
 20
53.3942430465
 30
0.0
 10
15.6867838463
 20
53.3947242988
 30
0.0
 10
15.6820781618
 20
53.3954063957
 30
0.0
 10
15.6733251635
 20
53.3963255625
 30
0.0
 10
15.6611578006
 20
53.3972068266
 30
0.0
 10
15.6385202386
 20
53.3984906232
 30
0.0
 10
15.6028575635
 20
53.3998613913
 30
0.0
 10
15.5522218768
 20
53.401236039
 30
0.0
 10
15.4924916269
 20
53.4023528614
 30
0.0
 10
15.4008447366
 20
53.4034910184
 30
0.0
 10
15.3293302512
 20
53.4038045137
 30
0.0
 10
15.2803315305
 20
53.4038045137
 30
0.0
  0
SPLINE
  5
390
100
AcDbEntity
  8
0
100
AcDbSpline
 62
7
  6
BYLAYER
 70
0
 71
3
 72
9
 73
5
 74
0
 42
0.0000001
 43
0.0000001
 44
0.0000000001
 40
0.0
 40
0.0
 40
0.0
 40
0.0
 40
0.2448816132
 40
1.0
 40
1.0
 40
1.0
 40
1.0
 10
23.7888592077
 20
53.8622075127
 30
0.0
 10
23.8040863792
 20
53.8240083482
 30
0.0
 10
23.8664850229
 20
53.6681056737
 30
0.0
 10
23.9300075187
 20
53.5126436862
 30
0.0
 10
23.9793672841
 20
53.3958399743
 30
0.0
  0
SPLINE
  5
391
100
AcDbEntity
  8
0
100
AcDbSpline
 62
7
  6
BYLAYER
 70
0
 71
3
 72
9
 73
5
 74
0
 42
0.0000001
 43
0.0000001
 44
0.0000000001
 40
0.0
 40
0.0
 40
0.0
 40
0.0
 40
0.2448816132
 40
1.0
 40
1.0
 40
1.0
 40
1.0
 10
23.090568692
 20
51.8877924873
 30
0.0
 10
23.0753415205
 20
51.9259916518
 30
0.0
 10
23.0129428768
 20
52.0818943263
 30
0.0
 10
22.9494203809
 20
52.2373563138
 30
0.0
 10
22.9000606156
 20
52.3541600257
 30
0.0
  0
SPLINE
  5
392
100
AcDbEntity
  8
0
100
AcDbSpline
 62
7
  6
BYLAYER
 70
0
 71
3
 72
16
 73
12
 74
0
 42
0.0000001
 43
0.0000001
 44
0.0000000001
 40
0.0
 40
0.0
 40
0.0
 40
0.0
 40
0.3598723869
 40
0.5252434588
 40
0.6731831145
 40
0.7986747151
 40
0.8973189081
 40
0.9352936362
 40
0.9652270523
 40
0.986868348
 40
1.0
 40
1.0
 40
1.0
 40
1.0
 10
20.999100023
 20
53.4038045137
 30
0.0
 10
20.950103143
 20
53.4038045137
 30
0.0
 10
20.8785899258
 20
53.4034911148
 30
0.0
 10
20.7869424429
 20
53.4023529091
 30
0.0
 10
20.727208649
 20
53.4012361323
 30
0.0
 10
20.6765694954
 20
53.3998613173
 30
0.0
 10
20.6409052284
 20
53.3984904515
 30
0.0
 10
20.6182675256
 20
53.3972067673
 30
0.0
 10
20.6061009491
 20
53.3963255252
 30
0.0
 10
20.5973489116
 20
53.395406403
 30
0.0
 10
20.5926438651
 20
53.3947242462
 30
0.0
 10
20.5909219549
 20
53.3942430465
 30
0.0
  0
SPLINE
  5
393
100
AcDbEntity
  8
0
100
AcDbSpline
 62
7
  6
BYLAYER
 70
0
 71
3
 72
16
 73
12
 74
0
 42
0.0000001
 43
0.0000001
 44
0.0000000001
 40
0.0
 40
0.0
 40
0.0
 40
0.0
 40
0.0131332057
 40
0.0347777636
 40
0.0647140601
 40
0.1026892008
 40
0.2013306208
 40
0.3268152038
 40
0.47474251
 40
0.6401108653
 40
1.0
 40
1.0
 40
1.0
 40
1.0
 10
26.2885059448
 20
53.3942430465
 30
0.0
 10
26.2867838463
 20
53.3947242988
 30
0.0
 10
26.2820781618
 20
53.3954063957
 30
0.0
 10
26.2733251635
 20
53.3963255625
 30
0.0
 10
26.2611578006
 20
53.3972068266
 30
0.0
 10
26.2385202386
 20
53.3984906232
 30
0.0
 10
26.2028575635
 20
53.3998613913
 30
0.0
 10
26.1522218768
 20
53.401236039
 30
0.0
 10
26.0924916269
 20
53.4023528614
 30
0.0
 10
26.0008447366
 20
53.4034910184
 30
0.0
 10
25.9293302512
 20
53.4038045137
 30
0.0
 10
25.8803315305
 20
53.4038045137
 30
0.0
  0
LINE
  5
394
100
AcDbEntity
  8
0
100
AcDbLine
 62
7
  6
BYLAYER
 10
23.7902830829
 20
53.9673681634
 11
23.7888591804
 21
53.8622073779
  0
SPLINE
  5
395
100
AcDbEntity
  8
0
100
AcDbSpline
 62
7
  6
BYLAYER
 70
0
 71
3
 72
9
 73
5
 74
0
 42
0.0000001
 43
0.0000001
 44
0.0000000001
 40
0.0
 40
0.0
 40
0.0
 40
0.0
 40
0.2486255926
 40
1.0
 40
1.0
 40
1.0
 40
1.0
 10
23.831850121
 20
54.7691658542
 30
0.0
 10
23.8283767768
 20
54.7027181927
 30
0.0
 10
23.8144253522
 20
54.4354572787
 30
0.0
 10
23.8005480207
 20
54.1681924315
 30
0.0
 10
23.7902830829
 20
53.9673681634
 30
0.0
  0
SPLINE
  5
396
100
AcDbEntity
  8
0
100
AcDbSpline
 62
7
  6
BYLAYER
 70
0
 71
3
 72
10
 73
6
 74
0
 42
0.0000001
 43
0.0000001
 44
0.0000000001
 40
0.0
 40
0.0
 40
0.0
 40
0.0
 40
0.5863645511
 40
0.8244955575
 40
1.0
 40
1.0
 40
1.0
 40
1.0
 10
23.8407063502
 20
55.3135461573
 30
0.0
 10
23.8406760151
 20
55.2071232266
 30
0.0
 10
23.8397546195
 20
55.0574726739
 30
0.0
 10
23.8360298208
 20
54.8760156365
 30
0.0
 10
23.8335128874
 20
54.8009758144
 30
0.0
 10
23.831850121
 20
54.7691658542
 30
0.0
  0
ENDSEC
  0
SECTION
  2
OBJECTS
  0
DICTIONARY
  5
C
100
AcDbDictionary
280
0
281
1
  3
ACAD_GROUP
350
D
  3
ACAD_MLINESTYLE
350
17
  3
ACAD_LAYOUT
350
1A
  3
ACAD_PLOTSETTINGS
350
19
  3
ACAD_PLOTSTYLENAME
350
E
  0
DICTIONARY
  5
D
102
{ACAD_REACTORS
330
C
102
}
100
AcDbDictionary
280
0
281
1
  0
ACDBDICTIONARYWDFLT
  5
E
102
{ACAD_REACTORS
330
C
102
}
100
AcDbDictionary
281
1
  3
Normal
350
F
100
AcDbDictionaryWithDefault
340
F
  0
DICTIONARY
  5
17
102
{ACAD_REACTORS
330
C
102
}
100
AcDbDictionary
280
0
281
1
  3
Standard
350
18
  0
DICTIONARY
  5
19
102
{ACAD_REACTORS
330
C
102
}
100
AcDbDictionary
281
1
  0
DICTIONARY
  5
1A
102
{ACAD_REACTORS
330
C
102
}
100
AcDbDictionary
281
1
  3
Model
350
397
  3
Layout1
350
398
  0
ACDBPLACEHOLDER
  5
F
102
{ACAD_REACTORS
330
E
102
}
  0
MLINESTYLE
  5
18
102
{ACAD_REACTORS
330
17
102
}
100
AcDbMlineStyle
  2
STANDARD
 70
0
  3

 62
256
 51
90.0
 52
90.0
 71
2
 49
0.5
 62
256
  6
BYLAYER
 49
-0.5
 62
256
  6
BYLAYER
  0
LAYOUT
  5
397
102
{ACAD_REACTORS
330
1A
102
}
100
AcDbPlotSettings
  1

  2
none_device
  4

  6

 40
0.0
 41
0.0
 42
0.0
 43
0.0
 44
210.0
 45
297.0
 46
0.0
 47
0.0
 48
0.0
 49
0.0
140
0.0
141
0.0
142
1.0
143
1.0
 70
1024
 72
1
 73
0
 74
0
  7

 75
0
147
1.0
148
0.0
149
0.0
100
AcDbLayout
  1
Model
 70
0
 71
0
 10
0.0
 20
0.0
 11
210.0
 21
297.0
 12
0.0
 22
0.0
 32
0.0
 14
0.0
 24
0.0
 34
0.0
 15
0.0
 25
0.0
 35
0.0
146
0.0
 13
0.0
 23
0.0
 33
0.0
 16
1.0
 26
0.0
 36
0.0
 17
0.0
 27
1.0
 37
0.0
 76
0
330
210
345
0
346
0
  0
LAYOUT
  5
398
102
{ACAD_REACTORS
330
1A
102
}
100
AcDbPlotSettings
  1

  2
none_device
  4

  6

 40
0.0
 41
0.0
 42
0.0
 43
0.0
 44
210.0
 45
297.0
 46
0.0
 47
0.0
 48
0.0
 49
0.0
140
0.0
141
0.0
142
1.0
143
1.0
 70
0
 72
1
 73
0
 74
0
  7

 75
0
147
1.0
148
0.0
149
0.0
100
AcDbLayout
  1
Layout1
 70
0
 71
1
 10
0.0
 20
0.0
 11
210.0
 21
297.0
 12
0.0
 22
0.0
 32
0.0
 14
0.0
 24
0.0
 34
0.0
 15
0.0
 25
0.0
 35
0.0
146
0.0
 13
0.0
 23
0.0
 33
0.0
 16
1.0
 26
0.0
 36
0.0
 17
0.0
 27
1.0
 37
0.0
 76
0
330
211
345
0
346
0
  0
ENDSEC
  0
EOF
