999
DXF file: C:\Users\sesa63760\Dev\_Creo\CAD\MCADID0003704_3D-CAD\drw0001_6.dxf
999
Pro/ENGINEER 2019471 by Parametric Technology Corporation
  0
SECTION
  2
HEADER
  9
$ACADVER
  1
AC1024
  9
$DWGCODEPAGE
  3
ANSI_1252
  9
$EXTMAX
 10
69.523462193
 20
98.3260393873
 30
0.0
  9
$EXTMIN
 10
0.0
 20
0.0
 30
0.0
  9
$LIMMIN
 10
0.0
 20
0.0
  9
$LIMMAX
 10
69.523462193
 20
98.3260393873
  9
$VIEWCTR
 10
34.7617310965
 20
49.1630196937
  9
$VIEWSIZE
 40
98.3260393873
  9
$CLAYER
  8
0
  9
$LTSCALE
 40
6.409401086
  9
$CELTYPE
  6
BYLAYER
  9
$DIMSCALE
 40
1.0
  9
$DIMASZ
 40
0.8276602642
  9
$DIMEXO
 40
1.0
  9
$DIMDLI
 40
4.4283134776
  9
$DIMEXE
 40
1.0
  9
$DIMCEN
 40
1.0488110868
  9
$DIMLFAC
 40
1.0
  9
$DIMBLK
  1
_FILLED
  9
$DIMALT
 70
0
  9
$DIMALTF
 40
0.0393700787
  9
$DIMTXT
 40
1.1587243699
  9
$DIMTOL
 70
1
  9
$DIMLIM
 70
0
  9
$DIMTFAC
 40
1.0
  9
$DIMTP
 40
0.01
  9
$DIMTM
 40
0.01
  9
$DIMGAP
 40
0.625
  9
$DIMDSEP
 70
46
  9
$AUNITS
 70
0
  9
$PDMODE
 70
3
  9
$PDSIZE
 40
0.3125
  9
$HANDSEED
  5
279
  9
$TILEMODE
 70
1
  9
$MEASUREMENT
 70
1
  9
$INSUNITS
 70
4
  0
ENDSEC
  0
SECTION
  2
CLASSES
  0
CLASS
  1
ACDBDICTIONARYWDFLT
  2
AcDbDictionaryWithDefault
  3
AutoCAD 2000
 90
0
 91
1
280
0
281
0
  0
CLASS
  1
ACDBPLACEHOLDER
  2
AcDbPlaceHolder
  3
AutoCAD 2000
 90
0
 91
1
280
0
281
0
  0
CLASS
  1
LAYOUT
  2
AcDbLayout
  3
AutoCAD 2000
 90
0
 91
0
280
0
281
0
  0
ENDSEC
  0
SECTION
  2
TABLES
  0
TABLE
  2
VPORT
  5
8
100
AcDbSymbolTable
 70
2
  0
VPORT
  5
1F4
100
AcDbSymbolTableRecord
100
AcDbViewportTableRecord
  2
*ACTIVE
 70
0
 10
0.0
 20
0.0
 11
1.0
 21
1.0
 12
34.7617310965
 22
49.1630196937
 13
0.0
 23
0.0
 14
1.0
 24
1.0
 15
0.0
 25
0.0
 16
0.0
 26
0.0
 36
1.0
 17
0.0
 27
0.0
 37
0.0
 40
98.3260393873
 41
0.7070707071
 42
50.0
 43
0.0
 44
0.0
 50
0.0
 51
0.0
 71
0
 72
100
 73
1
 74
1
 75
0
 76
0
 77
0
 78
0
  0
ENDTAB
  0
TABLE
  2
LTYPE
  5
5
100
AcDbSymbolTable
 70
6
  0
LTYPE
  5
14
100
AcDbSymbolTableRecord
100
AcDbLinetypeTableRecord
  2
BYBLOCK
 70
0
  3

 72
65
 73
0
 40
0.0
  0
LTYPE
  5
15
100
AcDbSymbolTableRecord
100
AcDbLinetypeTableRecord
  2
BYLAYER
 70
0
  3

 72
65
 73
0
 40
0.0
  0
LTYPE
  5
16
100
AcDbSymbolTableRecord
100
AcDbLinetypeTableRecord
  2
CONTINUOUS
 70
64
  3
Solid line
 72
65
 73
0
 40
0.0
  0
LTYPE
  5
1F5
100
AcDbSymbolTableRecord
100
AcDbLinetypeTableRecord
  2
CENTER
 70
64
  3
____ _ ____ _ ____ _ ____ _ ____ _ ____ _ ____
 72
65
 73
4
 40
0.6
 49
0.375
 74
0
 49
-0.075
 74
0
 49
0.075
 74
0
 49
-0.075
 74
0
  0
LTYPE
  5
1F6
100
AcDbSymbolTableRecord
100
AcDbLinetypeTableRecord
  2
HIDDEN
 70
64
  3
- - - - - - - - - - - - - - - - - - - -
 72
65
 73
2
 40
0.2
 49
0.1
 74
0
 49
-0.1
 74
0
  0
LTYPE
  5
1F7
100
AcDbSymbolTableRecord
100
AcDbLinetypeTableRecord
  2
PHANTOM
 70
64
  3
_____ _ _ _____ _ _ _____ _ _ _____
 72
65
 73
6
 40
0.8
 49
0.45
 74
0
 49
-0.05
 74
0
 49
0.1
 74
0
 49
-0.05
 74
0
 49
0.1
 74
0
 49
-0.05
 74
0
  0
LTYPE
  5
1F8
100
AcDbSymbolTableRecord
100
AcDbLinetypeTableRecord
  2
DOT
 70
64
  3
. . . . . . . . . . . . . . . . . . . .
 72
65
 73
2
 40
0.2
 49
0.1
 74
0
 49
-0.1
 74
0
  0
LTYPE
  5
1F9
100
AcDbSymbolTableRecord
100
AcDbLinetypeTableRecord
  2
DASHED
 70
64
  3
- - - - - - - - - - - - - - - - - - - -
 72
65
 73
2
 40
0.2
 49
0.1
 74
0
 49
-0.1
 74
0
  0
ENDTAB
  0
TABLE
  2
LAYER
  5
2
100
AcDbSymbolTable
 70
36
  0
LAYER
  5
10
100
AcDbSymbolTableRecord
100
AcDbLayerTableRecord
  2
0
 70
0
 62
7
  6
CONTINUOUS
370
-3
390
F
  0
LAYER
  5
1FA
100
AcDbSymbolTableRecord
100
AcDbLayerTableRecord
  2
DEFAULT_1
 70
0
 62
7
  6
CENTER
370
-3
390
F
  0
LAYER
  5
1FB
100
AcDbSymbolTableRecord
100
AcDbLayerTableRecord
  2
DEFAULT_2
 70
0
 62
7
  6
HIDDEN
370
-3
390
F
  0
LAYER
  5
1FC
100
AcDbSymbolTableRecord
100
AcDbLayerTableRecord
  2
DEFAULT_3
 70
0
 62
7
  6
PHANTOM
370
-3
390
F
  0
LAYER
  5
1FD
100
AcDbSymbolTableRecord
100
AcDbLayerTableRecord
  2
00_COMPONENTS
 70
0
 62
7
  6
CONTINUOUS
370
-3
390
F
  0
LAYER
  5
1FE
100
AcDbSymbolTableRecord
100
AcDbLayerTableRecord
  2
01_1_DEFAULT_DATUMS
 70
0
 62
7
  6
CONTINUOUS
370
-3
390
F
  0
LAYER
  5
1FF
100
AcDbSymbolTableRecord
100
AcDbLayerTableRecord
  2
01_PLANES
 70
0
 62
7
  6
CONTINUOUS
370
-3
390
F
  0
LAYER
  5
200
100
AcDbSymbolTableRecord
100
AcDbLayerTableRecord
  2
02_COORD_SYS
 70
0
 62
7
  6
CONTINUOUS
370
-3
390
F
  0
LAYER
  5
201
100
AcDbSymbolTableRecord
100
AcDbLayerTableRecord
  2
03_AXES
 70
0
 62
7
  6
CONTINUOUS
370
-3
390
F
  0
LAYER
  5
202
100
AcDbSymbolTableRecord
100
AcDbLayerTableRecord
  2
04_POINTS
 70
0
 62
7
  6
CONTINUOUS
370
-3
390
F
  0
LAYER
  5
203
100
AcDbSymbolTableRecord
100
AcDbLayerTableRecord
  2
05_CURVES
 70
0
 62
7
  6
CONTINUOUS
370
-3
390
F
  0
LAYER
  5
204
100
AcDbSymbolTableRecord
100
AcDbLayerTableRecord
  2
06_SURFS
 70
0
 62
7
  6
CONTINUOUS
370
-3
390
F
  0
LAYER
  5
205
100
AcDbSymbolTableRecord
100
AcDbLayerTableRecord
  2
07_COSMETICS
 70
0
 62
7
  6
CONTINUOUS
370
-3
390
F
  0
LAYER
  5
206
100
AcDbSymbolTableRecord
100
AcDbLayerTableRecord
  2
10_NOTES
 70
0
 62
7
  6
CONTINUOUS
370
-3
390
F
  0
LAYER
  5
207
100
AcDbSymbolTableRecord
100
AcDbLayerTableRecord
  2
11_NOTES_PUB
 70
0
 62
7
  6
CONTINUOUS
370
-3
390
F
  0
LAYER
  5
208
100
AcDbSymbolTableRecord
100
AcDbLayerTableRecord
  2
13_REF_GTOL
 70
0
 62
7
  6
CONTINUOUS
370
-3
390
F
  0
LAYER
  5
209
100
AcDbSymbolTableRecord
100
AcDbLayerTableRecord
  2
16_MISC
 70
0
 62
7
  6
CONTINUOUS
370
-3
390
F
  0
LAYER
  5
20A
100
AcDbSymbolTableRecord
100
AcDbLayerTableRecord
  2
17_NO_PRINT
 70
0
 62
7
  6
CONTINUOUS
370
-3
390
F
  0
LAYER
  5
20B
100
AcDbSymbolTableRecord
100
AcDbLayerTableRecord
  2
18_DATUM_CAMS_JOINTS
 70
0
 62
7
  6
CONTINUOUS
370
-3
390
F
  0
LAYER
  5
20C
100
AcDbSymbolTableRecord
100
AcDbLayerTableRecord
  2
19_DATUM_FUNCTIONAL
 70
0
 62
7
  6
CONTINUOUS
370
-3
390
F
  0
LAYER
  5
20D
100
AcDbSymbolTableRecord
100
AcDbLayerTableRecord
  2
20_DATUM_KINEMATIC_SCHEME
 70
0
 62
7
  6
CONTINUOUS
370
-3
390
F
  0
ENDTAB
  0
TABLE
  2
STYLE
  5
3
100
AcDbSymbolTable
 70
1
  0
STYLE
  5
11
100
AcDbSymbolTableRecord
100
AcDbTextStyleTableRecord
  2
STANDARD
 70
0
 40
0.0
 41
1.0
 50
0.0
 71
0
 42
0.2
  3
ARIAL.TTF
  4

  0
STYLE
  5
20E
100
AcDbSymbolTableRecord
100
AcDbTextStyleTableRecord
  2
TEXTSTYLE_1
 70
0
 40
0.0
 41
0.8
 50
0.0
 71
0
 42
0.2
  3
gdt
  4

  0
ENDTAB
  0
TABLE
  2
VIEW
  5
6
100
AcDbSymbolTable
 70
0
  0
ENDTAB
  0
TABLE
  2
UCS
  5
7
100
AcDbSymbolTable
 70
0
  0
ENDTAB
  0
TABLE
  2
APPID
  5
9
100
AcDbSymbolTable
 70
1
  0
APPID
  5
20F
100
AcDbSymbolTableRecord
100
AcDbRegAppTableRecord
  2
ACAD
 70
0
  0
ENDTAB
  0
TABLE
  2
BLOCK_RECORD
  5
1
100
AcDbSymbolTable
 70
0
  0
BLOCK_RECORD
  5
210
100
AcDbSymbolTableRecord
100
AcDbBlockTableRecord
  2
*Model_Space
  0
BLOCK_RECORD
  5
211
100
AcDbSymbolTableRecord
100
AcDbBlockTableRecord
  2
*Paper_Space
  0
BLOCK_RECORD
  5
212
100
AcDbSymbolTableRecord
100
AcDbBlockTableRecord
  2
_FILLED
  0
ENDTAB
  0
TABLE
  2
DIMSTYLE
  5
A
100
AcDbSymbolTable
 70
1
100
AcDbDimStyleTable
 71
0
  0
DIMSTYLE
105
213
100
AcDbSymbolTableRecord
100
AcDbDimStyleTableRecord
  2
STANDARD
 70
0
  3

  4

 40
1.0
 41
0.8276602642
 42
1.0
 43
0.38
 44
1.0
 45
0.0
 46
0.0
 47
0.01
 48
0.01
140
1.1587243699
141
0.09
142
0.0
143
25.4
144
1.0
145
0.0
146
1.0
147
0.625
 71
1
 72
0
 73
0
 74
0
 75
0
 76
0
 77
1
 78
8
 79
2
170
0
171
1
172
0
173
0
174
0
175
0
176
0
177
0
178
0
270
2
179
2
271
2
272
2
273
2
274
2
275
0
280
0
281
0
282
0
283
1
284
8
285
0
286
0
287
3
288
0
340
11
278
46
341
212
342
212
343
212
344
212
  0
ENDTAB
  0
ENDSEC
  0
SECTION
  2
BLOCKS
  0
BLOCK
  5
20
100
AcDbEntity
  8
0
100
AcDbBlockBegin
  2
*Model_Space
 70
0
 10
0.0
 20
0.0
 30
0.0
  3
*Model_Space
  1

  0
ENDBLK
  5
21
100
AcDbEntity
  8
0
100
AcDbBlockEnd
  0
BLOCK
  5
1C
100
AcDbEntity
  8
0
100
AcDbBlockBegin
  2
*Paper_Space
 70
0
 10
0.0
 20
0.0
 30
0.0
  3
*Paper_Space
  1

  0
ENDBLK
  5
1D
100
AcDbEntity
  8
0
100
AcDbBlockEnd
  0
BLOCK
  5
214
100
AcDbEntity
  8
0
100
AcDbBlockBegin
  2
_FILLED
 70
64
 10
0.0
 20
0.0
  3
_FILLED
  1

  0
SOLID
  5
215
100
AcDbEntity
  8
0
  6
BYBLOCK
 62
0
100
AcDbTrace
 10
0.0
 20
0.0
 11
-1.0
 21
0.25
 12
-1.0
 22
-0.25
 13
-1.0
 23
-0.25
  0
ENDBLK
  5
216
100
AcDbEntity
  8
0
  6
BYBLOCK
 62
0
100
AcDbBlockEnd
  0
ENDSEC
  0
SECTION
  2
ENTITIES
  0
LINE
  5
217
100
AcDbEntity
  8
0
100
AcDbLine
 62
7
  6
BYLAYER
 10
24.4906732777
 20
26.4130196937
 11
46.2362900094
 21
26.4130196937
  0
LINE
  5
218
100
AcDbEntity
  8
0
100
AcDbLine
 62
7
  6
BYLAYER
 10
46.2362900094
 20
27.4579930528
 11
24.4906732777
 21
27.4579930528
  0
LINE
  5
219
100
AcDbEntity
  8
0
100
AcDbLine
 62
7
  6
BYLAYER
 10
22.7797485569
 20
27.3772897096
 11
8.5861698416
 21
50.8236947336
  0
LINE
  5
21A
100
AcDbEntity
  8
0
100
AcDbLine
 62
7
  6
BYLAYER
 10
27.3634816436
 20
28.2530196937
 11
43.3634816436
 21
28.2530196937
  0
LINE
  5
21B
100
AcDbEntity
  8
0
100
AcDbLine
 62
7
  6
BYLAYER
 10
11.1999193858
 20
49.4130196937
 11
24.4906732777
 21
27.4579930528
  0
LINE
  5
21C
100
AcDbEntity
  8
0
100
AcDbLine
 62
7
  6
BYLAYER
 10
23.3634816436
 20
57.3816466603
 11
23.3634816436
 21
57.4130196937
  0
LINE
  5
21D
100
AcDbEntity
  8
0
100
AcDbLine
 62
7
  6
BYLAYER
 10
24.4906732777
 20
26.4130196937
 11
24.4906732777
 21
27.4579930528
  0
LINE
  5
21E
100
AcDbEntity
  8
0
100
AcDbLine
 62
7
  6
BYLAYER
 10
26.8634816436
 20
50.1630196937
 11
26.8634816436
 21
29.1730196937
  0
LINE
  5
21F
100
AcDbEntity
  8
0
100
AcDbLine
 62
7
  6
BYLAYER
 10
27.3634779662
 20
50.1629645751
 11
27.3634816436
 21
28.2530196937
  0
LINE
  5
220
100
AcDbEntity
  8
0
100
AcDbLine
 62
7
  6
BYLAYER
 10
28.3634816436
 20
51.6630196937
 11
28.3634816436
 21
47.6630196937
  0
LINE
  5
221
100
AcDbEntity
  8
0
100
AcDbLine
 62
7
  6
BYLAYER
 10
28.7634816436
 20
59.4130196937
 11
28.7634816436
 21
57.4130196937
  0
LINE
  5
222
100
AcDbEntity
  8
0
100
AcDbLine
 62
7
  6
BYLAYER
 10
29.5578523563
 20
59.4130196937
 11
29.5578523563
 21
57.4130196937
  0
LINE
  5
223
100
AcDbEntity
  8
0
100
AcDbLine
 62
7
  6
BYLAYER
 10
29.8634816436
 20
50.1630196937
 11
29.8634816436
 21
48.6630196937
  0
LINE
  5
224
100
AcDbEntity
  8
0
100
AcDbLine
 62
7
  6
BYLAYER
 10
29.9517754575
 20
57.4130196937
 11
29.9517754575
 21
59.4130196937
  0
LINE
  5
225
100
AcDbEntity
  8
0
100
AcDbLine
 62
7
  6
BYLAYER
 10
30.3634816436
 20
57.4130196937
 11
30.3634816436
 21
54.6630196937
  0
LINE
  5
226
100
AcDbEntity
  8
0
100
AcDbLine
 62
7
  6
BYLAYER
 10
30.3634816436
 20
47.6630196937
 11
30.3634816436
 21
48.6630196937
  0
LINE
  5
227
100
AcDbEntity
  8
0
100
AcDbLine
 62
7
  6
BYLAYER
 10
32.5134816436
 20
64.4130196937
 11
31.6043907345
 21
59.4130196937
  0
LINE
  5
228
100
AcDbEntity
  8
0
100
AcDbLine
 62
7
  6
BYLAYER
 10
32.5134816436
 20
68.4130196937
 11
32.5134816436
 21
64.4130196937
  0
LINE
  5
229
100
AcDbEntity
  8
0
100
AcDbLine
 62
7
  6
BYLAYER
 10
32.8014866187
 20
59.4130196937
 11
32.8014866187
 21
57.4130196937
  0
LINE
  5
22A
100
AcDbEntity
  8
0
100
AcDbLine
 62
7
  6
BYLAYER
 10
33.1995014948
 20
57.4130196937
 11
33.1995014948
 21
59.4130196937
  0
LINE
  5
22B
100
AcDbEntity
  8
0
100
AcDbLine
 62
7
  6
BYLAYER
 10
37.3634816436
 20
45.4130196937
 11
33.3634816436
 21
45.4130196937
  0
LINE
  5
22C
100
AcDbEntity
  8
0
100
AcDbLine
 62
7
  6
BYLAYER
 10
33.3274617923
 20
59.4130196937
 11
33.3274617923
 21
57.4130196937
  0
LINE
  5
22D
100
AcDbEntity
  8
0
100
AcDbLine
 62
7
  6
BYLAYER
 10
33.3634816436
 20
71.9130196937
 11
33.3634816436
 21
68.4130196937
  0
LINE
  5
22E
100
AcDbEntity
  8
0
100
AcDbLine
 62
7
  6
BYLAYER
 10
33.3634816436
 20
47.6630196937
 11
33.3634816436
 21
45.4130196937
  0
LINE
  5
22F
100
AcDbEntity
  8
0
100
AcDbLine
 62
7
  6
BYLAYER
 10
33.7254766684
 20
57.4130196937
 11
33.7254766684
 21
59.4130196937
  0
LINE
  5
230
100
AcDbEntity
  8
0
100
AcDbLine
 62
7
  6
BYLAYER
 10
28.3634816436
 20
47.6630196937
 11
42.3634816436
 21
47.6630196937
  0
LINE
  5
231
100
AcDbEntity
  8
0
100
AcDbLine
 62
7
  6
BYLAYER
 10
40.9492680812
 20
48.6630196937
 11
29.7776952059
 21
48.6630196937
  0
LINE
  5
232
100
AcDbEntity
  8
0
100
AcDbLine
 62
7
  6
BYLAYER
 10
59.5270439013
 20
49.4130196937
 11
43.8634816436
 21
49.4130196937
  0
LINE
  5
233
100
AcDbEntity
  8
0
100
AcDbLine
 62
7
  6
BYLAYER
 10
26.8634816436
 20
49.4130196937
 11
11.1999193858
 21
49.4130196937
  0
LINE
  5
234
100
AcDbEntity
  8
0
100
AcDbLine
 62
7
  6
BYLAYER
 10
37.0014866187
 20
59.4130196937
 11
37.0014866187
 21
57.4130196937
  0
LINE
  5
235
100
AcDbEntity
  8
0
100
AcDbLine
 62
7
  6
BYLAYER
 10
37.3634816436
 20
71.9130196937
 11
37.3634816436
 21
68.4130196937
  0
LINE
  5
236
100
AcDbEntity
  8
0
100
AcDbLine
 62
7
  6
BYLAYER
 10
37.3634816436
 20
47.6630196937
 11
37.3634816436
 21
45.4130196937
  0
LINE
  5
237
100
AcDbEntity
  8
0
100
AcDbLine
 62
7
  6
BYLAYER
 10
37.3995014948
 20
57.4130196937
 11
37.3995014948
 21
59.4130196937
  0
LINE
  5
238
100
AcDbEntity
  8
0
100
AcDbLine
 62
7
  6
BYLAYER
 10
37.5274617923
 20
59.4130196937
 11
37.5274617923
 21
57.4130196937
  0
LINE
  5
239
100
AcDbEntity
  8
0
100
AcDbLine
 62
7
  6
BYLAYER
 10
37.9254766684
 20
57.4130196937
 11
37.9254766684
 21
59.4130196937
  0
LINE
  5
23A
100
AcDbEntity
  8
0
100
AcDbLine
 62
7
  6
BYLAYER
 10
12.8634816436
 20
50.8130196937
 11
22.8634816436
 21
50.8130196937
  0
LINE
  5
23B
100
AcDbEntity
  8
0
100
AcDbLine
 62
7
  6
BYLAYER
 10
47.8634816436
 20
50.8130196937
 11
57.8634816436
 21
50.8130196937
  0
LINE
  5
23C
100
AcDbEntity
  8
0
100
AcDbLine
 62
7
  6
BYLAYER
 10
42.3634816436
 20
51.6630196937
 11
39.6936086625
 21
51.6630196937
  0
LINE
  5
23D
100
AcDbEntity
  8
0
100
AcDbLine
 62
7
  6
BYLAYER
 10
31.0333546246
 20
51.6630196937
 11
28.3634816436
 21
51.6630196937
  0
LINE
  5
23E
100
AcDbEntity
  8
0
100
AcDbLine
 62
7
  6
BYLAYER
 10
43.3634944514
 20
50.1628272425
 11
27.3634779662
 21
50.1629645751
  0
LINE
  5
23F
100
AcDbEntity
  8
0
100
AcDbLine
 62
7
  6
BYLAYER
 10
38.2134816436
 20
68.4130196937
 11
38.2134816436
 21
64.4130196937
  0
LINE
  5
240
100
AcDbEntity
  8
0
100
AcDbLine
 62
7
  6
BYLAYER
 10
40.3634816436
 20
57.4130196937
 11
40.3634816436
 21
54.6630196937
  0
LINE
  5
241
100
AcDbEntity
  8
0
100
AcDbLine
 62
7
  6
BYLAYER
 10
40.3634816436
 20
47.6630196937
 11
40.3634816436
 21
48.6630196937
  0
LINE
  5
242
100
AcDbEntity
  8
0
100
AcDbLine
 62
7
  6
BYLAYER
 10
40.7751878297
 20
59.4130196937
 11
40.7751878297
 21
57.4130196937
  0
LINE
  5
243
100
AcDbEntity
  8
0
100
AcDbLine
 62
7
  6
BYLAYER
 10
40.8634816436
 20
48.6630196937
 11
40.8634816436
 21
50.1630196937
  0
LINE
  5
244
100
AcDbEntity
  8
0
100
AcDbLine
 62
7
  6
BYLAYER
 10
41.1691109309
 20
57.4130196937
 11
41.1691109309
 21
59.4130196937
  0
LINE
  5
245
100
AcDbEntity
  8
0
100
AcDbLine
 62
7
  6
BYLAYER
 10
41.9634816436
 20
59.4130196937
 11
41.9634816436
 21
57.4130196937
  0
LINE
  5
246
100
AcDbEntity
  8
0
100
AcDbLine
 62
7
  6
BYLAYER
 10
42.3634816436
 20
47.6630196937
 11
42.3634816436
 21
51.6630196937
  0
LINE
  5
247
100
AcDbEntity
  8
0
100
AcDbLine
 62
7
  6
BYLAYER
 10
26.663152682
 20
54.6630196937
 11
44.0638106052
 21
54.6630196937
  0
LINE
  5
248
100
AcDbEntity
  8
0
100
AcDbLine
 62
7
  6
BYLAYER
 10
57.8634816436
 20
56.0130196937
 11
47.8634816436
 21
56.0130196937
  0
LINE
  5
249
100
AcDbEntity
  8
0
100
AcDbLine
 62
7
  6
BYLAYER
 10
22.8634816436
 20
56.0130196937
 11
12.8634816436
 21
56.0130196937
  0
LINE
  5
24A
100
AcDbEntity
  8
0
100
AcDbLine
 62
7
  6
BYLAYER
 10
25.5092329546
 20
56.4130196937
 11
30.3634816436
 21
56.4130196937
  0
LINE
  5
24B
100
AcDbEntity
  8
0
100
AcDbLine
 62
7
  6
BYLAYER
 10
40.3634816436
 20
56.4130196937
 11
45.2177303325
 21
56.4130196937
  0
LINE
  5
24C
100
AcDbEntity
  8
0
100
AcDbLine
 62
7
  6
BYLAYER
 10
38.2134816436
 20
64.4130196937
 11
39.1225725527
 21
59.4130196937
  0
LINE
  5
24D
100
AcDbEntity
  8
0
100
AcDbLine
 62
7
  6
BYLAYER
 10
43.3634816436
 20
28.2530196937
 11
43.3634944514
 21
50.1628272425
  0
LINE
  5
24E
100
AcDbEntity
  8
0
100
AcDbLine
 62
7
  6
BYLAYER
 10
43.8634816436
 20
29.1730196937
 11
43.8634816436
 21
50.1630196937
  0
LINE
  5
24F
100
AcDbEntity
  8
0
100
AcDbLine
 62
7
  6
BYLAYER
 10
28.7634816436
 20
57.4130196937
 11
41.9634816436
 21
57.4130196937
  0
LINE
  5
250
100
AcDbEntity
  8
0
100
AcDbLine
 62
7
  6
BYLAYER
 10
12.8634816436
 20
58.4130196937
 11
22.3634816436
 21
58.4130196937
  0
LINE
  5
251
100
AcDbEntity
  8
0
100
AcDbLine
 62
7
  6
BYLAYER
 10
48.3634816436
 20
58.4130196937
 11
57.8634816436
 21
58.4130196937
  0
LINE
  5
252
100
AcDbEntity
  8
0
100
AcDbLine
 62
7
  6
BYLAYER
 10
46.2362900094
 20
27.4579930528
 11
46.2362900094
 21
26.4130196937
  0
LINE
  5
253
100
AcDbEntity
  8
0
100
AcDbLine
 62
7
  6
BYLAYER
 10
47.3634816436
 20
57.3816466603
 11
47.3634816436
 21
57.4130196937
  0
LINE
  5
254
100
AcDbEntity
  8
0
100
AcDbLine
 62
7
  6
BYLAYER
 10
28.7634816436
 20
59.4130196937
 11
41.9634816436
 21
59.4130196937
  0
LINE
  5
255
100
AcDbEntity
  8
0
100
AcDbLine
 62
7
  6
BYLAYER
 10
38.2134816436
 20
64.4130196937
 11
32.5134816436
 21
64.4130196937
  0
LINE
  5
256
100
AcDbEntity
  8
0
100
AcDbLine
 62
7
  6
BYLAYER
 10
32.5134816436
 20
68.4130196937
 11
38.2134816436
 21
68.4130196937
  0
LINE
  5
257
100
AcDbEntity
  8
0
100
AcDbLine
 62
7
  6
BYLAYER
 10
46.2362900094
 20
27.4579930528
 11
59.5270439013
 21
49.4130196937
  0
LINE
  5
258
100
AcDbEntity
  8
0
100
AcDbLine
 62
7
  6
BYLAYER
 10
62.1407934455
 20
50.8236947336
 11
47.9472147302
 21
27.3772897096
  0
LINE
  5
259
100
AcDbEntity
  8
0
100
AcDbLine
 62
7
  6
BYLAYER
 10
33.3634816436
 20
71.9130196937
 11
37.3634816436
 21
71.9130196937
  0
ARC
  5
25A
100
AcDbEntity
  8
0
100
AcDbCircle
 62
7
  6
BYLAYER
 10
12.8634816436
 20
53.4130196937
 40
5.0
100
AcDbArc
 50
90.0
 51
211.1891480397
  0
ARC
  5
25B
100
AcDbEntity
  8
0
100
AcDbCircle
 62
7
  6
BYLAYER
 10
57.8634816436
 20
53.4130196937
 40
5.0
100
AcDbArc
 50
328.8108519603
 51
90.0
  0
ARC
  5
25C
100
AcDbEntity
  8
0
100
AcDbCircle
 62
7
  6
BYLAYER
 10
22.8634816436
 20
53.4130196937
 40
4.0
100
AcDbArc
 50
18.2099568643
 51
82.8192442185
  0
ARC
  5
25D
100
AcDbEntity
  8
0
100
AcDbCircle
 62
7
  6
BYLAYER
 10
47.8634816436
 20
53.4130196937
 40
4.0
100
AcDbArc
 50
97.1807557815
 51
161.7900431357
  0
ARC
  5
25E
100
AcDbEntity
  8
0
100
AcDbCircle
 62
7
  6
BYLAYER
 10
22.8634816436
 20
53.4130196937
 40
2.6
100
AcDbArc
 50
270.0
 51
90.0
  0
ARC
  5
25F
100
AcDbEntity
  8
0
100
AcDbCircle
 62
7
  6
BYLAYER
 10
12.8634816436
 20
53.4130196937
 40
2.6
100
AcDbArc
 50
90.0
 51
270.0
  0
ARC
  5
260
100
AcDbEntity
  8
0
100
AcDbCircle
 62
7
  6
BYLAYER
 10
57.8634816436
 20
53.4130196937
 40
2.6
100
AcDbArc
 50
270.0
 51
90.0
  0
ARC
  5
261
100
AcDbEntity
  8
0
100
AcDbCircle
 62
7
  6
BYLAYER
 10
47.8634816436
 20
53.4130196937
 40
2.6
100
AcDbArc
 50
90.0
 51
270.0
  0
ARC
  5
262
100
AcDbEntity
  8
0
100
AcDbCircle
 62
7
  6
BYLAYER
 10
24.4906732777
 20
28.4130196937
 40
2.0
100
AcDbArc
 50
211.1891480396
 51
270.0
  0
ARC
  5
263
100
AcDbEntity
  8
0
100
AcDbCircle
 62
7
  6
BYLAYER
 10
46.2362900094
 20
28.4130196937
 40
2.0
100
AcDbArc
 50
270.0
 51
328.8108519603
  0
ARC
  5
264
100
AcDbEntity
  8
0
100
AcDbCircle
 62
7
  6
BYLAYER
 10
28.3634816436
 20
50.1630196937
 40
1.5
100
AcDbArc
 50
0.0
 51
180.0
  0
ARC
  5
265
100
AcDbEntity
  8
0
100
AcDbCircle
 62
7
  6
BYLAYER
 10
42.3634816436
 20
50.1630196937
 40
1.5
100
AcDbArc
 50
0.0
 51
180.0
  0
ARC
  5
266
100
AcDbEntity
  8
0
100
AcDbCircle
 62
7
  6
BYLAYER
 10
22.3634816436
 20
57.4130196937
 40
1.0
100
AcDbArc
 50
0.0
 51
90.0
  0
ARC
  5
267
100
AcDbEntity
  8
0
100
AcDbCircle
 62
7
  6
BYLAYER
 10
48.3634816436
 20
57.4130196937
 40
1.0
100
AcDbArc
 50
90.0
 51
180.0
  0
SPLINE
  5
268
100
AcDbEntity
  8
0
100
AcDbSpline
 62
7
  6
BYLAYER
 70
0
 71
3
 72
26
 73
22
 74
0
 42
0.0000001
 43
0.0000001
 44
0.0000000001
 40
0.0
 40
0.0
 40
0.0
 40
0.0
 40
0.0003048187
 40
0.0012143437
 40
0.002726461
 40
0.0048388543
 40
0.0108551279
 40
0.0192444844
 40
0.0299882904
 40
0.0430679794
 40
0.0584638455
 40
0.076137498
 40
0.1181050344
 40
0.1685420537
 40
0.2270105129
 40
0.2929357721
 40
0.3656363482
 40
0.4444267148
 40
0.6172793885
 40
0.8050774323
 40
1.0
 40
1.0
 40
1.0
 40
1.0
 10
26.8634816436
 20
50.1628272476
 30
0.0
 10
26.8634862714
 20
50.1627766556
 30
0.0
 10
26.8638005769
 20
50.1628885016
 30
0.0
 10
26.8641473148
 20
50.1627838812
 30
0.0
 10
26.8649637092
 20
50.1628541542
 30
0.0
 10
26.8665335397
 20
50.1628383274
 30
0.0
 10
26.8693136176
 20
50.1629019848
 30
0.0
 10
26.873491822
 20
50.1629363292
 30
0.0
 10
26.8788655162
 20
50.1629899264
 30
0.0
 10
26.8854001386
 20
50.1630299583
 30
0.0
 10
26.8930922764
 20
50.1630573405
 30
0.0
 10
26.9055982154
 20
50.1630726642
 30
0.0
 10
26.9239447928
 20
50.1630594002
 30
0.0
 10
26.9490902663
 20
50.1630248273
 30
0.0
 10
26.9782288058
 20
50.1629977462
 30
0.0
 10
27.0110779283
 20
50.1629874433
 30
0.0
 10
27.0473140546
 20
50.1629922006
 30
0.0
 10
27.1013714451
 20
50.1630234598
 30
0.0
 10
27.1746118014
 20
50.1630927802
 30
0.0
 10
27.2672075382
 20
50.1629997072
 30
0.0
 10
27.3309944854
 20
50.1629321038
 30
0.0
 10
27.3634816436
 20
50.162964573
 30
0.0
  0
SPLINE
  5
269
100
AcDbEntity
  8
0
100
AcDbSpline
 62
7
  6
BYLAYER
 70
0
 71
3
 72
15
 73
11
 74
0
 42
0.0000001
 43
0.0000001
 44
0.0000000001
 40
0.0
 40
0.0
 40
0.0
 40
0.0
 40
0.0903263674
 40
0.184762873
 40
0.2878613384
 40
0.4029198388
 40
0.5323881234
 40
0.6765043465
 40
0.8341615893
 40
1.0
 40
1.0
 40
1.0
 40
1.0
 10
28.3634822192
 20
51.6630196938
 30
0.0
 10
28.3038629325
 20
51.662909485
 30
0.0
 10
28.1813318948
 20
51.6463571142
 30
0.0
 10
28.0044502049
 20
51.5719286406
 30
0.0
 10
27.8368474834
 20
51.4486636432
 30
0.0
 10
27.6836240181
 20
51.2758683755
 30
0.0
 10
27.5511183948
 20
51.0547074594
 30
0.0
 10
27.4465416122
 20
50.7886711211
 30
0.0
 10
27.3790269942
 20
50.4863463787
 30
0.0
 10
27.3635201859
 20
50.2724803536
 30
0.0
 10
27.3635095018
 20
50.1630196846
 30
0.0
  0
SPLINE
  5
26A
100
AcDbEntity
  8
0
100
AcDbSpline
 62
7
  6
BYLAYER
 70
0
 71
3
 72
15
 73
11
 74
0
 42
0.0000001
 43
0.0000001
 44
0.0000000001
 40
0.0
 40
0.0
 40
0.0
 40
0.0
 40
0.1249175726
 40
0.1874715759
 40
0.250017267
 40
0.3125553477
 40
0.3750891629
 40
0.5001121148
 40
0.7500231881
 40
1.0
 40
1.0
 40
1.0
 40
1.0
 10
59.5270439013
 20
49.4130196937
 30
0.0
 10
59.6840592369
 20
49.4130196937
 30
0.0
 10
59.9201505237
 20
49.4573282009
 30
0.0
 10
60.214854953
 20
49.5662369494
 30
0.0
 10
60.4284699012
 20
49.6670041203
 30
0.0
 10
60.6345638016
 20
49.781894123
 30
0.0
 10
60.8993859447
 20
49.951610467
 30
0.0
 10
61.3380867996
 20
50.284385417
 30
0.0
 10
61.908967169
 20
50.8272168646
 30
0.0
 10
62.3147251671
 20
51.3083722654
 30
0.0
 10
62.506382216
 20
51.5573596293
 30
0.0
  0
SPLINE
  5
26B
100
AcDbEntity
  8
0
100
AcDbSpline
 62
7
  6
BYLAYER
 70
0
 71
3
 72
14
 73
10
 74
0
 42
0.0000001
 43
0.0000001
 44
0.0000000001
 40
0.0
 40
0.0
 40
0.0
 40
0.0
 40
0.1249205215
 40
0.1874783902
 40
0.2500244199
 40
0.3750500226
 40
0.5000790099
 40
0.7500068387
 40
1.0
 40
1.0
 40
1.0
 40
1.0
 10
11.1999193858
 20
49.4130196937
 30
0.0
 10
11.0429113989
 20
49.4130196937
 30
0.0
 10
10.8068596831
 20
49.4574417418
 30
0.0
 10
10.5121092048
 20
49.5661964018
 30
0.0
 10
10.2273974378
 20
49.7005147562
 30
0.0
 10
9.8904308331
 20
49.9045170616
 30
0.0
 10
9.3887230633
 20
50.284108839
 30
0.0
 10
8.8180907645
 20
50.8273608813
 30
0.0
 10
8.4122371605
 20
51.3083735122
 30
0.0
 10
8.2205810711
 20
51.5573596293
 30
0.0
  0
SPLINE
  5
26C
100
AcDbEntity
  8
0
100
AcDbSpline
 62
7
  6
BYLAYER
 70
0
 71
3
 72
16
 73
12
 74
0
 42
0.0000001
 43
0.0000001
 44
0.0000000001
 40
0.0
 40
0.0
 40
0.0
 40
0.0
 40
0.172226094
 40
0.3348627954
 40
0.4845106663
 40
0.6187576245
 40
0.7360652767
 40
0.8364764642
 40
0.9224525268
 40
0.9618366931
 40
1.0
 40
1.0
 40
1.0
 40
1.0
 10
24.4906732777
 20
27.4579930528
 30
0.0
 10
24.3955464462
 20
27.4135375725
 30
0.0
 10
24.2074128933
 20
27.3336680456
 30
0.0
 10
23.9269086055
 20
27.2399965056
 30
0.0
 10
23.6614751865
 20
27.1775222537
 30
0.0
 10
23.4180880641
 20
27.1477373833
 30
0.0
 10
23.2026125284
 20
27.1516073466
 30
0.0
 10
23.019956607
 20
27.1892140639
 30
0.0
 10
22.8947059626
 20
27.252040331
 30
0.0
 10
22.8204045945
 20
27.3192961552
 30
0.0
 10
22.7917978302
 20
27.3573854877
 30
0.0
 10
22.7797485569
 20
27.3772897096
 30
0.0
  0
SPLINE
  5
26D
100
AcDbEntity
  8
0
100
AcDbSpline
 62
7
  6
BYLAYER
 70
0
 71
3
 72
16
 73
12
 74
0
 42
0.0000001
 43
0.0000001
 44
0.0000000001
 40
0.0
 40
0.0
 40
0.0
 40
0.0
 40
0.0381633069
 40
0.0775474732
 40
0.1635235358
 40
0.2639347233
 40
0.3812423755
 40
0.5154893337
 40
0.6651372046
 40
0.827773906
 40
1.0
 40
1.0
 40
1.0
 40
1.0
 10
47.9472147302
 20
27.3772897096
 30
0.0
 10
47.9351654569
 20
27.3573854877
 30
0.0
 10
47.9065586926
 20
27.3192961552
 30
0.0
 10
47.8322573245
 20
27.252040331
 30
0.0
 10
47.7070066802
 20
27.1892140639
 30
0.0
 10
47.5243507588
 20
27.1516073466
 30
0.0
 10
47.3088752231
 20
27.1477373833
 30
0.0
 10
47.0654881007
 20
27.1775222537
 30
0.0
 10
46.8000546816
 20
27.2399965056
 30
0.0
 10
46.5195503938
 20
27.3336680456
 30
0.0
 10
46.3314168409
 20
27.4135375725
 30
0.0
 10
46.2362900094
 20
27.4579930528
 30
0.0
  0
SPLINE
  5
26E
100
AcDbEntity
  8
0
100
AcDbSpline
 62
7
  6
BYLAYER
 70
0
 71
3
 72
12
 73
8
 74
0
 42
0.0000001
 43
0.0000001
 44
0.0000000001
 40
0.0
 40
0.0
 40
0.0
 40
0.0
 40
0.2499466687
 40
0.4998877492
 40
0.7498335157
 40
0.8749825126
 40
1.0
 40
1.0
 40
1.0
 40
1.0
 10
35.3634816436
 20
50.1630196937
 30
0.0
 10
35.0219052583
 20
50.3414021431
 30
0.0
 10
34.3386493723
 20
50.6981869159
 30
0.0
 10
33.2876843462
 20
51.1814848733
 30
0.0
 10
32.3705998592
 20
51.4898490268
 30
0.0
 10
31.6120835356
 20
51.6346346975
 30
0.0
 10
31.2260977634
 20
51.6630196937
 30
0.0
 10
31.0333546246
 20
51.6630196937
 30
0.0
  0
SPLINE
  5
26F
100
AcDbEntity
  8
0
100
AcDbSpline
 62
7
  6
BYLAYER
 70
0
 71
3
 72
17
 73
13
 74
0
 42
0.0000001
 43
0.0000001
 44
0.0000000001
 40
0.0
 40
0.0
 40
0.0
 40
0.0
 40
0.0290483037
 40
0.0657506094
 40
0.1097404145
 40
0.160155064
 40
0.2762494632
 40
0.4072862622
 40
0.5482724823
 40
0.6956649624
 40
0.8469876981
 40
1.0
 40
1.0
 40
1.0
 40
1.0
 10
29.7776952059
 20
48.6630196937
 30
0.0
 10
29.7608196765
 20
48.6630196937
 30
0.0
 10
29.7227737387
 20
48.6556942995
 30
0.0
 10
29.6631795569
 20
48.6328711339
 30
0.0
 10
29.5950956878
 20
48.5984658163
 30
0.0
 10
29.4897446457
 20
48.5362984805
 30
0.0
 10
29.3466926879
 20
48.4390178234
 30
0.0
 10
29.1653575209
 20
48.3050021924
 30
0.0
 10
28.9728166066
 20
48.1556471961
 30
0.0
 10
28.7731454332
 20
47.9963242667
 30
0.0
 10
28.5692892858
 20
47.831057786
 30
0.0
 10
28.4323371386
 20
47.7192399699
 30
0.0
 10
28.3634816436
 20
47.6630196937
 30
0.0
  0
SPLINE
  5
270
100
AcDbEntity
  8
0
100
AcDbSpline
 62
7
  6
BYLAYER
 70
0
 71
3
 72
12
 73
8
 74
0
 42
0.0000001
 43
0.0000001
 44
0.0000000001
 40
0.0
 40
0.0
 40
0.0
 40
0.0
 40
0.1250176652
 40
0.2501709092
 40
0.5001146093
 40
0.7500546518
 40
1.0
 40
1.0
 40
1.0
 40
1.0
 10
39.6936086624
 20
51.6630196937
 30
0.0
 10
39.5008652603
 20
51.6630196937
 30
0.0
 10
39.1148723401
 20
51.6346368322
 30
0.0
 10
38.3563542488
 20
51.4898405692
 30
0.0
 10
37.4392667944
 20
51.1814820715
 30
0.0
 10
36.388309921
 20
50.6981817945
 30
0.0
 10
35.7050562054
 20
50.3414011908
 30
0.0
 10
35.3634816436
 20
50.1630196937
 30
0.0
  0
SPLINE
  5
271
100
AcDbEntity
  8
0
100
AcDbSpline
 62
7
  6
BYLAYER
 70
0
 71
3
 72
17
 73
13
 74
0
 42
0.0000001
 43
0.0000001
 44
0.0000000001
 40
0.0
 40
0.0
 40
0.0
 40
0.0
 40
0.1530095047
 40
0.3043289924
 40
0.4517202958
 40
0.5927042648
 40
0.7237436657
 40
0.8398439373
 40
0.8902590018
 40
0.9342468788
 40
0.9709497315
 40
1.0
 40
1.0
 40
1.0
 40
1.0
 10
42.3634816436
 20
47.6630196937
 30
0.0
 10
42.2946273468
 20
47.7192389916
 30
0.0
 10
42.157678369
 20
47.8310553795
 30
0.0
 10
41.9538262942
 20
47.9963205964
 30
0.0
 10
41.754155762
 20
48.1556384969
 30
0.0
 10
41.5616180565
 20
48.3049969904
 30
0.0
 10
41.3802770152
 20
48.4390119414
 30
0.0
 10
41.2372116244
 20
48.5362810384
 30
0.0
 10
41.1318689685
 20
48.5984671282
 30
0.0
 10
41.0637903854
 20
48.6328824735
 30
0.0
 10
41.0041927423
 20
48.6556999282
 30
0.0
 10
40.966144767
 20
48.6630196937
 30
0.0
 10
40.9492680812
 20
48.6630196937
 30
0.0
  0
SPLINE
  5
272
100
AcDbEntity
  8
0
100
AcDbSpline
 62
7
  6
BYLAYER
 70
0
 71
3
 72
14
 73
10
 74
0
 42
0.0000001
 43
0.0000001
 44
0.0000000001
 40
0.0
 40
0.0
 40
0.0
 40
0.0
 40
0.1531449343
 40
0.3020553648
 40
0.5737584776
 40
0.69441324
 40
0.8048260155
 40
0.906146263
 40
1.0
 40
1.0
 40
1.0
 40
1.0
 10
43.3635080274
 20
50.1628272362
 30
0.0
 10
43.3638075721
 20
50.2486225486
 30
0.0
 10
43.3538376795
 20
50.4180783427
 30
0.0
 10
43.2986412579
 20
50.7350829361
 30
0.0
 10
43.1953871822
 20
51.0243510613
 30
0.0
 10
43.0476710446
 20
51.2651126308
 30
0.0
 10
42.9276183905
 20
51.4084703872
 30
0.0
 10
42.7972484976
 20
51.5206425276
 30
0.0
 10
42.7022130577
 20
51.5762643659
 30
0.0
 10
42.654384416
 20
51.5981048824
 30
0.0
  0
SPLINE
  5
273
100
AcDbEntity
  8
0
100
AcDbSpline
 62
7
  6
BYLAYER
 70
0
 71
3
 72
9
 73
5
 74
0
 42
0.0000001
 43
0.0000001
 44
0.0000000001
 40
0.0
 40
0.0
 40
0.0
 40
0.0
 40
0.5070720539
 40
1.0
 40
1.0
 40
1.0
 40
1.0
 10
42.654384416
 20
51.5981048824
 30
0.0
 10
42.6082883407
 20
51.619154238
 30
0.0
 10
42.5129976904
 20
51.6519142177
 30
0.0
 10
42.4127428233
 20
51.6630196937
 30
0.0
 10
42.3634816436
 20
51.6630196937
 30
0.0
  0
SPLINE
  5
274
100
AcDbEntity
  8
0
100
AcDbSpline
 62
7
  6
BYLAYER
 70
0
 71
3
 72
26
 73
22
 74
0
 42
0.0000001
 43
0.0000001
 44
0.0000000001
 40
0.0
 40
0.0
 40
0.0
 40
0.0
 40
0.1949261527
 40
0.3827302344
 40
0.5555849624
 40
0.6343753938
 40
0.7070751831
 40
0.7729995034
 40
0.8314674495
 40
0.8819030727
 40
0.9238688428
 40
0.9415417759
 40
0.9569371151
 40
0.9700161035
 40
0.9807589763
 40
0.9891472419
 40
0.9951623827
 40
0.9972742454
 40
0.9987858972
 40
0.9996950844
 40
1.0
 40
1.0
 40
1.0
 40
1.0
 10
43.3634816436
 20
50.1628272253
 30
0.0
 10
43.3959693777
 20
50.1628052929
 30
0.0
 10
43.4597578109
 20
50.1629345338
 30
0.0
 10
43.5523553119
 20
50.1631067867
 30
0.0
 10
43.6255969903
 20
50.1630389354
 30
0.0
 10
43.679654543
 20
50.1629997663
 30
0.0
 10
43.7158903573
 20
50.1629877953
 30
0.0
 10
43.748739077
 20
50.1629909021
 30
0.0
 10
43.7778771204
 20
50.163011901
 30
0.0
 10
43.8030219595
 20
50.1630446355
 30
0.0
 10
43.8213678665
 20
50.1630647119
 30
0.0
 10
43.8338732864
 20
50.1630639961
 30
0.0
 10
43.8415651516
 20
50.1630517975
 30
0.0
 10
43.8480994198
 20
50.1630312087
 30
0.0
 10
43.8534730213
 20
50.1629996202
 30
0.0
 10
43.8576503228
 20
50.162986436
 30
0.0
 10
43.8604312847
 20
50.1629426569
 30
0.0
 10
43.8619993112
 20
50.1629698063
 30
0.0
 10
43.862818123
 20
50.1629108886
 30
0.0
 10
43.8631601759
 20
50.1630148667
 30
0.0
 10
43.8634791992
 20
50.1629138156
 30
0.0
 10
43.8634816436
 20
50.1629645762
 30
0.0
  0
ELLIPSE
  5
275
100
AcDbEntity
  8
0
100
AcDbEllipse
 62
7
  6
BYLAYER
 10
27.3634816436
 20
29.1730196937
 30
0.0
 11
0.0
 21
0.92
 31
0.0
 40
0.5434782609
 41
-4.7123889804
 42
-3.1415926536
  0
ELLIPSE
  5
276
100
AcDbEntity
  8
0
100
AcDbEllipse
 62
7
  6
BYLAYER
 10
43.3634816436
 20
29.1730196937
 30
0.0
 11
-0.0
 21
0.92
 31
0.0
 40
0.5434782609
 41
-3.1415926536
 42
-1.5707963268
  0
ENDSEC
  0
SECTION
  2
OBJECTS
  0
DICTIONARY
  5
C
100
AcDbDictionary
280
0
281
1
  3
ACAD_GROUP
350
D
  3
ACAD_MLINESTYLE
350
17
  3
ACAD_LAYOUT
350
1A
  3
ACAD_PLOTSETTINGS
350
19
  3
ACAD_PLOTSTYLENAME
350
E
  0
DICTIONARY
  5
D
102
{ACAD_REACTORS
330
C
102
}
100
AcDbDictionary
280
0
281
1
  0
ACDBDICTIONARYWDFLT
  5
E
102
{ACAD_REACTORS
330
C
102
}
100
AcDbDictionary
281
1
  3
Normal
350
F
100
AcDbDictionaryWithDefault
340
F
  0
DICTIONARY
  5
17
102
{ACAD_REACTORS
330
C
102
}
100
AcDbDictionary
280
0
281
1
  3
Standard
350
18
  0
DICTIONARY
  5
19
102
{ACAD_REACTORS
330
C
102
}
100
AcDbDictionary
281
1
  0
DICTIONARY
  5
1A
102
{ACAD_REACTORS
330
C
102
}
100
AcDbDictionary
281
1
  3
Model
350
277
  3
Layout1
350
278
  0
ACDBPLACEHOLDER
  5
F
102
{ACAD_REACTORS
330
E
102
}
  0
MLINESTYLE
  5
18
102
{ACAD_REACTORS
330
17
102
}
100
AcDbMlineStyle
  2
STANDARD
 70
0
  3

 62
256
 51
90.0
 52
90.0
 71
2
 49
0.5
 62
256
  6
BYLAYER
 49
-0.5
 62
256
  6
BYLAYER
  0
LAYOUT
  5
277
102
{ACAD_REACTORS
330
1A
102
}
100
AcDbPlotSettings
  1

  2
none_device
  4

  6

 40
0.0
 41
0.0
 42
0.0
 43
0.0
 44
210.0
 45
297.0
 46
0.0
 47
0.0
 48
0.0
 49
0.0
140
0.0
141
0.0
142
1.0
143
1.0
 70
1024
 72
1
 73
0
 74
0
  7

 75
0
147
1.0
148
0.0
149
0.0
100
AcDbLayout
  1
Model
 70
0
 71
0
 10
0.0
 20
0.0
 11
210.0
 21
297.0
 12
0.0
 22
0.0
 32
0.0
 14
0.0
 24
0.0
 34
0.0
 15
0.0
 25
0.0
 35
0.0
146
0.0
 13
0.0
 23
0.0
 33
0.0
 16
1.0
 26
0.0
 36
0.0
 17
0.0
 27
1.0
 37
0.0
 76
0
330
210
345
0
346
0
  0
LAYOUT
  5
278
102
{ACAD_REACTORS
330
1A
102
}
100
AcDbPlotSettings
  1

  2
none_device
  4

  6

 40
0.0
 41
0.0
 42
0.0
 43
0.0
 44
210.0
 45
297.0
 46
0.0
 47
0.0
 48
0.0
 49
0.0
140
0.0
141
0.0
142
1.0
143
1.0
 70
0
 72
1
 73
0
 74
0
  7

 75
0
147
1.0
148
0.0
149
0.0
100
AcDbLayout
  1
Layout1
 70
0
 71
1
 10
0.0
 20
0.0
 11
210.0
 21
297.0
 12
0.0
 22
0.0
 32
0.0
 14
0.0
 24
0.0
 34
0.0
 15
0.0
 25
0.0
 35
0.0
146
0.0
 13
0.0
 23
0.0
 33
0.0
 16
1.0
 26
0.0
 36
0.0
 17
0.0
 27
1.0
 37
0.0
 76
0
330
211
345
0
346
0
  0
ENDSEC
  0
EOF
