999
DXF file: C:\Users\sesa63760\Dev\_Creo\CAD\MCADID0000513_3D-CAD\drw0001_4.dxf
999
Pro/ENGINEER 2019471 by Parametric Technology Corporation
  0
SECTION
  2
HEADER
  9
$ACADVER
  1
AC1024
  9
$DWGCODEPAGE
  3
ANSI_1252
  9
$EXTMAX
 10
161.1020985702
 20
227.8443965493
 30
0.0
  9
$EXTMIN
 10
0.0
 20
0.0
 30
0.0
  9
$LIMMIN
 10
0.0
 20
0.0
  9
$LIMMAX
 10
161.1020985702
 20
227.8443965493
  9
$VIEWCTR
 10
80.5510492851
 20
113.9221982746
  9
$VIEWSIZE
 40
227.8443965493
  9
$CLAYER
  8
0
  9
$LTSCALE
 40
14.8520791825
  9
$CELTYPE
  6
BYLAYER
  9
$DIMSCALE
 40
1.0
  9
$DIMASZ
 40
1.9178821258
  9
$DIMEXO
 40
1.0
  9
$DIMDLI
 40
10.2614365261
  9
$DIMEXE
 40
1.0
  9
$DIMCEN
 40
2.4303402299
  9
$DIMLFAC
 40
1.0
  9
$DIMBLK
  1
_FILLED
  9
$DIMALT
 70
0
  9
$DIMALTF
 40
0.0393700787
  9
$DIMTXT
 40
2.6850349762
  9
$DIMTOL
 70
1
  9
$DIMLIM
 70
0
  9
$DIMTFAC
 40
1.0
  9
$DIMTP
 40
0.01
  9
$DIMTM
 40
0.01
  9
$DIMGAP
 40
0.625
  9
$DIMDSEP
 70
46
  9
$AUNITS
 70
0
  9
$PDMODE
 70
3
  9
$PDSIZE
 40
0.3125
  9
$HANDSEED
  5
91D
  9
$TILEMODE
 70
1
  9
$MEASUREMENT
 70
1
  9
$INSUNITS
 70
4
  0
ENDSEC
  0
SECTION
  2
CLASSES
  0
CLASS
  1
ACDBDICTIONARYWDFLT
  2
AcDbDictionaryWithDefault
  3
AutoCAD 2000
 90
0
 91
1
280
0
281
0
  0
CLASS
  1
ACDBPLACEHOLDER
  2
AcDbPlaceHolder
  3
AutoCAD 2000
 90
0
 91
1
280
0
281
0
  0
CLASS
  1
LAYOUT
  2
AcDbLayout
  3
AutoCAD 2000
 90
0
 91
0
280
0
281
0
  0
ENDSEC
  0
SECTION
  2
TABLES
  0
TABLE
  2
VPORT
  5
8
100
AcDbSymbolTable
 70
2
  0
VPORT
  5
1F4
100
AcDbSymbolTableRecord
100
AcDbViewportTableRecord
  2
*ACTIVE
 70
0
 10
0.0
 20
0.0
 11
1.0
 21
1.0
 12
80.5510492851
 22
113.9221982746
 13
0.0
 23
0.0
 14
1.0
 24
1.0
 15
0.0
 25
0.0
 16
0.0
 26
0.0
 36
1.0
 17
0.0
 27
0.0
 37
0.0
 40
227.8443965493
 41
0.7070707071
 42
50.0
 43
0.0
 44
0.0
 50
0.0
 51
0.0
 71
0
 72
100
 73
1
 74
1
 75
0
 76
0
 77
0
 78
0
  0
ENDTAB
  0
TABLE
  2
LTYPE
  5
5
100
AcDbSymbolTable
 70
6
  0
LTYPE
  5
14
100
AcDbSymbolTableRecord
100
AcDbLinetypeTableRecord
  2
BYBLOCK
 70
0
  3

 72
65
 73
0
 40
0.0
  0
LTYPE
  5
15
100
AcDbSymbolTableRecord
100
AcDbLinetypeTableRecord
  2
BYLAYER
 70
0
  3

 72
65
 73
0
 40
0.0
  0
LTYPE
  5
16
100
AcDbSymbolTableRecord
100
AcDbLinetypeTableRecord
  2
CONTINUOUS
 70
64
  3
Solid line
 72
65
 73
0
 40
0.0
  0
LTYPE
  5
1F5
100
AcDbSymbolTableRecord
100
AcDbLinetypeTableRecord
  2
CENTER
 70
64
  3
____ _ ____ _ ____ _ ____ _ ____ _ ____ _ ____
 72
65
 73
4
 40
0.6
 49
0.375
 74
0
 49
-0.075
 74
0
 49
0.075
 74
0
 49
-0.075
 74
0
  0
LTYPE
  5
1F6
100
AcDbSymbolTableRecord
100
AcDbLinetypeTableRecord
  2
HIDDEN
 70
64
  3
- - - - - - - - - - - - - - - - - - - -
 72
65
 73
2
 40
0.2
 49
0.1
 74
0
 49
-0.1
 74
0
  0
LTYPE
  5
1F7
100
AcDbSymbolTableRecord
100
AcDbLinetypeTableRecord
  2
PHANTOM
 70
64
  3
_____ _ _ _____ _ _ _____ _ _ _____
 72
65
 73
6
 40
0.8
 49
0.45
 74
0
 49
-0.05
 74
0
 49
0.1
 74
0
 49
-0.05
 74
0
 49
0.1
 74
0
 49
-0.05
 74
0
  0
LTYPE
  5
1F8
100
AcDbSymbolTableRecord
100
AcDbLinetypeTableRecord
  2
DOT
 70
64
  3
. . . . . . . . . . . . . . . . . . . .
 72
65
 73
2
 40
0.2
 49
0.1
 74
0
 49
-0.1
 74
0
  0
LTYPE
  5
1F9
100
AcDbSymbolTableRecord
100
AcDbLinetypeTableRecord
  2
DASHED
 70
64
  3
- - - - - - - - - - - - - - - - - - - -
 72
65
 73
2
 40
0.2
 49
0.1
 74
0
 49
-0.1
 74
0
  0
ENDTAB
  0
TABLE
  2
LAYER
  5
2
100
AcDbSymbolTable
 70
36
  0
LAYER
  5
10
100
AcDbSymbolTableRecord
100
AcDbLayerTableRecord
  2
0
 70
0
 62
7
  6
CONTINUOUS
370
-3
390
F
  0
LAYER
  5
1FA
100
AcDbSymbolTableRecord
100
AcDbLayerTableRecord
  2
DEFAULT_1
 70
0
 62
7
  6
CENTER
370
-3
390
F
  0
LAYER
  5
1FB
100
AcDbSymbolTableRecord
100
AcDbLayerTableRecord
  2
DEFAULT_2
 70
0
 62
8
  6
HIDDEN
370
-3
390
F
  0
LAYER
  5
1FC
100
AcDbSymbolTableRecord
100
AcDbLayerTableRecord
  2
DEFAULT_3
 70
0
 62
7
  6
PHANTOM
370
-3
390
F
  0
LAYER
  5
1FD
100
AcDbSymbolTableRecord
100
AcDbLayerTableRecord
  2
00_COMPONENTS
 70
0
 62
7
  6
CONTINUOUS
370
-3
390
F
  0
LAYER
  5
1FE
100
AcDbSymbolTableRecord
100
AcDbLayerTableRecord
  2
01_1_DEFAULT_DATUMS
 70
0
 62
7
  6
CONTINUOUS
370
-3
390
F
  0
LAYER
  5
1FF
100
AcDbSymbolTableRecord
100
AcDbLayerTableRecord
  2
01_PLANES
 70
0
 62
7
  6
CONTINUOUS
370
-3
390
F
  0
LAYER
  5
200
100
AcDbSymbolTableRecord
100
AcDbLayerTableRecord
  2
02_COORD_SYS
 70
0
 62
7
  6
CONTINUOUS
370
-3
390
F
  0
LAYER
  5
201
100
AcDbSymbolTableRecord
100
AcDbLayerTableRecord
  2
03_AXES
 70
0
 62
7
  6
CONTINUOUS
370
-3
390
F
  0
LAYER
  5
202
100
AcDbSymbolTableRecord
100
AcDbLayerTableRecord
  2
04_POINTS
 70
0
 62
7
  6
CONTINUOUS
370
-3
390
F
  0
LAYER
  5
203
100
AcDbSymbolTableRecord
100
AcDbLayerTableRecord
  2
05_CURVES
 70
0
 62
7
  6
CONTINUOUS
370
-3
390
F
  0
LAYER
  5
204
100
AcDbSymbolTableRecord
100
AcDbLayerTableRecord
  2
06_SURFS
 70
0
 62
7
  6
CONTINUOUS
370
-3
390
F
  0
LAYER
  5
205
100
AcDbSymbolTableRecord
100
AcDbLayerTableRecord
  2
07_COSMETICS
 70
0
 62
7
  6
CONTINUOUS
370
-3
390
F
  0
LAYER
  5
206
100
AcDbSymbolTableRecord
100
AcDbLayerTableRecord
  2
10_NOTES
 70
0
 62
7
  6
CONTINUOUS
370
-3
390
F
  0
LAYER
  5
207
100
AcDbSymbolTableRecord
100
AcDbLayerTableRecord
  2
11_NOTES_PUB
 70
0
 62
7
  6
CONTINUOUS
370
-3
390
F
  0
LAYER
  5
208
100
AcDbSymbolTableRecord
100
AcDbLayerTableRecord
  2
13_REF_GTOL
 70
0
 62
7
  6
CONTINUOUS
370
-3
390
F
  0
LAYER
  5
209
100
AcDbSymbolTableRecord
100
AcDbLayerTableRecord
  2
16_MISC
 70
0
 62
7
  6
CONTINUOUS
370
-3
390
F
  0
LAYER
  5
20A
100
AcDbSymbolTableRecord
100
AcDbLayerTableRecord
  2
17_NO_PRINT
 70
0
 62
7
  6
CONTINUOUS
370
-3
390
F
  0
LAYER
  5
20B
100
AcDbSymbolTableRecord
100
AcDbLayerTableRecord
  2
18_DATUM_CAMS_JOINTS
 70
0
 62
7
  6
CONTINUOUS
370
-3
390
F
  0
LAYER
  5
20C
100
AcDbSymbolTableRecord
100
AcDbLayerTableRecord
  2
19_DATUM_FUNCTIONAL
 70
0
 62
7
  6
CONTINUOUS
370
-3
390
F
  0
LAYER
  5
20D
100
AcDbSymbolTableRecord
100
AcDbLayerTableRecord
  2
20_DATUM_KINEMATIC_SCHEME
 70
0
 62
7
  6
CONTINUOUS
370
-3
390
F
  0
ENDTAB
  0
TABLE
  2
STYLE
  5
3
100
AcDbSymbolTable
 70
1
  0
STYLE
  5
11
100
AcDbSymbolTableRecord
100
AcDbTextStyleTableRecord
  2
STANDARD
 70
0
 40
0.0
 41
0.8
 50
0.0
 71
0
 42
0.2
  3
txt
  4

  0
STYLE
  5
20E
100
AcDbSymbolTableRecord
100
AcDbTextStyleTableRecord
  2
TEXTSTYLE_1
 70
0
 40
0.0
 41
0.8
 50
0.0
 71
0
 42
0.2
  3
gdt
  4

  0
ENDTAB
  0
TABLE
  2
VIEW
  5
6
100
AcDbSymbolTable
 70
0
  0
ENDTAB
  0
TABLE
  2
UCS
  5
7
100
AcDbSymbolTable
 70
0
  0
ENDTAB
  0
TABLE
  2
APPID
  5
9
100
AcDbSymbolTable
 70
1
  0
APPID
  5
20F
100
AcDbSymbolTableRecord
100
AcDbRegAppTableRecord
  2
ACAD
 70
0
  0
ENDTAB
  0
TABLE
  2
BLOCK_RECORD
  5
1
100
AcDbSymbolTable
 70
0
  0
BLOCK_RECORD
  5
210
100
AcDbSymbolTableRecord
100
AcDbBlockTableRecord
  2
*Model_Space
  0
BLOCK_RECORD
  5
211
100
AcDbSymbolTableRecord
100
AcDbBlockTableRecord
  2
*Paper_Space
  0
BLOCK_RECORD
  5
212
100
AcDbSymbolTableRecord
100
AcDbBlockTableRecord
  2
_FILLED
  0
ENDTAB
  0
TABLE
  2
DIMSTYLE
  5
A
100
AcDbSymbolTable
 70
1
100
AcDbDimStyleTable
 71
0
  0
DIMSTYLE
105
213
100
AcDbSymbolTableRecord
100
AcDbDimStyleTableRecord
  2
STANDARD
 70
0
  3

  4

 40
1.0
 41
1.9178821258
 42
1.0
 43
0.38
 44
1.0
 45
0.0
 46
0.0
 47
0.01
 48
0.01
140
2.6850349762
141
0.09
142
0.0
143
25.4
144
1.0
145
0.0
146
1.0
147
0.625
 71
1
 72
0
 73
0
 74
0
 75
0
 76
0
 77
1
 78
8
 79
2
170
0
171
1
172
0
173
0
174
0
175
0
176
0
177
0
178
0
270
2
179
2
271
2
272
2
273
2
274
2
275
0
280
0
281
0
282
0
283
1
284
8
285
0
286
0
287
3
288
0
340
11
278
46
341
212
342
212
343
212
344
212
  0
ENDTAB
  0
ENDSEC
  0
SECTION
  2
BLOCKS
  0
BLOCK
  5
20
100
AcDbEntity
  8
0
100
AcDbBlockBegin
  2
*Model_Space
 70
0
 10
0.0
 20
0.0
 30
0.0
  3
*Model_Space
  1

  0
ENDBLK
  5
21
100
AcDbEntity
  8
0
100
AcDbBlockEnd
  0
BLOCK
  5
1C
100
AcDbEntity
  8
0
100
AcDbBlockBegin
  2
*Paper_Space
 70
0
 10
0.0
 20
0.0
 30
0.0
  3
*Paper_Space
  1

  0
ENDBLK
  5
1D
100
AcDbEntity
  8
0
100
AcDbBlockEnd
  0
BLOCK
  5
214
100
AcDbEntity
  8
0
100
AcDbBlockBegin
  2
_FILLED
 70
64
 10
0.0
 20
0.0
  3
_FILLED
  1

  0
SOLID
  5
215
100
AcDbEntity
  8
0
  6
BYBLOCK
 62
0
100
AcDbTrace
 10
0.0
 20
0.0
 11
-1.0
 21
0.25
 12
-1.0
 22
-0.25
 13
-1.0
 23
-0.25
  0
ENDBLK
  5
216
100
AcDbEntity
  8
0
  6
BYBLOCK
 62
0
100
AcDbBlockEnd
  0
ENDSEC
  0
SECTION
  2
ENTITIES
  0
LINE
  5
217
100
AcDbEntity
  8
0
100
AcDbLine
 62
7
  6
CONTINUOUS
 10
21.1254211267
 20
183.8955702632
 11
28.7720738569
 21
191.5422229916
  0
LINE
  5
218
100
AcDbEntity
  8
0
100
AcDbLine
 62
7
  6
CONTINUOUS
 10
29.2533903097
 20
191.0609065328
 11
21.606737578
 21
183.4142538011
  0
LINE
  5
219
100
AcDbEntity
  8
0
100
AcDbLine
 62
7
  6
CONTINUOUS
 10
29.5027213479
 20
190.8115754947
 11
21.8560686166
 21
183.1649227634
  0
LINE
  5
21A
100
AcDbEntity
  8
0
100
AcDbLine
 62
7
  6
CONTINUOUS
 10
22.7727146214
 20
182.2482767586
 11
30.4193673527
 21
189.8949294899
  0
LINE
  5
21B
100
AcDbEntity
  8
0
100
AcDbLine
 62
7
  6
CONTINUOUS
 10
30.7754559805
 20
189.5388408485
 11
23.1288032634
 21
181.8921881314
  0
LINE
  5
21C
100
AcDbEntity
  8
0
100
AcDbLine
 62
7
  6
CONTINUOUS
 10
18.2016671775
 20
35.9502939944
 11
17.9426441134
 21
36.0584333852
  0
LINE
  5
21D
100
AcDbEntity
  8
0
100
AcDbLine
 62
7
  6
CONTINUOUS
 10
21.1254211212
 20
42.5544297384
 11
28.772073988
 21
34.9077768734
  0
LINE
  5
21E
100
AcDbEntity
  8
0
100
AcDbLine
 62
7
  6
CONTINUOUS
 10
21.6067375782
 20
43.0357461945
 11
29.2533903105
 21
35.3890934641
  0
LINE
  5
21F
100
AcDbEntity
  8
0
100
AcDbLine
 62
7
  6
CONTINUOUS
 10
29.5027213476
 20
35.6384245022
 11
21.8560686155
 21
43.2850772326
  0
LINE
  5
220
100
AcDbEntity
  8
0
100
AcDbLine
 62
7
  6
CONTINUOUS
 10
22.7727146206
 20
44.2017232379
 11
30.4193673528
 21
36.5550705076
  0
LINE
  5
221
100
AcDbEntity
  8
0
100
AcDbLine
 62
7
  6
CONTINUOUS
 10
23.1288032626
 20
44.5578118655
 11
30.7754559939
 21
36.911159136
  0
LINE
  5
222
100
AcDbEntity
  8
0
100
AcDbLine
 62
7
  6
CONTINUOUS
 10
24.0598014
 20
180.4925608289
 11
32.1750832818
 21
188.6078427107
  0
LINE
  5
223
100
AcDbEntity
  8
0
100
AcDbLine
 62
7
  6
CONTINUOUS
 10
24.2012227565
 20
180.3511394725
 11
32.3165046386
 21
188.4664213546
  0
LINE
  5
224
100
AcDbEntity
  8
0
100
AcDbLine
 62
7
  6
CONTINUOUS
 10
32.4579259941
 20
188.3249999981
 11
24.3426441127
 21
180.2097181167
  0
LINE
  5
225
100
AcDbEntity
  8
0
100
AcDbLine
 62
7
  6
CONTINUOUS
 10
30.5601044965
 20
177.2075396127
 11
30.5077462887
 21
177.1591778568
  0
LINE
  5
226
100
AcDbEntity
  8
0
100
AcDbLine
 62
7
  6
CONTINUOUS
 10
147.0836210478
 20
35.9717410052
 11
147.3426441119
 21
36.0250274343
  0
LINE
  5
227
100
AcDbEntity
  8
0
100
AcDbLine
 62
7
  6
CONTINUOUS
 10
30.5601044963
 20
49.2424603834
 11
30.50774629
 21
49.2908221393
  0
LINE
  5
228
100
AcDbEntity
  8
0
100
AcDbLine
 62
7
  6
CONTINUOUS
 10
32.1750832823
 20
37.8421572849
 11
24.0598013995
 21
45.9574391677
  0
LINE
  5
229
100
AcDbEntity
  8
0
100
AcDbLine
 62
7
  6
CONTINUOUS
 10
32.3165046383
 20
37.9835786419
 11
24.2012227562
 21
46.098860524
  0
LINE
  5
22A
100
AcDbEntity
  8
0
100
AcDbLine
 62
7
  6
CONTINUOUS
 10
24.3426441127
 20
46.2402818795
 11
32.4579259941
 21
38.1249999981
  0
LINE
  5
22B
100
AcDbEntity
  8
0
100
AcDbLine
 62
7
  6
CONTINUOUS
 10
22.1679381085
 20
31.9840230629
 11
22.2760774992
 21
31.7249999988
  0
LINE
  5
22C
100
AcDbEntity
  8
0
100
AcDbLine
 62
7
  6
CONTINUOUS
 10
26.7084662507
 20
173.3598978184
 11
26.6601044965
 21
173.307539612
  0
LINE
  5
22D
100
AcDbEntity
  8
0
100
AcDbLine
 62
7
  6
CONTINUOUS
 10
22.2760774992
 20
31.7249999988
 11
143.0426166773
 21
31.7249999988
  0
LINE
  5
22E
100
AcDbEntity
  8
0
100
AcDbLine
 62
7
  6
CONTINUOUS
 10
143.0959030815
 20
31.9840230629
 11
22.1679381085
 21
31.9840230629
  0
LINE
  5
22F
100
AcDbEntity
  8
0
100
AcDbLine
 62
7
  6
CONTINUOUS
 10
132.4959913868
 20
33.2437887624
 11
91.6891904148
 21
33.2437887624
  0
LINE
  5
230
100
AcDbEntity
  8
0
100
AcDbLine
 62
7
  6
CONTINUOUS
 10
73.5960978105
 20
33.2437887624
 11
32.7892968385
 21
33.2437887624
  0
LINE
  5
231
100
AcDbEntity
  8
0
100
AcDbLine
 62
7
  6
CONTINUOUS
 10
32.7892968445
 20
33.9244730215
 11
73.5960978103
 21
33.9244730215
  0
LINE
  5
232
100
AcDbEntity
  8
0
100
AcDbLine
 62
7
  6
CONTINUOUS
 10
91.6891904151
 20
33.9244730215
 11
132.4959913816
 21
33.9244730215
  0
LINE
  5
233
100
AcDbEntity
  8
0
100
AcDbLine
 62
7
  6
CONTINUOUS
 10
132.4959913803
 20
34.2770803568
 11
91.689190415
 21
34.2770803568
  0
LINE
  5
234
100
AcDbEntity
  8
0
100
AcDbLine
 62
7
  6
CONTINUOUS
 10
73.5960978096
 20
34.2770803568
 11
32.7892968444
 21
34.2770803568
  0
LINE
  5
235
100
AcDbEntity
  8
0
100
AcDbLine
 62
7
  6
CONTINUOUS
 10
32.7892968444
 20
35.5734135689
 11
73.5960978096
 21
35.5734135689
  0
LINE
  5
236
100
AcDbEntity
  8
0
100
AcDbLine
 62
7
  6
CONTINUOUS
 10
91.689190415
 20
35.5734135689
 11
132.4959913803
 21
35.5734135689
  0
LINE
  5
237
100
AcDbEntity
  8
0
100
AcDbLine
 62
7
  6
CONTINUOUS
 10
132.4959913674
 20
36.0769989458
 11
91.6891904142
 21
36.0769989458
  0
LINE
  5
238
100
AcDbEntity
  8
0
100
AcDbLine
 62
7
  6
CONTINUOUS
 10
73.5960978111
 20
36.0769989458
 11
32.7892968439
 21
36.0769989458
  0
LINE
  5
239
100
AcDbEntity
  8
0
100
AcDbLine
 62
7
  6
CONTINUOUS
 10
32.4579259956
 20
37.7249999981
 11
73.5436116661
 21
37.7249999981
  0
LINE
  5
23A
100
AcDbEntity
  8
0
100
AcDbLine
 62
7
  6
CONTINUOUS
 10
91.7153941512
 20
37.7249999981
 11
132.8273622297
 21
37.7249999981
  0
LINE
  5
23B
100
AcDbEntity
  8
0
100
AcDbLine
 62
7
  6
CONTINUOUS
 10
26.6601044965
 20
53.142460383
 11
26.7084662522
 21
53.0901021767
  0
LINE
  5
23C
100
AcDbEntity
  8
0
100
AcDbLine
 62
7
  6
CONTINUOUS
 10
74.7445037587
 20
187.8736515409
 11
74.3638704887
 21
187.7506949887
  0
LINE
  5
23D
100
AcDbEntity
  8
0
100
AcDbLine
 62
7
  6
CONTINUOUS
 10
76.3081581669
 20
188.3943897929
 11
79.006133652
 21
189.2592644805
  0
LINE
  5
23E
100
AcDbEntity
  8
0
100
AcDbLine
 62
7
  6
CONTINUOUS
 10
132.8273622308
 20
37.9249999981
 11
91.7153941511
 21
37.9249999981
  0
LINE
  5
23F
100
AcDbEntity
  8
0
100
AcDbLine
 62
7
  6
CONTINUOUS
 10
73.5436116668
 20
37.9249999981
 11
32.4579259947
 21
37.9249999981
  0
LINE
  5
240
100
AcDbEntity
  8
0
100
AcDbLine
 62
7
  6
CONTINUOUS
 10
132.8273622313
 20
38.1249999981
 11
91.7153941512
 21
38.1249999981
  0
LINE
  5
241
100
AcDbEntity
  8
0
100
AcDbLine
 62
7
  6
CONTINUOUS
 10
73.5436116664
 20
38.1249999981
 11
32.4579259941
 21
38.1249999981
  0
LINE
  5
242
100
AcDbEntity
  8
0
100
AcDbLine
 62
7
  6
CONTINUOUS
 10
76.3081581672
 20
38.0556102031
 11
79.0061336529
 21
37.1907355153
  0
LINE
  5
243
100
AcDbEntity
  8
0
100
AcDbLine
 62
7
  6
CONTINUOUS
 10
74.7528845022
 20
38.6021482838
 11
74.3726551232
 21
38.7263482013
  0
LINE
  5
244
100
AcDbEntity
  8
0
100
AcDbLine
 62
7
  6
CONTINUOUS
 10
48.7011546845
 20
52.8916665058
 11
48.4883887523
 21
52.9749999981
  0
LINE
  5
245
100
AcDbEntity
  8
0
100
AcDbLine
 62
7
  6
CONTINUOUS
 10
48.328814303
 20
52.7666665059
 11
48.4883887525
 21
52.6833334902
  0
LINE
  5
246
100
AcDbEntity
  8
0
100
AcDbLine
 62
7
  6
CONTINUOUS
 10
47.1054100636
 20
54.6416665056
 11
47.3181760138
 21
54.5166665059
  0
LINE
  5
247
100
AcDbEntity
  8
0
100
AcDbLine
 62
7
  6
CONTINUOUS
 10
17.9426441134
 20
190.3458346965
 11
17.9426441134
 21
36.0584333852
  0
LINE
  5
248
100
AcDbEntity
  8
0
100
AcDbLine
 62
7
  6
CONTINUOUS
 10
18.2016671775
 20
35.9502939944
 11
18.2016671775
 21
190.2753858438
  0
LINE
  5
249
100
AcDbEntity
  8
0
100
AcDbLine
 62
7
  6
CONTINUOUS
 10
19.4614328758
 20
46.5716527359
 11
19.4614328758
 21
104.1784536951
  0
LINE
  5
24A
100
AcDbEntity
  8
0
100
AcDbLine
 62
7
  6
CONTINUOUS
 10
19.4614328758
 20
122.271546301
 11
19.4614328758
 21
179.8783472603
  0
LINE
  5
24B
100
AcDbEntity
  8
0
100
AcDbLine
 62
7
  6
CONTINUOUS
 10
20.1421171361
 20
179.8783472664
 11
20.1421171361
 21
122.2715463004
  0
LINE
  5
24C
100
AcDbEntity
  8
0
100
AcDbLine
 62
7
  6
CONTINUOUS
 10
20.1421171361
 20
104.1784536949
 11
20.1421171361
 21
46.5716527298
  0
LINE
  5
24D
100
AcDbEntity
  8
0
100
AcDbLine
 62
7
  6
CONTINUOUS
 10
20.4947244713
 20
46.571652729
 11
20.4947244713
 21
104.1784536949
  0
LINE
  5
24E
100
AcDbEntity
  8
0
100
AcDbLine
 62
7
  6
CONTINUOUS
 10
20.4947244713
 20
122.2715463004
 11
20.4947244713
 21
179.8783472664
  0
LINE
  5
24F
100
AcDbEntity
  8
0
100
AcDbLine
 62
7
  6
CONTINUOUS
 10
37.0522185804
 20
162.183333252
 11
36.9458356012
 21
162.0166667441
  0
LINE
  5
250
100
AcDbEntity
  8
0
100
AcDbLine
 62
7
  6
CONTINUOUS
 10
39.2330696638
 20
163.0999999983
 11
39.3394526296
 21
163.2666666248
  0
LINE
  5
251
100
AcDbEntity
  8
0
100
AcDbLine
 62
7
  6
CONTINUOUS
 10
39.2330696639
 20
161.0583332522
 11
39.3394526296
 21
161.2249999979
  0
LINE
  5
252
100
AcDbEntity
  8
0
100
AcDbLine
 62
7
  6
CONTINUOUS
 10
37.2649845311
 20
161.974999998
 11
37.3713675345
 21
162.0999999982
  0
LINE
  5
253
100
AcDbEntity
  8
0
100
AcDbLine
 62
7
  6
CONTINUOUS
 10
39.0203037316
 20
163.3083333713
 11
38.9139207653
 21
163.183333371
  0
LINE
  5
254
100
AcDbEntity
  8
0
100
AcDbLine
 62
7
  6
CONTINUOUS
 10
39.0203037316
 20
161.2666667443
 11
38.9139207655
 21
161.1416667443
  0
LINE
  5
255
100
AcDbEntity
  8
0
100
AcDbLine
 62
7
  6
CONTINUOUS
 10
39.0734952146
 20
159.4749999982
 11
38.9671122483
 21
159.3499999979
  0
LINE
  5
256
100
AcDbEntity
  8
0
100
AcDbLine
 62
7
  6
CONTINUOUS
 10
37.2649845308
 20
162.3499999979
 11
37.0522185804
 21
162.183333252
  0
LINE
  5
257
100
AcDbEntity
  8
0
100
AcDbLine
 62
7
  6
CONTINUOUS
 10
39.0203037316
 20
162.9333333713
 11
39.2330696638
 21
163.0999999983
  0
LINE
  5
258
100
AcDbEntity
  8
0
100
AcDbLine
 62
7
  6
CONTINUOUS
 10
39.0203037313
 20
160.8916667442
 11
39.2330696639
 21
161.0583332522
  0
LINE
  5
259
100
AcDbEntity
  8
0
100
AcDbLine
 62
7
  6
CONTINUOUS
 10
39.0203037315
 20
159.0583334904
 11
39.2330696637
 21
159.2249999982
  0
LINE
  5
25A
100
AcDbEntity
  8
0
100
AcDbLine
 62
7
  6
CONTINUOUS
 10
38.9139207653
 20
163.183333371
 11
38.7543461674
 21
163.099999998
  0
LINE
  5
25B
100
AcDbEntity
  8
0
100
AcDbLine
 62
7
  6
CONTINUOUS
 10
37.3713675345
 20
162.0999999982
 11
37.5309419832
 21
162.1833332519
  0
LINE
  5
25C
100
AcDbEntity
  8
0
100
AcDbLine
 62
7
  6
CONTINUOUS
 10
37.4777505007
 20
162.433333252
 11
37.2649845308
 21
162.3499999979
  0
LINE
  5
25D
100
AcDbEntity
  8
0
100
AcDbLine
 62
7
  6
CONTINUOUS
 10
38.8075377992
 20
162.8499999981
 11
39.0203037316
 21
162.9333333713
  0
LINE
  5
25E
100
AcDbEntity
  8
0
100
AcDbLine
 62
7
  6
CONTINUOUS
 10
141.3426441127
 20
46.2402818801
 11
140.9426441127
 21
46.2402818806
  0
LINE
  5
25F
100
AcDbEntity
  8
0
100
AcDbLine
 62
7
  6
CONTINUOUS
 10
24.3426441127
 20
46.24028188
 11
24.1694390319
 21
46.24028188
  0
LINE
  5
260
100
AcDbEntity
  8
0
100
AcDbLine
 62
7
  6
CONTINUOUS
 10
24.1426441127
 20
46.24028188
 11
23.9426441127
 21
46.24028188
  0
LINE
  5
261
100
AcDbEntity
  8
0
100
AcDbLine
 62
7
  6
CONTINUOUS
 10
145.8238553496
 20
46.5716527289
 11
142.990645165
 21
46.5716527327
  0
LINE
  5
262
100
AcDbEntity
  8
0
100
AcDbLine
 62
7
  6
CONTINUOUS
 10
22.2946430604
 20
46.571652729
 11
19.4614328758
 21
46.5716527278
  0
LINE
  5
263
100
AcDbEntity
  8
0
100
AcDbLine
 62
7
  6
CONTINUOUS
 10
124.7426441127
 20
49.2249999981
 11
30.5426441123
 21
49.2249999981
  0
LINE
  5
264
100
AcDbEntity
  8
0
100
AcDbLine
 62
7
  6
CONTINUOUS
 10
30.5601044963
 20
49.2424603834
 11
124.7251837277
 21
49.2424603834
  0
LINE
  5
265
100
AcDbEntity
  8
0
100
AcDbLine
 62
7
  6
CONTINUOUS
 10
124.7860281071
 20
49.2908221371
 11
122.7921406341
 21
49.2908221394
  0
LINE
  5
266
100
AcDbEntity
  8
0
100
AcDbLine
 62
7
  6
CONTINUOUS
 10
30.50774629
 20
49.2908221393
 11
32.4911643303
 21
49.2908221389
  0
LINE
  5
267
100
AcDbEntity
  8
0
100
AcDbLine
 62
7
  6
CONTINUOUS
 10
34.5598620275
 20
49.4345246149
 11
120.722218892
 21
49.4345246149
  0
LINE
  5
268
100
AcDbEntity
  8
0
100
AcDbLine
 62
7
  6
CONTINUOUS
 10
50.5426250038
 20
49.5110595054
 11
64.4307705175
 21
49.5110595054
  0
LINE
  5
269
100
AcDbEntity
  8
0
100
AcDbLine
 62
7
  6
CONTINUOUS
 10
34.9902743879
 20
49.8847686735
 11
50.3737284889
 21
49.8847686735
  0
LINE
  5
26A
100
AcDbEntity
  8
0
100
AcDbLine
 62
7
  6
CONTINUOUS
 10
64.9386459357
 20
50.2065272398
 11
119.9607598156
 21
50.2065272398
  0
LINE
  5
26B
100
AcDbEntity
  8
0
100
AcDbLine
 62
7
  6
CONTINUOUS
 10
124.7860260587
 20
50.2902129664
 11
122.7921406344
 21
50.2902129664
  0
LINE
  5
26C
100
AcDbEntity
  8
0
100
AcDbLine
 62
7
  6
CONTINUOUS
 10
32.4910224953
 20
50.2902129659
 11
30.5077462925
 21
50.2902129659
  0
LINE
  5
26D
100
AcDbEntity
  8
0
100
AcDbLine
 62
7
  6
CONTINUOUS
 10
122.7932804374
 20
50.3577469211
 11
121.7938264303
 21
50.3577469497
  0
LINE
  5
26E
100
AcDbEntity
  8
0
100
AcDbLine
 62
7
  6
CONTINUOUS
 10
63.6553943397
 20
50.5104982997
 11
51.5270476523
 21
50.5104982997
  0
LINE
  5
26F
100
AcDbEntity
  8
0
100
AcDbLine
 62
7
  6
CONTINUOUS
 10
51.3736137834
 20
50.8842078046
 11
33.9907874083
 21
50.8842074242
  0
LINE
  5
270
100
AcDbEntity
  8
0
100
AcDbLine
 62
7
  6
CONTINUOUS
 10
120.960213821
 20
51.2059660064
 11
65.1385464796
 21
51.2059660334
  0
LINE
  5
271
100
AcDbEntity
  8
0
100
AcDbLine
 62
7
  6
CONTINUOUS
 10
48.4883887525
 20
52.6833334902
 11
48.7011546841
 21
52.6416665058
  0
LINE
  5
272
100
AcDbEntity
  8
0
100
AcDbLine
 62
7
  6
CONTINUOUS
 10
49.0203037317
 20
54.0583334903
 11
48.8075377995
 21
54.099999998
  0
LINE
  5
273
100
AcDbEntity
  8
0
100
AcDbLine
 62
7
  6
CONTINUOUS
 10
47.3181760138
 20
54.5166665059
 11
47.4777505004
 21
54.4749999981
  0
LINE
  5
274
100
AcDbEntity
  8
0
100
AcDbLine
 62
7
  6
CONTINUOUS
 10
47.5309419835
 20
54.7249999981
 11
47.3713675343
 21
54.7666665058
  0
LINE
  5
275
100
AcDbEntity
  8
0
100
AcDbLine
 62
7
  6
CONTINUOUS
 10
48.4351972692
 20
54.5166665058
 11
48.5947717183
 21
54.4749999981
  0
LINE
  5
276
100
AcDbEntity
  8
0
100
AcDbLine
 62
7
  6
CONTINUOUS
 10
48.6479632015
 20
54.7249999981
 11
48.4883887523
 21
54.7666665059
  0
LINE
  5
277
100
AcDbEntity
  8
0
100
AcDbLine
 62
7
  6
CONTINUOUS
 10
48.7543461676
 20
57.5166667442
 11
48.9139207655
 21
57.4749999981
  0
LINE
  5
278
100
AcDbEntity
  8
0
100
AcDbLine
 62
7
  6
CONTINUOUS
 10
47.2649845314
 20
56.4333332517
 11
47.4777505002
 21
56.3499999981
  0
LINE
  5
279
100
AcDbEntity
  8
0
100
AcDbLine
 62
7
  6
CONTINUOUS
 10
47.2649845312
 20
58.349999998
 11
47.4777505005
 21
58.266666625
  0
LINE
  5
27A
100
AcDbEntity
  8
0
100
AcDbLine
 62
7
  6
CONTINUOUS
 10
51.3736106925
 20
60.0594388808
 11
51.5275888748
 21
59.9825592475
  0
LINE
  5
27B
100
AcDbEntity
  8
0
100
AcDbLine
 62
7
  6
CONTINUOUS
 10
48.8075377995
 20
53.8916665058
 11
48.9671122486
 21
53.8083334903
  0
LINE
  5
27C
100
AcDbEntity
  8
0
100
AcDbLine
 62
7
  6
CONTINUOUS
 10
47.5309419835
 20
56.5999999981
 11
47.3713675343
 21
56.683333252
  0
LINE
  5
27D
100
AcDbEntity
  8
0
100
AcDbLine
 62
7
  6
CONTINUOUS
 10
47.5309419834
 20
58.516666625
 11
47.3713675343
 21
58.5999999981
  0
LINE
  5
27E
100
AcDbEntity
  8
0
100
AcDbLine
 62
7
  6
CONTINUOUS
 10
37.0309419835
 20
65.3999999988
 11
36.8713675343
 21
65.4833332527
  0
LINE
  5
27F
100
AcDbEntity
  8
0
100
AcDbLine
 62
7
  6
CONTINUOUS
 10
37.0309419832
 20
67.3166666251
 11
36.871367534
 21
67.3999999983
  0
LINE
  5
280
100
AcDbEntity
  8
0
100
AcDbLine
 62
7
  6
CONTINUOUS
 10
48.222431337
 20
54.6416665058
 11
48.4351972692
 21
54.5166665058
  0
LINE
  5
281
100
AcDbEntity
  8
0
100
AcDbLine
 62
7
  6
CONTINUOUS
 10
36.6054100636
 20
63.4416665064
 11
36.8181760141
 21
63.3166665065
  0
LINE
  5
282
100
AcDbEntity
  8
0
100
AcDbLine
 62
7
  6
CONTINUOUS
 10
37.722431337
 20
63.4416665066
 11
37.9351972695
 21
63.3166665064
  0
LINE
  5
283
100
AcDbEntity
  8
0
100
AcDbLine
 62
7
  6
CONTINUOUS
 10
38.0947717183
 20
62.9416665066
 11
38.4671122484
 21
62.6916665066
  0
LINE
  5
284
100
AcDbEntity
  8
0
100
AcDbLine
 62
7
  6
CONTINUOUS
 10
38.8926441127
 20
62.6916665066
 11
38.5203037316
 21
62.9416665066
  0
LINE
  5
285
100
AcDbEntity
  8
0
100
AcDbLine
 62
7
  6
CONTINUOUS
 10
47.3713675343
 20
54.7666665058
 11
47.2649845311
 21
54.8499999981
  0
LINE
  5
286
100
AcDbEntity
  8
0
100
AcDbLine
 62
7
  6
CONTINUOUS
 10
36.8713675343
 20
63.5666665065
 11
36.7649845311
 21
63.6499999988
  0
LINE
  5
287
100
AcDbEntity
  8
0
100
AcDbLine
 62
7
  6
CONTINUOUS
 10
49.2330696634
 20
53.891666506
 11
49.0203037317
 21
54.0583334903
  0
LINE
  5
288
100
AcDbEntity
  8
0
100
AcDbLine
 62
7
  6
CONTINUOUS
 10
48.4883887523
 20
54.7666665059
 11
48.3820057863
 21
54.8499999981
  0
LINE
  5
289
100
AcDbEntity
  8
0
100
AcDbLine
 62
7
  6
CONTINUOUS
 10
37.9883887523
 20
63.5666665066
 11
37.8820057863
 21
63.6499999988
  0
LINE
  5
28A
100
AcDbEntity
  8
0
100
AcDbLine
 62
7
  6
CONTINUOUS
 10
47.0522185803
 20
56.5999999982
 11
47.2649845314
 21
56.4333332517
  0
LINE
  5
28B
100
AcDbEntity
  8
0
100
AcDbLine
 62
7
  6
CONTINUOUS
 10
36.5522185803
 20
65.3999999989
 11
36.7649845314
 21
65.2333332524
  0
LINE
  5
28C
100
AcDbEntity
  8
0
100
AcDbLine
 62
7
  6
CONTINUOUS
 10
47.0522185803
 20
58.5166666251
 11
47.2649845312
 21
58.349999998
  0
LINE
  5
28D
100
AcDbEntity
  8
0
100
AcDbLine
 62
7
  6
CONTINUOUS
 10
36.5522185801
 20
67.3166666254
 11
36.764984531
 21
67.1499999982
  0
LINE
  5
28E
100
AcDbEntity
  8
0
100
AcDbLine
 62
7
  6
CONTINUOUS
 10
49.2330696635
 20
57.5583332521
 11
49.0203037316
 21
57.724999998
  0
LINE
  5
28F
100
AcDbEntity
  8
0
100
AcDbLine
 62
7
  6
CONTINUOUS
 10
38.7330696635
 20
66.3583332527
 11
38.5203037314
 21
66.5249999989
  0
LINE
  5
290
100
AcDbEntity
  8
0
100
AcDbLine
 62
7
  6
CONTINUOUS
 10
48.4883887523
 20
52.9749999981
 11
47.1586015651
 21
54.1416665058
  0
LINE
  5
291
100
AcDbEntity
  8
0
100
AcDbLine
 62
7
  6
CONTINUOUS
 10
47.1586015651
 20
53.8083334902
 11
48.328814303
 21
52.7666665059
  0
LINE
  5
292
100
AcDbEntity
  8
0
100
AcDbLine
 62
7
  6
CONTINUOUS
 10
36.4458356013
 20
63.6083334912
 11
36.6054100636
 21
63.4416665064
  0
LINE
  5
293
100
AcDbEntity
  8
0
100
AcDbLine
 62
7
  6
CONTINUOUS
 10
46.9458356013
 20
54.8083334903
 11
47.1054100636
 21
54.6416665056
  0
LINE
  5
294
100
AcDbEntity
  8
0
100
AcDbLine
 62
7
  6
CONTINUOUS
 10
36.8713675343
 20
65.4833332527
 11
36.7649845311
 21
65.6083332526
  0
LINE
  5
295
100
AcDbEntity
  8
0
100
AcDbLine
 62
7
  6
CONTINUOUS
 10
36.871367534
 20
67.3999999983
 11
36.7649845309
 21
67.5249999983
  0
LINE
  5
296
100
AcDbEntity
  8
0
100
AcDbLine
 62
7
  6
CONTINUOUS
 10
48.9671122486
 20
53.8083334903
 11
49.0734952145
 21
53.6833334904
  0
LINE
  5
297
100
AcDbEntity
  8
0
100
AcDbLine
 62
7
  6
CONTINUOUS
 10
38.4139207655
 20
66.2749999988
 11
38.5203037316
 21
66.1499999987
  0
LINE
  5
298
100
AcDbEntity
  8
0
100
AcDbLine
 62
7
  6
CONTINUOUS
 10
47.3713675343
 20
56.683333252
 11
47.2649845311
 21
56.8083332519
  0
LINE
  5
299
100
AcDbEntity
  8
0
100
AcDbLine
 62
7
  6
CONTINUOUS
 10
47.3713675343
 20
58.5999999981
 11
47.2649845312
 21
58.7249999979
  0
LINE
  5
29A
100
AcDbEntity
  8
0
100
AcDbLine
 62
7
  6
CONTINUOUS
 10
48.9139207655
 20
57.4749999981
 11
49.0203037316
 21
57.349999998
  0
LINE
  5
29B
100
AcDbEntity
  8
0
100
AcDbLine
 62
7
  6
CONTINUOUS
 10
37.6692398541
 20
63.5249999988
 11
37.722431337
 21
63.4416665066
  0
LINE
  5
29C
100
AcDbEntity
  8
0
100
AcDbLine
 62
7
  6
CONTINUOUS
 10
36.4458356013
 20
65.5666667448
 11
36.5522185803
 21
65.3999999989
  0
LINE
  5
29D
100
AcDbEntity
  8
0
100
AcDbLine
 62
7
  6
CONTINUOUS
 10
36.4458356002
 20
67.4833333715
 11
36.5522185801
 21
67.3166666254
  0
LINE
  5
29E
100
AcDbEntity
  8
0
100
AcDbLine
 62
7
  6
CONTINUOUS
 10
38.8394526297
 20
66.1916667448
 11
38.7330696635
 21
66.3583332527
  0
LINE
  5
29F
100
AcDbEntity
  8
0
100
AcDbLine
 62
7
  6
CONTINUOUS
 10
36.7649845311
 20
63.6499999988
 11
36.7117930481
 21
63.7749999988
  0
LINE
  5
2A0
100
AcDbEntity
  8
0
100
AcDbLine
 62
7
  6
CONTINUOUS
 10
21.7910576835
 20
179.8783472664
 11
21.7910576835
 21
122.2715463004
  0
LINE
  5
2A1
100
AcDbEntity
  8
0
100
AcDbLine
 62
7
  6
CONTINUOUS
 10
21.7910576835
 20
104.1784536949
 11
21.7910576835
 21
46.571652729
  0
LINE
  5
2A2
100
AcDbEntity
  8
0
100
AcDbLine
 62
7
  6
CONTINUOUS
 10
22.2946430604
 20
46.5716527339
 11
22.2946430604
 21
104.1784536903
  0
LINE
  5
2A3
100
AcDbEntity
  8
0
100
AcDbLine
 62
7
  6
CONTINUOUS
 10
22.2946430604
 20
122.2715463059
 11
22.2946430604
 21
179.8783472622
  0
LINE
  5
2A4
100
AcDbEntity
  8
0
100
AcDbLine
 62
7
  6
CONTINUOUS
 10
23.9426441134
 20
180.2097181158
 11
23.9426441134
 21
122.2912187913
  0
LINE
  5
2A5
100
AcDbEntity
  8
0
100
AcDbLine
 62
7
  6
CONTINUOUS
 10
23.9426441134
 20
104.1598273776
 11
23.9426441134
 21
46.2402818801
  0
LINE
  5
2A6
100
AcDbEntity
  8
0
100
AcDbLine
 62
7
  6
CONTINUOUS
 10
24.1426441127
 20
46.24028188
 11
24.1426441127
 21
104.1598273784
  0
LINE
  5
2A7
100
AcDbEntity
  8
0
100
AcDbLine
 62
7
  6
CONTINUOUS
 10
24.1426441127
 20
122.2912187922
 11
24.1426441127
 21
180.2097181162
  0
LINE
  5
2A8
100
AcDbEntity
  8
0
100
AcDbLine
 62
7
  6
CONTINUOUS
 10
24.3426441127
 20
46.2402818795
 11
24.3426441127
 21
104.1598273775
  0
LINE
  5
2A9
100
AcDbEntity
  8
0
100
AcDbLine
 62
7
  6
CONTINUOUS
 10
24.3426441127
 20
122.2912187917
 11
24.3426441127
 21
180.2097181167
  0
LINE
  5
2AA
100
AcDbEntity
  8
0
100
AcDbLine
 62
7
  6
CONTINUOUS
 10
26.6426441126
 20
53.1249999981
 11
26.6426441127
 21
173.3249999985
  0
LINE
  5
2AB
100
AcDbEntity
  8
0
100
AcDbLine
 62
7
  6
CONTINUOUS
 10
26.6601044965
 20
173.307539612
 11
26.6601044965
 21
166.4662724656
  0
LINE
  5
2AC
100
AcDbEntity
  8
0
100
AcDbLine
 62
7
  6
CONTINUOUS
 10
26.6601044965
 20
58.7837275306
 11
26.6601044965
 21
53.142460383
  0
LINE
  5
2AD
100
AcDbEntity
  8
0
100
AcDbLine
 62
7
  6
CONTINUOUS
 10
26.7084662528
 20
55.0733787381
 11
26.7084662522
 21
53.0901021767
  0
LINE
  5
2AE
100
AcDbEntity
  8
0
100
AcDbLine
 62
7
  6
CONTINUOUS
 10
26.7084662528
 20
171.3754463042
 11
26.7084662507
 21
173.3598978184
  0
LINE
  5
2AF
100
AcDbEntity
  8
0
100
AcDbLine
 62
7
  6
CONTINUOUS
 10
26.8521687295
 20
169.3046210316
 11
26.8521687295
 21
166.3702696085
  0
LINE
  5
2B0
100
AcDbEntity
  8
0
100
AcDbLine
 62
7
  6
CONTINUOUS
 10
26.8521687295
 20
58.8797303877
 11
26.8521687295
 21
57.1421729952
  0
LINE
  5
2B1
100
AcDbEntity
  8
0
100
AcDbLine
 62
7
  6
CONTINUOUS
 10
27.0890215399
 20
70.6641247382
 11
27.0890215398
 21
72.1858752578
  0
LINE
  5
2B2
100
AcDbEntity
  8
0
100
AcDbLine
 62
7
  6
CONTINUOUS
 10
27.2392845046
 20
166.1686636086
 11
27.2392845046
 21
72.2249999972
  0
LINE
  5
2B3
100
AcDbEntity
  8
0
100
AcDbLine
 62
7
  6
CONTINUOUS
 10
27.2392845046
 20
70.6249999984
 11
27.2392845046
 21
59.0813363876
  0
LINE
  5
2B4
100
AcDbEntity
  8
0
100
AcDbLine
 62
7
  6
CONTINUOUS
 10
27.2895592806
 20
61.0249999976
 11
27.2895592805
 21
71.2943722563
  0
LINE
  5
2B5
100
AcDbEntity
  8
0
100
AcDbLine
 62
7
  6
CONTINUOUS
 10
27.3348065789
 20
57.6035972315
 11
27.334806579
 21
61.0249999987
  0
LINE
  5
2B6
100
AcDbEntity
  8
0
100
AcDbLine
 62
7
  6
CONTINUOUS
 10
27.6241713544
 20
168.5431157395
 11
27.6241713544
 21
71.5209023628
  0
LINE
  5
2B7
100
AcDbEntity
  8
0
100
AcDbLine
 62
7
  6
CONTINUOUS
 10
27.7078570798
 20
53.0901026172
 11
27.7078570798
 21
55.073378377
  0
LINE
  5
2B8
100
AcDbEntity
  8
0
100
AcDbLine
 62
7
  6
CONTINUOUS
 10
27.7078570798
 20
171.3756362194
 11
27.7078570798
 21
173.3598960224
  0
LINE
  5
2B9
100
AcDbEntity
  8
0
100
AcDbLine
 62
7
  6
CONTINUOUS
 10
36.9458356012
 20
162.0166667441
 11
36.8926441127
 21
161.8083332521
  0
LINE
  5
2BA
100
AcDbEntity
  8
0
100
AcDbLine
 62
7
  6
CONTINUOUS
 10
34.6958356012
 20
149.7833332515
 11
34.6426441127
 21
149.5749999979
  0
LINE
  5
2BB
100
AcDbEntity
  8
0
100
AcDbLine
 62
7
  6
CONTINUOUS
 10
37.2117930481
 20
161.8083332519
 11
37.2649845311
 21
161.974999998
  0
LINE
  5
2BC
100
AcDbEntity
  8
0
100
AcDbLine
 62
7
  6
CONTINUOUS
 10
39.0734952146
 20
163.474999998
 11
39.0203037316
 21
163.3083333713
  0
LINE
  5
2BD
100
AcDbEntity
  8
0
100
AcDbLine
 62
7
  6
CONTINUOUS
 10
34.9617930481
 20
149.5749999977
 11
35.0149845311
 21
149.7416667438
  0
LINE
  5
2BE
100
AcDbEntity
  8
0
100
AcDbLine
 62
7
  6
CONTINUOUS
 10
39.0734952146
 20
161.4333332518
 11
39.0203037316
 21
161.2666667443
  0
LINE
  5
2BF
100
AcDbEntity
  8
0
100
AcDbLine
 62
7
  6
CONTINUOUS
 10
36.8234952146
 20
149.1999999977
 11
36.7703037316
 21
149.0333332517
  0
LINE
  5
2C0
100
AcDbEntity
  8
0
100
AcDbLine
 62
7
  6
CONTINUOUS
 10
24.2732543182
 20
119.5594859449
 11
23.40837963
 21
116.8615104581
  0
LINE
  5
2C1
100
AcDbEntity
  8
0
100
AcDbLine
 62
7
  6
CONTINUOUS
 10
24.7926668433
 20
121.1235684804
 11
24.9155595051
 21
121.5042223834
  0
LINE
  5
2C2
100
AcDbEntity
  8
0
100
AcDbLine
 62
7
  6
CONTINUOUS
 10
39.2330696637
 20
159.2249999982
 11
39.3394526296
 21
159.3916665057
  0
LINE
  5
2C3
100
AcDbEntity
  8
0
100
AcDbLine
 62
7
  6
CONTINUOUS
 10
34.8022185803
 20
149.9499999977
 11
34.6958356012
 21
149.7833332515
  0
LINE
  5
2C4
100
AcDbEntity
  8
0
100
AcDbLine
 62
7
  6
CONTINUOUS
 10
36.9830696637
 20
148.8249999978
 11
37.0894526296
 21
148.9916667437
  0
LINE
  5
2C5
100
AcDbEntity
  8
0
100
AcDbLine
 62
7
  6
CONTINUOUS
 10
35.0149845311
 20
149.7416667438
 11
35.1213675343
 21
149.8666667438
  0
LINE
  5
2C6
100
AcDbEntity
  8
0
100
AcDbLine
 62
7
  6
CONTINUOUS
 10
36.7703037316
 20
149.0333332517
 11
36.6639207655
 21
148.9083332517
  0
LINE
  5
2C7
100
AcDbEntity
  8
0
100
AcDbLine
 62
7
  6
CONTINUOUS
 10
35.0149845313
 20
150.1166666248
 11
34.8022185803
 21
149.9499999977
  0
LINE
  5
2C8
100
AcDbEntity
  8
0
100
AcDbLine
 62
7
  6
CONTINUOUS
 10
36.7703037315
 20
148.6583332516
 11
36.9830696637
 21
148.8249999978
  0
LINE
  5
2C9
100
AcDbEntity
  8
0
100
AcDbLine
 62
7
  6
CONTINUOUS
 10
38.9671122483
 20
159.3499999979
 11
38.8075377995
 21
159.2666665058
  0
LINE
  5
2CA
100
AcDbEntity
  8
0
100
AcDbLine
 62
7
  6
CONTINUOUS
 10
64.4394668279
 20
51.0661513134
 11
64.1387928421
 21
51.0055798731
  0
LINE
  5
2CB
100
AcDbEntity
  8
0
100
AcDbLine
 62
7
  6
CONTINUOUS
 10
65.1385464805
 20
51.2059660341
 11
64.1387928692
 21
51.006015312
  0
LINE
  5
2CC
100
AcDbEntity
  8
0
100
AcDbLine
 62
7
  6
CONTINUOUS
 10
50.1426441127
 20
52.1249999985
 11
46.1426441127
 21
52.1249999985
  0
LINE
  5
2CD
100
AcDbEntity
  8
0
100
AcDbLine
 62
7
  6
CONTINUOUS
 10
48.8075377989
 20
52.6416665058
 11
48.7011546845
 21
52.6416665058
  0
LINE
  5
2CE
100
AcDbEntity
  8
0
100
AcDbLine
 62
7
  6
CONTINUOUS
 10
47.1586015651
 20
52.6416665058
 11
46.8926441127
 21
52.6416665058
  0
LINE
  5
2CF
100
AcDbEntity
  8
0
100
AcDbLine
 62
7
  6
CONTINUOUS
 10
111.8446859389
 20
52.8249999981
 11
99.3438537873
 21
52.8249999981
  0
LINE
  5
2D0
100
AcDbEntity
  8
0
100
AcDbLine
 62
7
  6
CONTINUOUS
 10
48.7011546839
 20
52.8916665058
 11
48.8075377995
 21
52.8916665058
  0
LINE
  5
2D1
100
AcDbEntity
  8
0
100
AcDbLine
 62
7
  6
CONTINUOUS
 10
32.9426441235
 20
53.0250002085
 11
33.990787315
 21
53.0250000112
  0
LINE
  5
2D2
100
AcDbEntity
  8
0
100
AcDbLine
 62
7
  6
CONTINUOUS
 10
33.990787315
 20
53.0249557547
 11
34.9902742948
 21
53.0249883285
  0
LINE
  5
2D3
100
AcDbEntity
  8
0
100
AcDbLine
 62
7
  6
CONTINUOUS
 10
27.7078570798
 20
53.0901026212
 11
26.7084662525
 21
53.0901026212
  0
LINE
  5
2D4
100
AcDbEntity
  8
0
100
AcDbLine
 62
7
  6
CONTINUOUS
 10
128.5854843103
 20
53.0903334883
 11
127.5858985748
 21
53.0903334883
  0
LINE
  5
2D5
100
AcDbEntity
  8
0
100
AcDbLine
 62
7
  6
CONTINUOUS
 10
60.8926441132
 20
53.1749999974
 11
54.3926441122
 21
53.1749999974
  0
LINE
  5
2D6
100
AcDbEntity
  8
0
100
AcDbLine
 62
7
  6
CONTINUOUS
 10
46.8926441127
 20
54.1416665058
 11
47.1586015651
 21
54.1416665058
  0
LINE
  5
2D7
100
AcDbEntity
  8
0
100
AcDbLine
 62
7
  6
CONTINUOUS
 10
60.2776441125
 20
54.3249999981
 11
56.7451441118
 21
54.3249999981
  0
LINE
  5
2D8
100
AcDbEntity
  8
0
100
AcDbLine
 62
7
  6
CONTINUOUS
 10
56.7401441128
 20
54.3249999981
 11
55.0076441129
 21
54.3249999981
  0
LINE
  5
2D9
100
AcDbEntity
  8
0
100
AcDbLine
 62
7
  6
CONTINUOUS
 10
48.8075377998
 20
54.4749999981
 11
48.5947717184
 21
54.4749999981
  0
LINE
  5
2DA
100
AcDbEntity
  8
0
100
AcDbLine
 62
7
  6
CONTINUOUS
 10
47.7437079153
 20
54.4749999981
 11
47.4777505005
 21
54.4749999981
  0
LINE
  5
2DB
100
AcDbEntity
  8
0
100
AcDbLine
 62
7
  6
CONTINUOUS
 10
60.2776441146
 20
54.7249999985
 11
55.0076441105
 21
54.7249999985
  0
LINE
  5
2DC
100
AcDbEntity
  8
0
100
AcDbLine
 62
7
  6
CONTINUOUS
 10
48.7543461673
 20
54.7249999981
 11
48.6479632015
 21
54.7249999981
  0
LINE
  5
2DD
100
AcDbEntity
  8
0
100
AcDbLine
 62
7
  6
CONTINUOUS
 10
47.6905164323
 20
54.7249999981
 11
47.5309419835
 21
54.7249999981
  0
LINE
  5
2DE
100
AcDbEntity
  8
0
100
AcDbLine
 62
7
  6
CONTINUOUS
 10
26.7084662525
 20
55.0733783607
 11
29.0094149141
 21
55.0733783211
  0
LINE
  5
2DF
100
AcDbEntity
  8
0
100
AcDbLine
 62
7
  6
CONTINUOUS
 10
126.2744640194
 20
55.0743637412
 11
128.5854843103
 21
55.0743638984
  0
LINE
  5
2E0
100
AcDbEntity
  8
0
100
AcDbLine
 62
7
  6
CONTINUOUS
 10
55.804524328
 20
55.2249999981
 11
56.3245243281
 21
55.2249999981
  0
LINE
  5
2E1
100
AcDbEntity
  8
0
100
AcDbLine
 62
7
  6
CONTINUOUS
 10
58.9607638973
 20
55.2249999981
 11
59.4807638973
 21
55.2249999981
  0
LINE
  5
2E2
100
AcDbEntity
  8
0
100
AcDbLine
 62
7
  6
CONTINUOUS
 10
56.5245243281
 20
55.4249999981
 11
58.7607638973
 21
55.4249999981
  0
LINE
  5
2E3
100
AcDbEntity
  8
0
100
AcDbLine
 62
7
  6
CONTINUOUS
 10
47.2117930481
 20
55.7666667442
 11
48.0096654051
 21
55.7666667442
  0
LINE
  5
2E4
100
AcDbEntity
  8
0
100
AcDbLine
 62
7
  6
CONTINUOUS
 10
48.3288143033
 20
55.7666667442
 11
49.0734952146
 21
55.7666667442
  0
LINE
  5
2E5
100
AcDbEntity
  8
0
100
AcDbLine
 62
7
  6
CONTINUOUS
 10
46.8926441127
 20
56.0166667442
 11
49.3926441127
 21
56.0166667442
  0
LINE
  5
2E6
100
AcDbEntity
  8
0
100
AcDbLine
 62
7
  6
CONTINUOUS
 10
30.4426442614
 20
56.0728653665
 11
27.7754619978
 21
56.072865481
  0
LINE
  5
2E7
100
AcDbEntity
  8
0
100
AcDbLine
 62
7
  6
CONTINUOUS
 10
127.5302150682
 20
56.0738178105
 11
124.842643463
 21
56.0738176762
  0
LINE
  5
2E8
100
AcDbEntity
  8
0
100
AcDbLine
 62
7
  6
CONTINUOUS
 10
125.6808700458
 20
56.1140198669
 11
127.4952002854
 21
56.1140199574
  0
LINE
  5
2E9
100
AcDbEntity
  8
0
100
AcDbLine
 62
7
  6
CONTINUOUS
 10
47.7437079153
 20
56.3499999981
 11
47.4777505004
 21
56.3499999981
  0
LINE
  5
2EA
100
AcDbEntity
  8
0
100
AcDbLine
 62
7
  6
CONTINUOUS
 10
28.3018515395
 20
56.573143168
 11
30.4426441217
 21
56.5731430761
  0
LINE
  5
2EB
100
AcDbEntity
  8
0
100
AcDbLine
 62
7
  6
CONTINUOUS
 10
47.5309419835
 20
56.5999999981
 11
47.6905164326
 21
56.5999999981
  0
LINE
  5
2EC
100
AcDbEntity
  8
0
100
AcDbLine
 62
7
  6
CONTINUOUS
 10
59.8426441127
 20
56.7249999981
 11
55.4426441127
 21
56.7249999981
  0
LINE
  5
2ED
100
AcDbEntity
  8
0
100
AcDbLine
 62
7
  6
CONTINUOUS
 10
128.494785971
 20
57.1134739647
 11
125.6808699963
 21
57.1134738739
  0
LINE
  5
2EE
100
AcDbEntity
  8
0
100
AcDbLine
 62
7
  6
CONTINUOUS
 10
48.7543461673
 20
57.5166667442
 11
48.6479632014
 21
57.5166667442
  0
LINE
  5
2EF
100
AcDbEntity
  8
0
100
AcDbLine
 62
7
  6
CONTINUOUS
 10
123.9390992455
 20
57.5207322534
 11
122.93966458
 21
57.5207308623
  0
LINE
  5
2F0
100
AcDbEntity
  8
0
100
AcDbLine
 62
7
  6
CONTINUOUS
 10
30.4429547291
 20
57.5726301822
 11
27.335285316
 21
57.5726303163
  0
LINE
  5
2F1
100
AcDbEntity
  8
0
100
AcDbLine
 62
7
  6
CONTINUOUS
 10
48.5947717188
 20
57.766666625
 11
48.8075377995
 21
57.766666625
  0
LINE
  5
2F2
100
AcDbEntity
  8
0
100
AcDbLine
 62
7
  6
CONTINUOUS
 10
60.7926441127
 20
57.8249999981
 11
54.4926441127
 21
57.8249999981
  0
LINE
  5
2F3
100
AcDbEntity
  8
0
100
AcDbLine
 62
7
  6
CONTINUOUS
 10
49.3926441127
 20
58.2249999981
 11
47.7437079155
 21
58.2249999981
  0
LINE
  5
2F4
100
AcDbEntity
  8
0
100
AcDbLine
 62
7
  6
CONTINUOUS
 10
54.4926441123
 20
58.2249999981
 11
60.7926441131
 21
58.2249999981
  0
LINE
  5
2F5
100
AcDbEntity
  8
0
100
AcDbLine
 62
7
  6
CONTINUOUS
 10
47.743707916
 20
58.4749999981
 11
49.3926441127
 21
58.4749999981
  0
LINE
  5
2F6
100
AcDbEntity
  8
0
100
AcDbLine
 62
7
  6
CONTINUOUS
 10
119.9607258735
 20
53.0250000266
 11
122.3426443953
 21
53.0249685202
  0
LINE
  5
2F7
100
AcDbEntity
  8
0
100
AcDbLine
 62
7
  6
CONTINUOUS
 10
70.2176441122
 20
58.0265686496
 11
71.7926441136
 21
57.8281373011
  0
LINE
  5
2F8
100
AcDbEntity
  8
0
100
AcDbLine
 62
7
  6
CONTINUOUS
 10
47.4777505005
 20
58.266666625
 11
47.7437079153
 21
58.2249999981
  0
LINE
  5
2F9
100
AcDbEntity
  8
0
100
AcDbLine
 62
7
  6
CONTINUOUS
 10
49.0203037316
 20
57.724999998
 11
48.8075377995
 21
57.766666625
  0
LINE
  5
2FA
100
AcDbEntity
  8
0
100
AcDbLine
 62
7
  6
CONTINUOUS
 10
47.7437079155
 20
58.4749999981
 11
47.5309419834
 21
58.516666625
  0
LINE
  5
2FB
100
AcDbEntity
  8
0
100
AcDbLine
 62
7
  6
CONTINUOUS
 10
27.2392845045
 20
70.6249999981
 11
27.0890215398
 21
70.6641247382
  0
LINE
  5
2FC
100
AcDbEntity
  8
0
100
AcDbLine
 62
7
  6
CONTINUOUS
 10
36.8181760141
 20
63.3166665065
 11
36.9777505004
 21
63.2749999988
  0
LINE
  5
2FD
100
AcDbEntity
  8
0
100
AcDbLine
 62
7
  6
CONTINUOUS
 10
37.0309419835
 20
63.5249999988
 11
36.8713675343
 21
63.5666665065
  0
LINE
  5
2FE
100
AcDbEntity
  8
0
100
AcDbLine
 62
7
  6
CONTINUOUS
 10
37.9351972695
 20
63.3166665064
 11
38.0947717183
 21
63.2749999988
  0
LINE
  5
2FF
100
AcDbEntity
  8
0
100
AcDbLine
 62
7
  6
CONTINUOUS
 10
38.1479632015
 20
63.5249999988
 11
37.9883887523
 21
63.5666665066
  0
LINE
  5
300
100
AcDbEntity
  8
0
100
AcDbLine
 62
7
  6
CONTINUOUS
 10
38.2543461672
 20
66.316666745
 11
38.4139207655
 21
66.2749999988
  0
LINE
  5
301
100
AcDbEntity
  8
0
100
AcDbLine
 62
7
  6
CONTINUOUS
 10
36.7649845314
 20
65.2333332524
 11
36.9777505002
 21
65.1499999988
  0
LINE
  5
302
100
AcDbEntity
  8
0
100
AcDbLine
 62
7
  6
CONTINUOUS
 10
36.764984531
 20
67.1499999982
 11
36.9777505007
 21
67.0666666249
  0
LINE
  5
303
100
AcDbEntity
  8
0
100
AcDbLine
 62
7
  6
CONTINUOUS
 10
51.8737221662
 20
60.5593818589
 11
52.0275930001
 21
60.4825592478
  0
LINE
  5
304
100
AcDbEntity
  8
0
100
AcDbLine
 62
7
  6
CONTINUOUS
 10
58.7607638973
 20
55.4249999981
 11
58.9607638973
 21
55.2249999981
  0
LINE
  5
305
100
AcDbEntity
  8
0
100
AcDbLine
 62
7
  6
CONTINUOUS
 10
59.9426441127
 20
56.6249999981
 11
59.8426441127
 21
56.7249999981
  0
LINE
  5
306
100
AcDbEntity
  8
0
100
AcDbLine
 62
7
  6
CONTINUOUS
 10
53.9952839869
 20
56.2358381385
 11
54.220798452
 21
56.0081342123
  0
LINE
  5
307
100
AcDbEntity
  8
0
100
AcDbLine
 62
7
  6
CONTINUOUS
 10
54.5050042394
 20
56.2896072485
 11
54.2794897729
 21
56.5173111763
  0
LINE
  5
308
100
AcDbEntity
  8
0
100
AcDbLine
 62
7
  6
CONTINUOUS
 10
31.8713675342
 20
84.5749999977
 11
31.7649845311
 21
84.6999999975
  0
LINE
  5
309
100
AcDbEntity
  8
0
100
AcDbLine
 62
7
  6
CONTINUOUS
 10
31.8713675342
 20
86.491666625
 11
31.7649845311
 21
86.6166666249
  0
LINE
  5
30A
100
AcDbEntity
  8
0
100
AcDbLine
 62
7
  6
CONTINUOUS
 10
33.4139207654
 20
85.4916667439
 11
33.5203037316
 21
85.3666667438
  0
LINE
  5
30B
100
AcDbEntity
  8
0
100
AcDbLine
 62
7
  6
CONTINUOUS
 10
48.1692398541
 20
54.724999998
 11
48.222431337
 21
54.6416665058
  0
LINE
  5
30C
100
AcDbEntity
  8
0
100
AcDbLine
 62
7
  6
CONTINUOUS
 10
46.9458356013
 20
56.7666667442
 11
47.0522185803
 21
56.5999999982
  0
LINE
  5
30D
100
AcDbEntity
  8
0
100
AcDbLine
 62
7
  6
CONTINUOUS
 10
49.3394526296
 20
53.724999998
 11
49.2330696634
 21
53.891666506
  0
LINE
  5
30E
100
AcDbEntity
  8
0
100
AcDbLine
 62
7
  6
CONTINUOUS
 10
46.9458356013
 20
58.683333371
 11
47.0522185803
 21
58.5166666251
  0
LINE
  5
30F
100
AcDbEntity
  8
0
100
AcDbLine
 62
7
  6
CONTINUOUS
 10
31.4458356013
 20
84.6583332516
 11
31.5522185805
 21
84.4916667437
  0
LINE
  5
310
100
AcDbEntity
  8
0
100
AcDbLine
 62
7
  6
CONTINUOUS
 10
49.3394526296
 20
57.3916667442
 11
49.2330696635
 21
57.5583332521
  0
LINE
  5
311
100
AcDbEntity
  8
0
100
AcDbLine
 62
7
  6
CONTINUOUS
 10
31.4458356003
 20
86.5749999981
 11
31.55221858
 21
86.4083333715
  0
LINE
  5
312
100
AcDbEntity
  8
0
100
AcDbLine
 62
7
  6
CONTINUOUS
 10
33.8394526297
 20
85.4083332512
 11
33.7330696633
 21
85.574999998
  0
LINE
  5
313
100
AcDbEntity
  8
0
100
AcDbLine
 62
7
  6
CONTINUOUS
 10
33.8394526297
 20
87.3666666547
 11
33.7330696638
 21
87.533333341
  0
LINE
  5
314
100
AcDbEntity
  8
0
100
AcDbLine
 62
7
  6
CONTINUOUS
 10
50.5426250038
 20
49.5110595054
 11
50.3737284889
 21
49.8847686735
  0
LINE
  5
315
100
AcDbEntity
  8
0
100
AcDbLine
 62
7
  6
CONTINUOUS
 10
37.8820057863
 20
63.6499999988
 11
37.8288143033
 21
63.7749999988
  0
LINE
  5
316
100
AcDbEntity
  8
0
100
AcDbLine
 62
7
  6
CONTINUOUS
 10
38.5203037316
 20
66.1499999987
 11
38.5734952146
 21
66.0249999989
  0
LINE
  5
317
100
AcDbEntity
  8
0
100
AcDbLine
 62
7
  6
CONTINUOUS
 10
47.2649845311
 20
54.8499999981
 11
47.2117930481
 21
54.9749999981
  0
LINE
  5
318
100
AcDbEntity
  8
0
100
AcDbLine
 62
7
  6
CONTINUOUS
 10
24.7917994088
 20
105.3261515203
 11
24.9146502665
 21
104.9454841237
  0
LINE
  5
319
100
AcDbEntity
  8
0
100
AcDbLine
 62
7
  6
CONTINUOUS
 10
24.2732543178
 20
106.8905140524
 11
23.40837963
 21
109.5884895381
  0
LINE
  5
31A
100
AcDbEntity
  8
0
100
AcDbLine
 62
7
  6
CONTINUOUS
 10
36.7649845311
 20
65.6083332526
 11
36.7117930498
 21
65.7749999933
  0
LINE
  5
31B
100
AcDbEntity
  8
0
100
AcDbLine
 62
7
  6
CONTINUOUS
 10
36.7649845309
 20
67.5249999983
 11
36.7117930482
 21
67.6916666839
  0
LINE
  5
31C
100
AcDbEntity
  8
0
100
AcDbLine
 62
7
  6
CONTINUOUS
 10
31.7649845311
 20
84.6999999975
 11
31.7117930481
 21
84.8666667438
  0
LINE
  5
31D
100
AcDbEntity
  8
0
100
AcDbLine
 62
7
  6
CONTINUOUS
 10
31.7649845311
 20
86.6166666249
 11
31.7117930481
 21
86.7833333712
  0
LINE
  5
31E
100
AcDbEntity
  8
0
100
AcDbLine
 62
7
  6
CONTINUOUS
 10
38.8926441127
 20
66.0249999988
 11
38.8394526297
 21
66.1916667448
  0
LINE
  5
31F
100
AcDbEntity
  8
0
100
AcDbLine
 62
7
  6
CONTINUOUS
 10
33.5203037316
 20
85.3666667438
 11
33.5734952146
 21
85.1999999977
  0
LINE
  5
320
100
AcDbEntity
  8
0
100
AcDbLine
 62
7
  6
CONTINUOUS
 10
33.5203037317
 20
87.3249999979
 11
33.5734952146
 21
87.1583333117
  0
LINE
  5
321
100
AcDbEntity
  8
0
100
AcDbLine
 62
7
  6
CONTINUOUS
 10
36.3926441141
 20
63.8166665008
 11
36.4458356013
 21
63.6083334912
  0
LINE
  5
322
100
AcDbEntity
  8
0
100
AcDbLine
 62
7
  6
CONTINUOUS
 10
31.3926441127
 20
84.866666744
 11
31.4458356013
 21
84.6583332516
  0
LINE
  5
323
100
AcDbEntity
  8
0
100
AcDbLine
 62
7
  6
CONTINUOUS
 10
36.3926441134
 20
65.774999996
 11
36.4458356013
 21
65.5666667448
  0
LINE
  5
324
100
AcDbEntity
  8
0
100
AcDbLine
 62
7
  6
CONTINUOUS
 10
31.3926441127
 20
86.7833333711
 11
31.4458356003
 21
86.5749999981
  0
LINE
  5
325
100
AcDbEntity
  8
0
100
AcDbLine
 62
7
  6
CONTINUOUS
 10
36.3926441127
 20
67.6916666843
 11
36.4458356002
 21
67.4833333715
  0
LINE
  5
326
100
AcDbEntity
  8
0
100
AcDbLine
 62
7
  6
CONTINUOUS
 10
28.3673967369
 20
70.2943722565
 11
28.3673967369
 21
70.3514319421
  0
LINE
  5
327
100
AcDbEntity
  8
0
100
AcDbLine
 62
7
  6
CONTINUOUS
 10
28.6236101487
 20
70.5211487251
 11
28.6236101039
 21
169.542569746
  0
LINE
  5
328
100
AcDbEntity
  8
0
100
AcDbLine
 62
7
  6
CONTINUOUS
 10
29.7382425464
 20
70.2528175156
 11
29.7382426043
 21
61.0249999988
  0
LINE
  5
329
100
AcDbEntity
  8
0
100
AcDbLine
 62
7
  6
CONTINUOUS
 10
30.4426445362
 20
169.5425698274
 11
30.4426131692
 21
170.9249999983
  0
LINE
  5
32A
100
AcDbEntity
  8
0
100
AcDbLine
 62
7
  6
CONTINUOUS
 10
30.4426156971
 20
55.5249999978
 11
30.4426441664
 21
57.5726301828
  0
LINE
  5
32B
100
AcDbEntity
  8
0
100
AcDbLine
 62
7
  6
CONTINUOUS
 10
30.4426891386
 20
168.5431158208
 11
30.4426441246
 21
169.5425698273
  0
LINE
  5
32C
100
AcDbEntity
  8
0
100
AcDbLine
 62
7
  6
CONTINUOUS
 10
30.5077462892
 20
49.2908221394
 11
30.5077462892
 21
50.2902129659
  0
LINE
  5
32D
100
AcDbEntity
  8
0
100
AcDbLine
 62
7
  6
CONTINUOUS
 10
30.5077462888
 20
176.1597870298
 11
30.5077462888
 21
177.159177857
  0
LINE
  5
32E
100
AcDbEntity
  8
0
100
AcDbLine
 62
7
  6
CONTINUOUS
 10
30.6426441127
 20
80.3249999977
 11
30.6426441127
 21
88.3249999977
  0
LINE
  5
32F
100
AcDbEntity
  8
0
100
AcDbLine
 62
7
  6
CONTINUOUS
 10
30.6426441127
 20
95.0749999977
 11
30.6426441127
 21
111.0749999977
  0
LINE
  5
330
100
AcDbEntity
  8
0
100
AcDbLine
 62
7
  6
CONTINUOUS
 10
30.6426441127
 20
124.8249999977
 11
30.6426441127
 21
133.6249999985
  0
LINE
  5
331
100
AcDbEntity
  8
0
100
AcDbLine
 62
7
  6
CONTINUOUS
 10
30.6426441127
 20
146.9749999981
 11
30.6426441127
 21
165.9749999981
  0
LINE
  5
332
100
AcDbEntity
  8
0
100
AcDbLine
 62
7
  6
CONTINUOUS
 10
31.342644112
 20
149.9749999981
 11
31.342644112
 21
150.9749999981
  0
LINE
  5
333
100
AcDbEntity
  8
0
100
AcDbLine
 62
7
  6
CONTINUOUS
 10
31.3926441127
 20
81.03333349
 11
31.3926441127
 21
81.28333349
  0
LINE
  5
334
100
AcDbEntity
  8
0
100
AcDbLine
 62
7
  6
CONTINUOUS
 10
31.3926441127
 20
81.8666665054
 11
31.3926441127
 21
82.1166665054
  0
LINE
  5
335
100
AcDbEntity
  8
0
100
AcDbLine
 62
7
  6
CONTINUOUS
 10
31.3926441127
 20
82.6999999975
 11
31.3926441127
 21
83.03333349
  0
LINE
  5
336
100
AcDbEntity
  8
0
100
AcDbLine
 62
7
  6
CONTINUOUS
 10
31.3926441127
 20
83.6166665054
 11
31.3926441127
 21
83.8666667439
  0
LINE
  5
337
100
AcDbEntity
  8
0
100
AcDbLine
 62
7
  6
CONTINUOUS
 10
31.3926441127
 20
84.8666667433
 11
31.3926441127
 21
85.1999999977
  0
LINE
  5
338
100
AcDbEntity
  8
0
100
AcDbLine
 62
7
  6
CONTINUOUS
 10
31.3926441127
 20
86.783333371
 11
31.3926441127
 21
87.1583333112
  0
LINE
  5
339
100
AcDbEntity
  8
0
100
AcDbLine
 62
7
  6
CONTINUOUS
 10
31.3926441127
 20
96.2249999981
 11
31.3926441127
 21
96.4749999981
  0
LINE
  5
33A
100
AcDbEntity
  8
0
100
AcDbLine
 62
7
  6
CONTINUOUS
 10
31.3926441127
 20
97.4749999981
 11
31.3926441127
 21
98.9749999981
  0
LINE
  5
33B
100
AcDbEntity
  8
0
100
AcDbLine
 62
7
  6
CONTINUOUS
 10
31.3926441127
 20
99.3083330135
 11
31.3926441127
 21
99.6833330135
  0
LINE
  5
33C
100
AcDbEntity
  8
0
100
AcDbLine
 62
7
  6
CONTINUOUS
 10
31.3926441127
 20
100.7249999981
 11
31.3926441127
 21
100.9749999981
  0
LINE
  5
33D
100
AcDbEntity
  8
0
100
AcDbLine
 62
7
  6
CONTINUOUS
 10
31.3926441127
 20
101.3083330137
 11
31.3926441127
 21
101.5999999981
  0
LINE
  5
33E
100
AcDbEntity
  8
0
100
AcDbLine
 62
7
  6
CONTINUOUS
 10
31.3926441127
 20
102.6416665058
 11
31.3926441127
 21
102.8916665058
  0
LINE
  5
33F
100
AcDbEntity
  8
0
100
AcDbLine
 62
7
  6
CONTINUOUS
 10
31.3926441127
 20
103.2249999981
 11
31.3926441127
 21
104.7249999981
  0
LINE
  5
340
100
AcDbEntity
  8
0
100
AcDbLine
 62
7
  6
CONTINUOUS
 10
31.3926441127
 20
105.0583334904
 11
31.3926441127
 21
105.3083334903
  0
LINE
  5
341
100
AcDbEntity
  8
0
100
AcDbLine
 62
7
  6
CONTINUOUS
 10
31.3926441127
 20
106.4749999981
 11
31.3926441127
 21
106.7249999981
  0
LINE
  5
342
100
AcDbEntity
  8
0
100
AcDbLine
 62
7
  6
CONTINUOUS
 10
31.3926441127
 20
107.7249999981
 11
31.3926441127
 21
107.9749999981
  0
LINE
  5
343
100
AcDbEntity
  8
0
100
AcDbLine
 62
7
  6
CONTINUOUS
 10
31.3926441127
 20
108.9749999981
 11
31.3926441127
 21
110.4749999981
  0
LINE
  5
344
100
AcDbEntity
  8
0
100
AcDbLine
 62
7
  6
CONTINUOUS
 10
31.3926441127
 20
126.3999999988
 11
31.3926441127
 21
126.7749999988
  0
LINE
  5
345
100
AcDbEntity
  8
0
100
AcDbLine
 62
7
  6
CONTINUOUS
 10
31.3926441127
 20
127.8166665066
 11
31.3926441127
 21
128.066666745
  0
LINE
  5
346
100
AcDbEntity
  8
0
100
AcDbLine
 62
7
  6
CONTINUOUS
 10
31.3926441127
 20
128.3999999988
 11
31.3926441127
 21
128.6499999988
  0
LINE
  5
347
100
AcDbEntity
  8
0
100
AcDbLine
 62
7
  6
CONTINUOUS
 10
31.3926441127
 20
129.8166667452
 11
31.3926441127
 21
130.0666666258
  0
LINE
  5
348
100
AcDbEntity
  8
0
100
AcDbLine
 62
7
  6
CONTINUOUS
 10
31.3926441127
 20
130.9833333713
 11
31.3926441127
 21
131.3583333123
  0
LINE
  5
349
100
AcDbEntity
  8
0
100
AcDbLine
 62
7
  6
CONTINUOUS
 10
31.6426441127
 20
150.9749999981
 11
31.6426441127
 21
149.9749999981
  0
LINE
  5
34A
100
AcDbEntity
  8
0
100
AcDbLine
 62
7
  6
CONTINUOUS
 10
31.7117930481
 20
131.3583333132
 11
31.7117930481
 21
130.9833333719
  0
LINE
  5
34B
100
AcDbEntity
  8
0
100
AcDbLine
 62
7
  6
CONTINUOUS
 10
31.7117930481
 20
110.2249999981
 11
31.7117930481
 21
108.9749999981
  0
LINE
  5
34C
100
AcDbEntity
  8
0
100
AcDbLine
 62
7
  6
CONTINUOUS
 10
31.7117930481
 20
104.4749999981
 11
31.7117930481
 21
103.2249999981
  0
LINE
  5
34D
100
AcDbEntity
  8
0
100
AcDbLine
 62
7
  6
CONTINUOUS
 10
31.7117930481
 20
98.7249999981
 11
31.7117930481
 21
97.4749999981
  0
LINE
  5
34E
100
AcDbEntity
  8
0
100
AcDbLine
 62
7
  6
CONTINUOUS
 10
31.7117930481
 20
87.1583333121
 11
31.7117930481
 21
86.7833333708
  0
LINE
  5
34F
100
AcDbEntity
  8
0
100
AcDbLine
 62
7
  6
CONTINUOUS
 10
31.7117930481
 20
84.8666667438
 11
31.7117930481
 21
85.1999999977
  0
LINE
  5
350
100
AcDbEntity
  8
0
100
AcDbLine
 62
7
  6
CONTINUOUS
 10
31.8470461576
 20
70.2528175156
 11
31.8470455937
 21
61.0249999981
  0
LINE
  5
351
100
AcDbEntity
  8
0
100
AcDbLine
 62
7
  6
CONTINUOUS
 10
32.0309419835
 20
130.6499999988
 11
32.0309419835
 21
130.3999999988
  0
LINE
  5
352
100
AcDbEntity
  8
0
100
AcDbLine
 62
7
  6
CONTINUOUS
 10
32.0309419835
 20
86.4499999977
 11
32.0309419835
 21
86.1999999977
  0
LINE
  5
353
100
AcDbEntity
  8
0
100
AcDbLine
 62
7
  6
CONTINUOUS
 10
32.0309419835
 20
128.8166667452
 11
32.0309419835
 21
129.6499999988
  0
LINE
  5
354
100
AcDbEntity
  8
0
100
AcDbLine
 62
7
  6
CONTINUOUS
 10
32.1426441127
 20
162.0958334898
 11
32.1426441128
 21
162.3958334905
  0
LINE
  5
355
100
AcDbEntity
  8
0
100
AcDbLine
 62
7
  6
CONTINUOUS
 10
32.2437079155
 20
128.8583332527
 11
32.2437079155
 21
129.6083332527
  0
LINE
  5
356
100
AcDbEntity
  8
0
100
AcDbLine
 62
7
  6
CONTINUOUS
 10
32.342644112
 20
149.4749999981
 11
32.342644112
 21
151.4749999981
  0
LINE
  5
357
100
AcDbEntity
  8
0
100
AcDbLine
 62
7
  6
CONTINUOUS
 10
32.4579259937
 20
37.7249999981
 11
32.4579259941
 21
38.1249999981
  0
LINE
  5
358
100
AcDbEntity
  8
0
100
AcDbLine
 62
7
  6
CONTINUOUS
 10
32.4579259937
 20
188.3249999981
 11
32.4579259946
 21
188.5122064948
  0
LINE
  5
359
100
AcDbEntity
  8
0
100
AcDbLine
 62
7
  6
CONTINUOUS
 10
32.4579259946
 20
188.5249999981
 11
32.4579259946
 21
188.7249999981
  0
LINE
  5
35A
100
AcDbEntity
  8
0
100
AcDbLine
 62
7
  6
CONTINUOUS
 10
32.4910224394
 20
51.5917706958
 11
32.4910222359
 21
49.2908221394
  0
LINE
  5
35B
100
AcDbEntity
  8
0
100
AcDbLine
 62
7
  6
CONTINUOUS
 10
32.4920077526
 20
174.8568200507
 11
32.4920077903
 21
177.159177857
  0
LINE
  5
35C
100
AcDbEntity
  8
0
100
AcDbLine
 62
7
  6
CONTINUOUS
 10
32.5096654051
 20
101.9333330135
 11
32.5096654051
 21
102.6416665058
  0
LINE
  5
35D
100
AcDbEntity
  8
0
100
AcDbLine
 62
7
  6
CONTINUOUS
 10
32.5628568882
 20
97.6416669827
 11
32.5628568882
 21
98.7249999981
  0
LINE
  5
35E
100
AcDbEntity
  8
0
100
AcDbLine
 62
7
  6
CONTINUOUS
 10
32.5628568882
 20
103.3916665058
 11
32.5628568882
 21
104.4749999981
  0
LINE
  5
35F
100
AcDbEntity
  8
0
100
AcDbLine
 62
7
  6
CONTINUOUS
 10
32.5628568882
 20
105.3083334904
 11
32.5628568882
 21
106.4749999981
  0
LINE
  5
360
100
AcDbEntity
  8
0
100
AcDbLine
 62
7
  6
CONTINUOUS
 10
32.5628568882
 20
109.141666625
 11
32.5628568882
 21
110.2249999981
  0
LINE
  5
361
100
AcDbEntity
  8
0
100
AcDbLine
 62
7
  6
CONTINUOUS
 10
32.6426441127
 20
151.4749999981
 11
32.6426441127
 21
149.4749999981
  0
LINE
  5
362
100
AcDbEntity
  8
0
100
AcDbLine
 62
7
  6
CONTINUOUS
 10
32.7892968444
 20
33.2437887623
 11
32.7892968445
 21
36.0769989458
  0
LINE
  5
363
100
AcDbEntity
  8
0
100
AcDbLine
 62
7
  6
CONTINUOUS
 10
32.7892968447
 20
190.3730010494
 11
32.7892968432
 21
193.2062112338
  0
LINE
  5
364
100
AcDbEntity
  8
0
100
AcDbLine
 62
7
  6
CONTINUOUS
 10
32.8288143033
 20
101.8499999981
 11
32.8288143033
 21
102.6416665058
  0
LINE
  5
365
100
AcDbEntity
  8
0
100
AcDbLine
 62
7
  6
CONTINUOUS
 10
32.8820057863
 20
110.2249999981
 11
32.8820057863
 21
109.141666625
  0
LINE
  5
366
100
AcDbEntity
  8
0
100
AcDbLine
 62
7
  6
CONTINUOUS
 10
32.8820057863
 20
106.4749999981
 11
32.8820057863
 21
105.3083334904
  0
LINE
  5
367
100
AcDbEntity
  8
0
100
AcDbLine
 62
7
  6
CONTINUOUS
 10
32.8820057863
 20
104.4749999981
 11
32.8820057863
 21
103.3916665058
  0
LINE
  5
368
100
AcDbEntity
  8
0
100
AcDbLine
 62
7
  6
CONTINUOUS
 10
32.8820057863
 20
98.7249999981
 11
32.8820057863
 21
97.6416669827
  0
LINE
  5
369
100
AcDbEntity
  8
0
100
AcDbLine
 62
7
  6
CONTINUOUS
 10
32.9926441138
 20
156.2458334904
 11
32.9926441133
 21
158.2458334904
  0
LINE
  5
36A
100
AcDbEntity
  8
0
100
AcDbLine
 62
7
  6
CONTINUOUS
 10
32.9926441127
 20
161.2458334905
 11
32.9926441125
 21
162.0958334901
  0
LINE
  5
36B
100
AcDbEntity
  8
0
100
AcDbLine
 62
7
  6
CONTINUOUS
 10
32.9926441124
 20
162.3958334904
 11
32.9926441122
 21
163.2458334904
  0
LINE
  5
36C
100
AcDbEntity
  8
0
100
AcDbLine
 62
7
  6
CONTINUOUS
 10
33.2543461674
 20
86.1999999981
 11
33.2543461674
 21
86.4499999977
  0
LINE
  5
36D
100
AcDbEntity
  8
0
100
AcDbLine
 62
7
  6
CONTINUOUS
 10
33.2543461674
 20
130.3999999988
 11
33.2543461674
 21
130.6499999988
  0
LINE
  5
36E
100
AcDbEntity
  8
0
100
AcDbLine
 62
7
  6
CONTINUOUS
 10
33.2926441119
 20
163.2458334903
 11
33.2926441125
 21
162.3958334909
  0
LINE
  5
36F
100
AcDbEntity
  8
0
100
AcDbLine
 62
7
  6
CONTINUOUS
 10
33.2926441127
 20
162.0958334906
 11
33.2926441132
 21
161.2458334906
  0
LINE
  5
370
100
AcDbEntity
  8
0
100
AcDbLine
 62
7
  6
CONTINUOUS
 10
33.2926441151
 20
158.2458334904
 11
33.2926441164
 21
156.2458334906
  0
LINE
  5
371
100
AcDbEntity
  8
0
100
AcDbLine
 62
7
  6
CONTINUOUS
 10
33.342644112
 20
148.9749999981
 11
33.342644112
 21
151.9749999981
  0
LINE
  5
372
100
AcDbEntity
  8
0
100
AcDbLine
 62
7
  6
CONTINUOUS
 10
33.4905094222
 20
53.0250002307
 11
33.4905095999
 21
50.3578178701
  0
LINE
  5
373
100
AcDbEntity
  8
0
100
AcDbLine
 62
7
  6
CONTINUOUS
 10
33.4914617188
 20
173.4249994344
 11
33.491461795
 21
176.0922531345
  0
LINE
  5
374
100
AcDbEntity
  8
0
100
AcDbLine
 62
7
  6
CONTINUOUS
 10
33.5734952146
 20
85.1999999977
 11
33.5734952146
 21
84.8666667438
  0
LINE
  5
375
100
AcDbEntity
  8
0
100
AcDbLine
 62
7
  6
CONTINUOUS
 10
33.5734952146
 20
86.7833333712
 11
33.5734952146
 21
87.1583333112
  0
LINE
  5
376
100
AcDbEntity
  8
0
100
AcDbLine
 62
7
  6
CONTINUOUS
 10
33.5734952146
 20
97.4749999981
 11
33.5734952146
 21
98.7249999981
  0
LINE
  5
377
100
AcDbEntity
  8
0
100
AcDbLine
 62
7
  6
CONTINUOUS
 10
33.5734952146
 20
103.2249999981
 11
33.5734952146
 21
104.4749999981
  0
LINE
  5
378
100
AcDbEntity
  8
0
100
AcDbLine
 62
7
  6
CONTINUOUS
 10
33.5734952146
 20
108.9749999981
 11
33.5734952146
 21
110.2249999981
  0
LINE
  5
379
100
AcDbEntity
  8
0
100
AcDbLine
 62
7
  6
CONTINUOUS
 10
33.5734952146
 20
130.983333372
 11
33.5734952146
 21
131.3583333123
  0
LINE
  5
37A
100
AcDbEntity
  8
0
100
AcDbLine
 62
7
  6
CONTINUOUS
 10
33.6266866976
 20
102.6416665058
 11
33.6266866976
 21
101.8499999981
  0
LINE
  5
37B
100
AcDbEntity
  8
0
100
AcDbLine
 62
7
  6
CONTINUOUS
 10
33.6266866976
 20
95.5583330135
 11
33.6266866976
 21
96.2249999981
  0
LINE
  5
37C
100
AcDbEntity
  8
0
100
AcDbLine
 62
7
  6
CONTINUOUS
 10
33.6266866976
 20
96.4749999981
 11
33.6266866976
 21
97.1416669827
  0
LINE
  5
37D
100
AcDbEntity
  8
0
100
AcDbLine
 62
7
  6
CONTINUOUS
 10
33.6266866976
 20
107.0583332519
 11
33.6266866976
 21
107.7249999981
  0
LINE
  5
37E
100
AcDbEntity
  8
0
100
AcDbLine
 62
7
  6
CONTINUOUS
 10
33.6266866976
 20
107.9749999981
 11
33.6266866976
 21
108.641666625
  0
LINE
  5
37F
100
AcDbEntity
  8
0
100
AcDbLine
 62
7
  6
CONTINUOUS
 10
33.6426441127
 20
151.9749999981
 11
33.6426441127
 21
150.6249999984
  0
LINE
  5
380
100
AcDbEntity
  8
0
100
AcDbLine
 62
7
  6
CONTINUOUS
 10
33.6426441127
 20
150.3249999977
 11
33.6426441127
 21
148.9749999981
  0
LINE
  5
381
100
AcDbEntity
  8
0
100
AcDbLine
 62
7
  6
CONTINUOUS
 10
33.8926441127
 20
131.3583333124
 11
33.8926441127
 21
130.9833333719
  0
LINE
  5
382
100
AcDbEntity
  8
0
100
AcDbLine
 62
7
  6
CONTINUOUS
 10
33.8926441127
 20
129.3999999988
 11
33.8926441127
 21
129.066666745
  0
LINE
  5
383
100
AcDbEntity
  8
0
100
AcDbLine
 62
7
  6
CONTINUOUS
 10
33.8926441127
 20
128.066666745
 11
33.8926441127
 21
127.6916665066
  0
LINE
  5
384
100
AcDbEntity
  8
0
100
AcDbLine
 62
7
  6
CONTINUOUS
 10
33.8926441127
 20
126.6499999988
 11
33.8926441127
 21
126.3999999988
  0
LINE
  5
385
100
AcDbEntity
  8
0
100
AcDbLine
 62
7
  6
CONTINUOUS
 10
33.8926441127
 20
110.4749999981
 11
33.8926441127
 21
108.9749999981
  0
LINE
  5
386
100
AcDbEntity
  8
0
100
AcDbLine
 62
7
  6
CONTINUOUS
 10
33.8926441127
 20
108.641666625
 11
33.8926441127
 21
107.0583332519
  0
LINE
  5
387
100
AcDbEntity
  8
0
100
AcDbLine
 62
7
  6
CONTINUOUS
 10
33.8926441127
 20
106.7249999981
 11
33.8926441127
 21
106.4749999981
  0
LINE
  5
388
100
AcDbEntity
  8
0
100
AcDbLine
 62
7
  6
CONTINUOUS
 10
33.8926441127
 20
105.3083334904
 11
33.8926441127
 21
105.0583334903
  0
LINE
  5
389
100
AcDbEntity
  8
0
100
AcDbLine
 62
7
  6
CONTINUOUS
 10
33.8926441127
 20
104.7249999981
 11
33.8926441127
 21
103.2249999981
  0
LINE
  5
38A
100
AcDbEntity
  8
0
100
AcDbLine
 62
7
  6
CONTINUOUS
 10
33.8926441127
 20
102.8916665058
 11
33.8926441127
 21
101.8916669826
  0
LINE
  5
38B
100
AcDbEntity
  8
0
100
AcDbLine
 62
7
  6
CONTINUOUS
 10
33.8926441127
 20
100.9749999981
 11
33.8926441127
 21
100.5999999981
  0
LINE
  5
38C
100
AcDbEntity
  8
0
100
AcDbLine
 62
7
  6
CONTINUOUS
 10
33.8926441127
 20
99.5583330135
 11
33.8926441127
 21
99.3083330135
  0
LINE
  5
38D
100
AcDbEntity
  8
0
100
AcDbLine
 62
7
  6
CONTINUOUS
 10
33.8926441127
 20
98.9749999981
 11
33.8926441127
 21
97.4749999981
  0
LINE
  5
38E
100
AcDbEntity
  8
0
100
AcDbLine
 62
7
  6
CONTINUOUS
 10
33.8926441127
 20
97.1416669826
 11
33.8926441127
 21
95.5583330135
  0
LINE
  5
38F
100
AcDbEntity
  8
0
100
AcDbLine
 62
7
  6
CONTINUOUS
 10
33.8926441127
 20
87.1583333116
 11
33.8926441127
 21
86.7833333708
  0
LINE
  5
390
100
AcDbEntity
  8
0
100
AcDbLine
 62
7
  6
CONTINUOUS
 10
33.8926441127
 20
85.1999999969
 11
33.8926441127
 21
84.8666667439
  0
LINE
  5
391
100
AcDbEntity
  8
0
100
AcDbLine
 62
7
  6
CONTINUOUS
 10
33.8926441127
 20
83.8666667439
 11
33.8926441127
 21
83.4916665054
  0
LINE
  5
392
100
AcDbEntity
  8
0
100
AcDbLine
 62
7
  6
CONTINUOUS
 10
33.8926441127
 20
82.2416665053
 11
33.8926441127
 21
81.8666665054
  0
LINE
  5
393
100
AcDbEntity
  8
0
100
AcDbLine
 62
7
  6
CONTINUOUS
 10
33.8926441127
 20
81.2833334896
 11
33.8926441127
 21
81.03333349
  0
LINE
  5
394
100
AcDbEntity
  8
0
100
AcDbLine
 62
7
  6
CONTINUOUS
 10
33.9890907218
 20
61.0249999981
 11
33.9890907221
 21
70.2943722565
  0
LINE
  5
395
100
AcDbEntity
  8
0
100
AcDbLine
 62
7
  6
CONTINUOUS
 10
33.990787315
 20
53.0250000112
 11
33.9907874083
 21
50.8842075569
  0
LINE
  5
396
100
AcDbEntity
  8
0
100
AcDbLine
 62
7
  6
CONTINUOUS
 10
34.1426441127
 20
162.3958334904
 11
34.1426441126
 21
162.095833492
  0
LINE
  5
397
100
AcDbEntity
  8
0
100
AcDbLine
 62
7
  6
CONTINUOUS
 10
34.3250744042
 20
175.2440339907
 11
34.3250744944
 21
173.4249995731
  0
LINE
  5
398
100
AcDbEntity
  8
0
100
AcDbLine
 62
7
  6
CONTINUOUS
 10
34.4926441123
 20
150.6249999985
 11
34.4926441123
 21
150.3249999978
  0
LINE
  5
399
100
AcDbEntity
  8
0
100
AcDbLine
 62
7
  6
CONTINUOUS
 10
34.6426441127
 20
133.6249999985
 11
34.6426441127
 21
124.8249999977
  0
LINE
  5
39A
100
AcDbEntity
  8
0
100
AcDbLine
 62
7
  6
CONTINUOUS
 10
34.6426441127
 20
111.0749999977
 11
34.6426441127
 21
95.0749999977
  0
LINE
  5
39B
100
AcDbEntity
  8
0
100
AcDbLine
 62
7
  6
CONTINUOUS
 10
34.6426441127
 20
88.3249999977
 11
34.6426441127
 21
80.3249999977
  0
LINE
  5
39C
100
AcDbEntity
  8
0
100
AcDbLine
 62
7
  6
CONTINUOUS
 10
34.6426441127
 20
149.1999999972
 11
34.6426441127
 21
149.5749999978
  0
LINE
  5
39D
100
AcDbEntity
  8
0
100
AcDbLine
 62
7
  6
CONTINUOUS
 10
34.6426441127
 20
151.8249999977
 11
34.6426441127
 21
152.0749999978
  0
LINE
  5
39E
100
AcDbEntity
  8
0
100
AcDbLine
 62
7
  6
CONTINUOUS
 10
34.9617930481
 20
149.5749999977
 11
34.9617930481
 21
149.1999999977
  0
LINE
  5
39F
100
AcDbEntity
  8
0
100
AcDbLine
 62
7
  6
CONTINUOUS
 10
34.9902743874
 20
49.8847686735
 11
34.9902743874
 21
50.884207467
  0
LINE
  5
3A0
100
AcDbEntity
  8
0
100
AcDbLine
 62
7
  6
CONTINUOUS
 10
34.990274388
 20
50.884207467
 11
34.990336408
 21
53.0248401467
  0
LINE
  5
3A1
100
AcDbEntity
  8
0
100
AcDbLine
 62
7
  6
CONTINUOUS
 10
39.3394526296
 20
159.3916665057
 11
39.3926441127
 21
159.6416665059
  0
LINE
  5
3A2
100
AcDbEntity
  8
0
100
AcDbLine
 62
7
  6
CONTINUOUS
 10
39.3394526296
 20
163.2666666248
 11
39.3926441127
 21
163.4749999981
  0
LINE
  5
3A3
100
AcDbEntity
  8
0
100
AcDbLine
 62
7
  6
CONTINUOUS
 10
31.4458356014
 20
131.5666666558
 11
31.3926441127
 21
131.3583333121
  0
LINE
  5
3A4
100
AcDbEntity
  8
0
100
AcDbLine
 62
7
  6
CONTINUOUS
 10
39.3394526296
 20
161.2249999979
 11
39.3926441127
 21
161.433333252
  0
LINE
  5
3A5
100
AcDbEntity
  8
0
100
AcDbLine
 62
7
  6
CONTINUOUS
 10
39.1266866976
 20
159.6833334903
 11
39.0734952146
 21
159.4749999982
  0
LINE
  5
3A6
100
AcDbEntity
  8
0
100
AcDbLine
 62
7
  6
CONTINUOUS
 10
37.0894526296
 20
148.9916667437
 11
37.1426441127
 21
149.1999999977
  0
LINE
  5
3A7
100
AcDbEntity
  8
0
100
AcDbLine
 62
7
  6
CONTINUOUS
 10
33.8394526296
 20
130.7749999986
 11
33.8926441127
 21
130.9833333719
  0
LINE
  5
3A8
100
AcDbEntity
  8
0
100
AcDbLine
 62
7
  6
CONTINUOUS
 10
31.7117930481
 20
131.3583333124
 11
31.764984531
 21
131.5249999986
  0
LINE
  5
3A9
100
AcDbEntity
  8
0
100
AcDbLine
 62
7
  6
CONTINUOUS
 10
33.5734952146
 20
130.9833333719
 11
33.5203037316
 21
130.8166666259
  0
LINE
  5
3AA
100
AcDbEntity
  8
0
100
AcDbLine
 62
7
  6
CONTINUOUS
 10
31.5522185802
 20
131.7333333419
 11
31.4458356014
 21
131.5666666558
  0
LINE
  5
3AB
100
AcDbEntity
  8
0
100
AcDbLine
 62
7
  6
CONTINUOUS
 10
33.7330696638
 20
130.6083333721
 11
33.8394526296
 21
130.7749999986
  0
LINE
  5
3AC
100
AcDbEntity
  8
0
100
AcDbLine
 62
7
  6
CONTINUOUS
 10
31.764984531
 20
131.5249999986
 11
31.8713675345
 21
131.6499999989
  0
LINE
  5
3AD
100
AcDbEntity
  8
0
100
AcDbLine
 62
7
  6
CONTINUOUS
 10
33.5203037316
 20
130.8166666259
 11
33.4139207654
 21
130.6916666257
  0
LINE
  5
3AE
100
AcDbEntity
  8
0
100
AcDbLine
 62
7
  6
CONTINUOUS
 10
35.1213675343
 20
149.8666667438
 11
35.2809419835
 21
149.9499999977
  0
LINE
  5
3AF
100
AcDbEntity
  8
0
100
AcDbLine
 62
7
  6
CONTINUOUS
 10
35.2277504999
 20
150.1999999976
 11
35.0149845313
 21
150.1166666248
  0
LINE
  5
3B0
100
AcDbEntity
  8
0
100
AcDbLine
 62
7
  6
CONTINUOUS
 10
48.8075377994
 20
54.4749999981
 11
48.9671122485
 21
54.5166665058
  0
LINE
  5
3B1
100
AcDbEntity
  8
0
100
AcDbLine
 62
7
  6
CONTINUOUS
 10
48.9139207654
 20
54.7666665058
 11
48.7543461673
 21
54.7249999981
  0
LINE
  5
3B2
100
AcDbEntity
  8
0
100
AcDbLine
 62
7
  6
CONTINUOUS
 10
47.7437079156
 20
54.4749999981
 11
47.903282439
 21
54.5166665058
  0
LINE
  5
3B3
100
AcDbEntity
  8
0
100
AcDbLine
 62
7
  6
CONTINUOUS
 10
47.850090956
 20
54.7666665058
 11
47.6905164323
 21
54.7249999981
  0
LINE
  5
3B4
100
AcDbEntity
  8
0
100
AcDbLine
 62
7
  6
CONTINUOUS
 10
48.807537799
 20
52.6416665058
 11
49.0203037315
 21
52.6833334904
  0
LINE
  5
3B5
100
AcDbEntity
  8
0
100
AcDbLine
 62
7
  6
CONTINUOUS
 10
48.5947717183
 20
57.766666625
 11
48.3820057862
 21
57.724999998
  0
LINE
  5
3B6
100
AcDbEntity
  8
0
100
AcDbLine
 62
7
  6
CONTINUOUS
 10
71.7926441194
 20
58.6218626957
 11
70.217644112
 21
58.4234313465
  0
LINE
  5
3B7
100
AcDbEntity
  8
0
100
AcDbLine
 62
7
  6
CONTINUOUS
 10
54.3926441127
 20
59.0749999977
 11
60.8926441127
 21
59.0749999977
  0
LINE
  5
3B8
100
AcDbEntity
  8
0
100
AcDbLine
 62
7
  6
CONTINUOUS
 10
49.3926441127
 20
59.4749999981
 11
47.7437079155
 21
59.4749999981
  0
LINE
  5
3B9
100
AcDbEntity
  8
0
100
AcDbLine
 62
7
  6
CONTINUOUS
 10
47.7437079154
 20
59.7249999981
 11
49.3926441127
 21
59.7249999981
  0
LINE
  5
3BA
100
AcDbEntity
  8
0
100
AcDbLine
 62
7
  6
CONTINUOUS
 10
126.7140112666
 20
59.9006675709
 11
125.6808661164
 21
59.9006675709
  0
LINE
  5
3BB
100
AcDbEntity
  8
0
100
AcDbLine
 62
7
  6
CONTINUOUS
 10
124.2160478897
 20
59.9249999981
 11
126.714011266
 21
59.9249999981
  0
LINE
  5
3BC
100
AcDbEntity
  8
0
100
AcDbLine
 62
7
  6
CONTINUOUS
 10
124.1252451423
 20
60.0192605484
 11
126.714011266
 21
60.0192605484
  0
LINE
  5
3BD
100
AcDbEntity
  8
0
100
AcDbLine
 62
7
  6
CONTINUOUS
 10
50.3737253986
 20
60.0594365444
 11
51.3736106925
 21
60.0594368812
  0
LINE
  5
3BE
100
AcDbEntity
  8
0
100
AcDbLine
 62
7
  6
CONTINUOUS
 10
46.1426441127
 20
60.1249999985
 11
50.1426441127
 21
60.1249999985
  0
LINE
  5
3BF
100
AcDbEntity
  8
0
100
AcDbLine
 62
7
  6
CONTINUOUS
 10
52.0275930001
 20
60.4825592478
 11
62.6997424506
 21
60.4825592478
  0
LINE
  5
3C0
100
AcDbEntity
  8
0
100
AcDbLine
 62
7
  6
CONTINUOUS
 10
51.8737221662
 20
60.5593818589
 11
62.9252553009
 21
60.5593818589
  0
LINE
  5
3C1
100
AcDbEntity
  8
0
100
AcDbLine
 62
7
  6
CONTINUOUS
 10
27.2895592805
 20
61.0249999981
 11
33.9890907218
 21
61.0249999981
  0
LINE
  5
3C2
100
AcDbEntity
  8
0
100
AcDbLine
 62
7
  6
CONTINUOUS
 10
62.0513164633
 20
61.51581518
 11
53.2339717621
 21
61.51581518
  0
LINE
  5
3C3
100
AcDbEntity
  8
0
100
AcDbLine
 62
7
  6
CONTINUOUS
 10
39.6426441127
 20
61.5249999988
 11
35.6426441127
 21
61.5249999988
  0
LINE
  5
3C4
100
AcDbEntity
  8
0
100
AcDbLine
 62
7
  6
CONTINUOUS
 10
63.9690760791
 20
61.5593532592
 11
62.0513164641
 21
61.5593532607
  0
LINE
  5
3C5
100
AcDbEntity
  8
0
100
AcDbLine
 62
7
  6
CONTINUOUS
 10
53.2339717613
 20
61.5593532607
 11
51.8737768315
 21
61.5593532607
  0
LINE
  5
3C6
100
AcDbEntity
  8
0
100
AcDbLine
 62
7
  6
CONTINUOUS
 10
38.8926441127
 20
62.4416665066
 11
36.3926441145
 21
62.4416665066
  0
LINE
  5
3C7
100
AcDbEntity
  8
0
100
AcDbLine
 62
7
  6
CONTINUOUS
 10
29.7382425941
 20
62.6449999981
 11
31.8470456927
 21
62.6449999981
  0
LINE
  5
3C8
100
AcDbEntity
  8
0
100
AcDbLine
 62
7
  6
CONTINUOUS
 10
36.3926441146
 20
62.6916665066
 11
38.4671122485
 21
62.6916665066
  0
LINE
  5
3C9
100
AcDbEntity
  8
0
100
AcDbLine
 62
7
  6
CONTINUOUS
 10
38.0947717184
 20
62.9416665066
 11
38.5203037316
 21
62.9416665066
  0
LINE
  5
3CA
100
AcDbEntity
  8
0
100
AcDbLine
 62
7
  6
CONTINUOUS
 10
38.3075377998
 20
63.2749999988
 11
38.0947717184
 21
63.2749999988
  0
LINE
  5
3CB
100
AcDbEntity
  8
0
100
AcDbLine
 62
7
  6
CONTINUOUS
 10
37.2437079153
 20
63.2749999988
 11
36.9777505005
 21
63.2749999988
  0
LINE
  5
3CC
100
AcDbEntity
  8
0
100
AcDbLine
 62
7
  6
CONTINUOUS
 10
38.2543461673
 20
63.5249999988
 11
38.1479632015
 21
63.5249999988
  0
LINE
  5
3CD
100
AcDbEntity
  8
0
100
AcDbLine
 62
7
  6
CONTINUOUS
 10
37.1905164323
 20
63.5249999988
 11
37.0309419835
 21
63.5249999988
  0
LINE
  5
3CE
100
AcDbEntity
  8
0
100
AcDbLine
 62
7
  6
CONTINUOUS
 10
36.7117930481
 20
64.566666745
 11
37.5096654051
 21
64.566666745
  0
LINE
  5
3CF
100
AcDbEntity
  8
0
100
AcDbLine
 62
7
  6
CONTINUOUS
 10
37.8288143033
 20
64.566666745
 11
38.5734952146
 21
64.566666745
  0
LINE
  5
3D0
100
AcDbEntity
  8
0
100
AcDbLine
 62
7
  6
CONTINUOUS
 10
36.3926441138
 20
64.816666745
 11
38.8926441127
 21
64.816666745
  0
LINE
  5
3D1
100
AcDbEntity
  8
0
100
AcDbLine
 62
7
  6
CONTINUOUS
 10
62.051316463
 20
64.9336723487
 11
60.0513164633
 21
64.9336723487
  0
LINE
  5
3D2
100
AcDbEntity
  8
0
100
AcDbLine
 62
7
  6
CONTINUOUS
 10
55.2339717621
 20
64.9336723487
 11
53.2339717621
 21
64.9336723487
  0
LINE
  5
3D3
100
AcDbEntity
  8
0
100
AcDbLine
 62
7
  6
CONTINUOUS
 10
37.2437079153
 20
65.1499999988
 11
36.9777505004
 21
65.1499999988
  0
LINE
  5
3D4
100
AcDbEntity
  8
0
100
AcDbLine
 62
7
  6
CONTINUOUS
 10
37.0309419835
 20
65.3999999988
 11
37.1905164326
 21
65.3999999988
  0
LINE
  5
3D5
100
AcDbEntity
  8
0
100
AcDbLine
 62
7
  6
CONTINUOUS
 10
124.6814314509
 20
59.9009620737
 11
125.6808661164
 21
59.9006675707
  0
LINE
  5
3D6
100
AcDbEntity
  8
0
100
AcDbLine
 62
7
  6
CONTINUOUS
 10
124.2160479176
 20
59.9051780767
 11
124.6814314509
 21
59.9009620737
  0
LINE
  5
3D7
100
AcDbEntity
  8
0
100
AcDbLine
 62
7
  6
CONTINUOUS
 10
36.9777505007
 20
67.0666666249
 11
37.2437050452
 21
67.0250004478
  0
LINE
  5
3D8
100
AcDbEntity
  8
0
100
AcDbLine
 62
7
  6
CONTINUOUS
 10
38.5203037314
 20
66.5249999989
 11
38.3075377995
 21
66.5666666258
  0
LINE
  5
3D9
100
AcDbEntity
  8
0
100
AcDbLine
 62
7
  6
CONTINUOUS
 10
37.2437079158
 20
67.2749999981
 11
37.0309419832
 21
67.3166666251
  0
LINE
  5
3DA
100
AcDbEntity
  8
0
100
AcDbLine
 62
7
  6
CONTINUOUS
 10
32.0309419834
 20
84.4916667439
 11
31.8713675342
 21
84.5749999977
  0
LINE
  5
3DB
100
AcDbEntity
  8
0
100
AcDbLine
 62
7
  6
CONTINUOUS
 10
68.8926441123
 20
60.9259618917
 11
72.8208473429
 21
58.6580127
  0
LINE
  5
3DC
100
AcDbEntity
  8
0
100
AcDbLine
 62
7
  6
CONTINUOUS
 10
73.8208473436
 20
58.6580126995
 11
68.3926441126
 21
61.7919872965
  0
LINE
  5
3DD
100
AcDbEntity
  8
0
100
AcDbLine
 62
7
  6
CONTINUOUS
 10
33.0947717183
 20
81.53333349
 11
33.4671122484
 21
81.28333349
  0
LINE
  5
3DE
100
AcDbEntity
  8
0
100
AcDbLine
 62
7
  6
CONTINUOUS
 10
33.8926441127
 20
81.28333349
 11
33.5203037316
 21
81.53333349
  0
LINE
  5
3DF
100
AcDbEntity
  8
0
100
AcDbLine
 62
7
  6
CONTINUOUS
 10
31.5522185805
 20
84.4916667437
 11
31.7649845311
 21
84.3249999976
  0
LINE
  5
3E0
100
AcDbEntity
  8
0
100
AcDbLine
 62
7
  6
CONTINUOUS
 10
31.55221858
 20
86.4083333715
 11
31.764984531
 21
86.241666625
  0
LINE
  5
3E1
100
AcDbEntity
  8
0
100
AcDbLine
 62
7
  6
CONTINUOUS
 10
33.7330696633
 20
85.574999998
 11
33.5203037318
 21
85.7416667437
  0
LINE
  5
3E2
100
AcDbEntity
  8
0
100
AcDbLine
 62
7
  6
CONTINUOUS
 10
33.7330696638
 20
87.533333341
 11
33.5203037317
 21
87.6999999979
  0
LINE
  5
3E3
100
AcDbEntity
  8
0
100
AcDbLine
 62
7
  6
CONTINUOUS
 10
33.4139207653
 20
87.4499999982
 11
33.5203037317
 21
87.3249999979
  0
LINE
  5
3E4
100
AcDbEntity
  8
0
100
AcDbLine
 62
7
  6
CONTINUOUS
 10
32.6160483712
 20
101.6833330135
 11
32.7224313371
 21
101.5166669827
  0
LINE
  5
3E5
100
AcDbEntity
  8
0
100
AcDbLine
 62
7
  6
CONTINUOUS
 10
55.3426441127
 20
56.024999998
 11
55.804524328
 21
55.2249999981
  0
LINE
  5
3E6
100
AcDbEntity
  8
0
100
AcDbLine
 62
7
  6
CONTINUOUS
 10
51.3736137834
 20
50.8842078047
 11
51.5275920538
 21
50.5435075149
  0
LINE
  5
3E7
100
AcDbEntity
  8
0
100
AcDbLine
 62
7
  6
CONTINUOUS
 10
48.3820057863
 20
54.8499999981
 11
48.3288143033
 21
54.9749999981
  0
LINE
  5
3E8
100
AcDbEntity
  8
0
100
AcDbLine
 62
7
  6
CONTINUOUS
 10
49.0203037316
 20
57.349999998
 11
49.0734952146
 21
57.2249999982
  0
LINE
  5
3E9
100
AcDbEntity
  8
0
100
AcDbLine
 62
7
  6
CONTINUOUS
 10
32.8820057863
 20
101.7249999981
 11
32.8288143033
 21
101.8499999981
  0
LINE
  5
3EA
100
AcDbEntity
  8
0
100
AcDbLine
 62
7
  6
CONTINUOUS
 10
47.2649845311
 20
56.8083332519
 11
47.2117930481
 21
56.974999998
  0
LINE
  5
3EB
100
AcDbEntity
  8
0
100
AcDbLine
 62
7
  6
CONTINUOUS
 10
47.2649845312
 20
58.7249999979
 11
47.2117930481
 21
58.8916666847
  0
LINE
  5
3EC
100
AcDbEntity
  8
0
100
AcDbLine
 62
7
  6
CONTINUOUS
 10
49.3926441127
 20
57.224999998
 11
49.3394526296
 21
57.3916667442
  0
LINE
  5
3ED
100
AcDbEntity
  8
0
100
AcDbLine
 62
7
  6
CONTINUOUS
 10
33.8926441127
 20
85.1999999978
 11
33.8394526297
 21
85.4083332512
  0
LINE
  5
3EE
100
AcDbEntity
  8
0
100
AcDbLine
 62
7
  6
CONTINUOUS
 10
33.8926441127
 20
87.1583333116
 11
33.8394526297
 21
87.3666666547
  0
LINE
  5
3EF
100
AcDbEntity
  8
0
100
AcDbLine
 62
7
  6
CONTINUOUS
 10
46.8926441127
 20
55.016666506
 11
46.9458356013
 21
54.8083334903
  0
LINE
  5
3F0
100
AcDbEntity
  8
0
100
AcDbLine
 62
7
  6
CONTINUOUS
 10
46.8926441127
 20
56.9749999982
 11
46.9458356013
 21
56.7666667442
  0
LINE
  5
3F1
100
AcDbEntity
  8
0
100
AcDbLine
 62
7
  6
CONTINUOUS
 10
46.8926441127
 20
58.8916666848
 11
46.9458356013
 21
58.683333371
  0
LINE
  5
3F2
100
AcDbEntity
  8
0
100
AcDbLine
 62
7
  6
CONTINUOUS
 10
35.3245284107
 20
175.2440339621
 11
35.3245284107
 21
176.2434727564
  0
LINE
  5
3F3
100
AcDbEntity
  8
0
100
AcDbLine
 62
7
  6
CONTINUOUS
 10
35.3245284107
 20
175.2440339628
 11
35.3245963321
 21
173.4251747382
  0
LINE
  5
3F4
100
AcDbEntity
  8
0
100
AcDbLine
 62
7
  6
CONTINUOUS
 10
35.6426441127
 20
61.5249999988
 11
35.6426441127
 21
69.3516783047
  0
LINE
  5
3F5
100
AcDbEntity
  8
0
100
AcDbLine
 62
7
  6
CONTINUOUS
 10
35.7064739221
 20
148.8666667439
 11
35.7064739221
 21
149.2416667439
  0
LINE
  5
3F6
100
AcDbEntity
  8
0
100
AcDbLine
 62
7
  6
CONTINUOUS
 10
35.8128568882
 20
150.7416666247
 11
35.8128568882
 21
151.8249999977
  0
LINE
  5
3F7
100
AcDbEntity
  8
0
100
AcDbLine
 62
7
  6
CONTINUOUS
 10
36.0256228203
 20
149.2416667439
 11
36.0256228203
 21
148.6166667439
  0
LINE
  5
3F8
100
AcDbEntity
  8
0
100
AcDbLine
 62
7
  6
CONTINUOUS
 10
36.1320057863
 20
151.8249999977
 11
36.1320057863
 21
150.7416666246
  0
LINE
  5
3F9
100
AcDbEntity
  8
0
100
AcDbLine
 62
7
  6
CONTINUOUS
 10
36.3926441147
 20
62.4416665066
 11
36.3926441146
 21
62.6916665058
  0
LINE
  5
3FA
100
AcDbEntity
  8
0
100
AcDbLine
 62
7
  6
CONTINUOUS
 10
36.3926441141
 20
63.8166665061
 11
36.3926441138
 21
64.8166667442
  0
LINE
  5
3FB
100
AcDbEntity
  8
0
100
AcDbLine
 62
7
  6
CONTINUOUS
 10
36.3926441134
 20
65.7749999983
 11
36.3926441133
 21
66.1083332519
  0
LINE
  5
3FC
100
AcDbEntity
  8
0
100
AcDbLine
 62
7
  6
CONTINUOUS
 10
36.3926441127
 20
67.6916666845
 11
36.3926441126
 21
67.8583333115
  0
LINE
  5
3FD
100
AcDbEntity
  8
0
100
AcDbLine
 62
7
  6
CONTINUOUS
 10
36.5043461674
 20
148.6166667438
 11
36.5043461674
 21
148.8666667439
  0
LINE
  5
3FE
100
AcDbEntity
  8
0
100
AcDbLine
 62
7
  6
CONTINUOUS
 10
36.7117930481
 20
67.8583333121
 11
36.7117930482
 21
67.6916666847
  0
LINE
  5
3FF
100
AcDbEntity
  8
0
100
AcDbLine
 62
7
  6
CONTINUOUS
 10
36.7117930495
 20
66.1083332526
 11
36.7117930498
 21
65.7749999981
  0
LINE
  5
400
100
AcDbEntity
  8
0
100
AcDbLine
 62
7
  6
CONTINUOUS
 10
36.7117930481
 20
63.7749999988
 11
36.7117930481
 21
64.566666745
  0
LINE
  5
401
100
AcDbEntity
  8
0
100
AcDbLine
 62
7
  6
CONTINUOUS
 10
36.8234952146
 20
149.1999999978
 11
36.8234952146
 21
149.5749999977
  0
LINE
  5
402
100
AcDbEntity
  8
0
100
AcDbLine
 62
7
  6
CONTINUOUS
 10
36.8234952146
 20
150.5749999977
 11
36.8234952146
 21
151.8249999977
  0
LINE
  5
403
100
AcDbEntity
  8
0
100
AcDbLine
 62
7
  6
CONTINUOUS
 10
36.8926441127
 20
155.6833330136
 11
36.8926441127
 21
156.0166669827
  0
LINE
  5
404
100
AcDbEntity
  8
0
100
AcDbLine
 62
7
  6
CONTINUOUS
 10
36.8926441127
 20
157.4333334904
 11
36.8926441127
 21
157.6833334904
  0
LINE
  5
405
100
AcDbEntity
  8
0
100
AcDbLine
 62
7
  6
CONTINUOUS
 10
36.8926441127
 20
159.0166665058
 11
36.8926441127
 21
160.5166667442
  0
LINE
  5
406
100
AcDbEntity
  8
0
100
AcDbLine
 62
7
  6
CONTINUOUS
 10
36.8926441127
 20
161.4333332514
 11
36.8926441127
 21
161.808333252
  0
LINE
  5
407
100
AcDbEntity
  8
0
100
AcDbLine
 62
7
  6
CONTINUOUS
 10
36.8926441127
 20
163.4749999975
 11
36.8926441127
 21
164.4749999981
  0
LINE
  5
408
100
AcDbEntity
  8
0
100
AcDbLine
 62
7
  6
CONTINUOUS
 10
37.0841334665
 20
66.6916666258
 11
37.0841334665
 21
66.441666745
  0
LINE
  5
409
100
AcDbEntity
  8
0
100
AcDbLine
 62
7
  6
CONTINUOUS
 10
37.1426441127
 20
152.0749999977
 11
37.1426441127
 21
150.5749999977
  0
LINE
  5
40A
100
AcDbEntity
  8
0
100
AcDbLine
 62
7
  6
CONTINUOUS
 10
37.1426441127
 20
149.5749999969
 11
37.1426441127
 21
149.1999999977
  0
LINE
  5
40B
100
AcDbEntity
  8
0
100
AcDbLine
 62
7
  6
CONTINUOUS
 10
37.1586015651
 20
160.1833334901
 11
37.1586015651
 21
159.0166665058
  0
LINE
  5
40C
100
AcDbEntity
  8
0
100
AcDbLine
 62
7
  6
CONTINUOUS
 10
37.2117930481
 20
161.8083332519
 11
37.2117930481
 21
161.433333252
  0
LINE
  5
40D
100
AcDbEntity
  8
0
100
AcDbLine
 62
7
  6
CONTINUOUS
 10
37.2117930481
 20
163.474999998
 11
37.2117930481
 21
164.2249999981
  0
LINE
  5
40E
100
AcDbEntity
  8
0
100
AcDbLine
 62
7
  6
CONTINUOUS
 10
37.5096654051
 20
64.566666745
 11
37.5096654051
 21
63.7749999988
  0
LINE
  5
40F
100
AcDbEntity
  8
0
100
AcDbLine
 62
7
  6
CONTINUOUS
 10
37.5096654051
 20
65.7749999989
 11
37.5096654051
 21
66.0249999988
  0
LINE
  5
410
100
AcDbEntity
  8
0
100
AcDbLine
 62
7
  6
CONTINUOUS
 10
37.5309419835
 20
161.0999999981
 11
37.5309419835
 21
160.8499999981
  0
LINE
  5
411
100
AcDbEntity
  8
0
100
AcDbLine
 62
7
  6
CONTINUOUS
 10
37.6373249495
 20
157.0166665058
 11
37.6373249495
 21
157.4333334904
  0
LINE
  5
412
100
AcDbEntity
  8
0
100
AcDbLine
 62
7
  6
CONTINUOUS
 10
37.6373249495
 20
157.6833334904
 11
37.6373249495
 21
158.6833334904
  0
LINE
  5
413
100
AcDbEntity
  8
0
100
AcDbLine
 62
7
  6
CONTINUOUS
 10
37.8288143033
 20
66.0249999996
 11
37.8288143033
 21
65.7749999988
  0
LINE
  5
414
100
AcDbEntity
  8
0
100
AcDbLine
 62
7
  6
CONTINUOUS
 10
37.8288143033
 20
63.7749999988
 11
37.8288143033
 21
64.566666745
  0
LINE
  5
415
100
AcDbEntity
  8
0
100
AcDbLine
 62
7
  6
CONTINUOUS
 10
37.9564739221
 20
157.4333334904
 11
37.9564739221
 21
157.0166665058
  0
LINE
  5
416
100
AcDbEntity
  8
0
100
AcDbLine
 62
7
  6
CONTINUOUS
 10
37.9564739221
 20
157.6833334904
 11
37.9564739221
 21
158.3916665058
  0
LINE
  5
417
100
AcDbEntity
  8
0
100
AcDbLine
 62
7
  6
CONTINUOUS
 10
38.3075377995
 20
65.2749999988
 11
38.3075377995
 21
65.5249999988
  0
LINE
  5
418
100
AcDbEntity
  8
0
100
AcDbLine
 62
7
  6
CONTINUOUS
 10
38.4926441123
 20
147.7249999981
 11
38.4926441123
 21
149.2249999981
  0
LINE
  5
419
100
AcDbEntity
  8
0
100
AcDbLine
 62
7
  6
CONTINUOUS
 10
38.4926441123
 20
149.7249999981
 11
38.4926441123
 21
151.2249999981
  0
LINE
  5
41A
100
AcDbEntity
  8
0
100
AcDbLine
 62
7
  6
CONTINUOUS
 10
38.4926441123
 20
151.7249999981
 11
38.4926441123
 21
153.2249999981
  0
LINE
  5
41B
100
AcDbEntity
  8
0
100
AcDbLine
 62
7
  6
CONTINUOUS
 10
38.5734952146
 20
64.566666745
 11
38.5734952146
 21
63.7749999988
  0
LINE
  5
41C
100
AcDbEntity
  8
0
100
AcDbLine
 62
7
  6
CONTINUOUS
 10
38.5734952146
 20
65.774999998
 11
38.5734952146
 21
66.0249999988
  0
LINE
  5
41D
100
AcDbEntity
  8
0
100
AcDbLine
 62
7
  6
CONTINUOUS
 10
38.7543461674
 20
160.8499999979
 11
38.7543461674
 21
161.0999999981
  0
LINE
  5
41E
100
AcDbEntity
  8
0
100
AcDbLine
 62
7
  6
CONTINUOUS
 10
38.7926441131
 20
153.2249999981
 11
38.7926441131
 21
151.7249999981
  0
LINE
  5
41F
100
AcDbEntity
  8
0
100
AcDbLine
 62
7
  6
CONTINUOUS
 10
38.7926441131
 20
151.2249999981
 11
38.7926441131
 21
149.7249999981
  0
LINE
  5
420
100
AcDbEntity
  8
0
100
AcDbLine
 62
7
  6
CONTINUOUS
 10
38.7926441131
 20
149.2249999981
 11
38.7926441131
 21
147.7249999981
  0
LINE
  5
421
100
AcDbEntity
  8
0
100
AcDbLine
 62
7
  6
CONTINUOUS
 10
38.8075377995
 20
160.2666665061
 11
38.8075377995
 21
160.4749999981
  0
LINE
  5
422
100
AcDbEntity
  8
0
100
AcDbLine
 62
7
  6
CONTINUOUS
 10
38.8926441127
 20
68.5249999981
 11
38.8926441127
 21
68.2749999981
  0
LINE
  5
423
100
AcDbEntity
  8
0
100
AcDbLine
 62
7
  6
CONTINUOUS
 10
38.8926441127
 20
67.2749999981
 11
38.8926441127
 21
67.0250004469
  0
LINE
  5
424
100
AcDbEntity
  8
0
100
AcDbLine
 62
7
  6
CONTINUOUS
 10
38.8926441127
 20
66.0249999988
 11
38.8926441127
 21
65.8166667442
  0
LINE
  5
425
100
AcDbEntity
  8
0
100
AcDbLine
 62
7
  6
CONTINUOUS
 10
38.8926441127
 20
64.816666745
 11
38.8926441127
 21
63.8166665058
  0
LINE
  5
426
100
AcDbEntity
  8
0
100
AcDbLine
 62
7
  6
CONTINUOUS
 10
38.8926441127
 20
62.6916665062
 11
38.8926441127
 21
62.4416665066
  0
LINE
  5
427
100
AcDbEntity
  8
0
100
AcDbLine
 62
7
  6
CONTINUOUS
 10
39.0734952146
 20
164.2249999981
 11
39.0734952146
 21
163.474999998
  0
LINE
  5
428
100
AcDbEntity
  8
0
100
AcDbLine
 62
7
  6
CONTINUOUS
 10
39.0734952146
 20
161.4333332518
 11
39.0734952146
 21
161.808333252
  0
LINE
  5
429
100
AcDbEntity
  8
0
100
AcDbLine
 62
7
  6
CONTINUOUS
 10
39.1266866976
 20
159.6833334912
 11
39.1266866976
 21
159.8499999981
  0
LINE
  5
42A
100
AcDbEntity
  8
0
100
AcDbLine
 62
7
  6
CONTINUOUS
 10
39.3926441127
 20
164.4749999981
 11
39.3926441127
 21
163.4749999981
  0
LINE
  5
42B
100
AcDbEntity
  8
0
100
AcDbLine
 62
7
  6
CONTINUOUS
 10
39.3926441127
 20
161.8083332511
 11
39.3926441127
 21
161.433333252
  0
LINE
  5
42C
100
AcDbEntity
  8
0
100
AcDbLine
 62
7
  6
CONTINUOUS
 10
39.3926441127
 20
159.8083334912
 11
39.3926441127
 21
159.6416665059
  0
LINE
  5
42D
100
AcDbEntity
  8
0
100
AcDbLine
 62
7
  6
CONTINUOUS
 10
39.3926441127
 20
157.6833334904
 11
39.3926441127
 21
157.4333334904
  0
LINE
  5
42E
100
AcDbEntity
  8
0
100
AcDbLine
 62
7
  6
CONTINUOUS
 10
39.3926441127
 20
156.6833334905
 11
39.3926441127
 21
156.4333330136
  0
LINE
  5
42F
100
AcDbEntity
  8
0
100
AcDbLine
 62
7
  6
CONTINUOUS
 10
39.3926441127
 20
155.2666669829
 11
39.3926441127
 21
155.0166669827
  0
LINE
  5
430
100
AcDbEntity
  8
0
100
AcDbLine
 62
7
  6
CONTINUOUS
 10
39.4926441127
 20
147.7249999981
 11
39.4926441119
 21
153.2249999981
  0
LINE
  5
431
100
AcDbEntity
  8
0
100
AcDbLine
 62
7
  6
CONTINUOUS
 10
39.6426441127
 20
69.3516783047
 11
39.6426441127
 21
61.5249999988
  0
LINE
  5
432
100
AcDbEntity
  8
0
100
AcDbLine
 62
7
  6
CONTINUOUS
 10
39.7926441127
 20
153.2249999981
 11
39.7926441134
 21
147.7249999981
  0
LINE
  5
433
100
AcDbEntity
  8
0
100
AcDbLine
 62
7
  6
CONTINUOUS
 10
40.6426441127
 20
165.9749999981
 11
40.6426441127
 21
146.9749999981
  0
LINE
  5
434
100
AcDbEntity
  8
0
100
AcDbLine
 62
7
  6
CONTINUOUS
 10
33.8394526296
 20
101.6833330134
 11
33.8926441127
 21
101.8916669827
  0
LINE
  5
435
100
AcDbEntity
  8
0
100
AcDbLine
 62
7
  6
CONTINUOUS
 10
31.4458356006
 20
87.3666666553
 11
31.3926441127
 21
87.1583333115
  0
LINE
  5
436
100
AcDbEntity
  8
0
100
AcDbLine
 62
7
  6
CONTINUOUS
 10
31.4458356012
 20
85.4083332515
 11
31.3926441127
 21
85.1999999979
  0
LINE
  5
437
100
AcDbEntity
  8
0
100
AcDbLine
 62
7
  6
CONTINUOUS
 10
33.8394526293
 20
86.5749999974
 11
33.8926441127
 21
86.7833333714
  0
LINE
  5
438
100
AcDbEntity
  8
0
100
AcDbLine
 62
7
  6
CONTINUOUS
 10
31.7649845312
 20
131.8999999988
 11
31.5522185802
 21
131.7333333419
  0
LINE
  5
439
100
AcDbEntity
  8
0
100
AcDbLine
 62
7
  6
CONTINUOUS
 10
33.5203037315
 20
130.4416666258
 11
33.7330696638
 21
130.6083333721
  0
LINE
  5
43A
100
AcDbEntity
  8
0
100
AcDbLine
 62
7
  6
CONTINUOUS
 10
48.8075377995
 20
56.4749999981
 11
48.9671122486
 21
56.5166667443
  0
LINE
  5
43B
100
AcDbEntity
  8
0
100
AcDbLine
 62
7
  6
CONTINUOUS
 10
48.4883887522
 20
57.474999998
 11
48.6479632014
 21
57.5166667442
  0
LINE
  5
43C
100
AcDbEntity
  8
0
100
AcDbLine
 62
7
  6
CONTINUOUS
 10
47.4245590172
 20
57.599999998
 11
47.5841334665
 21
57.6416667442
  0
LINE
  5
43D
100
AcDbEntity
  8
0
100
AcDbLine
 62
7
  6
CONTINUOUS
 10
47.5841334665
 20
57.891666625
 11
47.3713675343
 21
57.849999998
  0
LINE
  5
43E
100
AcDbEntity
  8
0
100
AcDbLine
 62
7
  6
CONTINUOUS
 10
47.5309419834
 20
59.4333333413
 11
47.7437079155
 21
59.4749999981
  0
LINE
  5
43F
100
AcDbEntity
  8
0
100
AcDbLine
 62
7
  6
CONTINUOUS
 10
47.7437079157
 20
59.7249999981
 11
47.4777505002
 21
59.6833333301
  0
LINE
  5
440
100
AcDbEntity
  8
0
100
AcDbLine
 62
7
  6
CONTINUOUS
 10
64.1387928421
 20
67.0415196408
 11
63.9690760792
 21
67.0310610262
  0
LINE
  5
441
100
AcDbEntity
  8
0
100
AcDbLine
 62
7
  6
CONTINUOUS
 10
38.2543461673
 20
66.316666745
 11
38.1479632014
 21
66.316666745
  0
LINE
  5
442
100
AcDbEntity
  8
0
100
AcDbLine
 62
7
  6
CONTINUOUS
 10
38.0947717188
 20
66.5666666258
 11
38.3075377995
 21
66.5666666258
  0
LINE
  5
443
100
AcDbEntity
  8
0
100
AcDbLine
 62
7
  6
CONTINUOUS
 10
60.051316463
 20
66.7336723487
 11
55.2339717621
 21
66.7336723487
  0
LINE
  5
444
100
AcDbEntity
  8
0
100
AcDbLine
 62
7
  6
CONTINUOUS
 10
38.8926441118
 20
67.0250004468
 11
37.2437079165
 21
67.0250004478
  0
LINE
  5
445
100
AcDbEntity
  8
0
100
AcDbLine
 62
7
  6
CONTINUOUS
 10
63.9690760791
 20
67.0310610261
 11
62.9693224408
 21
67.0310610261
  0
LINE
  5
446
100
AcDbEntity
  8
0
100
AcDbLine
 62
7
  6
CONTINUOUS
 10
65.1385464805
 20
67.0415196416
 11
64.1387928421
 21
67.0415196416
  0
LINE
  5
447
100
AcDbEntity
  8
0
100
AcDbLine
 62
7
  6
CONTINUOUS
 10
37.2437079158
 20
67.2749999981
 11
38.8926441127
 21
67.2749999981
  0
LINE
  5
448
100
AcDbEntity
  8
0
100
AcDbLine
 62
7
  6
CONTINUOUS
 10
38.8926441127
 20
68.2749999981
 11
37.2437079155
 21
68.2749999981
  0
LINE
  5
449
100
AcDbEntity
  8
0
100
AcDbLine
 62
7
  6
CONTINUOUS
 10
29.738242558
 20
68.4049999981
 11
31.8470460447
 21
68.4049999981
  0
LINE
  5
44A
100
AcDbEntity
  8
0
100
AcDbLine
 62
7
  6
CONTINUOUS
 10
37.2437079155
 20
68.5249999981
 11
38.8926441127
 21
68.5249999981
  0
LINE
  5
44B
100
AcDbEntity
  8
0
100
AcDbLine
 62
7
  6
CONTINUOUS
 10
33.9890907218
 20
69.3516783047
 11
60.6488344476
 21
69.3516783047
  0
LINE
  5
44C
100
AcDbEntity
  8
0
100
AcDbLine
 62
7
  6
CONTINUOUS
 10
31.8470461576
 20
70.2528175156
 11
29.7382425465
 21
70.2528175156
  0
LINE
  5
44D
100
AcDbEntity
  8
0
100
AcDbLine
 62
7
  6
CONTINUOUS
 10
28.3577015403
 20
70.2943722565
 11
33.9890907221
 21
70.2943722565
  0
LINE
  5
44E
100
AcDbEntity
  8
0
100
AcDbLine
 62
7
  6
CONTINUOUS
 10
60.6487051621
 20
70.3514319421
 11
28.3673967513
 21
70.3514319421
  0
LINE
  5
44F
100
AcDbEntity
  8
0
100
AcDbLine
 62
7
  6
CONTINUOUS
 10
28.6236101486
 20
70.521148725
 11
60.6591637582
 21
70.521148725
  0
LINE
  5
450
100
AcDbEntity
  8
0
100
AcDbLine
 62
7
  6
CONTINUOUS
 10
27.3653197696
 20
71.294372257
 11
27.2895592805
 21
71.2943722563
  0
LINE
  5
451
100
AcDbEntity
  8
0
100
AcDbLine
 62
7
  6
CONTINUOUS
 10
60.6593950525
 20
71.5209023657
 11
27.6241713543
 21
71.5209023634
  0
LINE
  5
452
100
AcDbEntity
  8
0
100
AcDbLine
 62
7
  6
CONTINUOUS
 10
33.8926441127
 20
82.2416665054
 11
31.658601565
 21
82.8666665054
  0
LINE
  5
453
100
AcDbEntity
  8
0
100
AcDbLine
 62
7
  6
CONTINUOUS
 10
31.3926441127
 20
82.6999999976
 11
33.3607292824
 21
82.1166665054
  0
LINE
  5
454
100
AcDbEntity
  8
0
100
AcDbLine
 62
7
  6
CONTINUOUS
 10
31.7649845311
 20
84.3249999976
 11
31.9777505005
 21
84.2416667437
  0
LINE
  5
455
100
AcDbEntity
  8
0
100
AcDbLine
 62
7
  6
CONTINUOUS
 10
33.5203037318
 20
85.7416667437
 11
33.3075377989
 21
85.8249999978
  0
LINE
  5
456
100
AcDbEntity
  8
0
100
AcDbLine
 62
7
  6
CONTINUOUS
 10
33.5203037317
 20
87.6999999979
 11
33.3075377991
 21
87.7833333303
  0
LINE
  5
457
100
AcDbEntity
  8
0
100
AcDbLine
 62
7
  6
CONTINUOUS
 10
33.2543461674
 20
85.5749999977
 11
33.4139207654
 21
85.4916667439
  0
LINE
  5
458
100
AcDbEntity
  8
0
100
AcDbLine
 62
7
  6
CONTINUOUS
 10
33.2543461678
 20
87.5333333412
 11
33.4139207653
 21
87.4499999982
  0
LINE
  5
459
100
AcDbEntity
  8
0
100
AcDbLine
 62
7
  6
CONTINUOUS
 10
31.7649845311
 20
130.8166666257
 11
31.7117930481
 21
130.9833333718
  0
LINE
  5
45A
100
AcDbEntity
  8
0
100
AcDbLine
 62
7
  6
CONTINUOUS
 10
33.5203037315
 20
131.5249999989
 11
33.5734952146
 21
131.3583333122
  0
LINE
  5
45B
100
AcDbEntity
  8
0
100
AcDbLine
 62
7
  6
CONTINUOUS
 10
49.0734952145
 20
53.6833334904
 11
49.1266866976
 21
53.4749999981
  0
LINE
  5
45C
100
AcDbEntity
  8
0
100
AcDbLine
 62
7
  6
CONTINUOUS
 10
31.3926441127
 20
130.983333372
 11
31.4458356013
 21
130.7749999986
  0
LINE
  5
45D
100
AcDbEntity
  8
0
100
AcDbLine
 62
7
  6
CONTINUOUS
 10
33.8926441127
 20
131.3583333124
 11
33.8394526297
 21
131.5666666552
  0
LINE
  5
45E
100
AcDbEntity
  8
0
100
AcDbLine
 62
7
  6
CONTINUOUS
 10
49.3926441127
 20
53.4333334902
 11
49.3394526296
 21
53.724999998
  0
LINE
  5
45F
100
AcDbEntity
  8
0
100
AcDbLine
 62
7
  6
CONTINUOUS
 10
46.1426441127
 20
52.1249999985
 11
46.1426441127
 21
60.1249999985
  0
LINE
  5
460
100
AcDbEntity
  8
0
100
AcDbLine
 62
7
  6
CONTINUOUS
 10
46.8926441127
 20
52.6416665058
 11
46.8926441127
 21
54.1416665058
  0
LINE
  5
461
100
AcDbEntity
  8
0
100
AcDbLine
 62
7
  6
CONTINUOUS
 10
46.8926441127
 20
55.0166665054
 11
46.8926441127
 21
56.0166667442
  0
LINE
  5
462
100
AcDbEntity
  8
0
100
AcDbLine
 62
7
  6
CONTINUOUS
 10
46.8926441127
 20
56.9749999975
 11
46.8926441127
 21
57.3083332519
  0
LINE
  5
463
100
AcDbEntity
  8
0
100
AcDbLine
 62
7
  6
CONTINUOUS
 10
46.8926441127
 20
58.8916666841
 11
46.8926441127
 21
59.0583333115
  0
LINE
  5
464
100
AcDbEntity
  8
0
100
AcDbLine
 62
7
  6
CONTINUOUS
 10
47.1586015651
 20
53.8083334901
 11
47.1586015651
 21
52.6416665058
  0
LINE
  5
465
100
AcDbEntity
  8
0
100
AcDbLine
 62
7
  6
CONTINUOUS
 10
47.2117930481
 20
59.0583333125
 11
47.2117930481
 21
58.8916666847
  0
LINE
  5
466
100
AcDbEntity
  8
0
100
AcDbLine
 62
7
  6
CONTINUOUS
 10
47.2117930481
 20
57.3083332519
 11
47.2117930481
 21
56.9749999981
  0
LINE
  5
467
100
AcDbEntity
  8
0
100
AcDbLine
 62
7
  6
CONTINUOUS
 10
47.2117930481
 20
54.9749999981
 11
47.2117930481
 21
55.7666667442
  0
LINE
  5
468
100
AcDbEntity
  8
0
100
AcDbLine
 62
7
  6
CONTINUOUS
 10
47.5841334665
 20
57.8916666251
 11
47.5841334665
 21
57.6416667442
  0
LINE
  5
469
100
AcDbEntity
  8
0
100
AcDbLine
 62
7
  6
CONTINUOUS
 10
48.0096654051
 20
55.7666667442
 11
48.0096654051
 21
54.9749999981
  0
LINE
  5
46A
100
AcDbEntity
  8
0
100
AcDbLine
 62
7
  6
CONTINUOUS
 10
48.0096654051
 20
56.9749999982
 11
48.0096654051
 21
57.2249999981
  0
LINE
  5
46B
100
AcDbEntity
  8
0
100
AcDbLine
 62
7
  6
CONTINUOUS
 10
48.3288143033
 20
57.2249999989
 11
48.3288143033
 21
56.9749999981
  0
LINE
  5
46C
100
AcDbEntity
  8
0
100
AcDbLine
 62
7
  6
CONTINUOUS
 10
48.3288143033
 20
54.9749999981
 11
48.3288143033
 21
55.7666667442
  0
LINE
  5
46D
100
AcDbEntity
  8
0
100
AcDbLine
 62
7
  6
CONTINUOUS
 10
48.8075377995
 20
53.8916665061
 11
48.8075377995
 21
54.0999999981
  0
LINE
  5
46E
100
AcDbEntity
  8
0
100
AcDbLine
 62
7
  6
CONTINUOUS
 10
48.8075377995
 20
56.4749999981
 11
48.8075377995
 21
56.7249999981
  0
LINE
  5
46F
100
AcDbEntity
  8
0
100
AcDbLine
 62
7
  6
CONTINUOUS
 10
33.8394526296
 20
84.6583332515
 11
33.8926441127
 21
84.8666667439
  0
LINE
  5
470
100
AcDbEntity
  8
0
100
AcDbLine
 62
7
  6
CONTINUOUS
 10
31.7117930481
 20
87.1583333116
 11
31.7649845309
 21
87.3249999976
  0
LINE
  5
471
100
AcDbEntity
  8
0
100
AcDbLine
 62
7
  6
CONTINUOUS
 10
31.7117930481
 20
85.1999999977
 11
31.7649845311
 21
85.366666744
  0
LINE
  5
472
100
AcDbEntity
  8
0
100
AcDbLine
 62
7
  6
CONTINUOUS
 10
33.5734952146
 20
86.7833333711
 11
33.5203037316
 21
86.6166666252
  0
LINE
  5
473
100
AcDbEntity
  8
0
100
AcDbLine
 62
7
  6
CONTINUOUS
 10
33.5734952146
 20
84.8666667438
 11
33.5203037316
 21
84.6999999978
  0
LINE
  5
474
100
AcDbEntity
  8
0
100
AcDbLine
 62
7
  6
CONTINUOUS
 10
33.6266866976
 20
101.8499999981
 11
33.5734952145
 21
101.7249999981
  0
LINE
  5
475
100
AcDbEntity
  8
0
100
AcDbLine
 62
7
  6
CONTINUOUS
 10
112.7240720195
 20
170.3580176234
 11
119.8944879415
 21
174.4484872929
  0
LINE
  5
476
100
AcDbEntity
  8
0
100
AcDbLine
 62
7
  6
CONTINUOUS
 10
31.8713675345
 20
131.6499999989
 11
32.0309419834
 21
131.733333342
  0
LINE
  5
477
100
AcDbEntity
  8
0
100
AcDbLine
 62
7
  6
CONTINUOUS
 10
31.764984531
 20
126.6499999988
 11
33.8926441127
 21
127.6916665065
  0
LINE
  5
478
100
AcDbEntity
  8
0
100
AcDbLine
 62
7
  6
CONTINUOUS
 10
33.5734952147
 20
127.8166665066
 11
31.3926441127
 21
126.7749999988
  0
LINE
  5
479
100
AcDbEntity
  8
0
100
AcDbLine
 62
7
  6
CONTINUOUS
 10
31.9777505002
 20
131.9833333308
 11
31.7649845312
 21
131.8999999988
  0
LINE
  5
47A
100
AcDbEntity
  8
0
100
AcDbLine
 62
7
  6
CONTINUOUS
 10
38.307537799
 20
63.2749999988
 11
38.4671122485
 21
63.3166665066
  0
LINE
  5
47B
100
AcDbEntity
  8
0
100
AcDbLine
 62
7
  6
CONTINUOUS
 10
38.4139207654
 20
63.5666665065
 11
38.2543461673
 21
63.5249999988
  0
LINE
  5
47C
100
AcDbEntity
  8
0
100
AcDbLine
 62
7
  6
CONTINUOUS
 10
37.2437079152
 20
63.2749999988
 11
37.403282439
 21
63.3166665066
  0
LINE
  5
47D
100
AcDbEntity
  8
0
100
AcDbLine
 62
7
  6
CONTINUOUS
 10
37.350090956
 20
63.5666665065
 11
37.1905164323
 21
63.5249999988
  0
LINE
  5
47E
100
AcDbEntity
  8
0
100
AcDbLine
 62
7
  6
CONTINUOUS
 10
38.3075377995
 20
65.2749999988
 11
38.4671122484
 21
65.316666745
  0
LINE
  5
47F
100
AcDbEntity
  8
0
100
AcDbLine
 62
7
  6
CONTINUOUS
 10
37.9883887523
 20
66.2749999988
 11
38.1479632014
 21
66.316666745
  0
LINE
  5
480
100
AcDbEntity
  8
0
100
AcDbLine
 62
7
  6
CONTINUOUS
 10
36.9245590174
 20
66.3999999988
 11
37.0841334665
 21
66.441666745
  0
LINE
  5
481
100
AcDbEntity
  8
0
100
AcDbLine
 62
7
  6
CONTINUOUS
 10
38.0947717188
 20
66.5666666258
 11
37.8820057862
 21
66.5249999987
  0
LINE
  5
482
100
AcDbEntity
  8
0
100
AcDbLine
 62
7
  6
CONTINUOUS
 10
37.0841334665
 20
66.6916666257
 11
36.8713675343
 21
66.6499999987
  0
LINE
  5
483
100
AcDbEntity
  8
0
100
AcDbLine
 62
7
  6
CONTINUOUS
 10
37.0309419833
 20
68.2333333413
 11
37.2437079152
 21
68.2749999981
  0
LINE
  5
484
100
AcDbEntity
  8
0
100
AcDbLine
 62
7
  6
CONTINUOUS
 10
37.2437079158
 20
68.5249999981
 11
36.9777505005
 21
68.4833333301
  0
LINE
  5
485
100
AcDbEntity
  8
0
100
AcDbLine
 62
7
  6
CONTINUOUS
 10
31.9777505005
 20
84.2416667437
 11
32.2437079152
 21
84.1999999977
  0
LINE
  5
486
100
AcDbEntity
  8
0
100
AcDbLine
 62
7
  6
CONTINUOUS
 10
33.3075377989
 20
85.8249999978
 11
33.0415802355
 21
85.8666666247
  0
LINE
  5
487
100
AcDbEntity
  8
0
100
AcDbLine
 62
7
  6
CONTINUOUS
 10
31.764984531
 20
86.241666625
 11
32.0309419835
 21
86.1999999981
  0
LINE
  5
488
100
AcDbEntity
  8
0
100
AcDbLine
 62
7
  6
CONTINUOUS
 10
32.2437079157
 20
84.4499999977
 11
32.0309419834
 21
84.4916667439
  0
LINE
  5
489
100
AcDbEntity
  8
0
100
AcDbLine
 62
7
  6
CONTINUOUS
 10
33.0415802352
 20
85.6166667439
 11
33.2543461674
 21
85.5749999977
  0
LINE
  5
48A
100
AcDbEntity
  8
0
100
AcDbLine
 62
7
  6
CONTINUOUS
 10
33.0415802353
 20
87.5749999981
 11
33.2543461678
 21
87.5333333412
  0
LINE
  5
48B
100
AcDbEntity
  8
0
100
AcDbLine
 62
7
  6
CONTINUOUS
 10
32.0309419835
 20
86.4499999981
 11
31.8713675342
 21
86.491666625
  0
LINE
  5
48C
100
AcDbEntity
  8
0
100
AcDbLine
 62
7
  6
CONTINUOUS
 10
32.7224313371
 20
101.5166669827
 11
32.9351972694
 21
101.3916669826
  0
LINE
  5
48D
100
AcDbEntity
  8
0
100
AcDbLine
 62
7
  6
CONTINUOUS
 10
32.9883887523
 20
101.6416669827
 11
32.8820057863
 21
101.7249999981
  0
LINE
  5
48E
100
AcDbEntity
  8
0
100
AcDbLine
 62
7
  6
CONTINUOUS
 10
35.0149845311
 20
149.0333332515
 11
34.9617930481
 21
149.1999999976
  0
LINE
  5
48F
100
AcDbEntity
  8
0
100
AcDbLine
 62
7
  6
CONTINUOUS
 10
22.3922582905
 20
194.4659769331
 11
22.321809415
 21
194.7249999988
  0
LINE
  5
490
100
AcDbEntity
  8
0
100
AcDbLine
 62
7
  6
CONTINUOUS
 10
34.6426441127
 20
149.1999999979
 11
34.6958356013
 21
148.9916667437
  0
LINE
  5
491
100
AcDbEntity
  8
0
100
AcDbLine
 62
7
  6
CONTINUOUS
 10
37.1426441127
 20
149.5749999978
 11
37.0894526297
 21
149.7833332512
  0
LINE
  5
492
100
AcDbEntity
  8
0
100
AcDbLine
 62
7
  6
CONTINUOUS
 10
39.3926441127
 20
159.8083334902
 11
39.3394526296
 21
160.099999998
  0
LINE
  5
493
100
AcDbEntity
  8
0
100
AcDbLine
 62
7
  6
CONTINUOUS
 10
49.0734952146
 20
55.7666667442
 11
49.0734952146
 21
54.9749999981
  0
LINE
  5
494
100
AcDbEntity
  8
0
100
AcDbLine
 62
7
  6
CONTINUOUS
 10
49.0734952146
 20
56.9749999973
 11
49.0734952146
 21
57.2249999981
  0
LINE
  5
495
100
AcDbEntity
  8
0
100
AcDbLine
 62
7
  6
CONTINUOUS
 10
49.1266866976
 20
53.3083334912
 11
49.1266866976
 21
53.4749999981
  0
LINE
  5
496
100
AcDbEntity
  8
0
100
AcDbLine
 62
7
  6
CONTINUOUS
 10
49.3926441127
 20
59.7249999981
 11
49.3926441127
 21
59.4749999981
  0
LINE
  5
497
100
AcDbEntity
  8
0
100
AcDbLine
 62
7
  6
CONTINUOUS
 10
49.3926441127
 20
58.4749999981
 11
49.3926441127
 21
58.2249999981
  0
LINE
  5
498
100
AcDbEntity
  8
0
100
AcDbLine
 62
7
  6
CONTINUOUS
 10
49.3926441127
 20
57.224999998
 11
49.3926441127
 21
57.0166667442
  0
LINE
  5
499
100
AcDbEntity
  8
0
100
AcDbLine
 62
7
  6
CONTINUOUS
 10
49.3926441127
 20
56.0166667442
 11
49.3926441127
 21
55.0166665058
  0
LINE
  5
49A
100
AcDbEntity
  8
0
100
AcDbLine
 62
7
  6
CONTINUOUS
 10
49.3926441127
 20
53.4333334912
 11
49.3926441127
 21
53.2666665058
  0
LINE
  5
49B
100
AcDbEntity
  8
0
100
AcDbLine
 62
7
  6
CONTINUOUS
 10
50.0426441127
 20
102.5249999976
 11
50.0426441127
 21
170.9249999981
  0
LINE
  5
49C
100
AcDbEntity
  8
0
100
AcDbLine
 62
7
  6
CONTINUOUS
 10
50.1426441127
 20
60.1249999985
 11
50.1426441127
 21
52.1249999985
  0
LINE
  5
49D
100
AcDbEntity
  8
0
100
AcDbLine
 62
7
  6
CONTINUOUS
 10
50.3737219999
 20
60.0592600027
 11
50.3737284904
 21
49.8847686735
  0
LINE
  5
49E
100
AcDbEntity
  8
0
100
AcDbLine
 62
7
  6
CONTINUOUS
 10
50.9426441127
 20
80.9464976801
 11
50.9426441127
 21
170.924999998
  0
LINE
  5
49F
100
AcDbEntity
  8
0
100
AcDbLine
 62
7
  6
CONTINUOUS
 10
51.3736137834
 20
50.8842078047
 11
51.3736106925
 21
60.0594388808
  0
LINE
  5
4A0
100
AcDbEntity
  8
0
100
AcDbLine
 62
7
  6
CONTINUOUS
 10
51.5275920538
 20
50.5435075149
 11
51.5275888748
 21
59.9825592475
  0
LINE
  5
4A1
100
AcDbEntity
  8
0
100
AcDbLine
 62
7
  6
CONTINUOUS
 10
51.8737221656
 20
60.5593818589
 11
51.8737221656
 21
61.55935326
  0
LINE
  5
4A2
100
AcDbEntity
  8
0
100
AcDbLine
 62
7
  6
CONTINUOUS
 10
52.7926441131
 20
54.7749999983
 11
52.7926441131
 21
57.4749999981
  0
LINE
  5
4A3
100
AcDbEntity
  8
0
100
AcDbLine
 62
7
  6
CONTINUOUS
 10
53.2339717621
 20
64.9336723482
 11
53.2339717621
 21
61.51581518
  0
LINE
  5
4A4
100
AcDbEntity
  8
0
100
AcDbLine
 62
7
  6
CONTINUOUS
 10
53.7926441131
 20
56.7284159537
 11
53.7926441131
 21
57.5249999974
  0
LINE
  5
4A5
100
AcDbEntity
  8
0
100
AcDbLine
 62
7
  6
CONTINUOUS
 10
54.1926441127
 20
57.5249999981
 11
54.1926441127
 21
56.7284159545
  0
LINE
  5
4A6
100
AcDbEntity
  8
0
100
AcDbLine
 62
7
  6
CONTINUOUS
 10
54.3076441118
 20
55.0249999973
 11
54.3076441118
 21
55.7970294326
  0
LINE
  5
4A7
100
AcDbEntity
  8
0
100
AcDbLine
 62
7
  6
CONTINUOUS
 10
54.7076441127
 20
55.7970294333
 11
54.7076441127
 21
55.0249999981
  0
LINE
  5
4A8
100
AcDbEntity
  8
0
100
AcDbLine
 62
7
  6
CONTINUOUS
 10
55.2339717621
 20
66.7336723494
 11
55.2339717621
 21
64.9336723487
  0
LINE
  5
4A9
100
AcDbEntity
  8
0
100
AcDbLine
 62
7
  6
CONTINUOUS
 10
55.3426441127
 20
56.6249999981
 11
55.3426441127
 21
56.024999998
  0
LINE
  5
4AA
100
AcDbEntity
  8
0
100
AcDbLine
 62
7
  6
CONTINUOUS
 10
36.4458356006
 20
68.0666666552
 11
36.3926441126
 21
67.8583333114
  0
LINE
  5
4AB
100
AcDbEntity
  8
0
100
AcDbLine
 62
7
  6
CONTINUOUS
 10
36.4458356012
 20
66.3166667448
 11
36.3926441133
 21
66.1083332553
  0
LINE
  5
4AC
100
AcDbEntity
  8
0
100
AcDbLine
 62
7
  6
CONTINUOUS
 10
37.7756228202
 20
65.5666667448
 11
37.8288143033
 21
65.7749999988
  0
LINE
  5
4AD
100
AcDbEntity
  8
0
100
AcDbLine
 62
7
  6
CONTINUOUS
 10
38.8394526296
 20
65.6083332525
 11
38.8926441127
 21
65.816666745
  0
LINE
  5
4AE
100
AcDbEntity
  8
0
100
AcDbLine
 62
7
  6
CONTINUOUS
 10
38.8394526296
 20
63.608333491
 11
38.8926441127
 21
63.8166665065
  0
LINE
  5
4AF
100
AcDbEntity
  8
0
100
AcDbLine
 62
7
  6
CONTINUOUS
 10
36.7117930481
 20
67.8583333117
 11
36.7649845309
 21
68.0249999976
  0
LINE
  5
4B0
100
AcDbEntity
  8
0
100
AcDbLine
 62
7
  6
CONTINUOUS
 10
36.7117930495
 20
66.1083332572
 11
36.7649845311
 21
66.2749999988
  0
LINE
  5
4B1
100
AcDbEntity
  8
0
100
AcDbLine
 62
7
  6
CONTINUOUS
 10
37.562856888
 20
66.1916667447
 11
37.5096654051
 21
66.0249999988
  0
LINE
  5
4B2
100
AcDbEntity
  8
0
100
AcDbLine
 62
7
  6
CONTINUOUS
 10
37.5096654051
 20
65.7749999988
 11
37.456473922
 21
65.6083332526
  0
LINE
  5
4B3
100
AcDbEntity
  8
0
100
AcDbLine
 62
7
  6
CONTINUOUS
 10
31.5522185806
 20
87.5333333416
 11
31.4458356006
 21
87.3666666553
  0
LINE
  5
4B4
100
AcDbEntity
  8
0
100
AcDbLine
 62
7
  6
CONTINUOUS
 10
31.5522185803
 20
85.5749999976
 11
31.4458356012
 21
85.4083332515
  0
LINE
  5
4B5
100
AcDbEntity
  8
0
100
AcDbLine
 62
7
  6
CONTINUOUS
 10
33.6798781808
 20
101.5166669829
 11
33.8394526296
 21
101.6833330134
  0
LINE
  5
4B6
100
AcDbEntity
  8
0
100
AcDbLine
 62
7
  6
CONTINUOUS
 10
113.4383430296
 20
169.4846999552
 11
120.6094451042
 21
173.5752674625
  0
LINE
  5
4B7
100
AcDbEntity
  8
0
100
AcDbLine
 62
7
  6
CONTINUOUS
 10
34.6426441127
 20
80.3249999977
 11
30.6426441127
 21
80.3249999977
  0
LINE
  5
4B8
100
AcDbEntity
  8
0
100
AcDbLine
 62
7
  6
CONTINUOUS
 10
70.4564437494
 20
80.4249999981
 11
51.4641417954
 21
80.4249999981
  0
LINE
  5
4B9
100
AcDbEntity
  8
0
100
AcDbLine
 62
7
  6
CONTINUOUS
 10
33.8926441127
 20
81.03333349
 11
31.3926441127
 21
81.03333349
  0
LINE
  5
4BA
100
AcDbEntity
  8
0
100
AcDbLine
 62
7
  6
CONTINUOUS
 10
31.3926441127
 20
81.28333349
 11
33.4671122485
 21
81.28333349
  0
LINE
  5
4BB
100
AcDbEntity
  8
0
100
AcDbLine
 62
7
  6
CONTINUOUS
 10
33.0947717184
 20
81.53333349
 11
33.5203037316
 21
81.53333349
  0
LINE
  5
4BC
100
AcDbEntity
  8
0
100
AcDbLine
 62
7
  6
CONTINUOUS
 10
33.8926441127
 20
81.8666665054
 11
31.3926441127
 21
81.8666665054
  0
LINE
  5
4BD
100
AcDbEntity
  8
0
100
AcDbLine
 62
7
  6
CONTINUOUS
 10
31.3926441127
 20
82.1166665054
 11
33.3607292825
 21
82.1166665054
  0
LINE
  5
4BE
100
AcDbEntity
  8
0
100
AcDbLine
 62
7
  6
CONTINUOUS
 10
33.3607292831
 20
83.6166665054
 11
31.3926441127
 21
83.6166665054
  0
LINE
  5
4BF
100
AcDbEntity
  8
0
100
AcDbLine
 62
7
  6
CONTINUOUS
 10
31.3926441127
 20
83.8666667439
 11
33.8926441127
 21
83.8666667439
  0
LINE
  5
4C0
100
AcDbEntity
  8
0
100
AcDbLine
 62
7
  6
CONTINUOUS
 10
33.0415802346
 20
84.1999999977
 11
32.2437079156
 21
84.1999999977
  0
LINE
  5
4C1
100
AcDbEntity
  8
0
100
AcDbLine
 62
7
  6
CONTINUOUS
 10
33.0415802352
 20
84.4499999977
 11
32.2437079157
 21
84.4499999977
  0
LINE
  5
4C2
100
AcDbEntity
  8
0
100
AcDbLine
 62
7
  6
CONTINUOUS
 10
32.2437079157
 20
85.6166667439
 11
33.0415802352
 21
85.6166667439
  0
LINE
  5
4C3
100
AcDbEntity
  8
0
100
AcDbLine
 62
7
  6
CONTINUOUS
 10
32.2437079162
 20
85.8666666247
 11
33.0415802353
 21
85.8666666247
  0
LINE
  5
4C4
100
AcDbEntity
  8
0
100
AcDbLine
 62
7
  6
CONTINUOUS
 10
33.3075377991
 20
87.7833333303
 11
33.0415802358
 21
87.8249999981
  0
LINE
  5
4C5
100
AcDbEntity
  8
0
100
AcDbLine
 62
7
  6
CONTINUOUS
 10
31.8713675343
 20
130.6916666258
 11
31.7649845311
 21
130.8166666257
  0
LINE
  5
4C6
100
AcDbEntity
  8
0
100
AcDbLine
 62
7
  6
CONTINUOUS
 10
31.4458356013
 20
130.7749999986
 11
31.5522185802
 21
130.6083333721
  0
LINE
  5
4C7
100
AcDbEntity
  8
0
100
AcDbLine
 62
7
  6
CONTINUOUS
 10
33.8394526297
 20
131.5666666552
 11
33.7330696634
 21
131.7333333422
  0
LINE
  5
4C8
100
AcDbEntity
  8
0
100
AcDbLine
 62
7
  6
CONTINUOUS
 10
36.7703037315
 20
149.7416667439
 11
36.8234952146
 21
149.5749999977
  0
LINE
  5
4C9
100
AcDbEntity
  8
0
100
AcDbLine
 62
7
  6
CONTINUOUS
 10
37.2649845312
 20
161.266666744
 11
37.2117930481
 21
161.433333252
  0
LINE
  5
4CA
100
AcDbEntity
  8
0
100
AcDbLine
 62
7
  6
CONTINUOUS
 10
37.2649845311
 20
163.3083333711
 11
37.2117930481
 21
163.474999998
  0
LINE
  5
4CB
100
AcDbEntity
  8
0
100
AcDbLine
 62
7
  6
CONTINUOUS
 10
36.8926441127
 20
161.4333332521
 11
36.9458356013
 21
161.2249999981
  0
LINE
  5
4CC
100
AcDbEntity
  8
0
100
AcDbLine
 62
7
  6
CONTINUOUS
 10
36.8926441127
 20
163.4749999982
 11
36.9458356013
 21
163.2666666248
  0
LINE
  5
4CD
100
AcDbEntity
  8
0
100
AcDbLine
 62
7
  6
CONTINUOUS
 10
39.0734952145
 20
160.0583334904
 11
39.1266866976
 21
159.8499999981
  0
LINE
  5
4CE
100
AcDbEntity
  8
0
100
AcDbLine
 62
7
  6
CONTINUOUS
 10
39.3926441127
 20
161.808333252
 11
39.3394526297
 21
162.0166667442
  0
LINE
  5
4CF
100
AcDbEntity
  8
0
100
AcDbLine
 62
7
  6
CONTINUOUS
 10
59.9426441127
 20
56.024999998
 11
59.9426441127
 21
56.6249999981
  0
LINE
  5
4D0
100
AcDbEntity
  8
0
100
AcDbLine
 62
7
  6
CONTINUOUS
 10
60.0513164633
 20
64.933672348
 11
60.0513164633
 21
66.7336723487
  0
LINE
  5
4D1
100
AcDbEntity
  8
0
100
AcDbLine
 62
7
  6
CONTINUOUS
 10
60.5776441127
 20
55.0249999981
 11
60.5776441127
 21
55.7970294334
  0
LINE
  5
4D2
100
AcDbEntity
  8
0
100
AcDbLine
 62
7
  6
CONTINUOUS
 10
60.64870933
 20
70.3514319421
 11
60.64870933
 21
69.3516783038
  0
LINE
  5
4D3
100
AcDbEntity
  8
0
100
AcDbLine
 62
7
  6
CONTINUOUS
 10
60.6591631823
 20
71.5209023634
 11
60.6591631823
 21
70.5211487251
  0
LINE
  5
4D4
100
AcDbEntity
  8
0
100
AcDbLine
 62
7
  6
CONTINUOUS
 10
60.9776441136
 20
55.7970294333
 11
60.9776441136
 21
55.0249999974
  0
LINE
  5
4D5
100
AcDbEntity
  8
0
100
AcDbLine
 62
7
  6
CONTINUOUS
 10
61.0926441127
 20
56.7284159544
 11
61.0926441127
 21
57.5249999981
  0
LINE
  5
4D6
100
AcDbEntity
  8
0
100
AcDbLine
 62
7
  6
CONTINUOUS
 10
61.4926441123
 20
57.5249999973
 11
61.4926441123
 21
56.7284159537
  0
LINE
  5
4D7
100
AcDbEntity
  8
0
100
AcDbLine
 62
7
  6
CONTINUOUS
 10
62.0513164633
 20
61.5158151805
 11
62.0513164633
 21
64.9336723487
  0
LINE
  5
4D8
100
AcDbEntity
  8
0
100
AcDbLine
 62
7
  6
CONTINUOUS
 10
62.4926441123
 20
57.474999999
 11
62.4926441123
 21
54.7749999987
  0
LINE
  5
4D9
100
AcDbEntity
  8
0
100
AcDbLine
 62
7
  6
CONTINUOUS
 10
49.3394526296
 20
53.0166665057
 11
49.3926441127
 21
53.2666665059
  0
LINE
  5
4DA
100
AcDbEntity
  8
0
100
AcDbLine
 62
7
  6
CONTINUOUS
 10
46.9458356013
 20
59.2666666549
 11
46.8926441127
 21
59.0583333114
  0
LINE
  5
4DB
100
AcDbEntity
  8
0
100
AcDbLine
 62
7
  6
CONTINUOUS
 10
46.9458356011
 20
57.516666744
 11
46.8926441127
 21
57.3083332521
  0
LINE
  5
4DC
100
AcDbEntity
  8
0
100
AcDbLine
 62
7
  6
CONTINUOUS
 10
37.8288143033
 20
66.0249999987
 11
37.8820057864
 21
66.149999999
  0
LINE
  5
4DD
100
AcDbEntity
  8
0
100
AcDbLine
 62
7
  6
CONTINUOUS
 10
37.5096654051
 20
63.7749999988
 11
37.4564739221
 21
63.6499999988
  0
LINE
  5
4DE
100
AcDbEntity
  8
0
100
AcDbLine
 62
7
  6
CONTINUOUS
 10
38.5734952146
 20
65.7749999988
 11
38.5203037315
 21
65.6499999988
  0
LINE
  5
4DF
100
AcDbEntity
  8
0
100
AcDbLine
 62
7
  6
CONTINUOUS
 10
38.5734952146
 20
63.7749999988
 11
38.5203037316
 21
63.6499999989
  0
LINE
  5
4E0
100
AcDbEntity
  8
0
100
AcDbLine
 62
7
  6
CONTINUOUS
 10
33.7330696637
 20
86.4083333713
 11
33.8394526293
 21
86.5749999974
  0
LINE
  5
4E1
100
AcDbEntity
  8
0
100
AcDbLine
 62
7
  6
CONTINUOUS
 10
33.7330696637
 20
84.491666744
 11
33.8394526296
 21
84.6583332515
  0
LINE
  5
4E2
100
AcDbEntity
  8
0
100
AcDbLine
 62
7
  6
CONTINUOUS
 10
31.7649845309
 20
87.3249999976
 11
31.8713675346
 21
87.4499999983
  0
LINE
  5
4E3
100
AcDbEntity
  8
0
100
AcDbLine
 62
7
  6
CONTINUOUS
 10
31.7649845311
 20
85.366666744
 11
31.8713675342
 21
85.4916667438
  0
LINE
  5
4E4
100
AcDbEntity
  8
0
100
AcDbLine
 62
7
  6
CONTINUOUS
 10
33.5203037316
 20
86.6166666252
 11
33.4139207652
 21
86.4916666248
  0
LINE
  5
4E5
100
AcDbEntity
  8
0
100
AcDbLine
 62
7
  6
CONTINUOUS
 10
100.2872570303
 20
166.5249999981
 11
98.1426441127
 21
164.3803870805
  0
LINE
  5
4E6
100
AcDbEntity
  8
0
100
AcDbLine
 62
7
  6
CONTINUOUS
 10
99.0426441127
 20
164.1249999981
 11
100.7426441127
 21
165.8249999981
  0
LINE
  5
4E7
100
AcDbEntity
  8
0
100
AcDbLine
 62
7
  6
CONTINUOUS
 10
33.5734952145
 20
101.7249999981
 11
33.4671122486
 21
101.6416669827
  0
LINE
  5
4E8
100
AcDbEntity
  8
0
100
AcDbLine
 62
7
  6
CONTINUOUS
 10
27.0890215399
 20
72.1858752581
 11
27.2392845046
 21
72.2249999981
  0
LINE
  5
4E9
100
AcDbEntity
  8
0
100
AcDbLine
 62
7
  6
CONTINUOUS
 10
33.0415802348
 20
84.1999999977
 11
33.3075378
 21
84.241666744
  0
LINE
  5
4EA
100
AcDbEntity
  8
0
100
AcDbLine
 62
7
  6
CONTINUOUS
 10
33.0415802352
 20
87.5749999981
 11
32.2437079156
 21
87.5749999981
  0
LINE
  5
4EB
100
AcDbEntity
  8
0
100
AcDbLine
 62
7
  6
CONTINUOUS
 10
32.2437079155
 20
87.8249999981
 11
33.0415802353
 21
87.8249999981
  0
LINE
  5
4EC
100
AcDbEntity
  8
0
100
AcDbLine
 62
7
  6
CONTINUOUS
 10
30.6426441127
 20
88.3249999977
 11
34.6426441127
 21
88.3249999977
  0
LINE
  5
4ED
100
AcDbEntity
  8
0
100
AcDbLine
 62
7
  6
CONTINUOUS
 10
32.9351972694
 20
101.3916669826
 11
33.0947717183
 21
101.3499999981
  0
LINE
  5
4EE
100
AcDbEntity
  8
0
100
AcDbLine
 62
7
  6
CONTINUOUS
 10
33.1479632015
 20
101.5999999981
 11
32.9883887523
 21
101.6416669827
  0
LINE
  5
4EF
100
AcDbEntity
  8
0
100
AcDbLine
 62
7
  6
CONTINUOUS
 10
33.4139207655
 20
131.6499999988
 11
33.5203037315
 21
131.5249999989
  0
LINE
  5
4F0
100
AcDbEntity
  8
0
100
AcDbLine
 62
7
  6
CONTINUOUS
 10
34.6958356013
 20
148.9916667437
 11
34.8022185803
 21
148.8249999978
  0
LINE
  5
4F1
100
AcDbEntity
  8
0
100
AcDbLine
 62
7
  6
CONTINUOUS
 10
39.0203037316
 20
161.9749999981
 11
39.0734952146
 21
161.808333252
  0
LINE
  5
4F2
100
AcDbEntity
  8
0
100
AcDbLine
 62
7
  6
CONTINUOUS
 10
62.9693224409
 20
67.0310666109
 11
62.9693224409
 21
61.5593532607
  0
LINE
  5
4F3
100
AcDbEntity
  8
0
100
AcDbLine
 62
7
  6
CONTINUOUS
 10
63.6553943397
 20
59.7774173138
 11
63.6553943397
 21
50.5104982996
  0
LINE
  5
4F4
100
AcDbEntity
  8
0
100
AcDbLine
 62
7
  6
CONTINUOUS
 10
63.9102016602
 20
59.7354284311
 11
63.9102016602
 21
50.6842629778
  0
LINE
  5
4F5
100
AcDbEntity
  8
0
100
AcDbLine
 62
7
  6
CONTINUOUS
 10
63.9295464143
 20
59.5714425604
 11
63.9295464142
 21
50.6901130474
  0
LINE
  5
4F6
100
AcDbEntity
  8
0
100
AcDbLine
 62
7
  6
CONTINUOUS
 10
63.9690760792
 20
61.55935326
 11
63.9690760792
 21
67.0310610262
  0
LINE
  5
4F7
100
AcDbEntity
  8
0
100
AcDbLine
 62
7
  6
CONTINUOUS
 10
64.1387928421
 20
67.0415196408
 11
64.1387928421
 21
51.0060025165
  0
LINE
  5
4F8
100
AcDbEntity
  8
0
100
AcDbLine
 62
7
  6
CONTINUOUS
 10
65.1385464796
 20
51.2059660334
 11
65.1385464796
 21
67.041653898
  0
LINE
  5
4F9
100
AcDbEntity
  8
0
100
AcDbLine
 62
7
  6
CONTINUOUS
 10
67.6426441127
 20
55.0910254013
 11
67.6426441127
 21
61.358974595
  0
LINE
  5
4FA
100
AcDbEntity
  8
0
100
AcDbLine
 62
7
  6
CONTINUOUS
 10
68.1426441127
 20
55.9570508066
 11
68.1426441127
 21
60.4929491923
  0
LINE
  5
4FB
100
AcDbEntity
  8
0
100
AcDbLine
 62
7
  6
CONTINUOUS
 10
60.6591637582
 20
70.521148725
 11
60.6487051621
 21
70.3514319421
  0
LINE
  5
4FC
100
AcDbEntity
  8
0
100
AcDbLine
 62
7
  6
CONTINUOUS
 10
48.2756228202
 20
56.766666744
 11
48.3288143033
 21
56.9749999981
  0
LINE
  5
4FD
100
AcDbEntity
  8
0
100
AcDbLine
 62
7
  6
CONTINUOUS
 10
49.3394526296
 20
56.8083332519
 11
49.3926441127
 21
57.0166667442
  0
LINE
  5
4FE
100
AcDbEntity
  8
0
100
AcDbLine
 62
7
  6
CONTINUOUS
 10
49.3394526296
 20
54.8083334903
 11
49.3926441127
 21
55.0166665057
  0
LINE
  5
4FF
100
AcDbEntity
  8
0
100
AcDbLine
 62
7
  6
CONTINUOUS
 10
49.1266866976
 20
53.3083334903
 11
49.0734952146
 21
53.0999999982
  0
LINE
  5
500
100
AcDbEntity
  8
0
100
AcDbLine
 62
7
  6
CONTINUOUS
 10
47.2117930481
 20
59.0583333117
 11
47.264984531
 21
59.2249999979
  0
LINE
  5
501
100
AcDbEntity
  8
0
100
AcDbLine
 62
7
  6
CONTINUOUS
 10
47.2117930481
 20
57.3083332519
 11
47.2649845311
 21
57.4749999981
  0
LINE
  5
502
100
AcDbEntity
  8
0
100
AcDbLine
 62
7
  6
CONTINUOUS
 10
48.0628568879
 20
57.3916667438
 11
48.0096654051
 21
57.2249999981
  0
LINE
  5
503
100
AcDbEntity
  8
0
100
AcDbLine
 62
7
  6
CONTINUOUS
 10
48.0096654051
 20
56.9749999981
 11
47.956473922
 21
56.8083332519
  0
LINE
  5
504
100
AcDbEntity
  8
0
100
AcDbLine
 62
7
  6
CONTINUOUS
 10
36.5522185806
 20
68.2333333416
 11
36.4458356006
 21
68.0666666552
  0
LINE
  5
505
100
AcDbEntity
  8
0
100
AcDbLine
 62
7
  6
CONTINUOUS
 10
33.5203037316
 20
84.6999999978
 11
33.4139207654
 21
84.5749999977
  0
LINE
  5
506
100
AcDbEntity
  8
0
100
AcDbLine
 62
7
  6
CONTINUOUS
 10
132.8273622303
 20
188.3249999987
 11
132.9498367174
 21
188.4474744858
  0
LINE
  5
507
100
AcDbEntity
  8
0
100
AcDbLine
 62
7
  6
CONTINUOUS
 10
132.968783587
 20
188.4664213543
 11
133.1102049433
 21
188.6078427106
  0
LINE
  5
508
100
AcDbEntity
  8
0
100
AcDbLine
 62
7
  6
CONTINUOUS
 10
134.5098322384
 20
189.5388408545
 11
136.5132142373
 21
191.5422231227
  0
LINE
  5
509
100
AcDbEntity
  8
0
100
AcDbLine
 62
7
  6
CONTINUOUS
 10
33.4671122485
 20
101.3916669827
 11
33.6798781808
 21
101.5166669829
  0
LINE
  5
50A
100
AcDbEntity
  8
0
100
AcDbLine
 62
7
  6
CONTINUOUS
 10
31.658601565
 20
82.8666665054
 11
33.8926441127
 21
83.4916665054
  0
LINE
  5
50B
100
AcDbEntity
  8
0
100
AcDbLine
 62
7
  6
CONTINUOUS
 10
33.4139207652
 20
86.4916666248
 11
33.2543461674
 21
86.449999998
  0
LINE
  5
50C
100
AcDbEntity
  8
0
100
AcDbLine
 62
7
  6
CONTINUOUS
 10
33.2543461674
 20
84.4916667439
 11
33.0415802352
 21
84.4499999977
  0
LINE
  5
50D
100
AcDbEntity
  8
0
100
AcDbLine
 62
7
  6
CONTINUOUS
 10
32.0309419834
 20
85.5749999977
 11
32.2437079157
 21
85.6166667439
  0
LINE
  5
50E
100
AcDbEntity
  8
0
100
AcDbLine
 62
7
  6
CONTINUOUS
 10
32.030941983
 20
87.5333333412
 11
32.2437079157
 21
87.5749999981
  0
LINE
  5
50F
100
AcDbEntity
  8
0
100
AcDbLine
 62
7
  6
CONTINUOUS
 10
32.243707916
 20
85.8666666247
 11
31.9777505003
 21
85.8249999977
  0
LINE
  5
510
100
AcDbEntity
  8
0
100
AcDbLine
 62
7
  6
CONTINUOUS
 10
33.2543461674
 20
86.1999999981
 11
33.5203037319
 21
86.2416666251
  0
LINE
  5
511
100
AcDbEntity
  8
0
100
AcDbLine
 62
7
  6
CONTINUOUS
 10
32.2437079159
 20
87.8249999981
 11
31.9777505005
 21
87.7833333301
  0
LINE
  5
512
100
AcDbEntity
  8
0
100
AcDbLine
 62
7
  6
CONTINUOUS
 10
34.6426441127
 20
95.0749999977
 11
30.6426441127
 21
95.0749999977
  0
LINE
  5
513
100
AcDbEntity
  8
0
100
AcDbLine
 62
7
  6
CONTINUOUS
 10
33.8926441127
 20
95.5583330135
 11
33.6266866976
 21
95.5583330135
  0
LINE
  5
514
100
AcDbEntity
  8
0
100
AcDbLine
 62
7
  6
CONTINUOUS
 10
33.6266866976
 20
96.2249999981
 11
31.3926441127
 21
96.2249999981
  0
LINE
  5
515
100
AcDbEntity
  8
0
100
AcDbLine
 62
7
  6
CONTINUOUS
 10
31.3926441127
 20
96.4749999981
 11
33.6266866976
 21
96.4749999981
  0
LINE
  5
516
100
AcDbEntity
  8
0
100
AcDbLine
 62
7
  6
CONTINUOUS
 10
33.6266866976
 20
97.1416669827
 11
33.8926441127
 21
97.1416669827
  0
LINE
  5
517
100
AcDbEntity
  8
0
100
AcDbLine
 62
7
  6
CONTINUOUS
 10
80.4012719186
 20
97.4249999981
 11
71.4666829778
 21
97.4249999981
  0
LINE
  5
518
100
AcDbEntity
  8
0
100
AcDbLine
 62
7
  6
CONTINUOUS
 10
33.8926441127
 20
97.4749999981
 11
33.5734952146
 21
97.4749999981
  0
LINE
  5
519
100
AcDbEntity
  8
0
100
AcDbLine
 62
7
  6
CONTINUOUS
 10
31.7117930481
 20
97.4749999981
 11
31.3926441127
 21
97.4749999981
  0
LINE
  5
51A
100
AcDbEntity
  8
0
100
AcDbLine
 62
7
  6
CONTINUOUS
 10
32.8820057863
 20
97.6416669827
 11
32.5628568882
 21
97.6416669827
  0
LINE
  5
51B
100
AcDbEntity
  8
0
100
AcDbLine
 62
7
  6
CONTINUOUS
 10
33.5734952146
 20
98.7249999981
 11
32.8820057863
 21
98.7249999981
  0
LINE
  5
51C
100
AcDbEntity
  8
0
100
AcDbLine
 62
7
  6
CONTINUOUS
 10
32.5628568882
 20
98.7249999981
 11
31.7117930481
 21
98.7249999981
  0
LINE
  5
51D
100
AcDbEntity
  8
0
100
AcDbLine
 62
7
  6
CONTINUOUS
 10
31.3926441127
 20
98.9749999981
 11
33.8926441127
 21
98.9749999981
  0
LINE
  5
51E
100
AcDbEntity
  8
0
100
AcDbLine
 62
7
  6
CONTINUOUS
 10
33.8926441127
 20
99.3083330135
 11
31.3926441127
 21
99.3083330135
  0
LINE
  5
51F
100
AcDbEntity
  8
0
100
AcDbLine
 62
7
  6
CONTINUOUS
 10
31.7649845316
 20
99.5583330135
 11
33.8926441127
 21
99.5583330135
  0
LINE
  5
520
100
AcDbEntity
  8
0
100
AcDbLine
 62
7
  6
CONTINUOUS
 10
31.5522185802
 20
130.6083333721
 11
31.7649845312
 21
130.4416666257
  0
LINE
  5
521
100
AcDbEntity
  8
0
100
AcDbLine
 62
7
  6
CONTINUOUS
 10
33.7330696634
 20
131.7333333422
 11
33.5203037316
 21
131.8999999987
  0
LINE
  5
522
100
AcDbEntity
  8
0
100
AcDbLine
 62
7
  6
CONTINUOUS
 10
133.1102049428
 20
37.8421572851
 11
132.827362231
 21
38.1249999982
  0
LINE
  5
523
100
AcDbEntity
  8
0
100
AcDbLine
 62
7
  6
CONTINUOUS
 10
134.5098322351
 20
36.9111591398
 11
136.5132143718
 21
34.907777008
  0
LINE
  5
524
100
AcDbEntity
  8
0
100
AcDbLine
 62
7
  6
CONTINUOUS
 10
120.722218892
 20
49.4345246149
 11
119.9607598156
 21
50.2065272398
  0
LINE
  5
525
100
AcDbEntity
  8
0
100
AcDbLine
 62
7
  6
CONTINUOUS
 10
120.960213821
 20
51.2059660051
 11
121.7216960563
 21
50.4339399032
  0
LINE
  5
526
100
AcDbEntity
  8
0
100
AcDbLine
 62
7
  6
CONTINUOUS
 10
121.7216960563
 20
50.4339399032
 11
121.7938264302
 21
50.3577468617
  0
LINE
  5
527
100
AcDbEntity
  8
0
100
AcDbLine
 62
7
  6
CONTINUOUS
 10
120.7222188919
 20
49.4345246149
 11
120.7953619617
 21
49.3573105078
  0
LINE
  5
528
100
AcDbEntity
  8
0
100
AcDbLine
 62
7
  6
CONTINUOUS
 10
35.1213675343
 20
148.9083332516
 11
35.0149845311
 21
149.0333332515
  0
LINE
  5
529
100
AcDbEntity
  8
0
100
AcDbLine
 62
7
  6
CONTINUOUS
 10
37.0894526297
 20
149.7833332512
 11
36.9830696633
 21
149.949999998
  0
LINE
  5
52A
100
AcDbEntity
  8
0
100
AcDbLine
 62
7
  6
CONTINUOUS
 10
70.9426441127
 20
119.888956031
 11
70.9426441127
 21
106.9148695242
  0
LINE
  5
52B
100
AcDbEntity
  8
0
100
AcDbLine
 62
7
  6
CONTINUOUS
 10
70.9426441127
 20
97.949038863
 11
70.9426441127
 21
80.9112003615
  0
LINE
  5
52C
100
AcDbEntity
  8
0
100
AcDbLine
 62
7
  6
CONTINUOUS
 10
73.5436116668
 20
38.1249999981
 11
73.5436116668
 21
37.7249999981
  0
LINE
  5
52D
100
AcDbEntity
  8
0
100
AcDbLine
 62
7
  6
CONTINUOUS
 10
73.5748260428
 20
188.7249999981
 11
73.5748260428
 21
188.3249999981
  0
LINE
  5
52E
100
AcDbEntity
  8
0
100
AcDbLine
 62
7
  6
CONTINUOUS
 10
73.59609781
 20
193.2062112338
 11
73.5960978099
 21
190.3730010494
  0
LINE
  5
52F
100
AcDbEntity
  8
0
100
AcDbLine
 62
7
  6
CONTINUOUS
 10
73.5960978097
 20
36.0769989458
 11
73.59609781
 21
33.2437887623
  0
LINE
  5
530
100
AcDbEntity
  8
0
100
AcDbLine
 62
7
  6
CONTINUOUS
 10
76.3426441127
 20
170.9249999981
 11
76.3426441127
 21
120.7249999988
  0
LINE
  5
531
100
AcDbEntity
  8
0
100
AcDbLine
 62
7
  6
CONTINUOUS
 10
48.3288143033
 20
57.224999998
 11
48.3820057864
 21
57.3499999983
  0
LINE
  5
532
100
AcDbEntity
  8
0
100
AcDbLine
 62
7
  6
CONTINUOUS
 10
48.0096654051
 20
54.9749999981
 11
47.9564739221
 21
54.8499999981
  0
LINE
  5
533
100
AcDbEntity
  8
0
100
AcDbLine
 62
7
  6
CONTINUOUS
 10
49.0734952146
 20
56.9749999981
 11
49.0203037315
 21
56.849999998
  0
LINE
  5
534
100
AcDbEntity
  8
0
100
AcDbLine
 62
7
  6
CONTINUOUS
 10
49.0734952146
 20
54.9749999981
 11
49.0203037316
 21
54.8499999982
  0
LINE
  5
535
100
AcDbEntity
  8
0
100
AcDbLine
 62
7
  6
CONTINUOUS
 10
37.6692398542
 20
66.3583332527
 11
37.562856888
 21
66.1916667447
  0
LINE
  5
536
100
AcDbEntity
  8
0
100
AcDbLine
 62
7
  6
CONTINUOUS
 10
37.6692398543
 20
65.3999999989
 11
37.7756228202
 21
65.5666667448
  0
LINE
  5
537
100
AcDbEntity
  8
0
100
AcDbLine
 62
7
  6
CONTINUOUS
 10
37.6160483711
 20
63.4416665066
 11
37.6692398541
 21
63.5249999988
  0
LINE
  5
538
100
AcDbEntity
  8
0
100
AcDbLine
 62
7
  6
CONTINUOUS
 10
36.6054100633
 20
66.5249999988
 11
36.4458356012
 21
66.3166667448
  0
LINE
  5
539
100
AcDbEntity
  8
0
100
AcDbLine
 62
7
  6
CONTINUOUS
 10
124.2158995072
 20
166.5249999981
 11
124.1250970222
 21
166.4307394471
  0
LINE
  5
53A
100
AcDbEntity
  8
0
100
AcDbLine
 62
7
  6
CONTINUOUS
 10
144.1598712382
 20
183.8955661236
 11
142.1564849696
 21
181.8921881233
  0
LINE
  5
53B
100
AcDbEntity
  8
0
100
AcDbLine
 62
7
  6
CONTINUOUS
 10
141.2254868247
 20
180.4925608292
 11
141.0840654684
 21
180.3511394729
  0
LINE
  5
53C
100
AcDbEntity
  8
0
100
AcDbLine
 62
7
  6
CONTINUOUS
 10
140.9426441133
 20
180.2097181157
 11
141.0492543274
 21
180.3163283298
  0
LINE
  5
53D
100
AcDbEntity
  8
0
100
AcDbLine
 62
7
  6
CONTINUOUS
 10
31.7649845303
 20
87.6999999977
 11
31.5522185806
 21
87.5333333416
  0
LINE
  5
53E
100
AcDbEntity
  8
0
100
AcDbLine
 62
7
  6
CONTINUOUS
 10
31.764984531
 20
85.7416667438
 11
31.5522185803
 21
85.5749999976
  0
LINE
  5
53F
100
AcDbEntity
  8
0
100
AcDbLine
 62
7
  6
CONTINUOUS
 10
33.5203037319
 20
86.2416666251
 11
33.7330696637
 21
86.4083333713
  0
LINE
  5
540
100
AcDbEntity
  8
0
100
AcDbLine
 62
7
  6
CONTINUOUS
 10
33.5203037311
 20
84.3249999975
 11
33.7330696637
 21
84.491666744
  0
LINE
  5
541
100
AcDbEntity
  8
0
100
AcDbLine
 62
7
  6
CONTINUOUS
 10
31.7649845309
 20
99.5583330135
 11
33.8926441127
 21
100.5999999981
  0
LINE
  5
542
100
AcDbEntity
  8
0
100
AcDbLine
 62
7
  6
CONTINUOUS
 10
33.5734952145
 20
100.7249999981
 11
31.3926441127
 21
99.6833330135
  0
LINE
  5
543
100
AcDbEntity
  8
0
100
AcDbLine
 62
7
  6
CONTINUOUS
 10
132.4426441127
 20
107.7666186839
 11
133.9763288074
 21
107.8979926512
  0
LINE
  5
544
100
AcDbEntity
  8
0
100
AcDbLine
 62
7
  6
CONTINUOUS
 10
133.9763288016
 20
107.0785586559
 11
132.4426441135
 21
106.9749999981
  0
LINE
  5
545
100
AcDbEntity
  8
0
100
AcDbLine
 62
7
  6
CONTINUOUS
 10
33.5734952146
 20
100.7249999981
 11
31.3926441127
 21
100.7249999981
  0
LINE
  5
546
100
AcDbEntity
  8
0
100
AcDbLine
 62
7
  6
CONTINUOUS
 10
31.3926441127
 20
100.9749999981
 11
33.8926441127
 21
100.9749999981
  0
LINE
  5
547
100
AcDbEntity
  8
0
100
AcDbLine
 62
7
  6
CONTINUOUS
 10
33.3075377992
 20
101.3499999981
 11
33.0947717184
 21
101.3499999981
  0
LINE
  5
548
100
AcDbEntity
  8
0
100
AcDbLine
 62
7
  6
CONTINUOUS
 10
33.3075377993
 20
101.5999999981
 11
33.1479632015
 21
101.5999999981
  0
LINE
  5
549
100
AcDbEntity
  8
0
100
AcDbLine
 62
7
  6
CONTINUOUS
 10
32.5096654051
 20
102.6416665058
 11
31.3926441127
 21
102.6416665058
  0
LINE
  5
54A
100
AcDbEntity
  8
0
100
AcDbLine
 62
7
  6
CONTINUOUS
 10
32.8288143033
 20
102.6416665058
 11
33.6266866976
 21
102.6416665058
  0
LINE
  5
54B
100
AcDbEntity
  8
0
100
AcDbLine
 62
7
  6
CONTINUOUS
 10
31.3926441127
 20
102.8916665058
 11
33.8926441127
 21
102.8916665058
  0
LINE
  5
54C
100
AcDbEntity
  8
0
100
AcDbLine
 62
7
  6
CONTINUOUS
 10
33.8926441127
 20
103.2249999981
 11
33.5734952146
 21
103.2249999981
  0
LINE
  5
54D
100
AcDbEntity
  8
0
100
AcDbLine
 62
7
  6
CONTINUOUS
 10
31.7117930481
 20
103.2249999981
 11
31.3926441127
 21
103.2249999981
  0
LINE
  5
54E
100
AcDbEntity
  8
0
100
AcDbLine
 62
7
  6
CONTINUOUS
 10
32.8820057863
 20
103.3916665058
 11
32.5628568882
 21
103.3916665058
  0
LINE
  5
54F
100
AcDbEntity
  8
0
100
AcDbLine
 62
7
  6
CONTINUOUS
 10
23.9426441127
 20
104.1598273778
 11
24.3426441127
 21
104.159827378
  0
LINE
  5
550
100
AcDbEntity
  8
0
100
AcDbLine
 62
7
  6
CONTINUOUS
 10
140.9426441127
 20
104.1607981721
 11
141.3426441127
 21
104.1607981721
  0
LINE
  5
551
100
AcDbEntity
  8
0
100
AcDbLine
 62
7
  6
CONTINUOUS
 10
19.4614328758
 20
104.1784536949
 11
22.2946430604
 21
104.1784536949
  0
LINE
  5
552
100
AcDbEntity
  8
0
100
AcDbLine
 62
7
  6
CONTINUOUS
 10
142.990645165
 20
104.1784536949
 11
145.8238553496
 21
104.1784536955
  0
LINE
  5
553
100
AcDbEntity
  8
0
100
AcDbLine
 62
7
  6
CONTINUOUS
 10
33.5734952146
 20
104.4749999981
 11
32.8820057863
 21
104.4749999981
  0
LINE
  5
554
100
AcDbEntity
  8
0
100
AcDbLine
 62
7
  6
CONTINUOUS
 10
32.5628568882
 20
104.4749999981
 11
31.7117930481
 21
104.4749999981
  0
LINE
  5
555
100
AcDbEntity
  8
0
100
AcDbLine
 62
7
  6
CONTINUOUS
 10
31.3926441127
 20
104.7249999981
 11
33.8926441127
 21
104.7249999981
  0
LINE
  5
556
100
AcDbEntity
  8
0
100
AcDbLine
 62
7
  6
CONTINUOUS
 10
33.8926441127
 20
105.0583334904
 11
31.3926441127
 21
105.0583334904
  0
LINE
  5
557
100
AcDbEntity
  8
0
100
AcDbLine
 62
7
  6
CONTINUOUS
 10
31.3926441127
 20
105.3083334904
 11
32.5628568882
 21
105.3083334904
  0
LINE
  5
558
100
AcDbEntity
  8
0
100
AcDbLine
 62
7
  6
CONTINUOUS
 10
32.8820057863
 20
105.3083334904
 11
33.8926441127
 21
105.3083334904
  0
LINE
  5
559
100
AcDbEntity
  8
0
100
AcDbLine
 62
7
  6
CONTINUOUS
 10
33.8926441127
 20
106.4749999981
 11
32.8820057863
 21
106.4749999981
  0
LINE
  5
55A
100
AcDbEntity
  8
0
100
AcDbLine
 62
7
  6
CONTINUOUS
 10
32.5628568882
 20
106.4749999981
 11
31.3926441127
 21
106.4749999981
  0
LINE
  5
55B
100
AcDbEntity
  8
0
100
AcDbLine
 62
7
  6
CONTINUOUS
 10
31.3926441127
 20
106.7249999981
 11
33.8926441127
 21
106.7249999981
  0
LINE
  5
55C
100
AcDbEntity
  8
0
100
AcDbLine
 62
7
  6
CONTINUOUS
 10
128.6426441052
 20
106.9749999981
 11
132.4426441127
 21
106.9749999981
  0
LINE
  5
55D
100
AcDbEntity
  8
0
100
AcDbLine
 62
7
  6
CONTINUOUS
 10
33.8926441127
 20
107.0583332519
 11
33.6266866976
 21
107.0583332519
  0
LINE
  5
55E
100
AcDbEntity
  8
0
100
AcDbLine
 62
7
  6
CONTINUOUS
 10
33.2543461674
 20
131.7333333421
 11
33.4139207655
 21
131.6499999988
  0
LINE
  5
55F
100
AcDbEntity
  8
0
100
AcDbLine
 62
7
  6
CONTINUOUS
 10
142.15648497
 20
44.5578118728
 11
144.1598696501
 21
42.5544322844
  0
LINE
  5
560
100
AcDbEntity
  8
0
100
AcDbLine
 62
7
  6
CONTINUOUS
 10
140.9426441126
 20
46.2402818798
 11
141.0651185997
 21
46.1178073926
  0
LINE
  5
561
100
AcDbEntity
  8
0
100
AcDbLine
 62
7
  6
CONTINUOUS
 10
141.0840654689
 20
46.0988605237
 11
141.2254868252
 21
45.9574391675
  0
LINE
  5
562
100
AcDbEntity
  8
0
100
AcDbLine
 62
7
  6
CONTINUOUS
 10
124.1252451424
 20
60.0192605483
 11
124.2160478897
 21
59.9249999981
  0
LINE
  5
563
100
AcDbEntity
  8
0
100
AcDbLine
 62
7
  6
CONTINUOUS
 10
36.6639207655
 20
149.8666667439
 11
36.7703037315
 21
149.7416667439
  0
LINE
  5
564
100
AcDbEntity
  8
0
100
AcDbLine
 62
7
  6
CONTINUOUS
 10
36.9458356013
 20
161.2249999981
 11
37.0522185805
 21
161.0583332518
  0
LINE
  5
565
100
AcDbEntity
  8
0
100
AcDbLine
 62
7
  6
CONTINUOUS
 10
36.9458356013
 20
163.2666666248
 11
37.0522185802
 21
163.0999999983
  0
LINE
  5
566
100
AcDbEntity
  8
0
100
AcDbLine
 62
7
  6
CONTINUOUS
 10
39.3394526296
 20
160.099999998
 11
39.2330696634
 21
160.266666506
  0
LINE
  5
567
100
AcDbEntity
  8
0
100
AcDbLine
 62
7
  6
CONTINUOUS
 10
39.3394526297
 20
162.0166667442
 11
39.2330696635
 21
162.1833332521
  0
LINE
  5
568
100
AcDbEntity
  8
0
100
AcDbLine
 62
7
  6
CONTINUOUS
 10
78.5226480001
 20
175.0494701873
 11
78.5226457004
 21
110.61390355
  0
LINE
  5
569
100
AcDbEntity
  8
0
100
AcDbLine
 62
7
  6
CONTINUOUS
 10
79.3969927302
 20
175.0494701903
 11
79.3969929495
 21
110.6139290971
  0
LINE
  5
56A
100
AcDbEntity
  8
0
100
AcDbLine
 62
7
  6
CONTINUOUS
 10
80.1019862658
 20
176.0929683388
 11
80.1019863112
 21
176.2191973941
  0
LINE
  5
56B
100
AcDbEntity
  8
0
100
AcDbLine
 62
7
  6
CONTINUOUS
 10
80.9426441127
 20
106.9227769342
 11
80.9426441127
 21
97.9663721922
  0
LINE
  5
56C
100
AcDbEntity
  8
0
100
AcDbLine
 62
7
  6
CONTINUOUS
 10
80.27159761
 20
108.8652267795
 11
80.2726245119
 21
109.7408483638
  0
LINE
  5
56D
100
AcDbEntity
  8
0
100
AcDbLine
 62
7
  6
CONTINUOUS
 10
65.1385464805
 20
51.2059660341
 11
64.9386587217
 21
50.2065272398
  0
LINE
  5
56E
100
AcDbEntity
  8
0
100
AcDbLine
 62
7
  6
CONTINUOUS
 10
47.0522185803
 20
59.4333333413
 11
46.9458356013
 21
59.2666666549
  0
LINE
  5
56F
100
AcDbEntity
  8
0
100
AcDbLine
 62
7
  6
CONTINUOUS
 10
48.1692398543
 20
57.5583332521
 11
48.0628568879
 21
57.3916667438
  0
LINE
  5
570
100
AcDbEntity
  8
0
100
AcDbLine
 62
7
  6
CONTINUOUS
 10
36.7649845309
 20
68.0249999976
 11
36.8713675346
 21
68.1499999983
  0
LINE
  5
571
100
AcDbEntity
  8
0
100
AcDbLine
 62
7
  6
CONTINUOUS
 10
37.8820057864
 20
66.149999999
 11
37.9883887523
 21
66.2749999988
  0
LINE
  5
572
100
AcDbEntity
  8
0
100
AcDbLine
 62
7
  6
CONTINUOUS
 10
37.456473922
 20
65.6083332526
 11
37.350090956
 21
65.4833332526
  0
LINE
  5
573
100
AcDbEntity
  8
0
100
AcDbLine
 62
7
  6
CONTINUOUS
 10
80.2726095436
 20
109.7346041104
 11
85.8053864618
 21
115.2426273606
  0
LINE
  5
574
100
AcDbEntity
  8
0
100
AcDbLine
 62
7
  6
CONTINUOUS
 10
84.9311113218
 20
116.1110326966
 11
79.3969929495
 21
110.6139290971
  0
LINE
  5
575
100
AcDbEntity
  8
0
100
AcDbLine
 62
7
  6
CONTINUOUS
 10
31.8713675346
 20
87.4499999983
 11
32.030941983
 21
87.5333333412
  0
LINE
  5
576
100
AcDbEntity
  8
0
100
AcDbLine
 62
7
  6
CONTINUOUS
 10
31.3926441127
 20
101.3083330135
 11
32.6160483712
 21
101.6833330135
  0
LINE
  5
577
100
AcDbEntity
  8
0
100
AcDbLine
 62
7
  6
CONTINUOUS
 10
32.5096654051
 20
101.9333330134
 11
31.3926441127
 21
101.599999998
  0
LINE
  5
578
100
AcDbEntity
  8
0
100
AcDbLine
 62
7
  6
CONTINUOUS
 10
71.4527745866
 20
107.4249999981
 11
80.4404210488
 21
107.4249999981
  0
LINE
  5
579
100
AcDbEntity
  8
0
100
AcDbLine
 62
7
  6
CONTINUOUS
 10
33.6266866976
 20
107.7249999981
 11
31.3926441127
 21
107.7249999981
  0
LINE
  5
57A
100
AcDbEntity
  8
0
100
AcDbLine
 62
7
  6
CONTINUOUS
 10
100.242644112
 20
107.8249999981
 11
111.8351780692
 21
107.8249999981
  0
LINE
  5
57B
100
AcDbEntity
  8
0
100
AcDbLine
 62
7
  6
CONTINUOUS
 10
134.4426441127
 20
107.8979919578
 11
133.9763288074
 21
107.8979919581
  0
LINE
  5
57C
100
AcDbEntity
  8
0
100
AcDbLine
 62
7
  6
CONTINUOUS
 10
31.3926441127
 20
107.9749999981
 11
33.6266866976
 21
107.9749999981
  0
LINE
  5
57D
100
AcDbEntity
  8
0
100
AcDbLine
 62
7
  6
CONTINUOUS
 10
33.6266866976
 20
108.641666625
 11
33.8926441127
 21
108.641666625
  0
LINE
  5
57E
100
AcDbEntity
  8
0
100
AcDbLine
 62
7
  6
CONTINUOUS
 10
134.7426441134
 20
108.6833330135
 11
134.4426441127
 21
108.6833330135
  0
LINE
  5
57F
100
AcDbEntity
  8
0
100
AcDbLine
 62
7
  6
CONTINUOUS
 10
100.1526946188
 20
108.7249999981
 11
110.4426441125
 21
108.7249999981
  0
LINE
  5
580
100
AcDbEntity
  8
0
100
AcDbLine
 62
7
  6
CONTINUOUS
 10
134.7426441134
 20
108.7666669824
 11
134.4426441127
 21
108.7666669824
  0
LINE
  5
581
100
AcDbEntity
  8
0
100
AcDbLine
 62
7
  6
CONTINUOUS
 10
123.938906386
 20
108.8151850915
 11
122.9395914049
 21
108.8151835485
  0
LINE
  5
582
100
AcDbEntity
  8
0
100
AcDbLine
 62
7
  6
CONTINUOUS
 10
134.7426441134
 20
108.9333330135
 11
134.4426441127
 21
108.9333330135
  0
LINE
  5
583
100
AcDbEntity
  8
0
100
AcDbLine
 62
7
  6
CONTINUOUS
 10
33.8926441127
 20
108.9749999981
 11
33.5734952146
 21
108.9749999981
  0
LINE
  5
584
100
AcDbEntity
  8
0
100
AcDbLine
 62
7
  6
CONTINUOUS
 10
31.7117930481
 20
108.9749999981
 11
31.3926441127
 21
108.9749999981
  0
LINE
  5
585
100
AcDbEntity
  8
0
100
AcDbLine
 62
7
  6
CONTINUOUS
 10
134.7426441134
 20
109.0999999988
 11
134.4426441127
 21
109.0999999988
  0
LINE
  5
586
100
AcDbEntity
  8
0
100
AcDbLine
 62
7
  6
CONTINUOUS
 10
32.8820057863
 20
109.141666625
 11
32.5628568882
 21
109.141666625
  0
LINE
  5
587
100
AcDbEntity
  8
0
100
AcDbLine
 62
7
  6
CONTINUOUS
 10
134.7426441134
 20
109.3083330135
 11
134.4426441127
 21
109.3083330135
  0
LINE
  5
588
100
AcDbEntity
  8
0
100
AcDbLine
 62
7
  6
CONTINUOUS
 10
134.7426441134
 20
109.5499999973
 11
134.4426441127
 21
109.5499999973
  0
LINE
  5
589
100
AcDbEntity
  8
0
100
AcDbLine
 62
7
  6
CONTINUOUS
 10
134.7426441134
 20
109.9249999973
 11
134.4426441127
 21
109.9249999973
  0
LINE
  5
58A
100
AcDbEntity
  8
0
100
AcDbLine
 62
7
  6
CONTINUOUS
 10
123.6348476966
 20
110.2217740973
 11
123.9195760454
 21
110.2217753538
  0
LINE
  5
58B
100
AcDbEntity
  8
0
100
AcDbLine
 62
7
  6
CONTINUOUS
 10
33.5734952146
 20
110.2249999981
 11
32.8820057863
 21
110.2249999981
  0
LINE
  5
58C
100
AcDbEntity
  8
0
100
AcDbLine
 62
7
  6
CONTINUOUS
 10
32.5628568882
 20
110.2249999981
 11
31.7117930481
 21
110.2249999981
  0
LINE
  5
58D
100
AcDbEntity
  8
0
100
AcDbLine
 62
7
  6
CONTINUOUS
 10
31.3926441127
 20
110.4749999981
 11
33.8926441127
 21
110.4749999981
  0
LINE
  5
58E
100
AcDbEntity
  8
0
100
AcDbLine
 62
7
  6
CONTINUOUS
 10
79.3969929495
 20
110.6139288309
 11
78.5226457011
 21
110.6139288279
  0
LINE
  5
58F
100
AcDbEntity
  8
0
100
AcDbLine
 62
7
  6
CONTINUOUS
 10
134.7426441134
 20
110.9666665051
 11
134.4426441127
 21
110.9666665051
  0
LINE
  5
590
100
AcDbEntity
  8
0
100
AcDbLine
 62
7
  6
CONTINUOUS
 10
30.6426441127
 20
111.0749999977
 11
34.6426441127
 21
111.0749999977
  0
LINE
  5
591
100
AcDbEntity
  8
0
100
AcDbLine
 62
7
  6
CONTINUOUS
 10
134.7426441134
 20
111.216666505
 11
134.4426441127
 21
111.216666505
  0
LINE
  5
592
100
AcDbEntity
  8
0
100
AcDbLine
 62
7
  6
CONTINUOUS
 10
134.7426441134
 20
111.3416667435
 11
134.4426441127
 21
111.3416667435
  0
LINE
  5
593
100
AcDbEntity
  8
0
100
AcDbLine
 62
7
  6
CONTINUOUS
 10
134.7426441134
 20
111.3833332513
 11
134.4426441127
 21
111.3833332513
  0
LINE
  5
594
100
AcDbEntity
  8
0
100
AcDbLine
 62
7
  6
CONTINUOUS
 10
134.7426441134
 20
111.4666667435
 11
134.4426441127
 21
111.4666667435
  0
LINE
  5
595
100
AcDbEntity
  8
0
100
AcDbLine
 62
7
  6
CONTINUOUS
 10
134.7426441134
 20
111.5499999973
 11
134.4426441127
 21
111.5499999973
  0
LINE
  5
596
100
AcDbEntity
  8
0
100
AcDbLine
 62
7
  6
CONTINUOUS
 10
134.7426441134
 20
113.0499999973
 11
134.4426441127
 21
113.0499999973
  0
LINE
  5
597
100
AcDbEntity
  8
0
100
AcDbLine
 62
7
  6
CONTINUOUS
 10
134.7426441134
 20
113.3416666243
 11
134.4426441127
 21
113.3416666243
  0
LINE
  5
598
100
AcDbEntity
  8
0
100
AcDbLine
 62
7
  6
CONTINUOUS
 10
134.7426441134
 20
113.3833332512
 11
134.4426441127
 21
113.3833332512
  0
LINE
  5
599
100
AcDbEntity
  8
0
100
AcDbLine
 62
7
  6
CONTINUOUS
 10
134.7426441134
 20
113.4249999975
 11
134.4426441127
 21
113.4249999975
  0
LINE
  5
59A
100
AcDbEntity
  8
0
100
AcDbLine
 62
7
  6
CONTINUOUS
 10
134.7426441134
 20
113.5499999972
 11
134.4426441127
 21
113.5499999972
  0
LINE
  5
59B
100
AcDbEntity
  8
0
100
AcDbLine
 62
7
  6
CONTINUOUS
 10
134.7426441134
 20
113.7166667429
 11
134.4426441127
 21
113.7166667429
  0
LINE
  5
59C
100
AcDbEntity
  8
0
100
AcDbLine
 62
7
  6
CONTINUOUS
 10
134.7426441134
 20
113.9249999981
 11
134.4426441127
 21
113.9249999981
  0
LINE
  5
59D
100
AcDbEntity
  8
0
100
AcDbLine
 62
7
  6
CONTINUOUS
 10
80.2726095436
 20
109.7346041104
 11
122.4774215442
 21
109.6962189787
  0
LINE
  5
59E
100
AcDbEntity
  8
0
100
AcDbLine
 62
7
  6
CONTINUOUS
 10
80.2715875003
 20
108.8652280591
 11
122.9395931807
 21
108.8151835653
  0
LINE
  5
59F
100
AcDbEntity
  8
0
100
AcDbLine
 62
7
  6
CONTINUOUS
 10
33.5203037316
 20
131.8999999987
 11
33.3075377992
 21
131.983333331
  0
LINE
  5
5A0
100
AcDbEntity
  8
0
100
AcDbLine
 62
7
  6
CONTINUOUS
 10
34.8022185803
 20
148.8249999978
 11
35.0149845311
 21
148.6583332515
  0
LINE
  5
5A1
100
AcDbEntity
  8
0
100
AcDbLine
 62
7
  6
CONTINUOUS
 10
36.9830696633
 20
149.949999998
 11
36.7703037316
 21
150.1166666246
  0
LINE
  5
5A2
100
AcDbEntity
  8
0
100
AcDbLine
 62
7
  6
CONTINUOUS
 10
27.6241713544
 20
168.5431157395
 11
26.8521687295
 21
169.3046210316
  0
LINE
  5
5A3
100
AcDbEntity
  8
0
100
AcDbLine
 62
7
  6
CONTINUOUS
 10
127.5302150682
 20
56.0738178105
 11
127.4952002854
 21
56.1140199574
  0
LINE
  5
5A4
100
AcDbEntity
  8
0
100
AcDbLine
 62
7
  6
CONTINUOUS
 10
128.494785971
 20
57.1134739649
 11
128.5298007538
 21
57.0732718178
  0
LINE
  5
5A5
100
AcDbEntity
  8
0
100
AcDbLine
 62
7
  6
CONTINUOUS
 10
37.3713675343
 20
161.1416667442
 11
37.2649845312
 21
161.266666744
  0
LINE
  5
5A6
100
AcDbEntity
  8
0
100
AcDbLine
 62
7
  6
CONTINUOUS
 10
38.9671122486
 20
160.1833334903
 11
39.0734952145
 21
160.0583334904
  0
LINE
  5
5A7
100
AcDbEntity
  8
0
100
AcDbLine
 62
7
  6
CONTINUOUS
 10
37.3713675344
 20
163.1833333711
 11
37.2649845311
 21
163.3083333711
  0
LINE
  5
5A8
100
AcDbEntity
  8
0
100
AcDbLine
 62
7
  6
CONTINUOUS
 10
38.9139207655
 20
162.0999999981
 11
39.0203037316
 21
161.9749999981
  0
LINE
  5
5A9
100
AcDbEntity
  8
0
100
AcDbLine
 62
7
  6
CONTINUOUS
 10
84.9311113218
 20
116.1110326966
 11
84.9311111403
 21
169.4848064806
  0
LINE
  5
5AA
100
AcDbEntity
  8
0
100
AcDbLine
 62
7
  6
CONTINUOUS
 10
85.8053396552
 20
115.2351575843
 11
85.805458344
 21
170.3580162236
  0
LINE
  5
5AB
100
AcDbEntity
  8
0
100
AcDbLine
 62
7
  6
CONTINUOUS
 10
48.1692398544
 20
56.5999999983
 11
48.2756228202
 21
56.766666744
  0
LINE
  5
5AC
100
AcDbEntity
  8
0
100
AcDbLine
 62
7
  6
CONTINUOUS
 10
48.116048371
 20
54.6416665057
 11
48.1692398541
 21
54.724999998
  0
LINE
  5
5AD
100
AcDbEntity
  8
0
100
AcDbLine
 62
7
  6
CONTINUOUS
 10
49.2330696637
 20
52.8499999982
 11
49.3394526296
 21
53.0166665057
  0
LINE
  5
5AE
100
AcDbEntity
  8
0
100
AcDbLine
 62
7
  6
CONTINUOUS
 10
47.1054100635
 20
57.7249999981
 11
46.9458356011
 21
57.516666744
  0
LINE
  5
5AF
100
AcDbEntity
  8
0
100
AcDbLine
 62
7
  6
CONTINUOUS
 10
33.4905095999
 20
50.3578178701
 11
33.5603524642
 21
50.4339398747
  0
LINE
  5
5B0
100
AcDbEntity
  8
0
100
AcDbLine
 62
7
  6
CONTINUOUS
 10
34.5598620267
 20
49.4345246149
 11
34.4900015368
 21
49.3584323477
  0
LINE
  5
5B1
100
AcDbEntity
  8
0
100
AcDbLine
 62
7
  6
CONTINUOUS
 10
38.6798781809
 20
65.4416667452
 11
38.8394526296
 21
65.6083332525
  0
LINE
  5
5B2
100
AcDbEntity
  8
0
100
AcDbLine
 62
7
  6
CONTINUOUS
 10
38.6798781809
 20
63.4416665068
 11
38.8394526296
 21
63.608333491
  0
LINE
  5
5B3
100
AcDbEntity
  8
0
100
AcDbLine
 62
7
  6
CONTINUOUS
 10
24.0598013996
 20
45.9574391681
 11
24.3426441121
 21
46.2402818805
  0
LINE
  5
5B4
100
AcDbEntity
  8
0
100
AcDbLine
 62
7
  6
CONTINUOUS
 10
21.1254211212
 20
42.5544297384
 11
23.1288032553
 21
44.5578118728
  0
LINE
  5
5B5
100
AcDbEntity
  8
0
100
AcDbLine
 62
7
  6
CONTINUOUS
 10
26.8521687295
 20
57.1421729952
 11
27.3348065789
 21
57.6035972315
  0
LINE
  5
5B6
100
AcDbEntity
  8
0
100
AcDbLine
 62
7
  6
CONTINUOUS
 10
28.3018515395
 20
56.573143168
 11
27.8515836754
 21
56.1427080455
  0
LINE
  5
5B7
100
AcDbEntity
  8
0
100
AcDbLine
 62
7
  6
CONTINUOUS
 10
26.7760712139
 20
57.072352603
 11
26.8521687294
 21
57.1421729955
  0
LINE
  5
5B8
100
AcDbEntity
  8
0
100
AcDbLine
 62
7
  6
CONTINUOUS
 10
27.8515836754
 20
56.1427080455
 11
27.7754619978
 21
56.072865481
  0
LINE
  5
5B9
100
AcDbEntity
  8
0
100
AcDbLine
 62
7
  6
CONTINUOUS
 10
36.7649845303
 20
68.3999999977
 11
36.5522185806
 21
68.2333333416
  0
LINE
  5
5BA
100
AcDbEntity
  8
0
100
AcDbLine
 62
7
  6
CONTINUOUS
 10
27.3672003698
 20
71.3506837512
 11
27.6241713544
 21
71.5209023628
  0
LINE
  5
5BB
100
AcDbEntity
  8
0
100
AcDbLine
 62
7
  6
CONTINUOUS
 10
28.6236101486
 20
70.521148725
 11
28.3673967513
 21
70.3514319421
  0
LINE
  5
5BC
100
AcDbEntity
  8
0
100
AcDbLine
 62
7
  6
CONTINUOUS
 10
31.8713675342
 20
85.4916667438
 11
32.0309419834
 21
85.5749999977
  0
LINE
  5
5BD
100
AcDbEntity
  8
0
100
AcDbLine
 62
7
  6
CONTINUOUS
 10
33.4139207654
 20
84.5749999977
 11
33.2543461674
 21
84.4916667439
  0
LINE
  5
5BE
100
AcDbEntity
  8
0
100
AcDbLine
 62
7
  6
CONTINUOUS
 10
31.9777505005
 20
87.7833333301
 11
31.7649845303
 21
87.6999999977
  0
LINE
  5
5BF
100
AcDbEntity
  8
0
100
AcDbLine
 62
7
  6
CONTINUOUS
 10
31.9777505003
 20
85.8249999977
 11
31.764984531
 21
85.7416667438
  0
LINE
  5
5C0
100
AcDbEntity
  8
0
100
AcDbLine
 62
7
  6
CONTINUOUS
 10
33.3075377991
 20
101.3499999981
 11
33.4671122485
 21
101.3916669827
  0
LINE
  5
5C1
100
AcDbEntity
  8
0
100
AcDbLine
 62
7
  6
CONTINUOUS
 10
33.4671122486
 20
101.6416669827
 11
33.3075377993
 21
101.5999999981
  0
LINE
  5
5C2
100
AcDbEntity
  8
0
100
AcDbLine
 62
7
  6
CONTINUOUS
 10
124.6813474494
 20
120.249037923
 11
124.2159639271
 21
120.2448219183
  0
LINE
  5
5C3
100
AcDbEntity
  8
0
100
AcDbLine
 62
7
  6
CONTINUOUS
 10
125.680782113
 20
120.2493324261
 11
124.6813474494
 21
120.249037923
  0
LINE
  5
5C4
100
AcDbEntity
  8
0
100
AcDbLine
 62
7
  6
CONTINUOUS
 10
134.7426441134
 20
114.6749999973
 11
134.4426441127
 21
114.6749999973
  0
LINE
  5
5C5
100
AcDbEntity
  8
0
100
AcDbLine
 62
7
  6
CONTINUOUS
 10
134.7426441134
 20
114.9249999973
 11
134.4426441127
 21
114.9249999973
  0
LINE
  5
5C6
100
AcDbEntity
  8
0
100
AcDbLine
 62
7
  6
CONTINUOUS
 10
134.7426441134
 20
115.2583333704
 11
134.4426441127
 21
115.2583333704
  0
LINE
  5
5C7
100
AcDbEntity
  8
0
100
AcDbLine
 62
7
  6
CONTINUOUS
 10
134.7426441134
 20
115.2999999974
 11
134.4426441127
 21
115.2999999974
  0
LINE
  5
5C8
100
AcDbEntity
  8
0
100
AcDbLine
 62
7
  6
CONTINUOUS
 10
134.7426441134
 20
115.3833333707
 11
134.4426441127
 21
115.3833333707
  0
LINE
  5
5C9
100
AcDbEntity
  8
0
100
AcDbLine
 62
7
  6
CONTINUOUS
 10
134.7426441134
 20
115.5499999969
 11
134.4426441127
 21
115.5499999969
  0
LINE
  5
5CA
100
AcDbEntity
  8
0
100
AcDbLine
 62
7
  6
CONTINUOUS
 10
134.7426441134
 20
115.7166666247
 11
134.4426441127
 21
115.7166666247
  0
LINE
  5
5CB
100
AcDbEntity
  8
0
100
AcDbLine
 62
7
  6
CONTINUOUS
 10
134.7426441134
 20
115.9249999972
 11
134.4426441127
 21
115.9249999972
  0
LINE
  5
5CC
100
AcDbEntity
  8
0
100
AcDbLine
 62
7
  6
CONTINUOUS
 10
134.7426441134
 20
116.2583333108
 11
134.4426441127
 21
116.2583333108
  0
LINE
  5
5CD
100
AcDbEntity
  8
0
100
AcDbLine
 62
7
  6
CONTINUOUS
 10
134.7426441134
 20
116.4666666549
 11
134.4426441127
 21
116.4666666549
  0
LINE
  5
5CE
100
AcDbEntity
  8
0
100
AcDbLine
 62
7
  6
CONTINUOUS
 10
134.7426441134
 20
116.6333333411
 11
134.4426441127
 21
116.6333333411
  0
LINE
  5
5CF
100
AcDbEntity
  8
0
100
AcDbLine
 62
7
  6
CONTINUOUS
 10
134.7426441134
 20
116.7999999971
 11
134.4426441127
 21
116.7999999971
  0
LINE
  5
5D0
100
AcDbEntity
  8
0
100
AcDbLine
 62
7
  6
CONTINUOUS
 10
134.7426441134
 20
116.8833333297
 11
134.4426441127
 21
116.8833333297
  0
LINE
  5
5D1
100
AcDbEntity
  8
0
100
AcDbLine
 62
7
  6
CONTINUOUS
 10
134.7426441134
 20
116.9249999973
 11
134.4426441127
 21
116.9249999973
  0
LINE
  5
5D2
100
AcDbEntity
  8
0
100
AcDbLine
 62
7
  6
CONTINUOUS
 10
134.7426441134
 20
117.4749999981
 11
134.4426441127
 21
117.4749999981
  0
LINE
  5
5D3
100
AcDbEntity
  8
0
100
AcDbLine
 62
7
  6
CONTINUOUS
 10
134.7426441134
 20
117.7249999981
 11
134.4426441127
 21
117.7249999981
  0
LINE
  5
5D4
100
AcDbEntity
  8
0
100
AcDbLine
 62
7
  6
CONTINUOUS
 10
133.9763288074
 20
118.5744639482
 11
134.4426441127
 21
118.5744639479
  0
LINE
  5
5D5
100
AcDbEntity
  8
0
100
AcDbLine
 62
7
  6
CONTINUOUS
 10
132.4426441127
 20
119.4749999981
 11
128.6426441052
 21
119.4749999981
  0
LINE
  5
5D6
100
AcDbEntity
  8
0
100
AcDbLine
 62
7
  6
CONTINUOUS
 10
124.1251614698
 20
120.1307394478
 11
126.714011266
 21
120.1307394478
  0
LINE
  5
5D7
100
AcDbEntity
  8
0
100
AcDbLine
 62
7
  6
CONTINUOUS
 10
124.2159639547
 20
120.2249999981
 11
126.714011266
 21
120.2249999981
  0
LINE
  5
5D8
100
AcDbEntity
  8
0
100
AcDbLine
 62
7
  6
CONTINUOUS
 10
126.714011266
 20
120.2493324261
 11
125.680782113
 21
120.2493324261
  0
LINE
  5
5D9
100
AcDbEntity
  8
0
100
AcDbLine
 62
7
  6
CONTINUOUS
 10
76.0426441127
 20
120.4249999981
 11
70.4066001456
 21
120.4249999981
  0
LINE
  5
5DA
100
AcDbEntity
  8
0
100
AcDbLine
 62
7
  6
CONTINUOUS
 10
51.4889352198
 20
120.4249999981
 11
51.242644112
 21
120.4249999981
  0
LINE
  5
5DB
100
AcDbEntity
  8
0
100
AcDbLine
 62
7
  6
CONTINUOUS
 10
113.4358638161
 20
116.108593346
 11
112.7211775783
 21
116.1086322348
  0
LINE
  5
5DC
100
AcDbEntity
  8
0
100
AcDbLine
 62
7
  6
CONTINUOUS
 10
112.7211775794
 20
116.1086537401
 11
84.9311113217
 21
116.1110326938
  0
LINE
  5
5DD
100
AcDbEntity
  8
0
100
AcDbLine
 62
7
  6
CONTINUOUS
 10
112.7210946604
 20
115.2273650112
 11
85.8053864618
 21
115.2426273606
  0
LINE
  5
5DE
100
AcDbEntity
  8
0
100
AcDbLine
 62
7
  6
CONTINUOUS
 10
133.9763288074
 20
118.5744639483
 11
132.4426441118
 21
118.6353774835
  0
LINE
  5
5DF
100
AcDbEntity
  8
0
100
AcDbLine
 62
7
  6
CONTINUOUS
 10
31.3926441127
 20
129.8166667449
 11
32.0309419835
 21
129.6499999988
  0
LINE
  5
5E0
100
AcDbEntity
  8
0
100
AcDbLine
 62
7
  6
CONTINUOUS
 10
32.2437079155
 20
129.6083332527
 11
33.6798781806
 21
129.2333332527
  0
LINE
  5
5E1
100
AcDbEntity
  8
0
100
AcDbLine
 62
7
  6
CONTINUOUS
 10
32.0309419835
 20
130.6499999988
 11
31.8713675343
 21
130.6916666258
  0
LINE
  5
5E2
100
AcDbEntity
  8
0
100
AcDbLine
 62
7
  6
CONTINUOUS
 10
33.8926441127
 20
129.3999999988
 11
31.3926441127
 21
130.0666666258
  0
LINE
  5
5E3
100
AcDbEntity
  8
0
100
AcDbLine
 62
7
  6
CONTINUOUS
 10
38.4883887523
 20
159.3499999981
 11
37.1586015651
 21
160.5166667442
  0
LINE
  5
5E4
100
AcDbEntity
  8
0
100
AcDbLine
 62
7
  6
CONTINUOUS
 10
37.1586015651
 20
160.1833334902
 11
38.328814303
 21
159.1416665059
  0
LINE
  5
5E5
100
AcDbEntity
  8
0
100
AcDbLine
 62
7
  6
CONTINUOUS
 10
26.8521687294
 20
169.3046210312
 11
26.7760064389
 21
169.3767222777
  0
LINE
  5
5E6
100
AcDbEntity
  8
0
100
AcDbLine
 62
7
  6
CONTINUOUS
 10
27.7753909599
 20
170.3761822159
 11
27.8516079021
 21
170.3040287639
  0
LINE
  5
5E7
100
AcDbEntity
  8
0
100
AcDbLine
 62
7
  6
CONTINUOUS
 10
27.8516079021
 20
170.3040287639
 11
28.623610104
 21
169.542569746
  0
LINE
  5
5E8
100
AcDbEntity
  8
0
100
AcDbLine
 62
7
  6
CONTINUOUS
 10
24.3426441121
 20
180.2097181157
 11
24.2201696249
 21
180.3321926028
  0
LINE
  5
5E9
100
AcDbEntity
  8
0
100
AcDbLine
 62
7
  6
CONTINUOUS
 10
24.2012227564
 20
180.3511394724
 11
24.0598014002
 21
180.4925608287
  0
LINE
  5
5EA
100
AcDbEntity
  8
0
100
AcDbLine
 62
7
  6
CONTINUOUS
 10
23.1288032563
 20
181.8921881238
 11
21.1254209871
 21
183.8955701236
  0
LINE
  5
5EB
100
AcDbEntity
  8
0
100
AcDbLine
 62
7
  6
CONTINUOUS
 10
33.5635690504
 20
176.0160840228
 11
33.491461795
 21
176.0922531345
  0
LINE
  5
5EC
100
AcDbEntity
  8
0
100
AcDbLine
 62
7
  6
CONTINUOUS
 10
91.689190415
 20
33.2437887623
 11
91.6891904151
 21
36.0769989458
  0
LINE
  5
5ED
100
AcDbEntity
  8
0
100
AcDbLine
 62
7
  6
CONTINUOUS
 10
91.6891904153
 20
190.3730010494
 11
91.6891904157
 21
193.2062112338
  0
LINE
  5
5EE
100
AcDbEntity
  8
0
100
AcDbLine
 62
7
  6
CONTINUOUS
 10
91.7153941521
 20
37.7249999981
 11
91.7153941506
 21
38.1249999981
  0
LINE
  5
5EF
100
AcDbEntity
  8
0
100
AcDbLine
 62
7
  6
CONTINUOUS
 10
91.759535778
 20
188.3249999981
 11
91.759535778
 21
188.7249999981
  0
LINE
  5
5F0
100
AcDbEntity
  8
0
100
AcDbLine
 62
7
  6
CONTINUOUS
 10
59.4807638973
 20
55.2249999981
 11
59.9426441127
 21
56.024999998
  0
LINE
  5
5F1
100
AcDbEntity
  8
0
100
AcDbLine
 62
7
  6
CONTINUOUS
 10
47.264984531
 20
59.2249999979
 11
47.3713675345
 21
59.3499999982
  0
LINE
  5
5F2
100
AcDbEntity
  8
0
100
AcDbLine
 62
7
  6
CONTINUOUS
 10
48.3820057864
 20
57.3499999983
 11
48.4883887522
 21
57.474999998
  0
LINE
  5
5F3
100
AcDbEntity
  8
0
100
AcDbLine
 62
7
  6
CONTINUOUS
 10
47.956473922
 20
56.8083332519
 11
47.850090956
 21
56.6833332519
  0
LINE
  5
5F4
100
AcDbEntity
  8
0
100
AcDbLine
 62
7
  6
CONTINUOUS
 10
49.0734952146
 20
53.0999999982
 11
48.9671122483
 21
52.9749999979
  0
LINE
  5
5F5
100
AcDbEntity
  8
0
100
AcDbLine
 62
7
  6
CONTINUOUS
 10
33.5603524642
 20
50.4339398747
 11
33.9907874083
 21
50.8842075569
  0
LINE
  5
5F6
100
AcDbEntity
  8
0
100
AcDbLine
 62
7
  6
CONTINUOUS
 10
34.9902743879
 20
49.8847686735
 11
34.5598620275
 21
49.4345246149
  0
LINE
  5
5F7
100
AcDbEntity
  8
0
100
AcDbLine
 62
7
  6
CONTINUOUS
 10
36.7649845311
 20
66.2749999988
 11
36.9245590174
 21
66.3999999988
  0
LINE
  5
5F8
100
AcDbEntity
  8
0
100
AcDbLine
 62
7
  6
CONTINUOUS
 10
37.8820057862
 20
66.5249999987
 11
37.6692398542
 21
66.3583332527
  0
LINE
  5
5F9
100
AcDbEntity
  8
0
100
AcDbLine
 62
7
  6
CONTINUOUS
 10
37.4564739221
 20
65.2333332527
 11
37.6692398543
 21
65.3999999989
  0
LINE
  5
5FA
100
AcDbEntity
  8
0
100
AcDbLine
 62
7
  6
CONTINUOUS
 10
38.5203037315
 20
65.6499999988
 11
38.4139207654
 21
65.5666667449
  0
LINE
  5
5FB
100
AcDbEntity
  8
0
100
AcDbLine
 62
7
  6
CONTINUOUS
 10
37.4564739221
 20
63.6499999988
 11
37.350090956
 21
63.5666665065
  0
LINE
  5
5FC
100
AcDbEntity
  8
0
100
AcDbLine
 62
7
  6
CONTINUOUS
 10
38.5203037316
 20
63.6499999989
 11
38.4139207654
 21
63.5666665065
  0
LINE
  5
5FD
100
AcDbEntity
  8
0
100
AcDbLine
 62
7
  6
CONTINUOUS
 10
33.3075378
 20
84.241666744
 11
33.5203037311
 21
84.3249999975
  0
LINE
  5
5FE
100
AcDbEntity
  8
0
100
AcDbLine
 62
7
  6
CONTINUOUS
 10
33.3607292823
 20
83.6166665054
 11
31.3926441127
 21
83.03333349
  0
LINE
  5
5FF
100
AcDbEntity
  8
0
100
AcDbLine
 62
7
  6
CONTINUOUS
 10
145.8238553496
 20
122.2715463004
 11
142.990645165
 21
122.2715463004
  0
LINE
  5
600
100
AcDbEntity
  8
0
100
AcDbLine
 62
7
  6
CONTINUOUS
 10
22.2946430604
 20
122.2715463004
 11
19.4614328758
 21
122.2715463006
  0
LINE
  5
601
100
AcDbEntity
  8
0
100
AcDbLine
 62
7
  6
CONTINUOUS
 10
24.3426441127
 20
122.2912187922
 11
23.9426441127
 21
122.2912187922
  0
LINE
  5
602
100
AcDbEntity
  8
0
100
AcDbLine
 62
7
  6
CONTINUOUS
 10
141.3426441127
 20
122.2918696293
 11
140.9426441127
 21
122.2918696299
  0
LINE
  5
603
100
AcDbEntity
  8
0
100
AcDbLine
 62
7
  6
CONTINUOUS
 10
34.6426441127
 20
124.8249999977
 11
30.6426441127
 21
124.8249999977
  0
LINE
  5
604
100
AcDbEntity
  8
0
100
AcDbLine
 62
7
  6
CONTINUOUS
 10
33.8926441127
 20
126.3999999988
 11
31.3926441127
 21
126.3999999988
  0
LINE
  5
605
100
AcDbEntity
  8
0
100
AcDbLine
 62
7
  6
CONTINUOUS
 10
31.7649845307
 20
126.6499999988
 11
33.8926441127
 21
126.6499999988
  0
LINE
  5
606
100
AcDbEntity
  8
0
100
AcDbLine
 62
7
  6
CONTINUOUS
 10
33.5734952146
 20
127.8166665066
 11
31.3926441127
 21
127.8166665066
  0
LINE
  5
607
100
AcDbEntity
  8
0
100
AcDbLine
 62
7
  6
CONTINUOUS
 10
133.9763288016
 20
119.3714413402
 11
132.4426441119
 21
119.4749999981
  0
LINE
  5
608
100
AcDbEntity
  8
0
100
AcDbLine
 62
7
  6
CONTINUOUS
 10
31.7649845312
 20
130.4416666257
 11
32.0309419835
 21
130.3999999988
  0
LINE
  5
609
100
AcDbEntity
  8
0
100
AcDbLine
 62
7
  6
CONTINUOUS
 10
33.3075377992
 20
131.983333331
 11
33.0415802356
 21
132.0249999988
  0
LINE
  5
60A
100
AcDbEntity
  8
0
100
AcDbLine
 62
7
  6
CONTINUOUS
 10
33.0415802355
 20
131.7749999988
 11
33.2543461674
 21
131.7333333421
  0
LINE
  5
60B
100
AcDbEntity
  8
0
100
AcDbLine
 62
7
  6
CONTINUOUS
 10
36.5043461676
 20
149.9499999977
 11
36.6639207655
 21
149.8666667439
  0
LINE
  5
60C
100
AcDbEntity
  8
0
100
AcDbLine
 62
7
  6
CONTINUOUS
 10
39.3926441127
 20
157.6833334904
 11
37.9564739221
 21
158.6833334904
  0
LINE
  5
60D
100
AcDbEntity
  8
0
100
AcDbLine
 62
7
  6
CONTINUOUS
 10
37.9564739221
 20
158.3916665058
 11
38.9671122484
 21
157.6833334904
  0
LINE
  5
60E
100
AcDbEntity
  8
0
100
AcDbLine
 62
7
  6
CONTINUOUS
 10
37.0522185805
 20
161.0583332518
 11
37.264984531
 21
160.8916667442
  0
LINE
  5
60F
100
AcDbEntity
  8
0
100
AcDbLine
 62
7
  6
CONTINUOUS
 10
39.2330696634
 20
160.266666506
 11
39.0203037317
 21
160.4333334903
  0
LINE
  5
610
100
AcDbEntity
  8
0
100
AcDbLine
 62
7
  6
CONTINUOUS
 10
37.0522185802
 20
163.0999999983
 11
37.2649845312
 21
162.9333333711
  0
LINE
  5
611
100
AcDbEntity
  8
0
100
AcDbLine
 62
7
  6
CONTINUOUS
 10
39.2330696635
 20
162.1833332521
 11
39.0203037316
 21
162.3499999981
  0
LINE
  5
612
100
AcDbEntity
  8
0
100
AcDbLine
 62
7
  6
CONTINUOUS
 10
34.3250744042
 20
175.2440339907
 11
33.5635690504
 21
176.0160840228
  0
LINE
  5
613
100
AcDbEntity
  8
0
100
AcDbLine
 62
7
  6
CONTINUOUS
 10
34.5630693332
 20
177.0154753812
 11
35.3245284114
 21
176.2434727563
  0
LINE
  5
614
100
AcDbEntity
  8
0
100
AcDbLine
 62
7
  6
CONTINUOUS
 10
34.4909158018
 20
177.0916439324
 11
34.5630693321
 21
177.0154753812
  0
LINE
  5
615
100
AcDbEntity
  8
0
100
AcDbLine
 62
7
  6
CONTINUOUS
 10
97.9426441127
 20
77.9149999972
 11
97.9426441127
 21
106.5149494912
  0
LINE
  5
616
100
AcDbEntity
  8
0
100
AcDbLine
 62
7
  6
CONTINUOUS
 10
98.1426441127
 20
151.9249999981
 11
98.1426441127
 21
164.3803870805
  0
LINE
  5
617
100
AcDbEntity
  8
0
100
AcDbLine
 62
7
  6
CONTINUOUS
 10
98.8426441127
 20
53.3262096723
 11
98.8426441127
 21
106.4249999981
  0
LINE
  5
618
100
AcDbEntity
  8
0
100
AcDbLine
 62
7
  6
CONTINUOUS
 10
99.0426441127
 20
140.6597686684
 11
99.0426441127
 21
164.1249999981
  0
LINE
  5
619
100
AcDbEntity
  8
0
100
AcDbLine
 62
7
  6
CONTINUOUS
 10
63.9295464142
 20
50.6901130474
 11
64.1387928421
 21
51.0060025165
  0
LINE
  5
61A
100
AcDbEntity
  8
0
100
AcDbLine
 62
7
  6
CONTINUOUS
 10
64.9386459357
 20
50.2065272398
 11
64.7271685571
 21
49.8872698102
  0
LINE
  5
61B
100
AcDbEntity
  8
0
100
AcDbLine
 62
7
  6
CONTINUOUS
 10
49.1798781807
 20
56.6416667443
 11
49.3394526296
 21
56.8083332519
  0
LINE
  5
61C
100
AcDbEntity
  8
0
100
AcDbLine
 62
7
  6
CONTINUOUS
 10
49.1798781807
 20
54.6416665059
 11
49.3394526296
 21
54.8083334903
  0
LINE
  5
61D
100
AcDbEntity
  8
0
100
AcDbLine
 62
7
  6
CONTINUOUS
 10
100.152694619
 20
108.7249999981
 11
97.9426441127
 21
106.5149494917
  0
LINE
  5
61E
100
AcDbEntity
  8
0
100
AcDbLine
 62
7
  6
CONTINUOUS
 10
98.8426441127
 20
106.4249999981
 11
100.2426441122
 21
107.8249999977
  0
LINE
  5
61F
100
AcDbEntity
  8
0
100
AcDbLine
 62
7
  6
CONTINUOUS
 10
100.3736911394
 20
107.8249999977
 11
98.842644112
 21
106.2939529721
  0
LINE
  5
620
100
AcDbEntity
  8
0
100
AcDbLine
 62
7
  6
CONTINUOUS
 10
28.772073988
 20
34.9077768734
 11
30.7754559876
 21
36.9111591424
  0
LINE
  5
621
100
AcDbEntity
  8
0
100
AcDbLine
 62
7
  6
CONTINUOUS
 10
32.4579259951
 20
38.1249999975
 11
32.3354515079
 21
38.0025255103
  0
LINE
  5
622
100
AcDbEntity
  8
0
100
AcDbLine
 62
7
  6
CONTINUOUS
 10
32.3165046383
 20
37.9835786418
 11
32.1750832821
 21
37.8421572856
  0
LINE
  5
623
100
AcDbEntity
  8
0
100
AcDbLine
 62
7
  6
CONTINUOUS
 10
55.4426441127
 20
56.7249999981
 11
55.3426441127
 21
56.6249999981
  0
LINE
  5
624
100
AcDbEntity
  8
0
100
AcDbLine
 62
7
  6
CONTINUOUS
 10
47.2649845312
 20
59.5999999981
 11
47.0522185803
 21
59.4333333413
  0
LINE
  5
625
100
AcDbEntity
  8
0
100
AcDbLine
 62
7
  6
CONTINUOUS
 10
38.4671122484
 20
65.316666745
 11
38.6798781809
 21
65.4416667452
  0
LINE
  5
626
100
AcDbEntity
  8
0
100
AcDbLine
 62
7
  6
CONTINUOUS
 10
37.403282439
 20
63.3166665066
 11
37.6160483711
 21
63.4416665066
  0
LINE
  5
627
100
AcDbEntity
  8
0
100
AcDbLine
 62
7
  6
CONTINUOUS
 10
38.4671122485
 20
63.3166665066
 11
38.6798781809
 21
63.4416665068
  0
LINE
  5
628
100
AcDbEntity
  8
0
100
AcDbLine
 62
7
  6
CONTINUOUS
 10
36.8713675346
 20
68.1499999983
 11
37.0309419833
 21
68.2333333413
  0
LINE
  5
629
100
AcDbEntity
  8
0
100
AcDbLine
 62
7
  6
CONTINUOUS
 10
37.350090956
 20
65.4833332526
 11
37.1905164325
 21
65.3999999988
  0
LINE
  5
62A
100
AcDbEntity
  8
0
100
AcDbLine
 62
7
  6
CONTINUOUS
 10
31.3926441127
 20
128.066666745
 11
33.8926441127
 21
128.066666745
  0
LINE
  5
62B
100
AcDbEntity
  8
0
100
AcDbLine
 62
7
  6
CONTINUOUS
 10
130.5336839683
 20
128.2249999981
 11
128.6426441037
 21
128.2249999981
  0
LINE
  5
62C
100
AcDbEntity
  8
0
100
AcDbLine
 62
7
  6
CONTINUOUS
 10
33.041580235
 20
131.7749999988
 11
32.2437079156
 21
131.7749999988
  0
LINE
  5
62D
100
AcDbEntity
  8
0
100
AcDbLine
 62
7
  6
CONTINUOUS
 10
32.2437079154
 20
132.0249999988
 11
33.0415802353
 21
132.0249999988
  0
LINE
  5
62E
100
AcDbEntity
  8
0
100
AcDbLine
 62
7
  6
CONTINUOUS
 10
30.6426441127
 20
133.6249999985
 11
34.6426441127
 21
133.6249999985
  0
LINE
  5
62F
100
AcDbEntity
  8
0
100
AcDbLine
 62
7
  6
CONTINUOUS
 10
36.7703037316
 20
150.1166666246
 11
36.5575377993
 21
150.1999999978
  0
LINE
  5
630
100
AcDbEntity
  8
0
100
AcDbLine
 62
7
  6
CONTINUOUS
 10
26.8521687295
 20
166.3702696085
 11
27.2392845046
 21
166.1686636086
  0
LINE
  5
631
100
AcDbEntity
  8
0
100
AcDbLine
 62
7
  6
CONTINUOUS
 10
38.328814303
 20
159.1416665059
 11
38.4883887525
 21
159.0583334902
  0
LINE
  5
632
100
AcDbEntity
  8
0
100
AcDbLine
 62
7
  6
CONTINUOUS
 10
38.8075377995
 20
160.2666665058
 11
38.9671122486
 21
160.1833334903
  0
LINE
  5
633
100
AcDbEntity
  8
0
100
AcDbLine
 62
7
  6
CONTINUOUS
 10
112.7210946604
 20
115.2273650112
 11
122.4774215442
 21
109.6962189787
  0
LINE
  5
634
100
AcDbEntity
  8
0
100
AcDbLine
 62
7
  6
CONTINUOUS
 10
123.1927921974
 20
110.5644935655
 11
113.4362872218
 21
116.1086148687
  0
LINE
  5
635
100
AcDbEntity
  8
0
100
AcDbLine
 62
7
  6
CONTINUOUS
 10
30.7754559875
 20
189.538840855
 11
28.7720738538
 21
191.5422229886
  0
LINE
  5
636
100
AcDbEntity
  8
0
100
AcDbLine
 62
7
  6
CONTINUOUS
 10
32.1750832824
 20
188.6078427109
 11
32.3165046386
 21
188.4664213546
  0
LINE
  5
637
100
AcDbEntity
  8
0
100
AcDbLine
 62
7
  6
CONTINUOUS
 10
32.4579259951
 20
188.3249999987
 11
32.3522129977
 21
188.430712996
  0
LINE
  5
638
100
AcDbEntity
  8
0
100
AcDbLine
 62
7
  6
CONTINUOUS
 10
122.9396645806
 20
57.5207308631
 11
123.329272452
 21
56.6003429758
  0
LINE
  5
639
100
AcDbEntity
  8
0
100
AcDbLine
 62
7
  6
CONTINUOUS
 10
63.6550395124
 20
50.3427563584
 11
63.9102016602
 21
50.6842629778
  0
LINE
  5
63A
100
AcDbEntity
  8
0
100
AcDbLine
 62
7
  6
CONTINUOUS
 10
64.7099509308
 20
49.8847119437
 11
64.4307705175
 21
49.5110595054
  0
LINE
  5
63B
100
AcDbEntity
  8
0
100
AcDbLine
 62
7
  6
CONTINUOUS
 10
124.2159639547
 20
120.2249999981
 11
124.1251614698
 21
120.1307394478
  0
LINE
  5
63C
100
AcDbEntity
  8
0
100
AcDbLine
 62
7
  6
CONTINUOUS
 10
61.0057984528
 20
56.5173111766
 11
60.7802839863
 21
56.2896072489
  0
LINE
  5
63D
100
AcDbEntity
  8
0
100
AcDbLine
 62
7
  6
CONTINUOUS
 10
61.0644897728
 20
56.0081342116
 11
61.290004238
 21
56.235838138
  0
LINE
  5
63E
100
AcDbEntity
  8
0
100
AcDbLine
 62
7
  6
CONTINUOUS
 10
56.3245243281
 20
55.2249999981
 11
56.5245243281
 21
55.4249999981
  0
LINE
  5
63F
100
AcDbEntity
  8
0
100
AcDbLine
 62
7
  6
CONTINUOUS
 10
47.2649845311
 20
57.4749999981
 11
47.4245590172
 21
57.599999998
  0
LINE
  5
640
100
AcDbEntity
  8
0
100
AcDbLine
 62
7
  6
CONTINUOUS
 10
48.3820057862
 20
57.724999998
 11
48.1692398543
 21
57.5583332521
  0
LINE
  5
641
100
AcDbEntity
  8
0
100
AcDbLine
 62
7
  6
CONTINUOUS
 10
47.9564739221
 20
56.433333252
 11
48.1692398544
 21
56.5999999983
  0
LINE
  5
642
100
AcDbEntity
  8
0
100
AcDbLine
 62
7
  6
CONTINUOUS
 10
49.0203037315
 20
56.849999998
 11
48.9139207656
 21
56.7666667443
  0
LINE
  5
643
100
AcDbEntity
  8
0
100
AcDbLine
 62
7
  6
CONTINUOUS
 10
47.9564739221
 20
54.8499999981
 11
47.850090956
 21
54.7666665058
  0
LINE
  5
644
100
AcDbEntity
  8
0
100
AcDbLine
 62
7
  6
CONTINUOUS
 10
49.0203037316
 20
54.8499999982
 11
48.9139207654
 21
54.7666665058
  0
LINE
  5
645
100
AcDbEntity
  8
0
100
AcDbLine
 62
7
  6
CONTINUOUS
 10
49.0203037315
 20
52.6833334904
 11
49.2330696637
 21
52.8499999982
  0
LINE
  5
646
100
AcDbEntity
  8
0
100
AcDbLine
 62
7
  6
CONTINUOUS
 10
26.8521687292
 20
58.8797303877
 11
27.2392845039
 21
59.0813363876
  0
LINE
  5
647
100
AcDbEntity
  8
0
100
AcDbLine
 62
7
  6
CONTINUOUS
 10
26.8521687295
 20
58.8797303877
 11
26.6601044965
 21
58.7837275306
  0
LINE
  5
648
100
AcDbEntity
  8
0
100
AcDbLine
 62
7
  6
CONTINUOUS
 10
36.8713675343
 20
66.6499999987
 11
36.6054100633
 21
66.5249999988
  0
LINE
  5
649
100
AcDbEntity
  8
0
100
AcDbLine
 62
7
  6
CONTINUOUS
 10
36.9777505005
 20
68.4833333301
 11
36.7649845303
 21
68.3999999977
  0
LINE
  5
64A
100
AcDbEntity
  8
0
100
AcDbLine
 62
7
  6
CONTINUOUS
 10
37.2437079154
 20
65.1499999988
 11
37.4564739221
 21
65.2333332527
  0
LINE
  5
64B
100
AcDbEntity
  8
0
100
AcDbLine
 62
7
  6
CONTINUOUS
 10
38.4139207654
 20
65.5666667449
 11
38.3075377995
 21
65.5249999988
  0
LINE
  5
64C
100
AcDbEntity
  8
0
100
AcDbLine
 62
7
  6
CONTINUOUS
 10
31.3926441127
 20
128.3999999988
 11
33.8926441127
 21
129.066666745
  0
LINE
  5
64D
100
AcDbEntity
  8
0
100
AcDbLine
 62
7
  6
CONTINUOUS
 10
33.6798781806
 20
129.2333332527
 11
32.2437079155
 21
128.8583332527
  0
LINE
  5
64E
100
AcDbEntity
  8
0
100
AcDbLine
 62
7
  6
CONTINUOUS
 10
32.0309419835
 20
128.8166667449
 11
31.3926441127
 21
128.6499999988
  0
LINE
  5
64F
100
AcDbEntity
  8
0
100
AcDbLine
 62
7
  6
CONTINUOUS
 10
32.0309419834
 20
131.733333342
 11
32.2437079155
 21
131.7749999988
  0
LINE
  5
650
100
AcDbEntity
  8
0
100
AcDbLine
 62
7
  6
CONTINUOUS
 10
33.2543461674
 20
130.3999999989
 11
33.5203037315
 21
130.4416666258
  0
LINE
  5
651
100
AcDbEntity
  8
0
100
AcDbLine
 62
7
  6
CONTINUOUS
 10
32.2437079157
 20
132.0249999988
 11
31.9777505002
 21
131.9833333308
  0
LINE
  5
652
100
AcDbEntity
  8
0
100
AcDbLine
 62
7
  6
CONTINUOUS
 10
126.7140112666
 20
137.7006675697
 11
125.6807578222
 21
137.7006675697
  0
LINE
  5
653
100
AcDbEntity
  8
0
100
AcDbLine
 62
7
  6
CONTINUOUS
 10
124.2159395955
 20
137.7249999982
 11
126.714011266
 21
137.7249999982
  0
LINE
  5
654
100
AcDbEntity
  8
0
100
AcDbLine
 62
7
  6
CONTINUOUS
 10
124.1251368481
 20
137.8192605485
 11
126.714011266
 21
137.8192605485
  0
LINE
  5
655
100
AcDbEntity
  8
0
100
AcDbLine
 62
7
  6
CONTINUOUS
 10
112.007085666
 20
140.1249999981
 11
99.577412783
 21
140.1249999981
  0
LINE
  5
656
100
AcDbEntity
  8
0
100
AcDbLine
 62
7
  6
CONTINUOUS
 10
124.6813231567
 20
137.7009620726
 11
125.6807578222
 21
137.7006675695
  0
LINE
  5
657
100
AcDbEntity
  8
0
100
AcDbLine
 62
7
  6
CONTINUOUS
 10
124.2159396234
 20
137.7051780774
 11
124.6813231567
 21
137.7009620726
  0
LINE
  5
658
100
AcDbEntity
  8
0
100
AcDbLine
 62
7
  6
CONTINUOUS
 10
35.0149845311
 20
148.6583332515
 11
35.2277505001
 21
148.6166667439
  0
LINE
  5
659
100
AcDbEntity
  8
0
100
AcDbLine
 62
7
  6
CONTINUOUS
 10
36.2915802352
 20
149.9916667439
 11
36.5043461676
 21
149.9499999977
  0
LINE
  5
65A
100
AcDbEntity
  8
0
100
AcDbLine
 62
7
  6
CONTINUOUS
 10
35.2809419834
 20
148.8666667439
 11
35.1213675343
 21
148.9083332516
  0
LINE
  5
65B
100
AcDbEntity
  8
0
100
AcDbLine
 62
7
  6
CONTINUOUS
 10
38.7011546845
 20
159.2666665058
 11
38.4883887523
 21
159.3499999981
  0
LINE
  5
65C
100
AcDbEntity
  8
0
100
AcDbLine
 62
7
  6
CONTINUOUS
 10
26.6601044965
 20
166.4662724656
 11
26.8521687295
 21
166.3702696085
  0
LINE
  5
65D
100
AcDbEntity
  8
0
100
AcDbLine
 62
7
  6
CONTINUOUS
 10
38.7543461673
 20
162.183333252
 11
38.9139207655
 21
162.0999999981
  0
LINE
  5
65E
100
AcDbEntity
  8
0
100
AcDbLine
 62
7
  6
CONTINUOUS
 10
37.5309419834
 20
163.099999998
 11
37.3713675344
 21
163.1833333711
  0
LINE
  5
65F
100
AcDbEntity
  8
0
100
AcDbLine
 62
7
  6
CONTINUOUS
 10
112.3426441127
 20
107.3175339537
 11
112.3426441127
 21
53.322958172
  0
LINE
  5
660
100
AcDbEntity
  8
0
100
AcDbLine
 62
7
  6
CONTINUOUS
 10
112.5426441127
 20
165.0760403627
 11
112.5426441127
 21
140.6605584451
  0
LINE
  5
661
100
AcDbEntity
  8
0
100
AcDbLine
 62
7
  6
CONTINUOUS
 10
113.4383430296
 20
169.4846999552
 11
113.4362872218
 21
116.1086148687
  0
LINE
  5
662
100
AcDbEntity
  8
0
100
AcDbLine
 62
7
  6
CONTINUOUS
 10
114.5426441127
 20
177.2249999981
 11
114.5426441127
 21
186.1762602998
  0
LINE
  5
663
100
AcDbEntity
  8
0
100
AcDbLine
 62
7
  6
CONTINUOUS
 10
112.7211005563
 20
115.2348211705
 11
112.7211775533
 21
116.108653329
  0
LINE
  5
664
100
AcDbEntity
  8
0
100
AcDbLine
 62
7
  6
CONTINUOUS
 10
112.7240720199
 20
170.3580176234
 11
112.7211775794
 21
116.1086537401
  0
LINE
  5
665
100
AcDbEntity
  8
0
100
AcDbLine
 62
7
  6
CONTINUOUS
 10
48.9671122486
 20
56.5166667443
 11
49.1798781807
 21
56.6416667443
  0
LINE
  5
666
100
AcDbEntity
  8
0
100
AcDbLine
 62
7
  6
CONTINUOUS
 10
47.903282439
 20
54.5166665058
 11
48.116048371
 21
54.6416665057
  0
LINE
  5
667
100
AcDbEntity
  8
0
100
AcDbLine
 62
7
  6
CONTINUOUS
 10
48.9671122485
 20
54.5166665058
 11
49.1798781807
 21
54.6416665059
  0
LINE
  5
668
100
AcDbEntity
  8
0
100
AcDbLine
 62
7
  6
CONTINUOUS
 10
47.3713675345
 20
59.3499999982
 11
47.5309419834
 21
59.4333333413
  0
LINE
  5
669
100
AcDbEntity
  8
0
100
AcDbLine
 62
7
  6
CONTINUOUS
 10
47.850090956
 20
56.6833332519
 11
47.6905164325
 21
56.5999999981
  0
LINE
  5
66A
100
AcDbEntity
  8
0
100
AcDbLine
 62
7
  6
CONTINUOUS
 10
47.3713675343
 20
57.849999998
 11
47.1054100635
 21
57.7249999981
  0
LINE
  5
66B
100
AcDbEntity
  8
0
100
AcDbLine
 62
7
  6
CONTINUOUS
 10
33.4139207654
 20
130.6916666257
 11
33.2543461674
 21
130.6499999988
  0
LINE
  5
66C
100
AcDbEntity
  8
0
100
AcDbLine
 62
7
  6
CONTINUOUS
 10
40.6426441127
 20
146.9749999981
 11
30.6426441127
 21
146.9749999981
  0
LINE
  5
66D
100
AcDbEntity
  8
0
100
AcDbLine
 62
7
  6
CONTINUOUS
 10
39.7926441134
 20
147.7249999981
 11
39.4926441127
 21
147.7249999981
  0
LINE
  5
66E
100
AcDbEntity
  8
0
100
AcDbLine
 62
7
  6
CONTINUOUS
 10
38.7926441131
 20
147.7249999981
 11
38.4926441127
 21
147.7249999981
  0
LINE
  5
66F
100
AcDbEntity
  8
0
100
AcDbLine
 62
7
  6
CONTINUOUS
 10
36.0256228203
 20
148.6166667439
 11
35.2277505005
 21
148.6166667439
  0
LINE
  5
670
100
AcDbEntity
  8
0
100
AcDbLine
 62
7
  6
CONTINUOUS
 10
36.5575377993
 20
150.1999999978
 11
36.2915802355
 21
150.2416666247
  0
LINE
  5
671
100
AcDbEntity
  8
0
100
AcDbLine
 62
7
  6
CONTINUOUS
 10
37.5309419835
 20
161.099999998
 11
37.3713675343
 21
161.1416667442
  0
LINE
  5
672
100
AcDbEntity
  8
0
100
AcDbLine
 62
7
  6
CONTINUOUS
 10
36.8926441127
 20
155.6833330136
 11
39.3926441127
 21
155.0166669827
  0
LINE
  5
673
100
AcDbEntity
  8
0
100
AcDbLine
 62
7
  6
CONTINUOUS
 10
39.3926441127
 20
155.2666669827
 11
37.2117930481
 21
155.8499999981
  0
LINE
  5
674
100
AcDbEntity
  8
0
100
AcDbLine
 62
7
  6
CONTINUOUS
 10
37.2649845312
 20
162.9333333711
 11
37.4777505005
 21
162.8499999981
  0
LINE
  5
675
100
AcDbEntity
  8
0
100
AcDbLine
 62
7
  6
CONTINUOUS
 10
39.0203037316
 20
162.3499999981
 11
38.8075377994
 21
162.433333252
  0
LINE
  5
676
100
AcDbEntity
  8
0
100
AcDbLine
 62
7
  6
CONTINUOUS
 10
119.8944188784
 20
176.2191972619
 11
119.8944188329
 21
176.0929682066
  0
LINE
  5
677
100
AcDbEntity
  8
0
100
AcDbLine
 62
7
  6
CONTINUOUS
 10
119.8944188324
 20
176.0929682066
 11
119.8944879415
 21
174.4484872929
  0
LINE
  5
678
100
AcDbEntity
  8
0
100
AcDbLine
 62
7
  6
CONTINUOUS
 10
119.9607598146
 20
51.2059660334
 11
119.9606918805
 21
53.0250000346
  0
LINE
  5
679
100
AcDbEntity
  8
0
100
AcDbLine
 62
7
  6
CONTINUOUS
 10
119.9607598139
 20
51.2059660341
 11
119.9607598139
 21
50.2065272397
  0
LINE
  5
67A
100
AcDbEntity
  8
0
100
AcDbLine
 62
7
  6
CONTINUOUS
 10
120.6094441256
 20
173.4250153055
 11
120.6094451042
 21
173.5752674625
  0
LINE
  5
67B
100
AcDbEntity
  8
0
100
AcDbLine
 62
7
  6
CONTINUOUS
 10
120.8944877296
 20
173.4250252542
 11
120.89448773
 21
173.5752774096
  0
LINE
  5
67C
100
AcDbEntity
  8
0
100
AcDbLine
 62
7
  6
CONTINUOUS
 10
120.8944233195
 20
174.7210515788
 11
120.8944145098
 21
175.2196863033
  0
LINE
  5
67D
100
AcDbEntity
  8
0
100
AcDbLine
 62
7
  6
CONTINUOUS
 10
120.960213821
 20
51.2059660051
 11
120.9602137308
 21
53.024999999
  0
LINE
  5
67E
100
AcDbEntity
  8
0
100
AcDbLine
 62
7
  6
CONTINUOUS
 10
121.7628009206
 20
173.4249960388
 11
121.7628007164
 21
176.0945694807
  0
LINE
  5
67F
100
AcDbEntity
  8
0
100
AcDbLine
 62
7
  6
CONTINUOUS
 10
121.7938265722
 20
53.024999998
 11
121.7938264302
 21
50.3577468617
  0
LINE
  5
680
100
AcDbEntity
  8
0
100
AcDbLine
 62
7
  6
CONTINUOUS
 10
122.760606792
 20
174.8088788205
 11
122.7606068055
 21
177.1591778568
  0
LINE
  5
681
100
AcDbEntity
  8
0
100
AcDbLine
 62
7
  6
CONTINUOUS
 10
122.792140635
 20
49.2908221382
 11
122.792140635
 21
50.2902129664
  0
LINE
  5
682
100
AcDbEntity
  8
0
100
AcDbLine
 62
7
  6
CONTINUOUS
 10
122.7932804728
 20
51.5931799433
 11
122.7932804374
 21
50.3577457409
  0
LINE
  5
683
100
AcDbEntity
  8
0
100
AcDbLine
 62
7
  6
CONTINUOUS
 10
122.9396645796
 20
57.5207308626
 11
122.9395931807
 21
108.8151835653
  0
LINE
  5
684
100
AcDbEntity
  8
0
100
AcDbLine
 62
7
  6
CONTINUOUS
 10
123.6351677165
 20
168.8654621486
 11
123.6344575021
 21
110.2217753484
  0
LINE
  5
685
100
AcDbEntity
  8
0
100
AcDbLine
 62
7
  6
CONTINUOUS
 10
123.919491934
 20
168.8654666277
 11
123.9195760615
 21
110.2217753689
  0
LINE
  5
686
100
AcDbEntity
  8
0
100
AcDbLine
 62
7
  6
CONTINUOUS
 10
123.9390992454
 20
57.5207306654
 11
123.9390293443
 21
107.7402885318
  0
LINE
  5
687
100
AcDbEntity
  8
0
100
AcDbLine
 62
7
  6
CONTINUOUS
 10
124.1250970222
 20
166.4307394478
 11
124.1251368481
 21
137.8192605485
  0
LINE
  5
688
100
AcDbEntity
  8
0
100
AcDbLine
 62
7
  6
CONTINUOUS
 10
124.1251614698
 20
120.130739447
 11
124.1252451423
 21
60.0192605484
  0
LINE
  5
689
100
AcDbEntity
  8
0
100
AcDbLine
 62
7
  6
CONTINUOUS
 10
124.2160479173
 20
59.9051780766
 11
124.2160478897
 21
59.9249999984
  0
LINE
  5
68A
100
AcDbEntity
  8
0
100
AcDbLine
 62
7
  6
CONTINUOUS
 10
124.2159639547
 20
120.2249999986
 11
124.2159639272
 21
120.2448219183
  0
LINE
  5
68B
100
AcDbEntity
  8
0
100
AcDbLine
 62
7
  6
CONTINUOUS
 10
124.2159396231
 20
137.7051780773
 11
124.2159395955
 21
137.7249999984
  0
LINE
  5
68C
100
AcDbEntity
  8
0
100
AcDbLine
 62
7
  6
CONTINUOUS
 10
124.2158995072
 20
166.5249999976
 11
124.2158994796
 21
166.544821919
  0
LINE
  5
68D
100
AcDbEntity
  8
0
100
AcDbLine
 62
7
  6
CONTINUOUS
 10
124.681279165
 20
169.3053744385
 11
124.6812830017
 21
166.5490379237
  0
LINE
  5
68E
100
AcDbEntity
  8
0
100
AcDbLine
 62
7
  6
CONTINUOUS
 10
124.6813231569
 20
137.7009620726
 11
124.6813474492
 21
120.249037923
  0
LINE
  5
68F
100
AcDbEntity
  8
0
100
AcDbLine
 62
7
  6
CONTINUOUS
 10
124.6814314511
 20
59.9009620737
 11
124.6814354726
 21
57.0118430316
  0
LINE
  5
690
100
AcDbEntity
  8
0
100
AcDbLine
 62
7
  6
CONTINUOUS
 10
124.7860281409
 20
49.2908221382
 11
124.7860266427
 21
50.2902129664
  0
LINE
  5
691
100
AcDbEntity
  8
0
100
AcDbLine
 62
7
  6
CONTINUOUS
 10
124.7860281014
 20
177.1591778568
 11
124.7860281014
 21
176.1597870298
  0
LINE
  5
692
100
AcDbEntity
  8
0
100
AcDbLine
 62
7
  6
CONTINUOUS
 10
124.8426476334
 20
170.9249999981
 11
124.8426476089
 21
170.3451553997
  0
LINE
  5
693
100
AcDbEntity
  8
0
100
AcDbLine
 62
7
  6
CONTINUOUS
 10
124.8426434757
 20
56.1201070034
 11
124.8426750575
 21
55.5249999978
  0
LINE
  5
694
100
AcDbEntity
  8
0
100
AcDbLine
 62
7
  6
CONTINUOUS
 10
124.8426535449
 20
170.2504293844
 11
124.8426475967
 21
170.3451550344
  0
LINE
  5
695
100
AcDbEntity
  8
0
100
AcDbLine
 62
7
  6
CONTINUOUS
 10
48.9671122483
 20
52.9749999979
 11
48.8075377995
 21
52.8916665058
  0
LINE
  5
696
100
AcDbEntity
  8
0
100
AcDbLine
 62
7
  6
CONTINUOUS
 10
47.4777505002
 20
59.6833333301
 11
47.2649845312
 21
59.5999999981
  0
LINE
  5
697
100
AcDbEntity
  8
0
100
AcDbLine
 62
7
  6
CONTINUOUS
 10
47.7437079154
 20
56.3499999981
 11
47.9564739221
 21
56.433333252
  0
LINE
  5
698
100
AcDbEntity
  8
0
100
AcDbLine
 62
7
  6
CONTINUOUS
 10
48.9139207656
 20
56.7666667443
 11
48.8075377995
 21
56.7249999981
  0
LINE
  5
699
100
AcDbEntity
  8
0
100
AcDbLine
 62
7
  6
CONTINUOUS
 10
36.5043461674
 20
148.6166667438
 11
36.7703037315
 21
148.6583332516
  0
LINE
  5
69A
100
AcDbEntity
  8
0
100
AcDbLine
 62
7
  6
CONTINUOUS
 10
35.2809419831
 20
148.8666667439
 11
35.7064739222
 21
148.8666667439
  0
LINE
  5
69B
100
AcDbEntity
  8
0
100
AcDbLine
 62
7
  6
CONTINUOUS
 10
33.6426441127
 20
148.9749999981
 11
33.342644112
 21
148.9749999981
  0
LINE
  5
69C
100
AcDbEntity
  8
0
100
AcDbLine
 62
7
  6
CONTINUOUS
 10
38.4926441123
 20
149.2249999981
 11
38.7926441131
 21
149.2249999981
  0
LINE
  5
69D
100
AcDbEntity
  8
0
100
AcDbLine
 62
7
  6
CONTINUOUS
 10
35.7064739221
 20
149.2416667439
 11
36.0256228202
 21
149.2416667439
  0
LINE
  5
69E
100
AcDbEntity
  8
0
100
AcDbLine
 62
7
  6
CONTINUOUS
 10
32.6426441127
 20
149.4749999981
 11
32.342644112
 21
149.4749999981
  0
LINE
  5
69F
100
AcDbEntity
  8
0
100
AcDbLine
 62
7
  6
CONTINUOUS
 10
38.7926441131
 20
149.7249999981
 11
38.4926441124
 21
149.7249999981
  0
LINE
  5
6A0
100
AcDbEntity
  8
0
100
AcDbLine
 62
7
  6
CONTINUOUS
 10
31.6426441127
 20
149.9749999981
 11
31.342644112
 21
149.9749999981
  0
LINE
  5
6A1
100
AcDbEntity
  8
0
100
AcDbLine
 62
7
  6
CONTINUOUS
 10
36.2915802354
 20
149.9916667439
 11
35.4937079156
 21
149.9916667439
  0
LINE
  5
6A2
100
AcDbEntity
  8
0
100
AcDbLine
 62
7
  6
CONTINUOUS
 10
35.4937079162
 20
150.2416666247
 11
36.2915802353
 21
150.2416666247
  0
LINE
  5
6A3
100
AcDbEntity
  8
0
100
AcDbLine
 62
7
  6
CONTINUOUS
 10
34.4926441123
 20
150.3249999977
 11
33.6426441127
 21
150.3249999977
  0
LINE
  5
6A4
100
AcDbEntity
  8
0
100
AcDbLine
 62
7
  6
CONTINUOUS
 10
37.1426441127
 20
150.5749999977
 11
36.8234952146
 21
150.5749999977
  0
LINE
  5
6A5
100
AcDbEntity
  8
0
100
AcDbLine
 62
7
  6
CONTINUOUS
 10
33.6426441127
 20
150.6249999985
 11
34.4926441123
 21
150.6249999985
  0
LINE
  5
6A6
100
AcDbEntity
  8
0
100
AcDbLine
 62
7
  6
CONTINUOUS
 10
36.1320057863
 20
150.7416666247
 11
35.8128568882
 21
150.7416666247
  0
LINE
  5
6A7
100
AcDbEntity
  8
0
100
AcDbLine
 62
7
  6
CONTINUOUS
 10
31.342644112
 20
150.9749999981
 11
31.6426441127
 21
150.9749999981
  0
LINE
  5
6A8
100
AcDbEntity
  8
0
100
AcDbLine
 62
7
  6
CONTINUOUS
 10
38.4926441123
 20
151.2249999981
 11
38.792644113
 21
151.2249999981
  0
LINE
  5
6A9
100
AcDbEntity
  8
0
100
AcDbLine
 62
7
  6
CONTINUOUS
 10
32.342644112
 20
151.4749999981
 11
32.6426441127
 21
151.4749999981
  0
LINE
  5
6AA
100
AcDbEntity
  8
0
100
AcDbLine
 62
7
  6
CONTINUOUS
 10
38.7926441131
 20
151.7249999981
 11
38.4926441124
 21
151.7249999981
  0
LINE
  5
6AB
100
AcDbEntity
  8
0
100
AcDbLine
 62
7
  6
CONTINUOUS
 10
36.8234952146
 20
151.8249999977
 11
36.1320057863
 21
151.8249999977
  0
LINE
  5
6AC
100
AcDbEntity
  8
0
100
AcDbLine
 62
7
  6
CONTINUOUS
 10
35.8128568882
 20
151.8249999977
 11
34.6426441127
 21
151.8249999977
  0
LINE
  5
6AD
100
AcDbEntity
  8
0
100
AcDbLine
 62
7
  6
CONTINUOUS
 10
33.342644112
 20
151.9749999981
 11
33.6426441127
 21
151.9749999981
  0
LINE
  5
6AE
100
AcDbEntity
  8
0
100
AcDbLine
 62
7
  6
CONTINUOUS
 10
34.6426441127
 20
152.0749999977
 11
37.1426441127
 21
152.0749999977
  0
LINE
  5
6AF
100
AcDbEntity
  8
0
100
AcDbLine
 62
7
  6
CONTINUOUS
 10
38.492644112
 20
153.2249999981
 11
38.7926441127
 21
153.2249999981
  0
LINE
  5
6B0
100
AcDbEntity
  8
0
100
AcDbLine
 62
7
  6
CONTINUOUS
 10
39.492644112
 20
153.2249999981
 11
39.7926441127
 21
153.2249999981
  0
LINE
  5
6B1
100
AcDbEntity
  8
0
100
AcDbLine
 62
7
  6
CONTINUOUS
 10
37.264984531
 20
160.8916667442
 11
37.5309419835
 21
160.849999998
  0
LINE
  5
6B2
100
AcDbEntity
  8
0
100
AcDbLine
 62
7
  6
CONTINUOUS
 10
38.8075377994
 20
162.433333252
 11
38.5415802355
 21
162.4749999981
  0
LINE
  5
6B3
100
AcDbEntity
  8
0
100
AcDbLine
 62
7
  6
CONTINUOUS
 10
37.4777505005
 20
162.8499999981
 11
37.7437079153
 21
162.8083333712
  0
LINE
  5
6B4
100
AcDbEntity
  8
0
100
AcDbLine
 62
7
  6
CONTINUOUS
 10
38.4883887525
 20
159.0583334902
 11
38.7011546841
 21
159.0166665058
  0
LINE
  5
6B5
100
AcDbEntity
  8
0
100
AcDbLine
 62
7
  6
CONTINUOUS
 10
39.0203037317
 20
160.4333334903
 11
38.8075377995
 21
160.474999998
  0
LINE
  5
6B6
100
AcDbEntity
  8
0
100
AcDbLine
 62
7
  6
CONTINUOUS
 10
38.5415802357
 20
162.2249999981
 11
38.7543461673
 21
162.183333252
  0
LINE
  5
6B7
100
AcDbEntity
  8
0
100
AcDbLine
 62
7
  6
CONTINUOUS
 10
37.7437079152
 20
163.0583333712
 11
37.5309419834
 21
163.099999998
  0
LINE
  5
6B8
100
AcDbEntity
  8
0
100
AcDbLine
 62
7
  6
CONTINUOUS
 10
84.9311111403
 20
169.4848064806
 11
79.3969927302
 21
175.0494701903
  0
LINE
  5
6B9
100
AcDbEntity
  8
0
100
AcDbLine
 62
7
  6
CONTINUOUS
 10
80.1019862663
 20
176.0929683388
 11
85.805458343
 21
170.3580162235
  0
LINE
  5
6BA
100
AcDbEntity
  8
0
100
AcDbLine
 62
7
  6
CONTINUOUS
 10
125.6807138943
 20
170.2620671491
 11
125.6807176655
 21
166.5493324272
  0
LINE
  5
6BB
100
AcDbEntity
  8
0
100
AcDbLine
 62
7
  6
CONTINUOUS
 10
125.6807578222
 20
137.7006675697
 11
125.6807821129
 21
120.2493324264
  0
LINE
  5
6BC
100
AcDbEntity
  8
0
100
AcDbLine
 62
7
  6
CONTINUOUS
 10
125.6808700461
 20
56.1140198668
 11
125.6808661164
 21
59.9006675709
  0
LINE
  5
6BD
100
AcDbEntity
  8
0
100
AcDbLine
 62
7
  6
CONTINUOUS
 10
126.7140112666
 20
59.9006675709
 11
126.7140112666
 21
120.2493324264
  0
LINE
  5
6BE
100
AcDbEntity
  8
0
100
AcDbLine
 62
7
  6
CONTINUOUS
 10
126.7140112666
 20
137.7006675697
 11
126.7140112666
 21
166.5493324272
  0
LINE
  5
6BF
100
AcDbEntity
  8
0
100
AcDbLine
 62
7
  6
CONTINUOUS
 10
127.4952002117
 20
170.2620671568
 11
127.4952002854
 21
56.1140199574
  0
LINE
  5
6C0
100
AcDbEntity
  8
0
100
AcDbLine
 62
7
  6
CONTINUOUS
 10
127.5858985748
 20
173.3596665158
 11
127.5858985748
 21
171.3429611291
  0
LINE
  5
6C1
100
AcDbEntity
  8
0
100
AcDbLine
 62
7
  6
CONTINUOUS
 10
127.5858985748
 20
55.0743638067
 11
127.5858985748
 21
53.0903334784
  0
LINE
  5
6C2
100
AcDbEntity
  8
0
100
AcDbLine
 62
7
  6
CONTINUOUS
 10
128.494785971
 20
57.1134739649
 11
128.4947859711
 21
169.2640804177
  0
LINE
  5
6C3
100
AcDbEntity
  8
0
100
AcDbLine
 62
7
  6
CONTINUOUS
 10
128.5854843104
 20
173.3596665086
 11
128.5854843106
 21
171.342961134
  0
LINE
  5
6C4
100
AcDbEntity
  8
0
100
AcDbLine
 62
7
  6
CONTINUOUS
 10
128.5854843104
 20
53.090333487
 11
128.5854843104
 21
55.0743640631
  0
LINE
  5
6C5
100
AcDbEntity
  8
0
100
AcDbLine
 62
7
  6
CONTINUOUS
 10
128.6251837277
 20
53.1424603834
 11
128.6251837277
 21
173.3075396128
  0
LINE
  5
6C6
100
AcDbEntity
  8
0
100
AcDbLine
 62
7
  6
CONTINUOUS
 10
128.6426440768
 20
173.3249999985
 11
128.6426441486
 21
53.1249999979
  0
LINE
  5
6C7
100
AcDbEntity
  8
0
100
AcDbLine
 62
7
  6
CONTINUOUS
 10
72.8208473429
 20
57.7919872962
 11
68.8926441125
 21
55.5240381045
  0
LINE
  5
6C8
100
AcDbEntity
  8
0
100
AcDbLine
 62
7
  6
CONTINUOUS
 10
68.392644113
 20
54.6580126998
 11
73.8208473432
 21
57.7919872964
  0
LINE
  5
6C9
100
AcDbEntity
  8
0
100
AcDbLine
 62
7
  6
CONTINUOUS
 10
62.6997424506
 20
60.4825592478
 11
62.9252553009
 21
60.5593818589
  0
LINE
  5
6CA
100
AcDbEntity
  8
0
100
AcDbLine
 62
7
  6
CONTINUOUS
 10
36.6639207655
 20
148.9083332517
 11
36.5043461674
 21
148.8666667439
  0
LINE
  5
6CB
100
AcDbEntity
  8
0
100
AcDbLine
 62
7
  6
CONTINUOUS
 10
35.2809419835
 20
149.9499999977
 11
35.4937079157
 21
149.9916667439
  0
LINE
  5
6CC
100
AcDbEntity
  8
0
100
AcDbLine
 62
7
  6
CONTINUOUS
 10
35.493707916
 20
150.2416666247
 11
35.2277504999
 21
150.1999999976
  0
LINE
  5
6CD
100
AcDbEntity
  8
0
100
AcDbLine
 62
7
  6
CONTINUOUS
 10
33.2926441165
 20
156.2458334904
 11
32.9926441124
 21
156.2458334904
  0
LINE
  5
6CE
100
AcDbEntity
  8
0
100
AcDbLine
 62
7
  6
CONTINUOUS
 10
37.9564739221
 20
157.0166665058
 11
37.6373249495
 21
157.0166665058
  0
LINE
  5
6CF
100
AcDbEntity
  8
0
100
AcDbLine
 62
7
  6
CONTINUOUS
 10
39.3926441127
 20
157.4333334904
 11
37.9564739221
 21
157.4333334904
  0
LINE
  5
6D0
100
AcDbEntity
  8
0
100
AcDbLine
 62
7
  6
CONTINUOUS
 10
37.6373249495
 20
157.4333334904
 11
36.8926441127
 21
157.4333334904
  0
LINE
  5
6D1
100
AcDbEntity
  8
0
100
AcDbLine
 62
7
  6
CONTINUOUS
 10
38.9671122484
 20
157.6833334904
 11
37.9564739221
 21
157.6833334904
  0
LINE
  5
6D2
100
AcDbEntity
  8
0
100
AcDbLine
 62
7
  6
CONTINUOUS
 10
36.8926441127
 20
157.6833334904
 11
37.6373249495
 21
157.6833334904
  0
LINE
  5
6D3
100
AcDbEntity
  8
0
100
AcDbLine
 62
7
  6
CONTINUOUS
 10
32.9926441122
 20
158.2458334904
 11
33.2926441149
 21
158.2458334904
  0
LINE
  5
6D4
100
AcDbEntity
  8
0
100
AcDbLine
 62
7
  6
CONTINUOUS
 10
37.6373249495
 20
158.6833334904
 11
37.9564739221
 21
158.6833334904
  0
LINE
  5
6D5
100
AcDbEntity
  8
0
100
AcDbLine
 62
7
  6
CONTINUOUS
 10
38.8075377989
 20
159.0166665058
 11
38.7011546845
 21
159.0166665058
  0
LINE
  5
6D6
100
AcDbEntity
  8
0
100
AcDbLine
 62
7
  6
CONTINUOUS
 10
37.1586015651
 20
159.0166665058
 11
36.8926441127
 21
159.0166665058
  0
LINE
  5
6D7
100
AcDbEntity
  8
0
100
AcDbLine
 62
7
  6
CONTINUOUS
 10
38.7011546839
 20
159.2666665058
 11
38.8075377995
 21
159.2666665058
  0
LINE
  5
6D8
100
AcDbEntity
  8
0
100
AcDbLine
 62
7
  6
CONTINUOUS
 10
36.8926441127
 20
160.5166667442
 11
37.1586015651
 21
160.5166667442
  0
LINE
  5
6D9
100
AcDbEntity
  8
0
100
AcDbLine
 62
7
  6
CONTINUOUS
 10
33.2926441133
 20
161.2458334904
 11
32.9926441126
 21
161.2458334905
  0
LINE
  5
6DA
100
AcDbEntity
  8
0
100
AcDbLine
 62
7
  6
CONTINUOUS
 10
34.1426441126
 20
162.0958334911
 11
33.2926441132
 21
162.0958334906
  0
LINE
  5
6DB
100
AcDbEntity
  8
0
100
AcDbLine
 62
7
  6
CONTINUOUS
 10
32.9926441125
 20
162.0958334904
 11
32.1426441129
 21
162.0958334898
  0
LINE
  5
6DC
100
AcDbEntity
  8
0
100
AcDbLine
 62
7
  6
CONTINUOUS
 10
38.5415802354
 20
162.2249999981
 11
37.7437079156
 21
162.2249999981
  0
LINE
  5
6DD
100
AcDbEntity
  8
0
100
AcDbLine
 62
7
  6
CONTINUOUS
 10
32.1426441128
 20
162.3958334904
 11
32.9926441124
 21
162.3958334904
  0
LINE
  5
6DE
100
AcDbEntity
  8
0
100
AcDbLine
 62
7
  6
CONTINUOUS
 10
33.2926441125
 20
162.3958334904
 11
34.1426441128
 21
162.3958334904
  0
LINE
  5
6DF
100
AcDbEntity
  8
0
100
AcDbLine
 62
7
  6
CONTINUOUS
 10
37.7437079163
 20
162.4749999981
 11
38.5415802353
 21
162.4749999981
  0
LINE
  5
6E0
100
AcDbEntity
  8
0
100
AcDbLine
 62
7
  6
CONTINUOUS
 10
124.1251368482
 20
137.8192605484
 11
124.2159395955
 21
137.7249999982
  0
LINE
  5
6E1
100
AcDbEntity
  8
0
100
AcDbLine
 62
7
  6
CONTINUOUS
 10
132.4426441127
 20
106.9749999981
 11
132.4426441127
 21
119.4749999981
  0
LINE
  5
6E2
100
AcDbEntity
  8
0
100
AcDbLine
 62
7
  6
CONTINUOUS
 10
132.4959913807
 20
193.2062112338
 11
132.4959913806
 21
190.3730010494
  0
LINE
  5
6E3
100
AcDbEntity
  8
0
100
AcDbLine
 62
7
  6
CONTINUOUS
 10
132.4959913804
 20
36.0769989458
 11
132.4959913808
 21
33.2437887623
  0
LINE
  5
6E4
100
AcDbEntity
  8
0
100
AcDbLine
 62
7
  6
CONTINUOUS
 10
132.5426441127
 20
186.2249999981
 11
132.5426441127
 21
130.2339601427
  0
LINE
  5
6E5
100
AcDbEntity
  8
0
100
AcDbLine
 62
7
  6
CONTINUOUS
 10
132.8273622317
 20
188.7249999981
 11
132.8273622317
 21
188.3249999981
  0
LINE
  5
6E6
100
AcDbEntity
  8
0
100
AcDbLine
 62
7
  6
CONTINUOUS
 10
132.8273622308
 20
38.1249999981
 11
132.8273622308
 21
37.9517949173
  0
LINE
  5
6E7
100
AcDbEntity
  8
0
100
AcDbLine
 62
7
  6
CONTINUOUS
 10
132.8273622308
 20
37.9249999981
 11
132.8273622308
 21
37.7249999981
  0
LINE
  5
6E8
100
AcDbEntity
  8
0
100
AcDbLine
 62
7
  6
CONTINUOUS
 10
133.9763288074
 20
118.5744639483
 11
133.9763288074
 21
107.8979926512
  0
LINE
  5
6E9
100
AcDbEntity
  8
0
100
AcDbLine
 62
7
  6
CONTINUOUS
 10
134.4426441127
 20
118.872577295
 11
134.4426441127
 21
107.5774227067
  0
LINE
  5
6EA
100
AcDbEntity
  8
0
100
AcDbLine
 62
7
  6
CONTINUOUS
 10
134.7426441127
 20
108.6833330135
 11
134.7426441134
 21
117.7249999981
  0
LINE
  5
6EB
100
AcDbEntity
  8
0
100
AcDbLine
 62
7
  6
CONTINUOUS
 10
37.2117930481
 20
155.8499999981
 11
39.3926441127
 21
156.4333330135
  0
LINE
  5
6EC
100
AcDbEntity
  8
0
100
AcDbLine
 62
7
  6
CONTINUOUS
 10
39.3926441127
 20
156.6833334904
 11
36.8926441127
 21
156.0166669827
  0
LINE
  5
6ED
100
AcDbEntity
  8
0
100
AcDbLine
 62
7
  6
CONTINUOUS
 10
38.807537799
 20
159.0166665058
 11
39.0203037315
 21
159.0583334904
  0
LINE
  5
6EE
100
AcDbEntity
  8
0
100
AcDbLine
 62
7
  6
CONTINUOUS
 10
38.7543461674
 20
160.849999998
 11
39.0203037313
 21
160.8916667442
  0
LINE
  5
6EF
100
AcDbEntity
  8
0
100
AcDbLine
 62
7
  6
CONTINUOUS
 10
37.7437079155
 20
162.4749999981
 11
37.4777505007
 21
162.433333252
  0
LINE
  5
6F0
100
AcDbEntity
  8
0
100
AcDbLine
 62
7
  6
CONTINUOUS
 10
38.5415802354
 20
162.8083333712
 11
38.8075377992
 21
162.8499999981
  0
LINE
  5
6F1
100
AcDbEntity
  8
0
100
AcDbLine
 62
7
  6
CONTINUOUS
 10
124.6812830099
 20
166.5490379238
 11
124.2158994796
 21
166.544821919
  0
LINE
  5
6F2
100
AcDbEntity
  8
0
100
AcDbLine
 62
7
  6
CONTINUOUS
 10
125.6762022475
 20
166.5493324269
 11
124.6812830099
 21
166.5490379238
  0
LINE
  5
6F3
100
AcDbEntity
  8
0
100
AcDbLine
 62
7
  6
CONTINUOUS
 10
38.5415802348
 20
162.8083333712
 11
37.7437079156
 21
162.8083333712
  0
LINE
  5
6F4
100
AcDbEntity
  8
0
100
AcDbLine
 62
7
  6
CONTINUOUS
 10
38.5415802356
 20
163.0583333712
 11
37.7437079152
 21
163.0583333712
  0
LINE
  5
6F5
100
AcDbEntity
  8
0
100
AcDbLine
 62
7
  6
CONTINUOUS
 10
32.9926441121
 20
163.2458334904
 11
33.2926441128
 21
163.2458334903
  0
LINE
  5
6F6
100
AcDbEntity
  8
0
100
AcDbLine
 62
7
  6
CONTINUOUS
 10
37.2117930481
 20
164.2249999981
 11
39.0734952146
 21
164.2249999981
  0
LINE
  5
6F7
100
AcDbEntity
  8
0
100
AcDbLine
 62
7
  6
CONTINUOUS
 10
36.8926441127
 20
164.4749999981
 11
39.3926441127
 21
164.4749999981
  0
LINE
  5
6F8
100
AcDbEntity
  8
0
100
AcDbLine
 62
7
  6
CONTINUOUS
 10
100.5624345599
 20
165.6249999981
 11
111.9936844773
 21
165.6249999981
  0
LINE
  5
6F9
100
AcDbEntity
  8
0
100
AcDbLine
 62
7
  6
CONTINUOUS
 10
105.7426441127
 20
165.8249999981
 11
100.7426441127
 21
165.8249999981
  0
LINE
  5
6FA
100
AcDbEntity
  8
0
100
AcDbLine
 62
7
  6
CONTINUOUS
 10
30.6426441127
 20
165.9749999981
 11
40.6426441127
 21
165.9749999981
  0
LINE
  5
6FB
100
AcDbEntity
  8
0
100
AcDbLine
 62
7
  6
CONTINUOUS
 10
124.1250970222
 20
166.4307394471
 11
126.714011266
 21
166.4307394471
  0
LINE
  5
6FC
100
AcDbEntity
  8
0
100
AcDbLine
 62
7
  6
CONTINUOUS
 10
100.2872570303
 20
166.5249999981
 11
105.7426441127
 21
166.5249999981
  0
LINE
  5
6FD
100
AcDbEntity
  8
0
100
AcDbLine
 62
7
  6
CONTINUOUS
 10
124.2158995071
 20
166.5249999989
 11
126.714011266
 21
166.5249999989
  0
LINE
  5
6FE
100
AcDbEntity
  8
0
100
AcDbLine
 62
7
  6
CONTINUOUS
 10
126.714011266
 20
166.5493324269
 11
125.6762022475
 21
166.5493324269
  0
LINE
  5
6FF
100
AcDbEntity
  8
0
100
AcDbLine
 62
7
  6
CONTINUOUS
 10
30.4432893449
 20
168.5431158211
 11
27.6241713543
 21
168.5431157386
  0
LINE
  5
700
100
AcDbEntity
  8
0
100
AcDbLine
 62
7
  6
CONTINUOUS
 10
123.9194919508
 20
168.8654609999
 11
123.6348541917
 21
168.8654597485
  0
LINE
  5
701
100
AcDbEntity
  8
0
100
AcDbLine
 62
7
  6
CONTINUOUS
 10
125.680713888
 20
169.2640803646
 11
128.494785971
 21
169.2640804181
  0
LINE
  5
702
100
AcDbEntity
  8
0
100
AcDbLine
 62
7
  6
CONTINUOUS
 10
30.4426445362
 20
169.5425698274
 11
28.623610104
 21
169.542569746
  0
LINE
  5
703
100
AcDbEntity
  8
0
100
AcDbLine
 62
7
  6
CONTINUOUS
 10
113.4388743748
 20
169.4847617051
 11
84.9311111401
 21
169.4848064811
  0
LINE
  5
704
100
AcDbEntity
  8
0
100
AcDbLine
 62
7
  6
CONTINUOUS
 10
140.9426441127
 20
180.2097181167
 11
140.9426441127
 21
122.2918696291
  0
LINE
  5
705
100
AcDbEntity
  8
0
100
AcDbLine
 62
7
  6
CONTINUOUS
 10
140.9426441127
 20
104.1607981722
 11
140.9426441127
 21
46.2402818795
  0
LINE
  5
706
100
AcDbEntity
  8
0
100
AcDbLine
 62
7
  6
CONTINUOUS
 10
141.1426441127
 20
180.2097181162
 11
141.1426441127
 21
122.2918696297
  0
LINE
  5
707
100
AcDbEntity
  8
0
100
AcDbLine
 62
7
  6
CONTINUOUS
 10
141.1426441127
 20
104.1607981721
 11
141.1426441127
 21
46.2402818805
  0
LINE
  5
708
100
AcDbEntity
  8
0
100
AcDbLine
 62
7
  6
CONTINUOUS
 10
141.342644112
 20
46.24028188
 11
141.342644112
 21
104.1607981715
  0
LINE
  5
709
100
AcDbEntity
  8
0
100
AcDbLine
 62
7
  6
CONTINUOUS
 10
141.342644112
 20
122.2918696294
 11
141.342644112
 21
180.2097181158
  0
LINE
  5
70A
100
AcDbEntity
  8
0
100
AcDbLine
 62
7
  6
CONTINUOUS
 10
142.990645165
 20
179.8783472643
 11
142.990645165
 21
122.2715463059
  0
LINE
  5
70B
100
AcDbEntity
  8
0
100
AcDbLine
 62
7
  6
CONTINUOUS
 10
142.990645165
 20
104.1784536902
 11
142.990645165
 21
46.5716527367
  0
LINE
  5
70C
100
AcDbEntity
  8
0
100
AcDbLine
 62
7
  6
CONTINUOUS
 10
143.4942305419
 20
46.5716527308
 11
143.4942305419
 21
104.1784536949
  0
LINE
  5
70D
100
AcDbEntity
  8
0
100
AcDbLine
 62
7
  6
CONTINUOUS
 10
143.4942305419
 20
122.2715463004
 11
143.4942305419
 21
179.8783472664
  0
LINE
  5
70E
100
AcDbEntity
  8
0
100
AcDbLine
 62
7
  6
CONTINUOUS
 10
144.7905637542
 20
179.8783472664
 11
144.7905637542
 21
122.2715463004
  0
LINE
  5
70F
100
AcDbEntity
  8
0
100
AcDbLine
 62
7
  6
CONTINUOUS
 10
144.7905637542
 20
104.1784536949
 11
144.7905637542
 21
46.5716527308
  0
LINE
  5
710
100
AcDbEntity
  8
0
100
AcDbLine
 62
7
  6
CONTINUOUS
 10
145.1431710892
 20
46.5716527346
 11
145.1431710892
 21
104.1784536951
  0
LINE
  5
711
100
AcDbEntity
  8
0
100
AcDbLine
 62
7
  6
CONTINUOUS
 10
145.1431710892
 20
122.2715463011
 11
145.1431710892
 21
179.8783472664
  0
LINE
  5
712
100
AcDbEntity
  8
0
100
AcDbLine
 62
7
  6
CONTINUOUS
 10
145.8238553496
 20
179.8783472603
 11
145.8238553496
 21
122.2715463004
  0
LINE
  5
713
100
AcDbEntity
  8
0
100
AcDbLine
 62
7
  6
CONTINUOUS
 10
145.8238553496
 20
104.1784536958
 11
145.8238553496
 21
46.5716527359
  0
LINE
  5
714
100
AcDbEntity
  8
0
100
AcDbLine
 62
7
  6
CONTINUOUS
 10
141.0120339078
 20
106.8905140521
 11
141.8769085955
 21
109.5884895386
  0
LINE
  5
715
100
AcDbEntity
  8
0
100
AcDbLine
 62
7
  6
CONTINUOUS
 10
140.4942938949
 20
105.3258917461
 11
140.3714818364
 21
104.9452118309
  0
LINE
  5
716
100
AcDbEntity
  8
0
100
AcDbLine
 62
7
  6
CONTINUOUS
 10
38.9139207655
 20
161.1416667443
 11
38.7543461674
 21
161.0999999981
  0
LINE
  5
717
100
AcDbEntity
  8
0
100
AcDbLine
 62
7
  6
CONTINUOUS
 10
37.5309419832
 20
162.1833332519
 11
37.7437079157
 21
162.2249999981
  0
LINE
  5
718
100
AcDbEntity
  8
0
100
AcDbLine
 62
7
  6
CONTINUOUS
 10
38.7543461674
 20
163.099999998
 11
38.5415802356
 21
163.0583333712
  0
LINE
  5
719
100
AcDbEntity
  8
0
100
AcDbLine
 62
7
  6
CONTINUOUS
 10
51.2413941996
 20
171.2249973943
 11
75.2443106639
 21
171.3250034699
  0
LINE
  5
71A
100
AcDbEntity
  8
0
100
AcDbLine
 62
7
  6
CONTINUOUS
 10
125.6807138853
 20
170.2620640099
 11
127.5070733121
 21
170.2620496348
  0
LINE
  5
71B
100
AcDbEntity
  8
0
100
AcDbLine
 62
7
  6
CONTINUOUS
 10
127.5321250507
 20
170.3451550663
 11
124.8426475967
 21
170.3451550344
  0
LINE
  5
71C
100
AcDbEntity
  8
0
100
AcDbLine
 62
7
  6
CONTINUOUS
 10
85.805458343
 20
170.3580162235
 11
112.7240720195
 21
170.3580176234
  0
LINE
  5
71D
100
AcDbEntity
  8
0
100
AcDbLine
 62
7
  6
CONTINUOUS
 10
27.7753909599
 20
170.3761822159
 11
30.4426447625
 21
170.3761823353
  0
LINE
  5
71E
100
AcDbEntity
  8
0
100
AcDbLine
 62
7
  6
CONTINUOUS
 10
51.2426441018
 20
171.2249999981
 11
76.0426441134
 21
171.2249999981
  0
LINE
  5
71F
100
AcDbEntity
  8
0
100
AcDbLine
 62
7
  6
CONTINUOUS
 10
128.5854843105
 20
171.3429611291
 11
126.2265206923
 21
171.3429611868
  0
LINE
  5
720
100
AcDbEntity
  8
0
100
AcDbLine
 62
7
  6
CONTINUOUS
 10
26.7084662527
 20
171.3756363394
 11
29.010824172
 21
171.3756362777
  0
LINE
  5
721
100
AcDbEntity
  8
0
100
AcDbLine
 62
7
  6
CONTINUOUS
 10
51.2426441127
 20
172.1249999981
 11
75.2426441127
 21
172.1249999981
  0
LINE
  5
722
100
AcDbEntity
  8
0
100
AcDbLine
 62
7
  6
CONTINUOUS
 10
127.5858985748
 20
173.3596665088
 11
128.5854843105
 21
173.3596665088
  0
LINE
  5
723
100
AcDbEntity
  8
0
100
AcDbLine
 62
7
  6
CONTINUOUS
 10
26.7084662527
 20
173.3598978181
 11
27.7078570798
 21
173.3598978181
  0
LINE
  5
724
100
AcDbEntity
  8
0
100
AcDbLine
 62
7
  6
CONTINUOUS
 10
120.6092970122
 20
173.4250153106
 11
120.8944877296
 21
173.4250252542
  0
LINE
  5
725
100
AcDbEntity
  8
0
100
AcDbLine
 62
7
  6
CONTINUOUS
 10
35.3245283586
 20
173.4249271139
 11
32.9426441218
 21
173.4249998624
  0
LINE
  5
726
100
AcDbEntity
  8
0
100
AcDbLine
 62
7
  6
CONTINUOUS
 10
120.9300025014
 20
173.4250184707
 11
122.3426437297
 21
173.4249960832
  0
LINE
  5
727
100
AcDbEntity
  8
0
100
AcDbLine
 62
7
  6
CONTINUOUS
 10
120.6092972708
 20
173.575267466
 11
120.89448773
 21
173.5752774096
  0
LINE
  5
728
100
AcDbEntity
  8
0
100
AcDbLine
 62
7
  6
CONTINUOUS
 10
78.5226454818
 20
175.0494701866
 11
79.3969927302
 21
175.0494701896
  0
LINE
  5
729
100
AcDbEntity
  8
0
100
AcDbLine
 62
7
  6
CONTINUOUS
 10
34.3250744753
 20
175.2440339914
 11
78.5315983721
 21
175.2440339628
  0
LINE
  5
72A
100
AcDbEntity
  8
0
100
AcDbLine
 62
7
  6
CONTINUOUS
 10
80.1019862663
 20
176.0929683388
 11
119.8944188324
 21
176.0929682066
  0
LINE
  5
72B
100
AcDbEntity
  8
0
100
AcDbLine
 62
7
  6
CONTINUOUS
 10
30.5077462888
 20
176.1597870298
 11
32.4920077899
 21
176.1597870298
  0
LINE
  5
72C
100
AcDbEntity
  8
0
100
AcDbLine
 62
7
  6
CONTINUOUS
 10
122.7606066886
 20
176.1597870298
 11
124.7860243099
 21
176.1597870298
  0
LINE
  5
72D
100
AcDbEntity
  8
0
100
AcDbLine
 62
7
  6
CONTINUOUS
 10
80.101986488
 20
176.2191973941
 11
119.8944191673
 21
176.2191972619
  0
LINE
  5
72E
100
AcDbEntity
  8
0
100
AcDbLine
 62
7
  6
CONTINUOUS
 10
77.8108769381
 20
176.2434727563
 11
35.3245284114
 21
176.2434727563
  0
LINE
  5
72F
100
AcDbEntity
  8
0
100
AcDbLine
 62
7
  6
CONTINUOUS
 10
78.5315972094
 20
175.2440339894
 11
79.3837124695
 21
175.164606001
  0
LINE
  5
730
100
AcDbEntity
  8
0
100
AcDbLine
 62
7
  6
CONTINUOUS
 10
18.2016671775
 20
190.2753858438
 11
17.9426441134
 21
190.3458346965
  0
LINE
  5
731
100
AcDbEntity
  8
0
100
AcDbLine
 62
7
  6
CONTINUOUS
 10
140.4920818222
 20
121.1233942654
 11
140.3691631576
 21
121.5040397723
  0
LINE
  5
732
100
AcDbEntity
  8
0
100
AcDbLine
 62
7
  6
CONTINUOUS
 10
141.0120339075
 20
119.5594859449
 11
141.8769085951
 21
116.8615104585
  0
LINE
  5
733
100
AcDbEntity
  8
0
100
AcDbLine
 62
7
  6
CONTINUOUS
 10
147.0836210478
 20
190.4734216524
 11
147.0836210478
 21
35.9717410052
  0
LINE
  5
734
100
AcDbEntity
  8
0
100
AcDbLine
 62
7
  6
CONTINUOUS
 10
147.3426441119
 20
36.0250274343
 11
147.342644112
 21
190.4393819733
  0
LINE
  5
735
100
AcDbEntity
  8
0
100
AcDbLine
 62
7
  6
CONTINUOUS
 10
120.6212660574
 20
177.0154753812
 11
34.5630693332
 21
177.0154753812
  0
LINE
  5
736
100
AcDbEntity
  8
0
100
AcDbLine
 62
7
  6
CONTINUOUS
 10
30.5077462887
 20
177.1591778568
 11
32.4920077875
 21
177.1591778572
  0
LINE
  5
737
100
AcDbEntity
  8
0
100
AcDbLine
 62
7
  6
CONTINUOUS
 10
122.7606066683
 20
177.1591778568
 11
124.7860281019
 21
177.1591778627
  0
LINE
  5
738
100
AcDbEntity
  8
0
100
AcDbLine
 62
7
  6
CONTINUOUS
 10
124.7251837272
 20
177.2075396127
 11
30.5601044965
 21
177.2075396127
  0
LINE
  5
739
100
AcDbEntity
  8
0
100
AcDbLine
 62
7
  6
CONTINUOUS
 10
30.5426441127
 20
177.2249999981
 11
124.7426441118
 21
177.2249999981
  0
LINE
  5
73A
100
AcDbEntity
  8
0
100
AcDbLine
 62
7
  6
CONTINUOUS
 10
19.4614328758
 20
179.8783472664
 11
22.2946430604
 21
179.8783472664
  0
LINE
  5
73B
100
AcDbEntity
  8
0
100
AcDbLine
 62
7
  6
CONTINUOUS
 10
142.990645165
 20
179.8783472664
 11
145.8238553496
 21
179.8783472674
  0
LINE
  5
73C
100
AcDbEntity
  8
0
100
AcDbLine
 62
7
  6
CONTINUOUS
 10
23.9426441127
 20
180.2097181162
 11
24.1426441127
 21
180.2097181162
  0
LINE
  5
73D
100
AcDbEntity
  8
0
100
AcDbLine
 62
7
  6
CONTINUOUS
 10
24.1444152247
 20
180.2097181161
 11
24.3426441127
 21
180.209718116
  0
LINE
  5
73E
100
AcDbEntity
  8
0
100
AcDbLine
 62
7
  6
CONTINUOUS
 10
140.9426441127
 20
180.2097181163
 11
141.1298506094
 21
180.2097181162
  0
LINE
  5
73F
100
AcDbEntity
  8
0
100
AcDbLine
 62
7
  6
CONTINUOUS
 10
141.1426441127
 20
180.2097181162
 11
141.3426441127
 21
180.2097181162
  0
LINE
  5
740
100
AcDbEntity
  8
0
100
AcDbLine
 62
7
  6
CONTINUOUS
 10
122.5092591847
 20
170.2400431155
 11
123.3087406021
 21
169.7869706136
  0
LINE
  5
741
100
AcDbEntity
  8
0
100
AcDbLine
 62
7
  6
CONTINUOUS
 10
143.0959030815
 20
31.9840230629
 11
143.0426166773
 21
31.7249999988
  0
LINE
  5
742
100
AcDbEntity
  8
0
100
AcDbLine
 62
7
  6
CONTINUOUS
 10
128.5854843104
 20
53.090333487
 11
128.6251837277
 21
53.1424603834
  0
LINE
  5
743
100
AcDbEntity
  8
0
100
AcDbLine
 62
7
  6
CONTINUOUS
 10
124.7251837277
 20
49.2424603834
 11
124.7860281071
 21
49.2908221371
  0
LINE
  5
744
100
AcDbEntity
  8
0
100
AcDbLine
 62
7
  6
CONTINUOUS
 10
90.5394633917
 20
38.5804344559
 11
90.9200329959
 21
38.7035879239
  0
LINE
  5
745
100
AcDbEntity
  8
0
100
AcDbLine
 62
7
  6
CONTINUOUS
 10
88.9771300584
 20
38.0556102032
 11
86.2791545734
 21
37.1907355157
  0
LINE
  5
746
100
AcDbEntity
  8
0
100
AcDbLine
 62
7
  6
CONTINUOUS
 10
116.591383811
 20
188.2249999981
 11
130.5426441127
 21
188.2249999981
  0
LINE
  5
747
100
AcDbEntity
  8
0
100
AcDbLine
 62
7
  6
CONTINUOUS
 10
32.4579259941
 20
188.3249999981
 11
73.5748260429
 21
188.3249999981
  0
LINE
  5
748
100
AcDbEntity
  8
0
100
AcDbLine
 62
7
  6
CONTINUOUS
 10
91.7595357782
 20
188.3249999981
 11
132.8273622313
 21
188.3249999981
  0
LINE
  5
749
100
AcDbEntity
  8
0
100
AcDbLine
 62
7
  6
CONTINUOUS
 10
32.4579259946
 20
188.5249999981
 11
73.5748260428
 21
188.5249999981
  0
LINE
  5
74A
100
AcDbEntity
  8
0
100
AcDbLine
 62
7
  6
CONTINUOUS
 10
91.759535778
 20
188.5249999981
 11
132.8273622316
 21
188.5249999981
  0
LINE
  5
74B
100
AcDbEntity
  8
0
100
AcDbLine
 62
7
  6
CONTINUOUS
 10
132.8273622297
 20
188.7249999981
 11
91.7595357808
 21
188.7249999981
  0
LINE
  5
74C
100
AcDbEntity
  8
0
100
AcDbLine
 62
7
  6
CONTINUOUS
 10
73.5748260427
 20
188.7249999981
 11
32.4579259956
 21
188.7249999981
  0
LINE
  5
74D
100
AcDbEntity
  8
0
100
AcDbLine
 62
7
  6
CONTINUOUS
 10
32.7892968336
 20
190.3730010494
 11
73.596097819
 21
190.3730010494
  0
LINE
  5
74E
100
AcDbEntity
  8
0
100
AcDbLine
 62
7
  6
CONTINUOUS
 10
91.6891904167
 20
190.3730010494
 11
132.4959913897
 21
190.3730010494
  0
LINE
  5
74F
100
AcDbEntity
  8
0
100
AcDbLine
 62
7
  6
CONTINUOUS
 10
88.9771300584
 20
188.3943897948
 11
86.2791545724
 21
189.2592644808
  0
LINE
  5
750
100
AcDbEntity
  8
0
100
AcDbLine
 62
7
  6
CONTINUOUS
 10
90.5275878984
 20
187.8331548046
 11
90.9075851886
 21
187.7082466027
  0
LINE
  5
751
100
AcDbEntity
  8
0
100
AcDbLine
 62
7
  6
CONTINUOUS
 10
124.7860281019
 20
177.1591778627
 11
124.7251837272
 21
177.2075396127
  0
LINE
  5
752
100
AcDbEntity
  8
0
100
AcDbLine
 62
7
  6
CONTINUOUS
 10
128.6251837277
 20
173.3075396128
 11
128.5854843104
 21
173.3596665086
  0
LINE
  5
753
100
AcDbEntity
  8
0
100
AcDbLine
 62
7
  6
CONTINUOUS
 10
143.0910657659
 20
194.4659769332
 11
143.057026086
 21
194.7249999988
  0
LINE
  5
754
100
AcDbEntity
  8
0
100
AcDbLine
 62
7
  6
CONTINUOUS
 10
132.4959913807
 20
190.8765864262
 11
91.6891904154
 21
190.8765864262
  0
LINE
  5
755
100
AcDbEntity
  8
0
100
AcDbLine
 62
7
  6
CONTINUOUS
 10
73.59609781
 20
190.8765864262
 11
32.7892968448
 21
190.8765864262
  0
LINE
  5
756
100
AcDbEntity
  8
0
100
AcDbLine
 62
7
  6
CONTINUOUS
 10
32.7892968448
 20
192.1729196388
 11
73.59609781
 21
192.1729196388
  0
LINE
  5
757
100
AcDbEntity
  8
0
100
AcDbLine
 62
7
  6
CONTINUOUS
 10
91.6891904154
 20
192.1729196388
 11
132.4959913807
 21
192.1729196388
  0
LINE
  5
758
100
AcDbEntity
  8
0
100
AcDbLine
 62
7
  6
CONTINUOUS
 10
132.4959913806
 20
192.5255269737
 11
91.6891904148
 21
192.5255269737
  0
LINE
  5
759
100
AcDbEntity
  8
0
100
AcDbLine
 62
7
  6
CONTINUOUS
 10
73.5960978099
 20
192.5255269737
 11
32.7892968445
 21
192.5255269737
  0
LINE
  5
75A
100
AcDbEntity
  8
0
100
AcDbLine
 62
7
  6
CONTINUOUS
 10
32.7892968385
 20
193.2062112338
 11
73.5960978105
 21
193.2062112338
  0
LINE
  5
75B
100
AcDbEntity
  8
0
100
AcDbLine
 62
7
  6
CONTINUOUS
 10
91.6891904104
 20
193.2062112338
 11
132.4959913868
 21
193.2062112338
  0
LINE
  5
75C
100
AcDbEntity
  8
0
100
AcDbLine
 62
7
  6
CONTINUOUS
 10
22.3922582905
 20
194.4659769331
 11
143.0910657659
 21
194.4659769332
  0
LINE
  5
75D
100
AcDbEntity
  8
0
100
AcDbLine
 62
7
  6
CONTINUOUS
 10
143.057026086
 20
194.7249999988
 11
22.321809415
 21
194.7249999988
  0
LINE
  5
75E
100
AcDbEntity
  8
0
100
AcDbLine
 62
7
  6
CONTINUOUS
 10
132.8273622313
 20
38.1249999981
 11
140.9426441127
 21
46.2402818795
  0
LINE
  5
75F
100
AcDbEntity
  8
0
100
AcDbLine
 62
7
  6
CONTINUOUS
 10
141.0840654689
 20
46.0988605237
 11
132.9687835868
 21
37.9835786416
  0
LINE
  5
760
100
AcDbEntity
  8
0
100
AcDbLine
 62
7
  6
CONTINUOUS
 10
141.2254868264
 20
45.9574391683
 11
133.1102049435
 21
37.8421572854
  0
LINE
  5
761
100
AcDbEntity
  8
0
100
AcDbLine
 62
7
  6
CONTINUOUS
 10
134.509832235
 20
36.9111591396
 11
142.1564849705
 21
44.5578118732
  0
LINE
  5
762
100
AcDbEntity
  8
0
100
AcDbLine
 62
7
  6
CONTINUOUS
 10
147.0836210478
 20
190.4734216524
 11
147.342644112
 21
190.4393819733
  0
LINE
  5
763
100
AcDbEntity
  8
0
100
AcDbLine
 62
7
  6
CONTINUOUS
 10
132.5426441127
 20
186.2249999981
 11
130.5426441127
 21
188.2249999981
  0
LINE
  5
764
100
AcDbEntity
  8
0
100
AcDbLine
 62
7
  6
CONTINUOUS
 10
140.9426441127
 20
180.2097181167
 11
132.8273622313
 21
188.3249999981
  0
LINE
  5
765
100
AcDbEntity
  8
0
100
AcDbLine
 62
7
  6
CONTINUOUS
 10
132.9687835871
 20
188.4664213543
 11
141.0840654692
 21
180.3511394722
  0
LINE
  5
766
100
AcDbEntity
  8
0
100
AcDbLine
 62
7
  6
CONTINUOUS
 10
133.1102049432
 20
188.607842711
 11
141.2254868258
 21
180.4925608284
  0
LINE
  5
767
100
AcDbEntity
  8
0
100
AcDbLine
 62
7
  6
CONTINUOUS
 10
142.156484969
 20
181.8921881234
 11
134.5098322347
 21
189.5388408577
  0
LINE
  5
768
100
AcDbEntity
  8
0
100
AcDbLine
 62
7
  6
CONTINUOUS
 10
142.5125736047
 20
44.2017232379
 11
134.8659208699
 21
36.5550705049
  0
LINE
  5
769
100
AcDbEntity
  8
0
100
AcDbLine
 62
7
  6
CONTINUOUS
 10
135.7825668763
 20
35.6384245009
 11
143.4292196099
 21
43.2850772326
  0
LINE
  5
76A
100
AcDbEntity
  8
0
100
AcDbLine
 62
7
  6
CONTINUOUS
 10
136.0318979152
 20
35.3890934645
 11
143.6785506433
 21
43.0357461907
  0
LINE
  5
76B
100
AcDbEntity
  8
0
100
AcDbLine
 62
7
  6
CONTINUOUS
 10
144.1598670987
 20
42.5544297329
 11
136.5132143684
 21
34.9077770046
  0
LINE
  5
76C
100
AcDbEntity
  8
0
100
AcDbLine
 62
7
  6
CONTINUOUS
 10
134.8659208732
 20
189.8949294893
 11
142.5125736045
 21
182.2482767581
  0
LINE
  5
76D
100
AcDbEntity
  8
0
100
AcDbLine
 62
7
  6
CONTINUOUS
 10
143.429219609
 20
183.1649227626
 11
135.7825668778
 21
190.8115754939
  0
LINE
  5
76E
100
AcDbEntity
  8
0
100
AcDbLine
 62
7
  6
CONTINUOUS
 10
143.6785506473
 20
183.4142538011
 11
136.0318979156
 21
191.0609065328
  0
LINE
  5
76F
100
AcDbEntity
  8
0
100
AcDbLine
 62
7
  6
CONTINUOUS
 10
136.5132143684
 20
191.5422229916
 11
144.1598670987
 21
183.8955702632
  0
ARC
  5
770
100
AcDbEntity
  8
0
100
AcDbCircle
 62
7
  6
CONTINUOUS
 10
25.1426441127
 20
46.5716527298
 40
5.6812112358
100
AcDbArc
 50
179.9999999385
 51
225.0000000773
  0
ARC
  5
771
100
AcDbEntity
  8
0
100
AcDbCircle
 62
7
  6
CONTINUOUS
 10
25.1426441127
 20
46.5716527298
 40
5.0005269763
100
AcDbArc
 50
180.0
 51
225.0000000011
  0
ARC
  5
772
100
AcDbEntity
  8
0
100
AcDbCircle
 62
7
  6
CONTINUOUS
 10
25.1426441127
 20
46.5716527298
 40
4.6479196411
100
AcDbArc
 50
180.0
 51
224.999999999
  0
ARC
  5
773
100
AcDbEntity
  8
0
100
AcDbCircle
 62
7
  6
CONTINUOUS
 10
22.2763800322
 20
36.0587359176
 40
4.3337359294
100
AcDbArc
 50
180.0039997429
 51
269.996000257
  0
ARC
  5
774
100
AcDbEntity
  8
0
100
AcDbCircle
 62
7
  6
CONTINUOUS
 10
22.1682150084
 20
35.9505708938
 40
3.9665478405
100
AcDbArc
 50
180.0039997418
 51
269.9960002575
  0
ARC
  5
775
100
AcDbEntity
  8
0
100
AcDbCircle
 62
7
  6
CONTINUOUS
 10
25.1426441127
 20
46.5716527298
 40
3.3515864288
100
AcDbArc
 50
180.0
 51
224.999999999
  0
CIRCLE
  5
776
100
AcDbEntity
  8
0
100
AcDbCircle
 62
7
  6
CONTINUOUS
 10
22.2426441127
 20
36.0249999981
 40
3.1
  0
ARC
  5
777
100
AcDbEntity
  8
0
100
AcDbCircle
 62
7
  6
CONTINUOUS
 10
25.1426441127
 20
46.5716527298
 40
2.8480010515
100
AcDbArc
 50
179.9999999164
 51
225.0000002035
  0
CIRCLE
  5
778
100
AcDbEntity
  8
0
100
AcDbCircle
 62
7
  6
CONTINUOUS
 10
22.2426441127
 20
36.0249999981
 40
2.805727273
  0
CIRCLE
  5
779
100
AcDbEntity
  8
0
100
AcDbCircle
 62
7
  6
CONTINUOUS
 10
22.2426441127
 20
36.0249999981
 40
2.6221446905
  0
ARC
  5
77A
100
AcDbEntity
  8
0
100
AcDbCircle
 62
7
  6
CONTINUOUS
 10
24.3426441127
 20
46.24028188
 40
0.3999999991
100
AcDbArc
 50
179.9999999879
 51
224.9999999111
  0
ARC
  5
77B
100
AcDbEntity
  8
0
100
AcDbCircle
 62
7
  6
CONTINUOUS
 10
24.3426441127
 20
46.24028188
 40
0.2
100
AcDbArc
 50
180.0
 51
225.0
  0
ARC
  5
77C
100
AcDbEntity
  8
0
100
AcDbCircle
 62
7
  6
CONTINUOUS
 10
28.3360000614
 20
57.6035881557
 40
1.0011934825
100
AcDbArc
 50
179.9994816126
 51
181.771921554
  0
ARC
  5
77D
100
AcDbEntity
  8
0
100
AcDbCircle
 62
7
  6
CONTINUOUS
 10
27.8530279864
 20
57.1435373321
 40
1.0008405668
100
AcDbArc
 50
180.0755354494
 51
269.9173336137
  0
ARC
  5
77E
100
AcDbEntity
  8
0
100
AcDbCircle
 62
7
  6
CONTINUOUS
 10
28.3667039554
 20
71.3441630416
 40
0.9927313351
100
AcDbArc
 50
266.9197946252
 51
270.0399841507
  0
ARC
  5
77F
100
AcDbEntity
  8
0
100
AcDbCircle
 62
7
  6
CONTINUOUS
 10
32.7892968445
 20
38.9249999981
 40
5.6812112363
100
AcDbArc
 50
225.0000000423
 51
269.9999999399
  0
ARC
  5
780
100
AcDbEntity
  8
0
100
AcDbCircle
 62
7
  6
CONTINUOUS
 10
32.7892968445
 20
38.9249999981
 40
5.0005269763
100
AcDbArc
 50
225.0
 51
270.0
  0
ARC
  5
781
100
AcDbEntity
  8
0
100
AcDbCircle
 62
7
  6
CONTINUOUS
 10
32.7892968445
 20
38.9249999981
 40
4.6479196411
100
AcDbArc
 50
225.0
 51
269.9999999986
  0
ARC
  5
782
100
AcDbEntity
  8
0
100
AcDbCircle
 62
7
  6
CONTINUOUS
 10
30.4424842113
 20
53.0248400967
 40
4.5478522033
100
AcDbArc
 50
0.0000006302
 51
89.9940721345
  0
ARC
  5
783
100
AcDbEntity
  8
0
100
AcDbCircle
 62
7
  6
CONTINUOUS
 10
30.5429161623
 20
53.1252720477
 40
3.9003274639
100
AcDbArc
 50
180.0039964538
 51
269.996003538
  0
ARC
  5
784
100
AcDbEntity
  8
0
100
AcDbCircle
 62
7
  6
CONTINUOUS
 10
30.5603767693
 20
53.1427326562
 40
3.9002722823
100
AcDbArc
 50
180.0087211537
 51
269.9944300651
  0
ARC
  5
785
100
AcDbEntity
  8
0
100
AcDbCircle
 62
7
  6
CONTINUOUS
 10
30.5080115313
 20
53.0903674172
 40
3.7995452872
100
AcDbArc
 50
180.003995087
 51
269.9960002688
  0
ARC
  5
786
100
AcDbEntity
  8
0
100
AcDbCircle
 62
7
  6
CONTINUOUS
 10
30.4424842113
 20
53.0248400967
 40
3.5483652232
100
AcDbArc
 50
0.0025596145
 51
89.9972190312
  0
ARC
  5
787
100
AcDbEntity
  8
0
100
AcDbCircle
 62
7
  6
CONTINUOUS
 10
32.7892968445
 20
38.9249999981
 40
3.3515864288
100
AcDbArc
 50
225.0
 51
269.9999999986
  0
ARC
  5
788
100
AcDbEntity
  8
0
100
AcDbCircle
 62
7
  6
CONTINUOUS
 10
30.4424842113
 20
53.0248400967
 40
3.0480557328
100
AcDbArc
 50
0.0025596145
 51
89.9972190312
  0
ARC
  5
789
100
AcDbEntity
  8
0
100
AcDbCircle
 62
7
  6
CONTINUOUS
 10
32.7892968445
 20
38.9249999981
 40
2.8480010526
100
AcDbArc
 50
225.0000001642
 51
269.9999999887
  0
CIRCLE
  5
78A
100
AcDbEntity
  8
0
100
AcDbCircle
 62
7
  6
CONTINUOUS
 10
30.4426441127
 20
53.0249999981
 40
2.5
  0
CIRCLE
  5
78B
100
AcDbEntity
  8
0
100
AcDbCircle
 62
7
  6
CONTINUOUS
 10
30.4426441127
 20
53.0249999981
 40
1.573365856
  0
ARC
  5
78C
100
AcDbEntity
  8
0
100
AcDbCircle
 62
7
  6
CONTINUOUS
 10
34.5611814136
 20
50.4353838345
 40
1.0008405283
100
AcDbArc
 50
180.0826642841
 51
269.9257508913
  0
ARC
  5
78D
100
AcDbEntity
  8
0
100
AcDbCircle
 62
7
  6
CONTINUOUS
 10
34.9915750198
 20
50.8855598184
 40
1.0007974152
100
AcDbArc
 50
180.0774254356
 51
269.9255382521
  0
ARC
  5
78E
100
AcDbEntity
  8
0
100
AcDbCircle
 62
7
  6
CONTINUOUS
 10
32.4579259946
 20
38.1249999981
 40
0.4
100
AcDbArc
 50
225.0000000868
 51
270.0000001536
  0
ARC
  5
78F
100
AcDbEntity
  8
0
100
AcDbCircle
 62
7
  6
CONTINUOUS
 10
32.4579259946
 20
38.1249999981
 40
0.2
100
AcDbArc
 50
224.9999999797
 51
270.0
  0
ARC
  5
790
100
AcDbEntity
  8
0
100
AcDbCircle
 62
7
  6
CONTINUOUS
 10
25.1426441127
 20
104.1784536958
 40
5.6812112363
100
AcDbArc
 50
107.7735458238
 51
180.0000000062
  0
ARC
  5
791
100
AcDbEntity
  8
0
100
AcDbCircle
 62
7
  6
CONTINUOUS
 10
25.1426441127
 20
104.1784536958
 40
5.0005269763
100
AcDbArc
 50
107.7739968113
 51
180.0000000095
  0
ARC
  5
792
100
AcDbEntity
  8
0
100
AcDbCircle
 62
7
  6
CONTINUOUS
 10
25.1426441127
 20
104.1784536958
 40
4.6479196411
100
AcDbArc
 50
107.7739968113
 51
180.0000000118
  0
ARC
  5
793
100
AcDbEntity
  8
0
100
AcDbCircle
 62
7
  6
CONTINUOUS
 10
25.1426441127
 20
104.1784536958
 40
3.3515864288
100
AcDbArc
 50
107.7739968113
 51
180.0000000118
  0
ARC
  5
794
100
AcDbEntity
  8
0
100
AcDbCircle
 62
7
  6
CONTINUOUS
 10
25.1426441127
 20
104.1784536958
 40
2.8480010523
100
AcDbArc
 50
107.7739967398
 51
180.0000001098
  0
ARC
  5
795
100
AcDbEntity
  8
0
100
AcDbCircle
 62
7
  6
CONTINUOUS
 10
25.1682012823
 20
104.1598273776
 40
1.2255571696
100
AcDbArc
 50
107.8861838636
 51
180.0000000029
  0
ARC
  5
796
100
AcDbEntity
  8
0
100
AcDbCircle
 62
7
  6
CONTINUOUS
 10
25.1682012823
 20
104.1598273776
 40
1.0255571696
100
AcDbArc
 50
107.8861838596
 51
179.9999999542
  0
ARC
  5
797
100
AcDbEntity
  8
0
100
AcDbCircle
 62
7
  6
CONTINUOUS
 10
25.1682012823
 20
104.1598273776
 40
0.8255571696
100
AcDbArc
 50
107.8861838524
 51
180.0000000062
  0
ARC
  5
798
100
AcDbEntity
  8
0
100
AcDbCircle
 62
7
  6
CONTINUOUS
 10
50.4926441127
 20
102.5249999976
 40
0.45
100
AcDbArc
 50
179.9999999236
 51
359.9999999236
  0
ARC
  5
799
100
AcDbEntity
  8
0
100
AcDbCircle
 62
7
  6
CONTINUOUS
 10
60.6589718024
 20
67.0413276885
 40
4.4795989219
100
AcDbArc
 50
0.0041723664
 51
89.9945864407
  0
ARC
  5
79A
100
AcDbEntity
  8
0
100
AcDbCircle
 62
7
  6
CONTINUOUS
 10
60.6590031118
 20
67.0413589964
 40
3.4798406232
100
AcDbArc
 50
0.0026450714
 51
89.9973549006
  0
ARC
  5
79B
100
AcDbEntity
  8
0
100
AcDbCircle
 62
7
  6
CONTINUOUS
 10
60.6484869563
 20
67.0308428157
 40
3.3206296441
100
AcDbArc
 50
0.0037651481
 51
89.9962349192
  0
ARC
  5
79C
100
AcDbEntity
  8
0
100
AcDbCircle
 62
7
  6
CONTINUOUS
 10
60.6485169396
 20
67.0308728037
 40
2.3208842507
100
AcDbArc
 50
0.0047846885
 51
89.9921614
  0
ARC
  5
79D
100
AcDbEntity
  8
0
100
AcDbCircle
 62
7
  6
CONTINUOUS
 10
60.8926441127
 20
57.4749999981
 40
1.6
100
AcDbArc
 50
0.0000000322
 51
90.0
  0
ARC
  5
79E
100
AcDbEntity
  8
0
100
AcDbCircle
 62
7
  6
CONTINUOUS
 10
54.3926441127
 20
57.4749999981
 40
1.6
100
AcDbArc
 50
90.0
 51
180.0
  0
ARC
  5
79F
100
AcDbEntity
  8
0
100
AcDbCircle
 62
7
  6
CONTINUOUS
 10
54.3926441127
 20
54.7749999981
 40
1.6
100
AcDbArc
 50
179.999999993
 51
269.999999982
  0
ARC
  5
7A0
100
AcDbEntity
  8
0
100
AcDbCircle
 62
7
  6
CONTINUOUS
 10
60.8926441127
 20
54.7749999981
 40
1.6
100
AcDbArc
 50
270.000000018
 51
360.0
  0
ARC
  5
7A1
100
AcDbEntity
  8
0
100
AcDbCircle
 62
7
  6
CONTINUOUS
 10
62.6991447247
 20
59.4789717232
 40
1.0035877026
100
AcDbArc
 50
79.1316775069
 51
89.9658752001
  0
ARC
  5
7A2
100
AcDbEntity
  8
0
100
AcDbCircle
 62
7
  6
CONTINUOUS
 10
55.007644114
 20
55.0250000003
 40
0.7000000022
100
AcDbArc
 50
180.0000002423
 51
269.9999999051
  0
ARC
  5
7A3
100
AcDbEntity
  8
0
100
AcDbCircle
 62
7
  6
CONTINUOUS
 10
60.2776441114
 20
55.0250000003
 40
0.7000000022
100
AcDbArc
 50
270.0000000949
 51
359.9999999951
  0
ARC
  5
7A4
100
AcDbEntity
  8
0
100
AcDbCircle
 62
7
  6
CONTINUOUS
 10
61.2776441127
 20
55.7970294333
 40
0.7
100
AcDbArc
 50
135.2767891596
 51
179.999999679
  0
ARC
  5
7A5
100
AcDbEntity
  8
0
100
AcDbCircle
 62
7
  6
CONTINUOUS
 10
54.0076441127
 20
55.7970294333
 40
0.7
100
AcDbArc
 50
0.0000003128
 51
44.7232107944
  0
ARC
  5
7A6
100
AcDbEntity
  8
0
100
AcDbCircle
 62
7
  6
CONTINUOUS
 10
60.7926441133
 20
57.5249999994
 40
0.699999999
100
AcDbArc
 50
0.0000000135
 51
89.9999998805
  0
ARC
  5
7A7
100
AcDbEntity
  8
0
100
AcDbCircle
 62
7
  6
CONTINUOUS
 10
54.4926441121
 20
57.5249999994
 40
0.699999999
100
AcDbArc
 50
90.0000001195
 51
180.0000001502
  0
ARC
  5
7A8
100
AcDbEntity
  8
0
100
AcDbCircle
 62
7
  6
CONTINUOUS
 10
54.4926441018
 20
56.72841595
 40
0.6999999887
100
AcDbArc
 50
179.9999997241
 51
224.7232112671
  0
ARC
  5
7A9
100
AcDbEntity
  8
0
100
AcDbCircle
 62
7
  6
CONTINUOUS
 10
60.7926441236
 20
56.72841595
 40
0.6999999887
100
AcDbArc
 50
315.2767886863
 51
359.9999999731
  0
ARC
  5
7AA
100
AcDbEntity
  8
0
100
AcDbCircle
 62
7
  6
CONTINUOUS
 10
52.0281931071
 20
59.9805032469
 40
0.5020563595
100
AcDbArc
 50
90.0684855572
 51
102.863813028
  0
ARC
  5
7AB
100
AcDbEntity
  8
0
100
AcDbCircle
 62
7
  6
CONTINUOUS
 10
60.7926441127
 20
57.5249999981
 40
0.3
100
AcDbArc
 50
0.0000006664
 51
89.9999999236
  0
ARC
  5
7AC
100
AcDbEntity
  8
0
100
AcDbCircle
 62
7
  6
CONTINUOUS
 10
60.7926441127
 20
56.7284159545
 40
0.3
100
AcDbArc
 50
315.2767892258
 51
359.9999988254
  0
ARC
  5
7AD
100
AcDbEntity
  8
0
100
AcDbCircle
 62
7
  6
CONTINUOUS
 10
60.2776441127
 20
55.0249999981
 40
0.3
100
AcDbArc
 50
270.0000003808
 51
0.0000003423
  0
ARC
  5
7AE
100
AcDbEntity
  8
0
100
AcDbCircle
 62
7
  6
CONTINUOUS
 10
55.0076441127
 20
55.0249999981
 40
0.3
100
AcDbArc
 50
179.9999995431
 51
269.999999581
  0
ARC
  5
7AF
100
AcDbEntity
  8
0
100
AcDbCircle
 62
7
  6
CONTINUOUS
 10
54.4926441127
 20
56.7284159545
 40
0.3
100
AcDbArc
 50
180.0000010409
 51
224.723210863
  0
ARC
  5
7B0
100
AcDbEntity
  8
0
100
AcDbCircle
 62
7
  6
CONTINUOUS
 10
54.4926441127
 20
57.5249999981
 40
0.3
100
AcDbArc
 50
90.0000001337
 51
179.9999993336
  0
ARC
  5
7B1
100
AcDbEntity
  8
0
100
AcDbCircle
 62
7
  6
CONTINUOUS
 10
54.0076441127
 20
55.7970294333
 40
0.3
100
AcDbArc
 50
0.0000013138
 51
44.7232110429
  0
ARC
  5
7B2
100
AcDbEntity
  8
0
100
AcDbCircle
 62
7
  6
CONTINUOUS
 10
61.2776441127
 20
55.7970294333
 40
0.3
100
AcDbArc
 50
135.2767891333
 51
179.9999986862
  0
ARC
  5
7B3
100
AcDbEntity
  8
0
100
AcDbCircle
 62
7
  6
CONTINUOUS
 10
73.5960978103
 20
38.9249999981
 40
5.6812112355
100
AcDbArc
 50
270.0000000017
 51
342.2260549152
  0
ARC
  5
7B4
100
AcDbEntity
  8
0
100
AcDbCircle
 62
7
  6
CONTINUOUS
 10
73.5960978103
 20
38.9249999981
 40
5.0005269763
100
AcDbArc
 50
270.0
 51
342.2260031887
  0
ARC
  5
7B5
100
AcDbEntity
  8
0
100
AcDbCircle
 62
7
  6
CONTINUOUS
 10
73.5960978103
 20
38.9249999981
 40
4.6479196411
100
AcDbArc
 50
270.0
 51
342.2259899644
  0
ARC
  5
7B6
100
AcDbEntity
  8
0
100
AcDbCircle
 62
7
  6
CONTINUOUS
 10
73.5960978103
 20
38.9249999981
 40
3.3515864288
100
AcDbArc
 50
270.0
 51
342.2259899644
  0
ARC
  5
7B7
100
AcDbEntity
  8
0
100
AcDbCircle
 62
7
  6
CONTINUOUS
 10
73.5960978103
 20
38.9249999981
 40
2.8480010522
100
AcDbArc
 50
270.0000000153
 51
342.2259907485
  0
ARC
  5
7B8
100
AcDbEntity
  8
0
100
AcDbCircle
 62
7
  6
CONTINUOUS
 10
73.5436116668
 20
38.9971508655
 40
1.2721508675
100
AcDbArc
 50
269.9999999647
 51
341.9106470619
  0
ARC
  5
7B9
100
AcDbEntity
  8
0
100
AcDbCircle
 62
7
  6
CONTINUOUS
 10
73.5436116668
 20
38.9971508655
 40
1.0721508674
100
AcDbArc
 50
270.0
 51
341.9106470612
  0
ARC
  5
7BA
100
AcDbEntity
  8
0
100
AcDbCircle
 62
7
  6
CONTINUOUS
 10
73.5436116668
 20
38.9971508655
 40
0.8721508674
100
AcDbArc
 50
269.9999999691
 51
341.9106470573
  0
ARC
  5
7BB
100
AcDbEntity
  8
0
100
AcDbCircle
 62
7
  6
CONTINUOUS
 10
64.7333576557
 20
50.6910541304
 40
0.8038132865
100
AcDbArc
 50
180.0670834717
 51
269.558834127
  0
ARC
  5
7BC
100
AcDbEntity
  8
0
100
AcDbCircle
 62
7
  6
CONTINUOUS
 10
68.6426441127
 20
55.9570508057
 40
0.5
100
AcDbArc
 50
179.9999998969
 51
300.0000000263
  0
ARC
  5
7BD
100
AcDbEntity
  8
0
100
AcDbCircle
 62
7
  6
CONTINUOUS
 10
68.6426441127
 20
60.4929491905
 40
0.5
100
AcDbArc
 50
60.000000001
 51
179.9999997892
  0
ARC
  5
7BE
100
AcDbEntity
  8
0
100
AcDbCircle
 62
7
  6
CONTINUOUS
 10
72.570847343
 20
58.2249999981
 40
0.5
100
AcDbArc
 50
299.9999999943
 51
60.0000000077
  0
ARC
  5
7BF
100
AcDbEntity
  8
0
100
AcDbCircle
 62
7
  6
CONTINUOUS
 10
68.1426441127
 20
61.3589745946
 40
0.5
100
AcDbArc
 50
60.0000000123
 51
180.0
  0
ARC
  5
7C0
100
AcDbEntity
  8
0
100
AcDbCircle
 62
7
  6
CONTINUOUS
 10
68.1426441127
 20
55.0910254016
 40
0.5
100
AcDbArc
 50
180.0
 51
300.0000000393
  0
ARC
  5
7C1
100
AcDbEntity
  8
0
100
AcDbCircle
 62
7
  6
CONTINUOUS
 10
73.5708473439
 20
58.2249999981
 40
0.4999999994
100
AcDbArc
 50
299.9999999388
 51
60.0000000096
  0
ARC
  5
7C2
100
AcDbEntity
  8
0
100
AcDbCircle
 62
7
  6
CONTINUOUS
 10
71.8426584692
 20
58.2247711935
 40
0.4002289977
100
AcDbArc
 50
90.0020552427
 51
97.1786995462
  0
ARC
  5
7C3
100
AcDbEntity
  8
0
100
AcDbCircle
 62
7
  6
CONTINUOUS
 10
71.8426584676
 20
58.2252287784
 40
0.4002289735
100
AcDbArc
 50
262.8212994056
 51
269.9979449751
  0
ARC
  5
7C4
100
AcDbEntity
  8
0
100
AcDbCircle
 62
7
  6
CONTINUOUS
 10
71.842482492
 20
58.2249999981
 40
0.4001348072
100
AcDbArc
 50
270.02315045
 51
89.9768495499
  0
CIRCLE
  5
7C5
100
AcDbEntity
  8
0
100
AcDbCircle
 62
7
  6
CONTINUOUS
 10
69.1426441125
 20
58.2249999981
 40
0.4000000002
  0
ARC
  5
7C6
100
AcDbEntity
  8
0
100
AcDbCircle
 62
7
  6
CONTINUOUS
 10
70.2428863963
 20
58.2249999981
 40
0.20003043
100
AcDbArc
 50
97.2496102565
 51
262.7503898027
  0
ARC
  5
7C7
100
AcDbEntity
  8
0
100
AcDbCircle
 62
7
  6
CONTINUOUS
 10
80.4012719186
 20
97.9663721922
 40
0.5413721941
100
AcDbArc
 50
269.9999999831
 51
360.0
  0
ARC
  5
7C8
100
AcDbEntity
  8
0
100
AcDbCircle
 62
7
  6
CONTINUOUS
 10
71.4666829776
 20
97.949038863
 40
0.5240388649
100
AcDbArc
 50
180.0000000033
 51
270.0000000077
  0
ARC
  5
7C9
100
AcDbEntity
  8
0
100
AcDbCircle
 62
7
  6
CONTINUOUS
 10
51.4641417947
 20
80.9464976801
 40
0.521497682
100
AcDbArc
 50
179.9999999858
 51
270.0000000765
  0
ARC
  5
7CA
100
AcDbEntity
  8
0
100
AcDbCircle
 62
7
  6
CONTINUOUS
 10
71.4527745866
 20
106.9148695242
 40
0.5101304739
100
AcDbArc
 50
90.0000000519
 51
179.999999995
  0
ARC
  5
7CB
100
AcDbEntity
  8
0
100
AcDbCircle
 62
7
  6
CONTINUOUS
 10
80.4404210488
 20
106.9227769342
 40
0.5022230639
100
AcDbArc
 50
0.0000000017
 51
90.0000000371
  0
ARC
  5
7CC
100
AcDbEntity
  8
0
100
AcDbCircle
 62
7
  6
CONTINUOUS
 10
70.4564437494
 20
80.9112003614
 40
0.4862003633
100
AcDbArc
 50
269.999999967
 51
360.0
  0
ARC
  5
7CD
100
AcDbEntity
  8
0
100
AcDbCircle
 62
7
  6
CONTINUOUS
 10
22.2426441127
 20
113.2249999981
 40
8.7
100
AcDbArc
 50
52.4368505118
 51
72.107523929
  0
ARC
  5
7CE
100
AcDbEntity
  8
0
100
AcDbCircle
 62
7
  6
CONTINUOUS
 10
22.2426441127
 20
113.2249999981
 40
8.7
100
AcDbArc
 50
287.8861838604
 51
307.5662548216
  0
ARC
  5
7CF
100
AcDbEntity
  8
0
100
AcDbCircle
 62
7
  6
CONTINUOUS
 10
22.2426441127
 20
113.2249999981
 40
8.5
100
AcDbArc
 50
287.8861838596
 51
308.6568797812
  0
ARC
  5
7D0
100
AcDbEntity
  8
0
100
AcDbCircle
 62
7
  6
CONTINUOUS
 10
22.2426441127
 20
113.2249999981
 40
8.5
100
AcDbArc
 50
51.3427645128
 51
72.1075239293
  0
ARC
  5
7D1
100
AcDbEntity
  8
0
100
AcDbCircle
 62
7
  6
CONTINUOUS
 10
22.2426441127
 20
113.2249999981
 40
8.2999999999
100
AcDbArc
 50
287.8861838591
 51
309.4683847986
  0
ARC
  5
7D2
100
AcDbEntity
  8
0
100
AcDbCircle
 62
7
  6
CONTINUOUS
 10
22.2426441127
 20
113.2249999981
 40
8.2999999999
100
AcDbArc
 50
50.5314857367
 51
72.1075239305
  0
ARC
  5
7D3
100
AcDbEntity
  8
0
100
AcDbCircle
 62
7
  6
CONTINUOUS
 10
22.2426441108
 20
113.2249999981
 40
6.6519989496
100
AcDbArc
 50
42.2040824898
 51
72.2260031476
  0
ARC
  5
7D4
100
AcDbEntity
  8
0
100
AcDbCircle
 62
7
  6
CONTINUOUS
 10
22.2426441108
 20
113.2249999981
 40
6.6519989496
100
AcDbArc
 50
287.7739968576
 51
317.7959175089
  0
ARC
  5
7D5
100
AcDbEntity
  8
0
100
AcDbCircle
 62
7
  6
CONTINUOUS
 10
22.2426441108
 20
113.2249999981
 40
6.1484135723
100
AcDbArc
 50
44.1374399497
 51
72.2260031618
  0
ARC
  5
7D6
100
AcDbEntity
  8
0
100
AcDbCircle
 62
7
  6
CONTINUOUS
 10
22.2426441108
 20
113.2249999981
 40
6.1484135723
100
AcDbArc
 50
287.7739480913
 51
315.8625572141
  0
ARC
  5
7D7
100
AcDbEntity
  8
0
100
AcDbCircle
 62
7
  6
CONTINUOUS
 10
22.2426441108
 20
113.2249999981
 40
4.85208036
100
AcDbArc
 50
287.7739480913
 51
338.1764893427
  0
ARC
  5
7D8
100
AcDbEntity
  8
0
100
AcDbCircle
 62
7
  6
CONTINUOUS
 10
22.2426441108
 20
113.2249999981
 40
4.85208036
100
AcDbArc
 50
21.8235039104
 51
72.2260031618
  0
ARC
  5
7D9
100
AcDbEntity
  8
0
100
AcDbCircle
 62
7
  6
CONTINUOUS
 10
22.2426441108
 20
113.2249999981
 40
4.4994730248
100
AcDbArc
 50
287.7739968345
 51
72.2260031661
  0
ARC
  5
7DA
100
AcDbEntity
  8
0
100
AcDbCircle
 62
7
  6
CONTINUOUS
 10
22.2426441108
 20
113.2249999981
 40
3.8187887643
100
AcDbArc
 50
287.7746677744
 51
72.2258756043
  0
CIRCLE
  5
7DB
100
AcDbEntity
  8
0
100
AcDbCircle
 62
7
  6
CONTINUOUS
 10
22.2426441127
 20
113.2249999981
 40
3.1
  0
CIRCLE
  5
7DC
100
AcDbEntity
  8
0
100
AcDbCircle
 62
7
  6
CONTINUOUS
 10
22.2426441127
 20
113.2249999981
 40
2.805727273
  0
CIRCLE
  5
7DD
100
AcDbEntity
  8
0
100
AcDbCircle
 62
7
  6
CONTINUOUS
 10
22.2426441127
 20
113.2249999981
 40
2.6221446905
  0
ARC
  5
7DE
100
AcDbEntity
  8
0
100
AcDbCircle
 62
7
  6
CONTINUOUS
 10
25.1426441127
 20
122.2715463004
 40
5.6812112363
100
AcDbArc
 50
179.9999999938
 51
252.2260889298
  0
ARC
  5
7DF
100
AcDbEntity
  8
0
100
AcDbCircle
 62
7
  6
CONTINUOUS
 10
25.1426441127
 20
122.2715463004
 40
5.0005269763
100
AcDbArc
 50
180.0000000004
 51
252.2260031882
  0
ARC
  5
7E0
100
AcDbEntity
  8
0
100
AcDbCircle
 62
7
  6
CONTINUOUS
 10
25.1426441127
 20
122.2715463004
 40
4.6479196411
100
AcDbArc
 50
180.0
 51
252.2259574029
  0
ARC
  5
7E1
100
AcDbEntity
  8
0
100
AcDbCircle
 62
7
  6
CONTINUOUS
 10
25.1426441127
 20
122.2715463004
 40
3.3515864288
100
AcDbArc
 50
180.0
 51
252.2259574029
  0
ARC
  5
7E2
100
AcDbEntity
  8
0
100
AcDbCircle
 62
7
  6
CONTINUOUS
 10
25.1426441127
 20
122.2715463004
 40
2.8480010516
100
AcDbArc
 50
179.9999998886
 51
252.2260032481
  0
ARC
  5
7E3
100
AcDbEntity
  8
0
100
AcDbCircle
 62
7
  6
CONTINUOUS
 10
25.1696382963
 20
122.2912187922
 40
1.2269941838
100
AcDbArc
 50
180.0000000396
 51
252.10752392
  0
ARC
  5
7E4
100
AcDbEntity
  8
0
100
AcDbCircle
 62
7
  6
CONTINUOUS
 10
25.1696382963
 20
122.2912187922
 40
1.0269941836
100
AcDbArc
 50
180.0
 51
252.1075239281
  0
ARC
  5
7E5
100
AcDbEntity
  8
0
100
AcDbCircle
 62
7
  6
CONTINUOUS
 10
25.1696382963
 20
122.2912187922
 40
0.8269941836
100
AcDbArc
 50
180.0000000356
 51
252.1075239309
  0
ARC
  5
7E6
100
AcDbEntity
  8
0
100
AcDbCircle
 62
7
  6
CONTINUOUS
 10
51.2426441127
 20
120.7249999981
 40
0.3
100
AcDbArc
 50
180.0
 51
269.9999999045
  0
ARC
  5
7E7
100
AcDbEntity
  8
0
100
AcDbCircle
 62
7
  6
CONTINUOUS
 10
30.4424692426
 20
173.4251748723
 40
4.8821271038
100
AcDbArc
 50
270.0096247105
 51
359.9999984263
  0
ARC
  5
7E8
100
AcDbEntity
  8
0
100
AcDbCircle
 62
7
  6
CONTINUOUS
 10
30.5429161623
 20
173.3247279484
 40
3.9003274639
100
AcDbArc
 50
90.0039964645
 51
179.9960035359
  0
ARC
  5
7E9
100
AcDbEntity
  8
0
100
AcDbCircle
 62
7
  6
CONTINUOUS
 10
30.5603767693
 20
173.30726734
 40
3.9002722823
100
AcDbArc
 50
90.0087504673
 51
179.9944300817
  0
ARC
  5
7EA
100
AcDbEntity
  8
0
100
AcDbCircle
 62
7
  6
CONTINUOUS
 10
30.4424692426
 20
173.4251748723
 40
3.8826730979
100
AcDbArc
 50
270.0025594933
 51
359.997096167
  0
ARC
  5
7EB
100
AcDbEntity
  8
0
100
AcDbCircle
 62
7
  6
CONTINUOUS
 10
30.5072677175
 20
173.36037639
 40
3.7988065092
100
AcDbArc
 50
89.9927819048
 51
180.0072180978
  0
ARC
  5
7EC
100
AcDbEntity
  8
0
100
AcDbCircle
 62
7
  6
CONTINUOUS
 10
30.4424692426
 20
173.4251748723
 40
3.049008145
100
AcDbArc
 50
270.0025594933
 51
359.997096167
  0
ARC
  5
7ED
100
AcDbEntity
  8
0
100
AcDbCircle
 62
7
  6
CONTINUOUS
 10
30.5158905303
 20
173.3473430021
 40
2.8145782125
100
AcDbArc
 50
118.2614720317
 51
120.4269892689
  0
CIRCLE
  5
7EE
100
AcDbEntity
  8
0
100
AcDbCircle
 62
7
  6
CONTINUOUS
 10
30.4426441127
 20
173.4249999981
 40
2.5
  0
CIRCLE
  5
7EF
100
AcDbEntity
  8
0
100
AcDbCircle
 62
7
  6
CONTINUOUS
 10
30.4426441127
 20
173.4249999981
 40
1.573365856
  0
ARC
  5
7F0
100
AcDbEntity
  8
0
100
AcDbCircle
 62
7
  6
CONTINUOUS
 10
34.5644207797
 20
176.014620005
 40
1.0008614425
100
AcDbArc
 50
90.0773659481
 51
179.916261602
  0
ARC
  5
7F1
100
AcDbEntity
  8
0
100
AcDbCircle
 62
7
  6
CONTINUOUS
 10
27.8529971715
 20
169.3032009069
 40
1.0008361851
100
AcDbArc
 50
90.0795043793
 51
179.9187003408
  0
ARC
  5
7F2
100
AcDbEntity
  8
0
100
AcDbCircle
 62
7
  6
CONTINUOUS
 10
28.6249848867
 20
168.5417570263
 40
1.0008210823
100
AcDbArc
 50
90.0787052295
 51
179.9208897496
  0
ARC
  5
7F3
100
AcDbEntity
  8
0
100
AcDbCircle
 62
7
  6
CONTINUOUS
 10
35.3258870917
 20
175.24265935
 40
1.0008209999
100
AcDbArc
 50
90.0777833355
 51
179.9213029001
  0
ARC
  5
7F4
100
AcDbEntity
  8
0
100
AcDbCircle
 62
7
  6
CONTINUOUS
 10
32.7892968445
 20
187.5249999981
 40
5.6812112363
100
AcDbArc
 50
90.0000000601
 51
134.9999999577
  0
ARC
  5
7F5
100
AcDbEntity
  8
0
100
AcDbCircle
 62
7
  6
CONTINUOUS
 10
25.1426441127
 20
179.8783472664
 40
5.6812112358
100
AcDbArc
 50
134.9999999227
 51
180.0000000615
  0
ARC
  5
7F6
100
AcDbEntity
  8
0
100
AcDbCircle
 62
7
  6
CONTINUOUS
 10
32.7892968445
 20
187.5249999981
 40
5.0005269763
100
AcDbArc
 50
90.0
 51
135.0000000008
  0
ARC
  5
7F7
100
AcDbEntity
  8
0
100
AcDbCircle
 62
7
  6
CONTINUOUS
 10
25.1426441127
 20
179.8783472664
 40
5.0005269763
100
AcDbArc
 50
135.0
 51
180.0
  0
ARC
  5
7F8
100
AcDbEntity
  8
0
100
AcDbCircle
 62
7
  6
CONTINUOUS
 10
32.7892968445
 20
187.5249999981
 40
4.6479196411
100
AcDbArc
 50
90.0000000001
 51
135.0
  0
ARC
  5
7F9
100
AcDbEntity
  8
0
100
AcDbCircle
 62
7
  6
CONTINUOUS
 10
25.1426441127
 20
179.8783472664
 40
4.6479196411
100
AcDbArc
 50
135.0
 51
180.0
  0
ARC
  5
7FA
100
AcDbEntity
  8
0
100
AcDbCircle
 62
7
  6
CONTINUOUS
 10
22.3221151399
 20
190.3455289722
 40
4.3794710372
100
AcDbArc
 50
90.0039997408
 51
179.9960002579
  0
ARC
  5
7FB
100
AcDbEntity
  8
0
100
AcDbCircle
 62
7
  6
CONTINUOUS
 10
22.3925508505
 20
190.2750932602
 40
4.1908836831
100
AcDbArc
 50
90.0039997429
 51
179.9959999584
  0
ARC
  5
7FC
100
AcDbEntity
  8
0
100
AcDbCircle
 62
7
  6
CONTINUOUS
 10
32.7892968445
 20
187.5249999981
 40
3.3515864288
100
AcDbArc
 50
90.0000000001
 51
135.0
  0
ARC
  5
7FD
100
AcDbEntity
  8
0
100
AcDbCircle
 62
7
  6
CONTINUOUS
 10
25.1426441127
 20
179.8783472664
 40
3.3515864288
100
AcDbArc
 50
135.0
 51
180.0
  0
CIRCLE
  5
7FE
100
AcDbEntity
  8
0
100
AcDbCircle
 62
7
  6
CONTINUOUS
 10
22.2426441127
 20
190.4249999981
 40
3.1384925257
  0
ARC
  5
7FF
100
AcDbEntity
  8
0
100
AcDbCircle
 62
7
  6
CONTINUOUS
 10
32.7892968445
 20
187.5249999981
 40
2.8480010524
100
AcDbArc
 50
90.0000002185
 51
135.0000001934
  0
ARC
  5
800
100
AcDbEntity
  8
0
100
AcDbCircle
 62
7
  6
CONTINUOUS
 10
25.1426441127
 20
179.8783472664
 40
2.8480010515
100
AcDbArc
 50
134.9999997762
 51
180.0000000836
  0
CIRCLE
  5
801
100
AcDbEntity
  8
0
100
AcDbCircle
 62
7
  6
CONTINUOUS
 10
22.2426441127
 20
190.4249999981
 40
2.805727273
  0
CIRCLE
  5
802
100
AcDbEntity
  8
0
100
AcDbCircle
 62
7
  6
CONTINUOUS
 10
22.2426441127
 20
190.4249999981
 40
2.6221446905
  0
ARC
  5
803
100
AcDbEntity
  8
0
100
AcDbCircle
 62
7
  6
CONTINUOUS
 10
32.4579259946
 20
188.3249999981
 40
0.4
100
AcDbArc
 50
89.9999998464
 51
135.0000000146
  0
ARC
  5
804
100
AcDbEntity
  8
0
100
AcDbCircle
 62
7
  6
CONTINUOUS
 10
24.3426441127
 20
180.2097181162
 40
0.3999999991
100
AcDbArc
 50
134.9999999876
 51
180.0000000551
  0
ARC
  5
805
100
AcDbEntity
  8
0
100
AcDbCircle
 62
7
  6
CONTINUOUS
 10
32.4579259946
 20
188.3249999981
 40
0.2
100
AcDbArc
 50
90.0
 51
135.0
  0
ARC
  5
806
100
AcDbEntity
  8
0
100
AcDbCircle
 62
7
  6
CONTINUOUS
 10
24.3426441127
 20
180.2097181162
 40
0.2
100
AcDbArc
 50
134.9999999797
 51
180.0
  0
ARC
  5
807
100
AcDbEntity
  8
0
100
AcDbCircle
 62
7
  6
CONTINUOUS
 10
51.2426441127
 20
170.9249999981
 40
1.2
100
AcDbArc
 50
90.0000000191
 51
180.0
  0
ARC
  5
808
100
AcDbEntity
  8
0
100
AcDbCircle
 62
7
  6
CONTINUOUS
 10
51.2426441127
 20
170.9249999981
 40
0.3
100
AcDbArc
 50
90.2387165048
 51
180.0
  0
ARC
  5
809
100
AcDbEntity
  8
0
100
AcDbCircle
 62
7
  6
CONTINUOUS
 10
51.4889352198
 20
119.8787088909
 40
0.5462911071
100
AcDbArc
 50
90.0000000655
 51
179.9999999817
  0
ARC
  5
80A
100
AcDbEntity
  8
0
100
AcDbCircle
 62
7
  6
CONTINUOUS
 10
70.4066001456
 20
119.888956031
 40
0.5360439671
100
AcDbArc
 50
0.0
 51
90.000000033
  0
ARC
  5
80B
100
AcDbEntity
  8
0
100
AcDbCircle
 62
7
  6
CONTINUOUS
 10
76.0426441127
 20
120.7249999981
 40
0.3
100
AcDbArc
 50
270.0000000471
 51
360.0
  0
ARC
  5
80C
100
AcDbEntity
  8
0
100
AcDbCircle
 62
7
  6
CONTINUOUS
 10
73.5960978103
 20
187.5249999981
 40
5.6812112355
100
AcDbArc
 50
17.7735463125
 51
89.9999999983
  0
ARC
  5
80D
100
AcDbEntity
  8
0
100
AcDbCircle
 62
7
  6
CONTINUOUS
 10
73.5960978103
 20
187.5249999981
 40
5.0005269763
100
AcDbArc
 50
17.7739968113
 51
90.0000000053
  0
ARC
  5
80E
100
AcDbEntity
  8
0
100
AcDbCircle
 62
7
  6
CONTINUOUS
 10
73.5960978103
 20
187.5249999981
 40
4.6479196411
100
AcDbArc
 50
17.7739968114
 51
90.0000000053
  0
ARC
  5
80F
100
AcDbEntity
  8
0
100
AcDbCircle
 62
7
  6
CONTINUOUS
 10
73.5960978103
 20
187.5249999981
 40
3.3515864288
100
AcDbArc
 50
17.7739968114
 51
90.0000000053
  0
ARC
  5
810
100
AcDbEntity
  8
0
100
AcDbCircle
 62
7
  6
CONTINUOUS
 10
73.5960978103
 20
187.5249999981
 40
2.8480010522
100
AcDbArc
 50
17.7739970295
 51
89.9999998265
  0
ARC
  5
811
100
AcDbEntity
  8
0
100
AcDbCircle
 62
7
  6
CONTINUOUS
 10
80.6201847026
 20
175.0504937438
 40
2.0975342572
100
AcDbArc
 50
174.7057682793
 51
180.0279592428
  0
ARC
  5
812
100
AcDbEntity
  8
0
100
AcDbCircle
 62
7
  6
CONTINUOUS
 10
80.6585714438
 20
175.2533407543
 40
1.2779423775
100
AcDbArc
 50
183.9825629645
 51
189.1796915184
  0
ARC
  5
813
100
AcDbEntity
  8
0
100
AcDbCircle
 62
7
  6
CONTINUOUS
 10
73.5748260431
 20
187.4958087448
 40
1.2291912531
100
AcDbArc
 50
17.9020930638
 51
90.0000000193
  0
ARC
  5
814
100
AcDbEntity
  8
0
100
AcDbCircle
 62
7
  6
CONTINUOUS
 10
73.5748260431
 20
187.4958087448
 40
1.0291912533
100
AcDbArc
 50
17.9020930777
 51
90.0000000178
  0
ARC
  5
815
100
AcDbEntity
  8
0
100
AcDbCircle
 62
7
  6
CONTINUOUS
 10
75.2426441127
 20
171.7249999981
 40
0.4
100
AcDbArc
 50
270.2387165684
 51
90.000000053
  0
ARC
  5
816
100
AcDbEntity
  8
0
100
AcDbCircle
 62
7
  6
CONTINUOUS
 10
76.0426441127
 20
170.9249999981
 40
0.3
100
AcDbArc
 50
0.0
 51
89.9999999293
  0
ARC
  5
817
100
AcDbEntity
  8
0
100
AcDbCircle
 62
7
  6
CONTINUOUS
 10
82.6426441127
 20
36.0249999981
 40
8.7
100
AcDbArc
 50
17.9317367862
 51
161.9106470616
  0
ARC
  5
818
100
AcDbEntity
  8
0
100
AcDbCircle
 62
7
  6
CONTINUOUS
 10
82.6426441127
 20
36.0249999981
 40
8.5
100
AcDbArc
 50
17.9317367869
 51
161.9106470613
  0
ARC
  5
819
100
AcDbEntity
  8
0
100
AcDbCircle
 62
7
  6
CONTINUOUS
 10
82.6426441127
 20
36.0249999981
 40
8.2999999996
100
AcDbArc
 50
17.9317367878
 51
161.9106470611
  0
ARC
  5
81A
100
AcDbEntity
  8
0
100
AcDbCircle
 62
7
  6
CONTINUOUS
 10
82.6426441127
 20
36.0249999981
 40
6.6519989475
100
AcDbArc
 50
17.774002124
 51
162.2260085148
  0
ARC
  5
81B
100
AcDbEntity
  8
0
100
AcDbCircle
 62
7
  6
CONTINUOUS
 10
82.6426441127
 20
36.0249999981
 40
6.1484135712
100
AcDbArc
 50
17.7739381373
 51
162.2260031886
  0
ARC
  5
81C
100
AcDbEntity
  8
0
100
AcDbCircle
 62
7
  6
CONTINUOUS
 10
82.6426441127
 20
36.0249999981
 40
4.8520803589
100
AcDbArc
 50
17.7739381373
 51
162.2260031886
  0
ARC
  5
81D
100
AcDbEntity
  8
0
100
AcDbCircle
 62
7
  6
CONTINUOUS
 10
82.6426441127
 20
36.0249999981
 40
4.4994730237
100
AcDbArc
 50
17.7739968114
 51
162.2260031886
  0
ARC
  5
81E
100
AcDbEntity
  8
0
100
AcDbCircle
 62
7
  6
CONTINUOUS
 10
82.6426441127
 20
36.0249999981
 40
3.8187887635
100
AcDbArc
 50
17.7746670202
 51
162.2259262351
  0
CIRCLE
  5
81F
100
AcDbEntity
  8
0
100
AcDbCircle
 62
7
  6
CONTINUOUS
 10
82.6426441127
 20
36.0249999981
 40
3.1
  0
CIRCLE
  5
820
100
AcDbEntity
  8
0
100
AcDbCircle
 62
7
  6
CONTINUOUS
 10
82.6426441127
 20
36.0249999981
 40
2.805727273
  0
CIRCLE
  5
821
100
AcDbEntity
  8
0
100
AcDbCircle
 62
7
  6
CONTINUOUS
 10
82.6426441127
 20
36.0249999981
 40
2.6221446905
  0
ARC
  5
822
100
AcDbEntity
  8
0
100
AcDbCircle
 62
7
  6
CONTINUOUS
 10
91.689190415
 20
38.9249999981
 40
5.6812112355
100
AcDbArc
 50
197.7735463125
 51
269.9999999983
  0
ARC
  5
823
100
AcDbEntity
  8
0
100
AcDbCircle
 62
7
  6
CONTINUOUS
 10
91.689190415
 20
38.9249999981
 40
5.0005269763
100
AcDbArc
 50
197.7739968113
 51
270.0
  0
ARC
  5
824
100
AcDbEntity
  8
0
100
AcDbCircle
 62
7
  6
CONTINUOUS
 10
91.689190415
 20
38.9249999981
 40
4.6479196411
100
AcDbArc
 50
197.7739968114
 51
270.000000001
  0
ARC
  5
825
100
AcDbEntity
  8
0
100
AcDbCircle
 62
7
  6
CONTINUOUS
 10
91.689190415
 20
38.9249999981
 40
3.3515864288
100
AcDbArc
 50
197.7739968114
 51
270.000000001
  0
ARC
  5
826
100
AcDbEntity
  8
0
100
AcDbCircle
 62
7
  6
CONTINUOUS
 10
91.689190415
 20
38.9249999981
 40
2.8480010522
100
AcDbArc
 50
197.7739844029
 51
269.9999999847
  0
ARC
  5
827
100
AcDbEntity
  8
0
100
AcDbCircle
 62
7
  6
CONTINUOUS
 10
91.7153941514
 20
38.9609691848
 40
1.2359691863
100
AcDbArc
 50
197.9317367795
 51
269.9999999942
  0
ARC
  5
828
100
AcDbEntity
  8
0
100
AcDbCircle
 62
7
  6
CONTINUOUS
 10
91.7153941514
 20
38.9609691848
 40
1.0359691867
100
AcDbArc
 50
197.9317367869
 51
269.9999999862
  0
ARC
  5
829
100
AcDbEntity
  8
0
100
AcDbCircle
 62
7
  6
CONTINUOUS
 10
91.7153941514
 20
38.9609691848
 40
0.8359691867
100
AcDbArc
 50
197.9317367919
 51
269.9999999859
  0
ARC
  5
82A
100
AcDbEntity
  8
0
100
AcDbCircle
 62
7
  6
CONTINUOUS
 10
99.3438537869
 20
53.3262096723
 40
0.5012096742
100
AcDbArc
 50
179.9999999966
 51
269.9999999463
  0
ARC
  5
82B
100
AcDbEntity
  8
0
100
AcDbCircle
 62
7
  6
CONTINUOUS
 10
111.8446859389
 20
53.3229581719
 40
0.4979581738
100
AcDbArc
 50
269.9999998913
 51
360.0
  0
ARC
  5
82C
100
AcDbEntity
  8
0
100
AcDbCircle
 62
7
  6
CONTINUOUS
 10
111.8351780683
 20
107.3175339537
 40
0.5074660444
100
AcDbArc
 50
0.0
 51
90.0000000113
  0
ARC
  5
82D
100
AcDbEntity
  8
0
100
AcDbCircle
 62
7
  6
CONTINUOUS
 10
98.3926441127
 20
77.9149999972
 40
0.45
100
AcDbArc
 50
180.0
 51
360.0
  0
ARC
  5
82E
100
AcDbEntity
  8
0
100
AcDbCircle
 62
7
  6
CONTINUOUS
 10
110.4426441131
 20
108.2749999981
 40
0.45
100
AcDbArc
 50
269.9999997587
 51
89.9999999618
  0
ARC
  5
82F
100
AcDbEntity
  8
0
100
AcDbCircle
 62
7
  6
CONTINUOUS
 10
124.8428189911
 20
53.0248251197
 40
4.8821271152
100
AcDbArc
 50
112.9433458697
 51
179.9979472297
  0
ARC
  5
830
100
AcDbEntity
  8
0
100
AcDbCircle
 62
7
  6
CONTINUOUS
 10
124.742372063
 20
53.1252720477
 40
3.9003274635
100
AcDbArc
 50
270.0039964652
 51
359.9960075394
  0
ARC
  5
831
100
AcDbEntity
  8
0
100
AcDbCircle
 62
7
  6
CONTINUOUS
 10
124.7249114549
 20
53.1427326561
 40
3.9002722822
100
AcDbArc
 50
270.0087185739
 51
359.9944556525
  0
ARC
  5
832
100
AcDbEntity
  8
0
100
AcDbCircle
 62
7
  6
CONTINUOUS
 10
124.8428189911
 20
53.0248251197
 40
3.8826732503
100
AcDbArc
 50
112.9433019522
 51
179.9971042911
  0
ARC
  5
833
100
AcDbEntity
  8
0
100
AcDbCircle
 62
7
  6
CONTINUOUS
 10
124.8428189911
 20
53.0248251197
 40
3.0490081281
100
AcDbArc
 50
90.0032735242
 51
179.9971042911
  0
ARC
  5
834
100
AcDbEntity
  8
0
100
AcDbCircle
 62
7
  6
CONTINUOUS
 10
124.7865696802
 20
53.0864465742
 40
2.7962052364
100
AcDbArc
 50
298.0975127169
 51
300.3226872628
  0
CIRCLE
  5
835
100
AcDbEntity
  8
0
100
AcDbCircle
 62
7
  6
CONTINUOUS
 10
124.8426441127
 20
53.0249999981
 40
2.5
  0
ARC
  5
836
100
AcDbEntity
  8
0
100
AcDbCircle
 62
7
  6
CONTINUOUS
 10
120.7918804062
 20
50.3577492842
 40
2.0014000489
100
AcDbArc
 50
358.0662133304
 51
359.9998985629
  0
CIRCLE
  5
837
100
AcDbEntity
  8
0
100
AcDbCircle
 62
7
  6
CONTINUOUS
 10
124.8426441127
 20
53.0249999981
 40
1.573365856
  0
ARC
  5
838
100
AcDbEntity
  8
0
100
AcDbCircle
 62
7
  6
CONTINUOUS
 10
120.7208402276
 20
50.4354083762
 40
1.0008663733
100
AcDbArc
 50
270.0776001726
 51
359.9159338604
  0
ARC
  5
839
100
AcDbEntity
  8
0
100
AcDbCircle
 62
7
  6
CONTINUOUS
 10
119.9594017886
 20
51.2073401457
 40
1.0008205437
100
AcDbArc
 50
270.077745914
 51
359.9213314997
  0
ARC
  5
83A
100
AcDbEntity
  8
0
100
AcDbCircle
 62
7
  6
CONTINUOUS
 10
127.4940895859
 20
57.1147260712
 40
1.0007088175
100
AcDbArc
 50
270.0635934607
 51
359.9283095441
  0
ARC
  5
83B
100
AcDbEntity
  8
0
100
AcDbCircle
 62
7
  6
CONTINUOUS
 10
123.680729642
 20
57.0127745861
 40
1.000706898
100
AcDbArc
 50
286.2878411855
 51
359.9466669606
  0
ARC
  5
83C
100
AcDbEntity
  8
0
100
AcDbCircle
 62
7
  6
CONTINUOUS
 10
120.796131728
 20
50.3559062952
 40
0.9976874111
100
AcDbArc
 50
269.9060228857
 51
0.1057002714
  0
ARC
  5
83D
100
AcDbEntity
  8
0
100
AcDbCircle
 62
7
  6
CONTINUOUS
 10
132.4959913877
 20
38.924999982
 40
5.6812112192
100
AcDbArc
 50
269.9999999915
 51
315.0000000241
  0
ARC
  5
83E
100
AcDbEntity
  8
0
100
AcDbCircle
 62
7
  6
CONTINUOUS
 10
132.4959913877
 20
38.924999982
 40
5.0005269595
100
AcDbArc
 50
270.0
 51
315.0000000817
  0
ARC
  5
83F
100
AcDbEntity
  8
0
100
AcDbCircle
 62
7
  6
CONTINUOUS
 10
132.4959913877
 20
38.924999982
 40
4.6479196243
100
AcDbArc
 50
269.9999999284
 51
315.0000000648
  0
ARC
  5
840
100
AcDbEntity
  8
0
100
AcDbCircle
 62
7
  6
CONTINUOUS
 10
143.0423164771
 20
36.0253276337
 40
4.3003276454
100
AcDbArc
 50
270.0039997425
 51
359.9960002575
  0
ARC
  5
841
100
AcDbEntity
  8
0
100
AcDbCircle
 62
7
  6
CONTINUOUS
 10
143.0956246849
 20
35.9720194258
 40
3.9879963726
100
AcDbArc
 50
270.0039997396
 51
359.9959999404
  0
ARC
  5
842
100
AcDbEntity
  8
0
100
AcDbCircle
 62
7
  6
CONTINUOUS
 10
132.4959913877
 20
38.924999982
 40
3.351586412
100
AcDbArc
 50
269.9999999284
 51
315.0000000648
  0
CIRCLE
  5
843
100
AcDbEntity
  8
0
100
AcDbCircle
 62
7
  6
CONTINUOUS
 10
143.0426441127
 20
36.0249999981
 40
3.1
  0
ARC
  5
844
100
AcDbEntity
  8
0
100
AcDbCircle
 62
7
  6
CONTINUOUS
 10
132.4959913877
 20
38.924999982
 40
2.8480010358
100
AcDbArc
 50
269.9999995928
 51
315.0000000701
  0
CIRCLE
  5
845
100
AcDbEntity
  8
0
100
AcDbCircle
 62
7
  6
CONTINUOUS
 10
143.0426441127
 20
36.0249999981
 40
2.805727273
  0
CIRCLE
  5
846
100
AcDbEntity
  8
0
100
AcDbCircle
 62
7
  6
CONTINUOUS
 10
143.0426441127
 20
36.0249999981
 40
2.6221446905
  0
ARC
  5
847
100
AcDbEntity
  8
0
100
AcDbCircle
 62
7
  6
CONTINUOUS
 10
132.8273622308
 20
38.1249999981
 40
0.4
100
AcDbArc
 50
269.9999998464
 51
315.0000000145
  0
ARC
  5
848
100
AcDbEntity
  8
0
100
AcDbCircle
 62
7
  6
CONTINUOUS
 10
140.9426441127
 20
46.24028188
 40
0.3999999991
100
AcDbArc
 50
315.0000002104
 51
359.9999999978
  0
ARC
  5
849
100
AcDbEntity
  8
0
100
AcDbCircle
 62
7
  6
CONTINUOUS
 10
132.8273622308
 20
38.1249999981
 40
0.2
100
AcDbArc
 50
270.0
 51
315.0
  0
ARC
  5
84A
100
AcDbEntity
  8
0
100
AcDbCircle
 62
7
  6
CONTINUOUS
 10
140.9426441127
 20
46.24028188
 40
0.2
100
AcDbArc
 50
314.9999999797
 51
360.0
  0
ARC
  5
84B
100
AcDbEntity
  8
0
100
AcDbCircle
 62
7
  6
CONTINUOUS
 10
140.1426441004
 20
46.5716527346
 40
5.6812112487
100
AcDbArc
 50
314.9999999762
 51
360.0
  0
ARC
  5
84C
100
AcDbEntity
  8
0
100
AcDbCircle
 62
7
  6
CONTINUOUS
 10
140.1426441004
 20
46.5716527346
 40
5.000526989
100
AcDbArc
 50
315.0000000593
 51
359.9999999564
  0
ARC
  5
84D
100
AcDbEntity
  8
0
100
AcDbCircle
 62
7
  6
CONTINUOUS
 10
140.1426441004
 20
46.5716527346
 40
4.6479196538
100
AcDbArc
 50
315.0000000513
 51
359.9999999454
  0
ARC
  5
84E
100
AcDbEntity
  8
0
100
AcDbCircle
 62
7
  6
CONTINUOUS
 10
140.1426441004
 20
46.5716527346
 40
3.3515864415
100
AcDbArc
 50
315.0000000513
 51
359.9999999454
  0
ARC
  5
84F
100
AcDbEntity
  8
0
100
AcDbCircle
 62
7
  6
CONTINUOUS
 10
140.1426441004
 20
46.5716527346
 40
2.8480010646
100
AcDbArc
 50
315.000000125
 51
360.0
  0
ARC
  5
850
100
AcDbEntity
  8
0
100
AcDbCircle
 62
7
  6
CONTINUOUS
 10
140.1426441131
 20
104.1784536951
 40
5.6812112363
100
AcDbArc
 50
0.0000000068
 51
72.2260545423
  0
ARC
  5
851
100
AcDbEntity
  8
0
100
AcDbCircle
 62
7
  6
CONTINUOUS
 10
140.1426441131
 20
104.1784536951
 40
5.0005269762
100
AcDbArc
 50
0.0000000028
 51
72.2260031945
  0
ARC
  5
852
100
AcDbEntity
  8
0
100
AcDbCircle
 62
7
  6
CONTINUOUS
 10
140.1426441131
 20
104.1784536951
 40
4.6479196411
100
AcDbArc
 50
0.0000000025
 51
72.2259899728
  0
ARC
  5
853
100
AcDbEntity
  8
0
100
AcDbCircle
 62
7
  6
CONTINUOUS
 10
140.1426441131
 20
104.1784536951
 40
3.3515864287
100
AcDbArc
 50
0.0000000025
 51
72.2259899728
  0
ARC
  5
854
100
AcDbEntity
  8
0
100
AcDbCircle
 62
7
  6
CONTINUOUS
 10
140.1426441131
 20
104.1784536951
 40
2.8480010516
100
AcDbArc
 50
359.9999999019
 51
72.2260032664
  0
ARC
  5
855
100
AcDbEntity
  8
0
100
AcDbCircle
 62
7
  6
CONTINUOUS
 10
140.1184202686
 20
104.1607981721
 40
1.2242238436
100
AcDbArc
 50
0.0
 51
72.1196558297
  0
ARC
  5
856
100
AcDbEntity
  8
0
100
AcDbCircle
 62
7
  6
CONTINUOUS
 10
140.1184202686
 20
104.1607981721
 40
1.0242238441
100
AcDbArc
 50
0.0
 51
72.1196558329
  0
ARC
  5
857
100
AcDbEntity
  8
0
100
AcDbCircle
 62
7
  6
CONTINUOUS
 10
140.1184202686
 20
104.1607981721
 40
0.8242238441
100
AcDbArc
 50
0.0000000087
 51
72.1196558286
  0
ARC
  5
858
100
AcDbEntity
  8
0
100
AcDbCircle
 62
7
  6
CONTINUOUS
 10
133.9426441127
 20
107.5774227073
 40
0.5
100
AcDbArc
 50
273.8629068343
 51
359.9999999381
  0
ARC
  5
859
100
AcDbEntity
  8
0
100
AcDbCircle
 62
7
  6
CONTINUOUS
 10
112.007085666
 20
140.6605584448
 40
0.5355584467
100
AcDbArc
 50
270.0000000037
 51
359.9999999749
  0
ARC
  5
85A
100
AcDbEntity
  8
0
100
AcDbCircle
 62
7
  6
CONTINUOUS
 10
99.577412783
 20
140.6597686684
 40
0.5347686703
100
AcDbArc
 50
179.999999977
 51
270.0000001194
  0
ARC
  5
85B
100
AcDbEntity
  8
0
100
AcDbCircle
 62
7
  6
CONTINUOUS
 10
82.6426441127
 20
190.4249999981
 40
8.7
100
AcDbArc
 50
197.8838458951
 51
341.8038849221
  0
ARC
  5
85C
100
AcDbEntity
  8
0
100
AcDbCircle
 62
7
  6
CONTINUOUS
 10
82.6426441127
 20
190.4249999981
 40
8.5
100
AcDbArc
 50
197.9020930777
 51
341.8038849239
  0
ARC
  5
85D
100
AcDbEntity
  8
0
100
AcDbCircle
 62
7
  6
CONTINUOUS
 10
82.6426441127
 20
190.4249999981
 40
8.2999999997
100
AcDbArc
 50
197.90209308
 51
341.8038849256
  0
ARC
  5
85E
100
AcDbEntity
  8
0
100
AcDbCircle
 62
7
  6
CONTINUOUS
 10
82.6426441127
 20
190.4249999981
 40
6.6519989472
100
AcDbArc
 50
197.773996718
 51
342.226003198
  0
ARC
  5
85F
100
AcDbEntity
  8
0
100
AcDbCircle
 62
7
  6
CONTINUOUS
 10
82.6426441127
 20
190.4249999981
 40
6.1484135712
100
AcDbArc
 50
197.7739381373
 51
342.2260031886
  0
ARC
  5
860
100
AcDbEntity
  8
0
100
AcDbCircle
 62
7
  6
CONTINUOUS
 10
82.6426441127
 20
190.4249999981
 40
4.8520803589
100
AcDbArc
 50
197.7739381373
 51
342.2260031886
  0
ARC
  5
861
100
AcDbEntity
  8
0
100
AcDbCircle
 62
7
  6
CONTINUOUS
 10
82.6426441127
 20
190.4249999981
 40
4.4994730237
100
AcDbArc
 50
197.7739968114
 51
342.2260032007
  0
ARC
  5
862
100
AcDbEntity
  8
0
100
AcDbCircle
 62
7
  6
CONTINUOUS
 10
82.6426441127
 20
190.4249999981
 40
3.8187887635
100
AcDbArc
 50
197.7746670202
 51
342.2259262526
  0
CIRCLE
  5
863
100
AcDbEntity
  8
0
100
AcDbCircle
 62
7
  6
CONTINUOUS
 10
82.6426441127
 20
190.4249999981
 40
3.1
  0
CIRCLE
  5
864
100
AcDbEntity
  8
0
100
AcDbCircle
 62
7
  6
CONTINUOUS
 10
82.6426441127
 20
190.4249999981
 40
2.805727273
  0
CIRCLE
  5
865
100
AcDbEntity
  8
0
100
AcDbCircle
 62
7
  6
CONTINUOUS
 10
82.6426441127
 20
190.4249999981
 40
2.6221446905
  0
ARC
  5
866
100
AcDbEntity
  8
0
100
AcDbCircle
 62
7
  6
CONTINUOUS
 10
91.6891904115
 20
187.5250000023
 40
5.6812112314
100
AcDbArc
 50
90.0000000108
 51
162.2260549331
  0
ARC
  5
867
100
AcDbEntity
  8
0
100
AcDbCircle
 62
7
  6
CONTINUOUS
 10
91.6891904115
 20
187.5250000023
 40
5.0005269714
100
AcDbArc
 50
89.9999999607
 51
162.2260032114
  0
ARC
  5
868
100
AcDbEntity
  8
0
100
AcDbCircle
 62
7
  6
CONTINUOUS
 10
91.6891904115
 20
187.5250000023
 40
4.6479196362
100
AcDbArc
 50
89.9999999606
 51
162.2259900068
  0
ARC
  5
869
100
AcDbEntity
  8
0
100
AcDbCircle
 62
7
  6
CONTINUOUS
 10
91.6891904115
 20
187.5250000023
 40
3.3515864239
100
AcDbArc
 50
89.9999999606
 51
162.2259900068
  0
ARC
  5
86A
100
AcDbEntity
  8
0
100
AcDbCircle
 62
7
  6
CONTINUOUS
 10
91.6891904115
 20
187.5250000023
 40
2.8480010468
100
AcDbArc
 50
89.9999998955
 51
162.2260032259
  0
ARC
  5
86B
100
AcDbEntity
  8
0
100
AcDbCircle
 62
7
  6
CONTINUOUS
 10
91.759535778
 20
187.4282035104
 40
1.296796487
100
AcDbArc
 50
89.9999998759
 51
161.803884909
  0
ARC
  5
86C
100
AcDbEntity
  8
0
100
AcDbCircle
 62
7
  6
CONTINUOUS
 10
91.759535778
 20
187.4282035104
 40
1.0967964877
100
AcDbArc
 50
90.0
 51
161.8038849195
  0
ARC
  5
86D
100
AcDbEntity
  8
0
100
AcDbCircle
 62
7
  6
CONTINUOUS
 10
91.759535778
 20
187.4282035104
 40
0.8967964877
100
AcDbArc
 50
89.9999999819
 51
161.8038849358
  0
ARC
  5
86E
100
AcDbEntity
  8
0
100
AcDbCircle
 62
7
  6
CONTINUOUS
 10
111.9936844773
 20
165.0760403627
 40
0.5489596354
100
AcDbArc
 50
0.0
 51
89.9999999514
  0
ARC
  5
86F
100
AcDbEntity
  8
0
100
AcDbCircle
 62
7
  6
CONTINUOUS
 10
98.5926441127
 20
151.9249999981
 40
0.45
100
AcDbArc
 50
179.9999999109
 51
359.9999999109
  0
ARC
  5
870
100
AcDbEntity
  8
0
100
AcDbCircle
 62
7
  6
CONTINUOUS
 10
105.7426441127
 20
166.1749999981
 40
0.35
100
AcDbArc
 50
269.9999999345
 51
90.0
  0
ARC
  5
871
100
AcDbEntity
  8
0
100
AcDbCircle
 62
7
  6
CONTINUOUS
 10
133.9426441127
 20
118.8725772889
 40
0.5
100
AcDbArc
 50
0.0000003827
 51
86.1370931657
  0
ARC
  5
872
100
AcDbEntity
  8
0
100
AcDbCircle
 62
7
  6
CONTINUOUS
 10
130.5336839683
 20
130.2339601425
 40
2.0089601444
100
AcDbArc
 50
270.0000000018
 51
360.0
  0
ARC
  5
873
100
AcDbEntity
  8
0
100
AcDbCircle
 62
7
  6
CONTINUOUS
 10
143.0426441127
 20
113.2249999981
 40
8.7
100
AcDbArc
 50
197.1231504357
 51
252.1196558326
  0
ARC
  5
874
100
AcDbEntity
  8
0
100
AcDbCircle
 62
7
  6
CONTINUOUS
 10
143.0426441127
 20
113.2249999981
 40
8.7
100
AcDbArc
 50
107.8963900502
 51
162.3073037091
  0
ARC
  5
875
100
AcDbEntity
  8
0
100
AcDbCircle
 62
7
  6
CONTINUOUS
 10
143.0426441127
 20
113.2249999981
 40
8.5
100
AcDbArc
 50
107.8963900506
 51
167.6146552311
  0
ARC
  5
876
100
AcDbEntity
  8
0
100
AcDbCircle
 62
7
  6
CONTINUOUS
 10
143.0426441127
 20
113.2249999981
 40
8.5
100
AcDbArc
 50
192.6405666233
 51
252.1196558322
  0
ARC
  5
877
100
AcDbEntity
  8
0
100
AcDbCircle
 62
7
  6
CONTINUOUS
 10
143.0426441127
 20
113.2249999981
 40
8.3
100
AcDbArc
 50
107.8963900511
 51
252.1196558327
  0
ARC
  5
878
100
AcDbEntity
  8
0
100
AcDbCircle
 62
7
  6
CONTINUOUS
 10
143.0426441127
 20
113.2249999981
 40
6.651998948
100
AcDbArc
 50
107.7739968396
 51
252.2260031604
  0
ARC
  5
879
100
AcDbEntity
  8
0
100
AcDbCircle
 62
7
  6
CONTINUOUS
 10
143.0426441127
 20
113.2249999981
 40
6.1484135712
100
AcDbArc
 50
107.7740023894
 51
252.2260031886
  0
ARC
  5
87A
100
AcDbEntity
  8
0
100
AcDbCircle
 62
7
  6
CONTINUOUS
 10
143.0426441127
 20
113.2249999981
 40
4.8520803589
100
AcDbArc
 50
107.7740023894
 51
252.2260031886
  0
ARC
  5
87B
100
AcDbEntity
  8
0
100
AcDbCircle
 62
7
  6
CONTINUOUS
 10
143.0426441127
 20
113.2249999981
 40
4.4994730237
100
AcDbArc
 50
107.7739968109
 51
252.2260031895
  0
ARC
  5
87C
100
AcDbEntity
  8
0
100
AcDbCircle
 62
7
  6
CONTINUOUS
 10
143.0426441127
 20
113.2249999981
 40
3.8187887632
100
AcDbArc
 50
107.7741480126
 51
252.2259267985
  0
CIRCLE
  5
87D
100
AcDbEntity
  8
0
100
AcDbCircle
 62
7
  6
CONTINUOUS
 10
143.0426441127
 20
113.2249999981
 40
3.1
  0
CIRCLE
  5
87E
100
AcDbEntity
  8
0
100
AcDbCircle
 62
7
  6
CONTINUOUS
 10
143.0426441127
 20
113.2249999981
 40
2.805727273
  0
CIRCLE
  5
87F
100
AcDbEntity
  8
0
100
AcDbCircle
 62
7
  6
CONTINUOUS
 10
143.0426441127
 20
113.2249999981
 40
2.6221446905
  0
ARC
  5
880
100
AcDbEntity
  8
0
100
AcDbCircle
 62
7
  6
CONTINUOUS
 10
140.1426441131
 20
122.2715463011
 40
5.6812112363
100
AcDbArc
 50
287.7738951713
 51
359.9999999932
  0
ARC
  5
881
100
AcDbEntity
  8
0
100
AcDbCircle
 62
7
  6
CONTINUOUS
 10
140.1426441131
 20
122.2715463011
 40
5.0005269762
100
AcDbArc
 50
287.7739968051
 51
359.9999999924
  0
ARC
  5
882
100
AcDbEntity
  8
0
100
AcDbCircle
 62
7
  6
CONTINUOUS
 10
140.1426441131
 20
122.2715463011
 40
4.6479196411
100
AcDbArc
 50
287.773996805
 51
359.9999999905
  0
ARC
  5
883
100
AcDbEntity
  8
0
100
AcDbCircle
 62
7
  6
CONTINUOUS
 10
140.1426441131
 20
122.2715463011
 40
3.3515864287
100
AcDbArc
 50
287.773996805
 51
359.9999999905
  0
ARC
  5
884
100
AcDbEntity
  8
0
100
AcDbCircle
 62
7
  6
CONTINUOUS
 10
140.1426441131
 20
122.2715463011
 40
2.8480010516
100
AcDbArc
 50
287.7739967337
 51
0.0000000981
  0
ARC
  5
885
100
AcDbEntity
  8
0
100
AcDbCircle
 62
7
  6
CONTINUOUS
 10
140.1147558621
 20
122.2918696292
 40
1.2278882507
100
AcDbArc
 50
287.8963900466
 51
360.0
  0
ARC
  5
886
100
AcDbEntity
  8
0
100
AcDbCircle
 62
7
  6
CONTINUOUS
 10
140.1147558621
 20
122.2918696292
 40
1.0278882506
100
AcDbArc
 50
287.8963900506
 51
360.0
  0
ARC
  5
887
100
AcDbEntity
  8
0
100
AcDbCircle
 62
7
  6
CONTINUOUS
 10
140.1147558621
 20
122.2918696292
 40
0.8278882506
100
AcDbArc
 50
287.8963900541
 51
359.9999999951
  0
ARC
  5
888
100
AcDbEntity
  8
0
100
AcDbCircle
 62
7
  6
CONTINUOUS
 10
122.293582227
 20
172.6234474798
 40
5.7125254394
100
AcDbArc
 50
335.5834392541
 51
336.4953150636
  0
ARC
  5
889
100
AcDbEntity
  8
0
100
AcDbCircle
 62
7
  6
CONTINUOUS
 10
123.299540068
 20
171.6176882453
 40
5.7035118959
100
AcDbArc
 50
335.627999831
 51
336.5430558472
  0
ARC
  5
88A
100
AcDbEntity
  8
0
100
AcDbCircle
 62
7
  6
CONTINUOUS
 10
126.2315114359
 20
173.4736981031
 40
5.6222780842
100
AcDbArc
 50
180.4961251741
 51
181.0197403914
  0
ARC
  5
88B
100
AcDbEntity
  8
0
100
AcDbCircle
 62
7
  6
CONTINUOUS
 10
124.2021707698
 20
171.4694731555
 40
5.2289618921
100
AcDbArc
 50
117.8080776648
 51
119.5993062941
  0
ARC
  5
88C
100
AcDbEntity
  8
0
100
AcDbCircle
 62
7
  6
CONTINUOUS
 10
123.1804623171
 20
172.5026225374
 40
5.1879526053
100
AcDbArc
 50
117.7484870791
 51
119.5562734026
  0
ARC
  5
88D
100
AcDbEntity
  8
0
100
AcDbCircle
 62
7
  6
CONTINUOUS
 10
124.742372063
 20
173.3247279484
 40
3.9003274639
100
AcDbArc
 50
0.004000467
 51
89.996003537
  0
ARC
  5
88E
100
AcDbEntity
  8
0
100
AcDbCircle
 62
7
  6
CONTINUOUS
 10
124.7249114549
 20
173.3072673401
 40
3.9002722822
100
AcDbArc
 50
0.0087603166
 51
89.9944131813
  0
ARC
  5
88F
100
AcDbEntity
  8
0
100
AcDbCircle
 62
7
  6
CONTINUOUS
 10
124.8428647253
 20
173.4252182193
 40
3.0801092479
100
AcDbArc
 50
180.0040318433
 51
269.9959609552
  0
CIRCLE
  5
890
100
AcDbEntity
  8
0
100
AcDbCircle
 62
7
  6
CONTINUOUS
 10
124.8426441127
 20
173.4249999981
 40
2.5
  0
CIRCLE
  5
891
100
AcDbEntity
  8
0
100
AcDbCircle
 62
7
  6
CONTINUOUS
 10
124.8426441127
 20
173.4249999981
 40
1.573365856
  0
ARC
  5
892
100
AcDbEntity
  8
0
100
AcDbCircle
 62
7
  6
CONTINUOUS
 10
116.591383811
 20
186.1762602998
 40
2.0487396983
100
AcDbArc
 50
90.0000000035
 51
179.9999999965
  0
ARC
  5
893
100
AcDbEntity
  8
0
100
AcDbCircle
 62
7
  6
CONTINUOUS
 10
140.1426441127
 20
179.8783472664
 40
5.6812112358
100
AcDbArc
 50
359.9999999385
 51
45.0000000773
  0
ARC
  5
894
100
AcDbEntity
  8
0
100
AcDbCircle
 62
7
  6
CONTINUOUS
 10
140.1426441127
 20
179.8783472664
 40
5.0005269763
100
AcDbArc
 50
0.0
 51
45.0
  0
ARC
  5
895
100
AcDbEntity
  8
0
100
AcDbCircle
 62
7
  6
CONTINUOUS
 10
140.1426441127
 20
179.8783472664
 40
4.6479196411
100
AcDbArc
 50
0.0
 51
44.999999999
  0
ARC
  5
896
100
AcDbEntity
  8
0
100
AcDbCircle
 62
7
  6
CONTINUOUS
 10
140.1426441127
 20
179.8783472664
 40
3.3515864288
100
AcDbArc
 50
0.0
 51
44.999999999
  0
ARC
  5
897
100
AcDbEntity
  8
0
100
AcDbCircle
 62
7
  6
CONTINUOUS
 10
140.1426441127
 20
179.8783472664
 40
2.848001052
100
AcDbArc
 50
0.0
 51
45.0000000097
  0
ARC
  5
898
100
AcDbEntity
  8
0
100
AcDbCircle
 62
7
  6
CONTINUOUS
 10
140.9426441127
 20
180.2097181162
 40
0.3999999991
100
AcDbArc
 50
0.0
 51
44.9999999111
  0
ARC
  5
899
100
AcDbEntity
  8
0
100
AcDbCircle
 62
7
  6
CONTINUOUS
 10
140.9426441127
 20
180.2097181162
 40
0.2
100
AcDbArc
 50
0.0
 51
45.0
  0
ARC
  5
89A
100
AcDbEntity
  8
0
100
AcDbCircle
 62
7
  6
CONTINUOUS
 10
132.4959913809
 20
187.5249999981
 40
5.6812112363
100
AcDbArc
 50
45.0000000423
 51
89.9999999399
  0
ARC
  5
89B
100
AcDbEntity
  8
0
100
AcDbCircle
 62
7
  6
CONTINUOUS
 10
132.4959913809
 20
187.5249999981
 40
5.0005269763
100
AcDbArc
 50
45.0
 51
90.0000000034
  0
ARC
  5
89C
100
AcDbEntity
  8
0
100
AcDbCircle
 62
7
  6
CONTINUOUS
 10
132.4959913809
 20
187.5249999981
 40
4.6479196411
100
AcDbArc
 50
45.0
 51
90.0000000029
  0
ARC
  5
89D
100
AcDbEntity
  8
0
100
AcDbCircle
 62
7
  6
CONTINUOUS
 10
143.0567268921
 20
190.4390827789
 40
4.2859172303
100
AcDbArc
 50
0.0039997428
 51
89.9960002585
  0
ARC
  5
89E
100
AcDbEntity
  8
0
100
AcDbCircle
 62
7
  6
CONTINUOUS
 10
143.0907870318
 20
190.4731429172
 40
3.9928340257
100
AcDbArc
 50
0.0039997423
 51
89.9960002583
  0
ARC
  5
89F
100
AcDbEntity
  8
0
100
AcDbCircle
 62
7
  6
CONTINUOUS
 10
132.4959913809
 20
187.5249999981
 40
3.3515864288
100
AcDbArc
 50
45.0
 51
90.0000000029
  0
CIRCLE
  5
8A0
100
AcDbEntity
  8
0
100
AcDbCircle
 62
7
  6
CONTINUOUS
 10
143.0426441127
 20
190.4249999981
 40
3.1
  0
ARC
  5
8A1
100
AcDbEntity
  8
0
100
AcDbCircle
 62
7
  6
CONTINUOUS
 10
132.4959913809
 20
187.5249999981
 40
2.8480010526
100
AcDbArc
 50
45.0000000831
 51
89.9999998219
  0
CIRCLE
  5
8A2
100
AcDbEntity
  8
0
100
AcDbCircle
 62
7
  6
CONTINUOUS
 10
143.0426441127
 20
190.4249999981
 40
2.805727273
  0
CIRCLE
  5
8A3
100
AcDbEntity
  8
0
100
AcDbCircle
 62
7
  6
CONTINUOUS
 10
143.0426441127
 20
190.4249999981
 40
2.6221446905
  0
ARC
  5
8A4
100
AcDbEntity
  8
0
100
AcDbCircle
 62
7
  6
CONTINUOUS
 10
132.8273622308
 20
188.3249999981
 40
0.4
100
AcDbArc
 50
45.0000000463
 51
90.0000001536
  0
ARC
  5
8A5
100
AcDbEntity
  8
0
100
AcDbCircle
 62
7
  6
CONTINUOUS
 10
132.8273622308
 20
188.3249999981
 40
0.2
100
AcDbArc
 50
44.9999999797
 51
90.0
  0
SPLINE
  5
8A6
100
AcDbEntity
  8
0
100
AcDbSpline
 62
7
  6
CONTINUOUS
 70
0
 71
3
 72
23
 73
19
 74
0
 42
0.0000001
 43
0.0000001
 44
0.0000000001
 40
0.0
 40
0.0
 40
0.0
 40
0.0
 40
0.1951627206
 40
0.3824166295
 40
0.5548112575
 40
0.6333842698
 40
0.7058672283
 40
0.7715593299
 40
0.8298493273
 40
0.8801979486
 40
0.9221560051
 40
0.9553379866
 40
0.9685455086
 40
0.9794575553
 40
0.9880479403
 40
0.9942985142
 40
0.9982188993
 40
1.0
 40
1.0
 40
1.0
 40
1.0
 10
133.9763186408
 20
118.5744642061
 30
0.0
 10
133.9776286153
 20
118.6263458467
 30
0.0
 10
133.9798917315
 20
118.7280145114
 30
0.0
 10
133.9824256657
 20
118.8755301167
 30
0.0
 10
133.9838054018
 20
118.9920557769
 30
0.0
 10
133.9843707586
 20
119.0780669371
 30
0.0
 10
133.9845174394
 20
119.1357051087
 30
0.0
 10
133.9843981665
 20
119.187949834
 30
0.0
 10
133.9840169294
 20
119.2343067087
 30
0.0
 10
133.9833841413
 20
119.2743503807
 30
0.0
 10
133.9825120755
 20
119.307706915
 30
0.0
 10
133.9815489208
 20
119.3311893917
 30
0.0
 10
133.9806110527
 20
119.3463885731
 30
0.0
 10
133.9798962138
 20
119.3550804841
 30
0.0
 10
133.9791720504
 20
119.3618326117
 30
0.0
 10
133.9783267923
 20
119.3668939647
 30
0.0
 10
133.9776540545
 20
119.3697321519
 30
0.0
 10
133.9767911509
 20
119.37141008
 30
0.0
 10
133.9763185939
 20
119.3714420161
 30
0.0
  0
SPLINE
  5
8A7
100
AcDbEntity
  8
0
100
AcDbSpline
 62
7
  6
CONTINUOUS
 70
0
 71
3
 72
22
 73
18
 74
0
 42
0.0000001
 43
0.0000001
 44
0.0000000001
 40
0.0
 40
0.0
 40
0.0
 40
0.0
 40
0.0029818188
 40
0.0075108285
 40
0.0141541366
 40
0.0230182823
 40
0.0341471907
 40
0.0475193018
 40
0.080913159
 40
0.1229598617
 40
0.1733245497
 40
0.2315630367
 40
0.2971141104
 40
0.4477338232
 40
0.6194190552
 40
0.8057974328
 40
1.0
 40
1.0
 40
1.0
 40
1.0
 10
133.9763292771
 20
107.078558688
 30
0.0
 10
133.9771449055
 20
107.0786137618
 30
0.0
 10
133.978992291
 20
107.0799669833
 30
0.0
 10
133.9807072166
 20
107.0834465471
 30
0.0
 10
133.982476474
 20
107.0886685347
 30
0.0
 10
133.9840594004
 20
107.0958025849
 30
0.0
 10
133.985603444
 20
107.1048213054
 30
0.0
 10
133.9876188738
 20
107.1205685602
 30
0.0
 10
133.9896869604
 20
107.1448373288
 30
0.0
 10
133.9915556332
 20
107.179279551
 30
0.0
 10
133.9929059784
 20
107.220561786
 30
0.0
 10
133.9937153843
 20
107.2683018462
 30
0.0
 10
133.9940686616
 20
107.3435336804
 30
0.0
 10
133.9929259097
 20
107.449866695
 30
0.0
 10
133.9894979328
 20
107.58928656
 30
0.0
 10
133.9840382736
 20
107.7405985565
 30
0.0
 10
133.97914602
 20
107.8448252929
 30
0.0
 10
133.9763291236
 20
107.8979926628
 30
0.0
  0
LINE
  5
8A8
100
AcDbEntity
  8
0
100
AcDbLine
 62
7
  6
CONTINUOUS
 10
120.8944699002
 20
173.5700295612
 11
120.8944231087
 21
174.7210108219
  0
SPLINE
  5
8A9
100
AcDbEntity
  8
0
100
AcDbSpline
 62
7
  6
CONTINUOUS
 70
0
 71
3
 72
11
 73
7
 74
0
 42
0.0000001
 43
0.0000001
 44
0.0000000001
 40
0.0
 40
0.0
 40
0.0
 40
0.0
 40
0.2870942461
 40
0.5436243061
 40
0.7789194408
 40
1.0
 40
1.0
 40
1.0
 40
1.0
 10
120.8944877268
 20
173.4250252481
 30
0.0
 10
120.8944877275
 20
173.0712835405
 30
0.0
 10
120.9853940902
 20
172.397779765
 30
0.0
 10
121.3539429717
 20
171.5020399857
 30
0.0
 10
121.869079672
 20
170.7819573461
 30
0.0
 10
122.2893470248
 20
170.4013302121
 30
0.0
 10
122.5090766569
 20
170.240325752
 30
0.0
  0
SPLINE
  5
8AA
100
AcDbEntity
  8
0
100
AcDbSpline
 62
7
  6
CONTINUOUS
 70
0
 71
3
 72
11
 73
7
 74
0
 42
0.0000001
 43
0.0000001
 44
0.0000000001
 40
0.0
 40
0.0
 40
0.0
 40
0.0
 40
0.2500543321
 40
0.4999908858
 40
0.7499566773
 40
1.0
 40
1.0
 40
1.0
 40
1.0
 10
50.3736613032
 20
60.0592599953
 30
0.0
 10
50.3736374839
 20
60.2544046465
 30
0.0
 10
50.4519105532
 20
60.6488111332
 30
0.0
 10
50.7854719169
 20
61.1475716759
 30
0.0
 10
51.2842344231
 20
61.4811044138
 30
0.0
 10
51.678640773
 20
61.5594213347
 30
0.0
 10
51.8737768337
 20
61.5594142627
 30
0.0
  0
SPLINE
  5
8AB
100
AcDbEntity
  8
0
100
AcDbSpline
 62
7
  6
CONTINUOUS
 70
0
 71
3
 72
17
 73
13
 74
0
 42
0.0000001
 43
0.0000001
 44
0.0000000001
 40
0.0
 40
0.0
 40
0.0
 40
0.0
 40
0.0111185915
 40
0.0307425273
 40
0.0588176589
 40
0.0951777479
 40
0.1913698704
 40
0.3160363365
 40
0.4647196532
 40
0.6322679793
 40
0.8129959947
 40
1.0
 40
1.0
 40
1.0
 40
1.0
 10
120.7649947453
 20
177.0939602462
 30
0.0
 10
120.7715489927
 20
177.0974097471
 30
0.0
 10
120.7919039486
 20
177.1018518113
 30
0.0
 10
120.8303751788
 20
177.1080814855
 30
0.0
 10
120.8861864714
 20
177.1139328166
 30
0.0
 10
120.9927764002
 20
177.1226630773
 30
0.0
 10
121.1639317789
 20
177.1319839312
 30
0.0
 10
121.409903864
 20
177.1413790983
 30
0.0
 10
121.7035171686
 20
177.1490830172
 30
0.0
 10
122.034513863
 20
177.1548382825
 30
0.0
 10
122.3910728997
 20
177.1583751388
 30
0.0
 10
122.6360353644
 20
177.1591778568
 30
0.0
 10
122.7606066683
 20
177.1591778568
 30
0.0
  0
SPLINE
  5
8AC
100
AcDbEntity
  8
0
100
AcDbSpline
 62
7
  6
CONTINUOUS
 70
0
 71
3
 72
18
 73
14
 74
0
 42
0.0000001
 43
0.0000001
 44
0.0000000001
 40
0.0
 40
0.0
 40
0.0
 40
0.0
 40
0.1908678002
 40
0.3746599306
 40
0.5445819006
 40
0.6945464607
 40
0.8189470349
 40
0.8701676608
 40
0.9133882158
 40
0.9481571345
 40
0.9742447388
 40
0.9915094009
 40
1.0
 40
1.0
 40
1.0
 40
1.0
 10
32.4920077875
 20
177.1591791483
 30
0.0
 10
32.6194057752
 20
177.1591791483
 30
0.0
 10
32.8694800452
 20
177.1583428421
 30
0.0
 10
33.2329537639
 20
177.154656281
 30
0.0
 10
33.569096639
 20
177.148655353
 30
0.0
 10
33.8655294278
 20
177.1406294718
 30
0.0
 10
34.0827150388
 20
177.1321252664
 30
0.0
 10
34.2285322169
 20
177.1241517006
 30
0.0
 10
34.31466843
 20
177.1183707999
 30
0.0
 10
34.3836437288
 20
177.112178089
 30
0.0
 10
34.4360146694
 20
177.1064461301
 30
0.0
 10
34.4689755202
 20
177.099769511
 30
0.0
 10
34.4870574898
 20
177.0957594819
 30
0.0
 10
34.4909536055
 20
177.0916439753
 30
0.0
  0
SPLINE
  5
8AD
100
AcDbEntity
  8
0
100
AcDbSpline
 62
7
  6
CONTINUOUS
 70
0
 71
3
 72
11
 73
7
 74
0
 42
0.0000001
 43
0.0000001
 44
0.0000000001
 40
0.0
 40
0.0
 40
0.0
 40
0.0
 40
0.2500117734
 40
0.4999967332
 40
0.7499835748
 40
1.0
 40
1.0
 40
1.0
 40
1.0
 10
124.7860281026
 20
177.1591778627
 30
0.0
 10
125.2802270178
 20
177.1593363074
 30
0.0
 10
126.2794518006
 20
176.9616361878
 30
0.0
 10
127.5422718335
 20
176.1159642406
 30
0.0
 10
128.3878517573
 20
174.8530838879
 30
0.0
 10
128.585585423
 20
173.8538746342
 30
0.0
 10
128.5854843112
 20
173.3596665087
 30
0.0
  0
SPLINE
  5
8AE
100
AcDbEntity
  8
0
100
AcDbSpline
 62
7
  6
CONTINUOUS
 70
0
 71
3
 72
11
 73
7
 74
0
 42
0.0000001
 43
0.0000001
 44
0.0000000001
 40
0.0
 40
0.0
 40
0.0
 40
0.0
 40
0.2497224685
 40
0.4997097151
 40
0.749866651
 40
1.0
 40
1.0
 40
1.0
 40
1.0
 10
128.5317107317
 20
169.3473494839
 30
0.0
 10
128.5314613778
 20
169.4770030627
 30
0.0
 10
128.4789048175
 20
169.739190557
 30
0.0
 10
128.2560968273
 20
170.0702311015
 30
0.0
 10
127.9244714502
 20
170.2925083106
 30
0.0
 10
127.6619918578
 20
170.3449060946
 30
0.0
 10
127.5321249518
 20
170.3451549136
 30
0.0
  0
SPLINE
  5
8AF
100
AcDbEntity
  8
0
100
AcDbSpline
 62
7
  6
CONTINUOUS
 70
0
 71
3
 72
11
 73
7
 74
0
 42
0.0000001
 43
0.0000001
 44
0.0000000001
 40
0.0
 40
0.0
 40
0.0
 40
0.0
 40
0.2497944116
 40
0.4997460238
 40
0.7498470651
 40
1.0
 40
1.0
 40
1.0
 40
1.0
 10
128.494785971
 20
169.2640804192
 30
0.0
 10
128.4945468089
 20
169.3938059655
 30
0.0
 10
128.4421455846
 20
169.6560927645
 30
0.0
 10
128.2194626031
 20
169.9873787656
 30
0.0
 10
127.8876561968
 20
170.209579401
 30
0.0
 10
127.6251119603
 20
170.2618371846
 30
0.0
 10
127.495200205
 20
170.2620670726
 30
0.0
  0
SPLINE
  5
8B0
100
AcDbEntity
  8
0
100
AcDbSpline
 62
7
  6
CONTINUOUS
 70
0
 71
3
 72
11
 73
7
 74
0
 42
0.0000001
 43
0.0000001
 44
0.0000000001
 40
0.0
 40
0.0
 40
0.0
 40
0.0
 40
0.2500872888
 40
0.4999718887
 40
0.7498421624
 40
1.0
 40
1.0
 40
1.0
 40
1.0
 10
51.3736072311
 20
60.0594388284
 30
0.0
 10
51.3735921943
 20
60.1244569012
 30
0.0
 10
51.3997856335
 20
60.2558022303
 30
0.0
 10
51.5106911896
 20
60.4220567951
 30
0.0
 10
51.6768911216
 20
60.5330970225
 30
0.0
 10
51.8082373381
 20
60.5593368895
 30
0.0
 10
51.8732737385
 20
60.5593817837
 30
0.0
  0
SPLINE
  5
8B1
100
AcDbEntity
  8
0
100
AcDbSpline
 62
7
  6
CONTINUOUS
 70
0
 71
3
 72
9
 73
5
 74
0
 42
0.0000001
 43
0.0000001
 44
0.0000000001
 40
0.0
 40
0.0
 40
0.0
 40
0.0
 40
0.4999525505
 40
1.0
 40
1.0
 40
1.0
 40
1.0
 10
51.5275888747
 20
59.9825385011
 30
0.0
 10
51.5275944164
 20
60.0926266619
 30
0.0
 10
51.6050829877
 20
60.3195006959
 30
0.0
 10
51.8090637625
 20
60.445483376
 30
0.0
 10
51.9164180756
 20
60.4699589962
 30
0.0
  0
SPLINE
  5
8B2
100
AcDbEntity
  8
0
100
AcDbSpline
 62
7
  6
CONTINUOUS
 70
0
 71
3
 72
11
 73
7
 74
0
 42
0.0000001
 43
0.0000001
 44
0.0000000001
 40
0.0
 40
0.0
 40
0.0
 40
0.0
 40
0.2500643264
 40
0.5000695489
 40
0.7500346917
 40
1.0
 40
1.0
 40
1.0
 40
1.0
 10
50.3737284894
 20
49.8847686735
 30
0.0
 10
50.5037572902
 20
49.8848346147
 30
0.0
 10
50.7666158986
 20
49.9369226484
 30
0.0
 10
51.0987666965
 20
50.1594372574
 30
0.0
 10
51.3214188178
 20
50.4914415115
 30
0.0
 10
51.3735478533
 20
50.7542304916
 30
0.0
 10
51.3736137834
 20
50.8842078047
 30
0.0
  0
SPLINE
  5
8B3
100
AcDbEntity
  8
0
100
AcDbSpline
 62
7
  6
CONTINUOUS
 70
0
 71
3
 72
18
 73
14
 74
0
 42
0.0000001
 43
0.0000001
 44
0.0000000001
 40
0.0
 40
0.0
 40
0.0
 40
0.0
 40
0.0084033664
 40
0.0255876714
 40
0.05160776
 40
0.0863231276
 40
0.1295046301
 40
0.1807004742
 40
0.3050920577
 40
0.4550972878
 40
0.6251005901
 40
0.8090040201
 40
1.0
 40
1.0
 40
1.0
 40
1.0
 10
34.4900495538
 20
49.3584322954
 30
0.0
 10
34.4862624883
 20
49.3542949501
 30
0.0
 10
34.4682253836
 20
49.3502983955
 30
0.0
 10
34.4354827709
 20
49.3436073789
 30
0.0
 10
34.383217596
 20
49.3378804996
 30
0.0
 10
34.314364193
 20
49.3316790507
 30
0.0
 10
34.2283034415
 20
49.3258939126
 30
0.0
 10
34.0825401645
 20
49.3179099497
 30
0.0
 10
33.8653525839
 20
49.3093960667
 30
0.0
 10
33.5688501883
 20
49.3013600036
 30
0.0
 10
33.232557209
 20
49.2953509424
 30
0.0
 10
32.8688756122
 20
49.2916588043
 30
0.0
 10
32.6186457195
 20
49.2908208194
 30
0.0
 10
32.4911643337
 20
49.2908204994
 30
0.0
  0
SPLINE
  5
8B4
100
AcDbEntity
  8
0
100
AcDbSpline
 62
7
  6
CONTINUOUS
 70
0
 71
3
 72
27
 73
23
 74
0
 42
0.0000001
 43
0.0000001
 44
0.0000000001
 40
0.0
 40
0.0
 40
0.0
 40
0.0
 40
0.0048366789
 40
0.0075285113
 40
0.0084201234
 40
0.009290308
 40
0.0113798489
 40
0.0144412333
 40
0.0181884816
 40
0.0223308585
 40
0.0382151972
 40
0.0514164355
 40
0.0750298095
 40
0.1040816324
 40
0.1461967072
 40
0.1983903011
 40
0.2567537585
 40
0.3210376561
 40
0.4677553861
 40
0.6340007902
 40
0.8137409536
 40
1.0
 40
1.0
 40
1.0
 40
1.0
 10
120.7953619617
 20
49.3573105078
 30
0.0
 10
120.792089779
 20
49.3571197724
 30
0.0
 10
120.7865203242
 20
49.3565334868
 30
0.0
 10
120.7819776792
 20
49.3564554855
 30
0.0
 10
120.7776606329
 20
49.3550354639
 30
0.0
 10
120.7813493991
 20
49.3536945408
 30
0.0
 10
120.7846261038
 20
49.3533337068
 30
0.0
 10
120.7909620517
 20
49.3523655521
 30
0.0
 10
120.7982070573
 20
49.3516012981
 30
0.0
 10
120.8143039569
 20
49.349934943
 30
0.0
 10
120.8366558941
 20
49.3476577617
 30
0.0
 10
120.8721100078
 20
49.3432003474
 30
0.0
 10
120.9162919532
 20
49.3368769782
 30
0.0
 10
120.9802252701
 20
49.330450159
 30
0.0
 10
121.0636656502
 20
49.3251865705
 30
0.0
 10
121.1669881899
 20
49.3197935309
 30
0.0
 10
121.2853641049
 20
49.3146285265
 30
0.0
 10
121.4677882845
 20
49.3079779474
 30
0.0
 10
121.7233571268
 20
49.301159476
 30
0.0
 10
122.0572040739
 20
49.295196115
 30
0.0
 10
122.4178844452
 20
49.2917282773
 30
0.0
 10
122.6659160586
 20
49.2909699188
 30
0.0
 10
122.7921406341
 20
49.2908221394
 30
0.0
  0
SPLINE
  5
8B5
100
AcDbEntity
  8
0
100
AcDbSpline
 62
7
  6
CONTINUOUS
 70
0
 71
3
 72
9
 73
5
 74
0
 42
0.0000001
 43
0.0000001
 44
0.0000000001
 40
0.0
 40
0.0
 40
0.0
 40
0.0
 40
0.4999971726
 40
1.0
 40
1.0
 40
1.0
 40
1.0
 10
123.329272874
 20
56.6003419938
 30
0.0
 10
123.5061682235
 20
56.6753786353
 30
0.0
 10
123.8225638619
 20
56.9357210909
 30
0.0
 10
123.9389596799
 20
57.328576555
 30
0.0
 10
123.9390992451
 20
57.5207308626
 30
0.0
  0
SPLINE
  5
8B6
100
AcDbEntity
  8
0
100
AcDbSpline
 62
7
  6
CONTINUOUS
 70
0
 71
3
 72
13
 73
9
 74
0
 42
0.0000001
 43
0.0000001
 44
0.0000000001
 40
0.0
 40
0.0
 40
0.0
 40
0.0
 40
0.3280058939
 40
0.6178386818
 40
0.7391075671
 40
0.8419048634
 40
0.9271065051
 40
1.0
 40
1.0
 40
1.0
 40
1.0
 10
125.2617569098
 20
57.1195613504
 30
0.0
 10
125.2601749423
 20
56.9938044547
 30
0.0
 10
125.2387962394
 20
56.75689821
 30
0.0
 10
125.1657169523
 20
56.4805852849
 30
0.0
 10
125.0784927113
 20
56.3031425692
 30
0.0
 10
125.0081970533
 20
56.2066225094
 30
0.0
 10
124.9301612032
 20
56.1417695099
 30
0.0
 10
124.8705220952
 20
56.1221013443
 30
0.0
 10
124.842643888
 20
56.1201069984
 30
0.0
  0
SPLINE
  5
8B7
100
AcDbEntity
  8
0
100
AcDbSpline
 62
7
  6
CONTINUOUS
 70
0
 71
3
 72
11
 73
7
 74
0
 42
0.0000001
 43
0.0000001
 44
0.0000000001
 40
0.0
 40
0.0
 40
0.0
 40
0.0
 40
0.249944874
 40
0.4999785138
 40
0.7500247183
 40
1.0
 40
1.0
 40
1.0
 40
1.0
 10
128.529800754
 20
57.0732718176
 30
0.0
 10
128.5296771964
 20
56.9433583155
 30
0.0
 10
128.4773581548
 20
56.6806830623
 30
0.0
 10
128.254649861
 20
56.3489177115
 30
0.0
 10
127.9228412373
 20
56.1262487066
 30
0.0
 10
127.6601443753
 20
56.073941357
 30
0.0
 10
127.5302150683
 20
56.0738178104
 30
0.0
  0
SPLINE
  5
8B8
100
AcDbEntity
  8
0
100
AcDbSpline
 62
7
  6
CONTINUOUS
 70
0
 71
3
 72
9
 73
5
 74
0
 42
0.0000001
 43
0.0000001
 44
0.0000000001
 40
0.0
 40
0.0
 40
0.0
 40
0.0
 40
0.5000625409
 40
1.0
 40
1.0
 40
1.0
 40
1.0
 10
124.7860260586
 20
50.2902803564
 30
0.0
 10
125.0141126895
 20
50.2902807083
 30
0.0
 10
125.4719919287
 20
50.3462732684
 30
0.0
 10
125.9023512026
 20
50.5123887396
 30
0.0
 10
126.103508489
 20
50.61978164
 30
0.0
  0
SPLINE
  5
8B9
100
AcDbEntity
  8
0
100
AcDbSpline
 62
7
  6
CONTINUOUS
 70
0
 71
3
 72
11
 73
7
 74
0
 42
0.0000001
 43
0.0000001
 44
0.0000000001
 40
0.0
 40
0.0
 40
0.0
 40
0.0
 40
0.2500697403
 40
0.5001276635
 40
0.7500448844
 40
1.0
 40
1.0
 40
1.0
 40
1.0
 10
126.1982883101
 20
50.6727742199
 30
0.0
 10
126.407630008
 20
50.7952116817
 30
0.0
 10
126.7962598062
 20
51.0961095657
 30
0.0
 10
127.2418596606
 20
51.6810878934
 30
0.0
 10
127.5223765923
 20
52.3607664177
 30
0.0
 10
127.5858303186
 20
52.8479268515
 30
0.0
 10
127.5858309946
 20
53.0903334786
 30
0.0
  0
SPLINE
  5
8BA
100
AcDbEntity
  8
0
100
AcDbSpline
 62
7
  6
CONTINUOUS
 70
0
 71
3
 72
9
 73
5
 74
0
 42
0.0000001
 43
0.0000001
 44
0.0000000001
 40
0.0
 40
0.0
 40
0.0
 40
0.0
 40
0.2493767736
 40
1.0
 40
1.0
 40
1.0
 40
1.0
 10
123.9390992416
 20
57.520725457
 30
0.0
 10
124.0020059721
 20
57.4802180658
 30
0.0
 10
124.2531784352
 20
57.3161139586
 30
0.0
 10
124.4997486215
 20
57.1449131033
 30
0.0
 10
124.6814354679
 20
57.0118373024
 30
0.0
  0
SPLINE
  5
8BB
100
AcDbEntity
  8
0
100
AcDbSpline
 62
7
  6
CONTINUOUS
 70
0
 71
3
 72
9
 73
5
 74
0
 42
0.0000001
 43
0.0000001
 44
0.0000000001
 40
0.0
 40
0.0
 40
0.0
 40
0.0
 40
0.2148684682
 40
1.0
 40
1.0
 40
1.0
 40
1.0
 10
123.9195781808
 20
110.22184427
 30
0.0
 10
123.922929178
 20
110.1211387201
 30
0.0
 10
123.9352669294
 20
109.6523482242
 30
0.0
 10
123.9390304177
 20
109.1833644442
 30
0.0
 10
123.9390309093
 20
108.8151816937
 30
0.0
  0
SPLINE
  5
8BC
100
AcDbEntity
  8
0
100
AcDbSpline
 62
7
  6
CONTINUOUS
 70
0
 71
3
 72
13
 73
9
 74
0
 42
0.0000001
 43
0.0000001
 44
0.0000000001
 40
0.0
 40
0.0
 40
0.0
 40
0.0
 40
0.3292011383
 40
0.4688791884
 40
0.5910929353
 40
0.6982720859
 40
0.7964439967
 40
1.0
 40
1.0
 40
1.0
 40
1.0
 10
124.6812792932
 20
169.3053001898
 30
0.0
 10
124.6234098817
 20
169.2149954095
 30
0.0
 10
124.5359184122
 20
169.0888838355
 30
0.0
 10
124.4034420963
 20
168.9484951563
 30
0.0
 10
124.3085478003
 20
168.873717377
 30
0.0
 10
124.2117585627
 20
168.8260066194
 30
0.0
 10
124.0774012469
 20
168.8059236312
 30
0.0
 10
123.9807471177
 20
168.8399803796
 30
0.0
 10
123.9194919003
 20
168.8653993389
 30
0.0
  0
SPLINE
  5
8BD
100
AcDbEntity
  8
0
100
AcDbSpline
 62
7
  6
CONTINUOUS
 70
0
 71
3
 72
9
 73
5
 74
0
 42
0.0000001
 43
0.0000001
 44
0.0000000001
 40
0.0
 40
0.0
 40
0.0
 40
0.0
 40
0.2481554526
 40
1.0
 40
1.0
 40
1.0
 40
1.0
 10
123.9613959286
 20
56.0522339713
 30
0.0
 10
123.9111844105
 20
56.0998800813
 30
0.0
 10
123.706486975
 20
56.2893913651
 30
0.0
 10
123.4931818656
 20
56.46951519
 30
0.0
 10
123.3292761843
 20
56.6003434752
 30
0.0
  0
SPLINE
  5
8BE
100
AcDbEntity
  8
0
100
AcDbSpline
 62
7
  6
CONTINUOUS
 70
0
 71
3
 72
20
 73
16
 74
0
 42
0.0000001
 43
0.0000001
 44
0.0000000001
 40
0.0
 40
0.0
 40
0.0
 40
0.0
 40
0.2491261555
 40
0.3738895853
 40
0.4988101142
 40
0.6239214392
 40
0.6865626044
 40
0.7492690719
 40
0.8120492402
 40
0.8749137168
 40
0.9063803404
 40
0.9378714873
 40
0.9693725262
 40
0.9848190498
 40
1.0
 40
1.0
 40
1.0
 40
1.0
 10
124.8426268776
 20
56.1201257567
 30
0.0
 10
124.769097698
 20
56.1216057934
 30
0.0
 10
124.6586376502
 20
56.1203523934
 30
0.0
 10
124.511605595
 20
56.1120525621
 30
0.0
 10
124.4013483651
 20
56.1026355493
 30
0.0
 10
124.309613734
 20
56.0923155119
 30
0.0
 10
124.2362916243
 20
56.0827837887
 30
0.0
 10
124.1812903516
 20
56.075095469
 30
0.0
 10
124.1262715712
 20
56.0670160444
 30
0.0
 10
124.0804111946
 20
56.060214189
 30
0.0
 10
124.0435916203
 20
56.0550339784
 30
0.0
 10
124.0160292846
 20
56.0516318633
 30
0.0
 10
123.9926462643
 20
56.0491401036
 30
0.0
 10
123.9749383292
 20
56.0491747557
 30
0.0
 10
123.9646176528
 20
56.0491405629
 30
0.0
 10
123.9613670249
 20
56.0522256272
 30
0.0
  0
SPLINE
  5
8BF
100
AcDbEntity
  8
0
100
AcDbSpline
 62
7
  6
CONTINUOUS
 70
0
 71
3
 72
9
 73
5
 74
0
 42
0.0000001
 43
0.0000001
 44
0.0000000001
 40
0.0
 40
0.0
 40
0.0
 40
0.0
 40
0.2574695726
 40
1.0
 40
1.0
 40
1.0
 40
1.0
 10
125.6808700458
 20
56.1140195726
 30
0.0
 10
125.6089281766
 20
56.114019569
 30
0.0
 10
125.3295097659
 20
56.1145238519
 30
0.0
 10
125.0500926402
 20
56.1169409489
 30
0.0
 10
124.8426397461
 20
56.1201067367
 30
0.0
  0
SPLINE
  5
8C0
100
AcDbEntity
  8
0
100
AcDbSpline
 62
7
  6
CONTINUOUS
 70
0
 71
3
 72
17
 73
13
 74
0
 42
0.0000001
 43
0.0000001
 44
0.0000000001
 40
0.0
 40
0.0
 40
0.0
 40
0.0
 40
0.1903085639
 40
0.3735878914
 40
0.5430759154
 40
0.6927201152
 40
0.8169563989
 40
0.9114470147
 40
0.9463629937
 40
0.9727214831
 40
0.9904725812
 40
1.0
 40
1.0
 40
1.0
 40
1.0
 10
127.5858725793
 20
55.0743638067
 30
0.0
 10
127.585872582
 20
55.1380545924
 30
0.0
 10
127.5851824065
 20
55.263084299
 30
0.0
 10
127.5821464079
 20
55.4448168521
 30
0.0
 10
127.5771887037
 20
55.6128852852
 30
0.0
 10
127.5706018562
 20
55.7611481964
 30
0.0
 10
127.5625675263
 20
55.8841277042
 30
0.0
 10
127.5546097365
 20
55.968776967
 30
0.0
 10
127.5472038544
 20
56.0202466568
 30
0.0
 10
127.5421421802
 20
56.0464850756
 30
0.0
 10
127.5371846132
 20
56.06322511
 30
0.0
 10
127.5329539141
 20
56.0722302392
 30
0.0
 10
127.5301886581
 20
56.0738177606
 30
0.0
  0
SPLINE
  5
8C1
100
AcDbEntity
  8
0
100
AcDbSpline
 62
7
  6
CONTINUOUS
 70
0
 71
3
 72
18
 73
14
 74
0
 42
0.0000001
 43
0.0000001
 44
0.0000000001
 40
0.0
 40
0.0
 40
0.0
 40
0.0
 40
0.0087324672
 40
0.0261111252
 40
0.0523106675
 40
0.087216561
 40
0.1304901999
 40
0.181708699
 40
0.306143827
 40
0.4559157049
 40
0.6256839935
 40
0.8094839321
 40
1.0
 40
1.0
 40
1.0
 40
1.0
 10
121.7938264257
 20
50.3577467931
 30
0.0
 10
121.7956360971
 20
50.3554585805
 30
0.0
 10
121.8047235812
 20
50.3528075076
 30
0.0
 10
121.821195876
 20
50.3488343153
 30
0.0
 10
121.8473917797
 20
50.3447931498
 30
0.0
 10
121.8818191961
 20
50.3400267458
 30
0.0
 10
121.9247939142
 20
50.3349426669
 30
0.0
 10
121.9975186811
 20
50.3273363592
 30
0.0
 10
122.1058743978
 20
50.3182038868
 30
0.0
 10
122.2538654765
 20
50.3082935831
 30
0.0
 10
122.4218013462
 20
50.2995458988
 30
0.0
 10
122.6034518002
 20
50.2928599432
 30
0.0
 10
122.728494282
 20
50.2905734109
 30
0.0
 10
122.7921406435
 20
50.2902130809
 30
0.0
  0
SPLINE
  5
8C2
100
AcDbEntity
  8
0
100
AcDbSpline
 62
7
  6
CONTINUOUS
 70
0
 71
3
 72
11
 73
7
 74
0
 42
0.0000001
 43
0.0000001
 44
0.0000000001
 40
0.0
 40
0.0
 40
0.0
 40
0.0
 40
0.25001643
 40
0.5000032705
 40
0.7499882277
 40
1.0
 40
1.0
 40
1.0
 40
1.0
 10
128.5854843116
 20
53.0903334872
 30
0.0
 10
128.5855854166
 20
52.5961253536
 30
0.0
 10
128.3878517441
 20
51.5969160972
 30
0.0
 10
127.5422718125
 20
50.3340357526
 30
0.0
 10
126.2794517884
 20
49.4883638197
 30
0.0
 10
125.2802270188
 20
49.2906636999
 30
0.0
 10
124.7860281072
 20
49.2908221371
 30
0.0
  0
SPLINE
  5
8C3
100
AcDbEntity
  8
0
100
AcDbSpline
 62
7
  6
CONTINUOUS
 70
0
 71
3
 72
18
 73
14
 74
0
 42
0.0000001
 43
0.0000001
 44
0.0000000001
 40
0.0
 40
0.0
 40
0.0
 40
0.0
 40
0.0082628288
 40
0.025418704
 40
0.0514635825
 40
0.0862405276
 40
0.1294178292
 40
0.1805862097
 40
0.3050833798
 40
0.4550744984
 40
0.6251296265
 40
0.8092201378
 40
1.0
 40
1.0
 40
1.0
 40
1.0
 10
128.5298007538
 20
57.0732718178
 30
0.0
 10
128.533420967
 20
57.0691152774
 30
0.0
 10
128.536319568
 20
57.0512701559
 30
0.0
 10
128.5421180115
 20
57.0182822641
 30
0.0
 10
128.5466955919
 20
56.9659945768
 30
0.0
 10
128.5518603763
 20
56.8970004104
 30
0.0
 10
128.556611411
 20
56.8109198341
 30
0.0
 10
128.5632037753
 20
56.6651116753
 30
0.0
 10
128.5701884373
 20
56.4479533882
 30
0.0
 10
128.5768233826
 20
56.1514826289
 30
0.0
 10
128.5817512161
 20
55.8152079681
 30
0.0
 10
128.5847946528
 20
55.4517049107
 30
0.0
 10
128.5854843099
 20
55.2016315497
 30
0.0
 10
128.5854843104
 20
55.0743640631
 30
0.0
  0
SPLINE
  5
8C4
100
AcDbEntity
  8
0
100
AcDbSpline
 62
7
  6
CONTINUOUS
 70
0
 71
3
 72
17
 73
13
 74
0
 42
0.0000001
 43
0.0000001
 44
0.0000000001
 40
0.0
 40
0.0
 40
0.0
 40
0.0
 40
0.1872199624
 40
0.3678024919
 40
0.5353570139
 40
0.6841225771
 40
0.8087686806
 40
0.9050528631
 40
0.9413729453
 40
0.9694157923
 40
0.9889974293
 40
1.0
 40
1.0
 40
1.0
 40
1.0
 10
128.5854847995
 20
171.342961134
 30
0.0
 10
128.5854847994
 20
171.2183008877
 30
0.0
 10
128.5848233298
 20
170.9733995755
 30
0.0
 10
128.5819114613
 20
170.6169418878
 30
0.0
 10
128.5771491235
 20
170.2861137382
 30
0.0
 10
128.5708145398
 20
169.9925552492
 30
0.0
 10
128.5630395566
 20
169.7465293038
 30
0.0
 10
128.5553867091
 20
169.5753623428
 30
0.0
 10
128.5481685259
 20
169.4686815178
 30
0.0
 10
128.543380482
 20
169.4128997761
 30
0.0
 10
128.5382033562
 20
169.3743696631
 30
0.0
 10
128.5346270356
 20
169.3540526386
 30
0.0
 10
128.5317107112
 20
169.3473320665
 30
0.0
  0
SPLINE
  5
8C5
100
AcDbEntity
  8
0
100
AcDbSpline
 62
7
  6
CONTINUOUS
 70
0
 71
3
 72
9
 73
5
 74
0
 42
0.0000001
 43
0.0000001
 44
0.0000000001
 40
0.0
 40
0.0
 40
0.0
 40
0.0
 40
0.2396294716
 40
1.0
 40
1.0
 40
1.0
 40
1.0
 10
125.2615327888
 20
57.1195681932
 30
0.0
 10
125.2950166276
 20
57.1185455365
 30
0.0
 10
125.4347669791
 20
57.1149004067
 30
0.0
 10
125.5745725699
 20
57.1134737733
 30
0.0
 10
125.6808699962
 20
57.113473636
 30
0.0
  0
SPLINE
  5
8C6
100
AcDbEntity
  8
0
100
AcDbSpline
 62
7
  6
CONTINUOUS
 70
0
 71
3
 72
20
 73
16
 74
0
 42
0.0000001
 43
0.0000001
 44
0.0000000001
 40
0.0
 40
0.0
 40
0.0
 40
0.0
 40
0.0144280506
 40
0.0294870143
 40
0.0609593083
 40
0.0928676255
 40
0.1249328259
 40
0.189149969
 40
0.2532130893
 40
0.3169876384
 40
0.3804261786
 40
0.5062637331
 40
0.6308555127
 40
0.7544671325
 40
1.0
 40
1.0
 40
1.0
 40
1.0
 10
124.6814354181
 20
57.0118424747
 30
0.0
 10
124.6830462672
 20
57.0094819613
 30
0.0
 10
124.6903823653
 20
57.0096371775
 30
0.0
 10
124.701570684
 20
57.0114933039
 30
0.0
 10
124.7169311262
 20
57.0157717763
 30
0.0
 10
124.7348171114
 20
57.0214819418
 30
0.0
 10
124.7589244452
 20
57.0295902876
 30
0.0
 10
124.7889457712
 20
57.0398882789
 30
0.0
 10
124.8250605341
 20
57.0518636168
 30
0.0
 10
124.8612257321
 20
57.0631556696
 30
0.0
 10
124.9093865449
 20
57.0770531699
 30
0.0
 10
124.9697399833
 20
57.0920860274
 30
0.0
 10
125.0425629707
 20
57.1059574346
 30
0.0
 10
125.1395895156
 20
57.1184942352
 30
0.0
 10
125.2129226599
 20
57.121056137
 30
0.0
 10
125.2615332636
 20
57.1195861812
 30
0.0
  0
SPLINE
  5
8C7
100
AcDbEntity
  8
0
100
AcDbSpline
 62
7
  6
CONTINUOUS
 70
0
 71
3
 72
10
 73
6
 74
0
 42
0.0000001
 43
0.0000001
 44
0.0000000001
 40
0.0
 40
0.0
 40
0.0
 40
0.0
 40
0.4819572914
 40
0.7355817177
 40
1.0
 40
1.0
 40
1.0
 40
1.0
 10
80.1019863116
 20
176.2191973935
 30
0.0
 10
80.0094792168
 20
176.2167780147
 30
0.0
 10
79.8675202566
 20
176.1797185193
 30
0.0
 10
79.7035271425
 20
176.0781748242
 30
0.0
 10
79.6309459106
 20
176.009310538
 30
0.0
 10
79.5956987455
 20
175.9727698521
 30
0.0
  0
SPLINE
  5
8C8
100
AcDbEntity
  8
0
100
AcDbSpline
 62
7
  6
CONTINUOUS
 70
0
 71
3
 72
10
 73
6
 74
0
 42
0.0000001
 43
0.0000001
 44
0.0000000001
 40
0.0
 40
0.0
 40
0.0
 40
0.0
 40
0.2404845888
 40
0.6137275104
 40
1.0
 40
1.0
 40
1.0
 40
1.0
 10
79.5956987455
 20
175.9727698521
 30
0.0
 10
79.5683179319
 20
175.943694095
 30
0.0
 10
79.5047611152
 20
175.8635665206
 30
0.0
 10
79.4208426915
 20
175.7192506618
 30
0.0
 10
79.3779364576
 20
175.5999701221
 30
0.0
 10
79.3599042636
 20
175.5384058697
 30
0.0
  0
SPLINE
  5
8C9
100
AcDbEntity
  8
0
100
AcDbSpline
 62
7
  6
CONTINUOUS
 70
0
 71
3
 72
9
 73
5
 74
0
 42
0.0000001
 43
0.0000001
 44
0.0000000001
 40
0.0
 40
0.0
 40
0.0
 40
0.0
 40
0.5080568182
 40
1.0
 40
1.0
 40
1.0
 40
1.0
 10
79.3599043121
 20
175.538405951
 30
0.0
 10
79.4427461986
 20
175.67516824
 30
0.0
 10
79.6599945961
 20
175.9142077031
 30
0.0
 10
79.9513078495
 20
176.0573779338
 30
0.0
 10
80.1019862659
 20
176.0929683388
 30
0.0
  0
LINE
  5
8CA
100
AcDbEntity
  8
0
100
AcDbLine
 62
7
  6
CONTINUOUS
 10
78.7133144457
 20
176.2434727761
 11
77.8108769381
 21
176.2434727563
  0
SPLINE
  5
8CB
100
AcDbEntity
  8
0
100
AcDbSpline
 62
7
  6
CONTINUOUS
 70
0
 71
3
 72
20
 73
16
 74
0
 42
0.0000001
 43
0.0000001
 44
0.0000000001
 40
0.0
 40
0.0
 40
0.0
 40
0.0
 40
0.1293729152
 40
0.256900843
 40
0.3194243847
 40
0.3805065475
 40
0.4396451057
 40
0.4947613019
 40
0.5455947601
 40
0.5975433292
 40
0.6548939467
 40
0.7180567499
 40
0.7851769143
 40
0.8551862434
 40
1.0
 40
1.0
 40
1.0
 40
1.0
 10
77.8108769382
 20
176.2434727564
 30
0.0
 10
77.885391415
 20
176.2422212828
 30
0.0
 10
78.0333187619
 20
176.2354326953
 30
0.0
 10
78.2163462747
 20
176.2143424203
 30
0.0
 10
78.3585263657
 20
176.1873333175
 30
0.0
 10
78.4604951809
 20
176.1605249662
 30
0.0
 10
78.5551857516
 20
176.1251642258
 30
0.0
 10
78.6388244828
 20
176.0772905746
 30
0.0
 10
78.6964811002
 20
176.0031484047
 30
0.0
 10
78.7166935829
 20
175.9105534112
 30
0.0
 10
78.7049675545
 20
175.810932043
 30
0.0
 10
78.6746377656
 20
175.7070139595
 30
0.0
 10
78.6343046701
 20
175.5989120697
 30
0.0
 10
78.580912776
 20
175.4454369158
 30
0.0
 10
78.5518651515
 20
175.324953821
 30
0.0
 10
78.5315966003
 20
175.2440339621
 30
0.0
  0
SPLINE
  5
8CC
100
AcDbEntity
  8
0
100
AcDbSpline
 62
7
  6
CONTINUOUS
 70
0
 71
3
 72
11
 73
7
 74
0
 42
0.0000001
 43
0.0000001
 44
0.0000000001
 40
0.0
 40
0.0
 40
0.0
 40
0.0
 40
0.265112828
 40
0.5167023668
 40
0.7530113059
 40
1.0
 40
1.0
 40
1.0
 40
1.0
 10
78.53159659
 20
175.2440341538
 30
0.0
 10
78.6129126662
 20
175.241141227
 30
0.0
 10
78.7717704037
 20
175.2482497384
 30
0.0
 10
79.0013419769
 20
175.2768206288
 30
0.0
 10
79.2170982
 20
175.3587263166
 30
0.0
 10
79.3204153748
 20
175.4736959336
 30
0.0
 10
79.3599021598
 20
175.5384043576
 30
0.0
  0
SPLINE
  5
8CD
100
AcDbEntity
  8
0
100
AcDbSpline
 62
7
  6
CONTINUOUS
 70
0
 71
3
 72
9
 73
5
 74
0
 42
0.0000001
 43
0.0000001
 44
0.0000000001
 40
0.0
 40
0.0
 40
0.0
 40
0.0
 40
0.5210573276
 40
1.0
 40
1.0
 40
1.0
 40
1.0
 10
123.1934063035
 20
110.5654215088
 30
0.0
 10
123.1397071835
 20
110.3717065566
 30
0.0
 10
122.9566769156
 20
110.0204474066
 30
0.0
 10
122.6481304584
 20
109.7608046551
 30
0.0
 10
122.477416687
 20
109.6901101678
 30
0.0
  0
SPLINE
  5
8CE
100
AcDbEntity
  8
0
100
AcDbSpline
 62
7
  6
CONTINUOUS
 70
0
 71
3
 72
9
 73
5
 74
0
 42
0.0000001
 43
0.0000001
 44
0.0000000001
 40
0.0
 40
0.0
 40
0.0
 40
0.0
 40
0.2754431818
 40
1.0
 40
1.0
 40
1.0
 40
1.0
 10
122.9395961446
 20
108.8151835437
 30
0.0
 10
122.939520191
 20
108.8797864997
 30
0.0
 10
122.9375894943
 20
109.114306915
 30
0.0
 10
122.9308027283
 20
109.3489074751
 30
0.0
 10
122.9193217124
 20
109.5184582257
 30
0.0
  0
SPLINE
  5
8CF
100
AcDbEntity
  8
0
100
AcDbSpline
 62
7
  6
CONTINUOUS
 70
0
 71
3
 72
9
 73
5
 74
0
 42
0.0000001
 43
0.0000001
 44
0.0000000001
 40
0.0
 40
0.0
 40
0.0
 40
0.0
 40
0.2536214631
 40
1.0
 40
1.0
 40
1.0
 40
1.0
 10
122.9193371077
 20
109.5184783864
 30
0.0
 10
122.883703764
 20
109.5369124342
 30
0.0
 10
122.7409260404
 20
109.6051815161
 30
0.0
 10
122.5909712056
 20
109.6577888406
 30
0.0
 10
122.4774148831
 20
109.6901086432
 30
0.0
  0
SPLINE
  5
8D0
100
AcDbEntity
  8
0
100
AcDbSpline
 62
7
  6
CONTINUOUS
 70
0
 71
3
 72
12
 73
8
 74
0
 42
0.0000001
 43
0.0000001
 44
0.0000000001
 40
0.0
 40
0.0
 40
0.0
 40
0.0
 40
0.2498004866
 40
0.4993473313
 40
0.624677809
 40
0.7501195446
 40
1.0
 40
1.0
 40
1.0
 40
1.0
 10
78.5226457004
 20
110.61390355
 30
0.0
 10
78.5226474196
 20
110.3842107968
 30
0.0
 10
78.5968721263
 20
109.9191379651
 30
0.0
 10
78.9155673925
 20
109.4190906823
 30
0.0
 10
79.2760994504
 20
109.1278249738
 30
0.0
 10
79.6917040977
 20
108.9230036208
 30
0.0
 10
80.0418213732
 20
108.8654973807
 30
0.0
 10
80.2715875003
 20
108.8652280591
 30
0.0
  0
SPLINE
  5
8D1
100
AcDbEntity
  8
0
100
AcDbSpline
 62
7
  6
CONTINUOUS
 70
0
 71
3
 72
15
 73
11
 74
0
 42
0.0000001
 43
0.0000001
 44
0.0000000001
 40
0.0
 40
0.0
 40
0.0
 40
0.0
 40
0.1230577119
 40
0.2474884468
 40
0.3729838449
 40
0.5002024655
 40
0.6272732069
 40
0.7530451022
 40
0.8773344309
 40
1.0
 40
1.0
 40
1.0
 40
1.0
 10
80.2768722089
 20
109.7397157673
 30
0.0
 10
80.2160164052
 20
109.7301587339
 30
0.0
 10
80.0920308729
 20
109.7197442823
 30
0.0
 10
79.9048696411
 20
109.7346304572
 30
0.0
 10
79.7226094857
 20
109.7920523913
 30
0.0
 10
79.564295209
 20
109.9036479703
 30
0.0
 10
79.4516875779
 20
110.0611821354
 30
0.0
 10
79.3913666422
 20
110.242498459
 30
0.0
 10
79.3755789583
 20
110.4296541666
 30
0.0
 10
79.3868898078
 20
110.5533431523
 30
0.0
 10
79.3969784174
 20
110.6139140941
 30
0.0
  0
SPLINE
  5
8D2
100
AcDbEntity
  8
0
100
AcDbSpline
 62
7
  6
CONTINUOUS
 70
0
 71
3
 72
9
 73
5
 74
0
 42
0.0000001
 43
0.0000001
 44
0.0000000001
 40
0.0
 40
0.0
 40
0.0
 40
0.0
 40
0.2415145611
 40
1.0
 40
1.0
 40
1.0
 40
1.0
 10
79.3599117821
 20
175.5384107144
 30
0.0
 10
79.3621640242
 20
175.508339225
 30
0.0
 10
79.370604796
 20
175.3837614765
 30
0.0
 10
79.3772590358
 20
175.2590716834
 30
0.0
 10
79.3837210306
 20
175.164587263
 30
0.0
  0
SPLINE
  5
8D3
100
AcDbEntity
  8
0
100
AcDbSpline
 62
7
  6
CONTINUOUS
 70
0
 71
3
 72
9
 73
5
 74
0
 42
0.0000001
 43
0.0000001
 44
0.0000000001
 40
0.0
 40
0.0
 40
0.0
 40
0.0
 40
0.5001660573
 40
1.0
 40
1.0
 40
1.0
 40
1.0
 10
85.8054583428
 20
170.3580162239
 30
0.0
 10
85.59768179
 20
170.3089391777
 30
0.0
 10
85.2101514382
 20
170.0796794109
 30
0.0
 10
84.9802766666
 20
169.6924164354
 30
0.0
 10
84.9311111397
 20
169.4848064817
 30
0.0
  0
SPLINE
  5
8D4
100
AcDbEntity
  8
0
100
AcDbSpline
 62
7
  6
CONTINUOUS
 70
0
 71
3
 72
11
 73
7
 74
0
 42
0.0000001
 43
0.0000001
 44
0.0000000001
 40
0.0
 40
0.0
 40
0.0
 40
0.0
 40
0.265431277
 40
0.5220479061
 40
0.7657772908
 40
1.0
 40
1.0
 40
1.0
 40
1.0
 10
119.8944187857
 20
176.0929643355
 30
0.0
 10
120.0238776923
 20
176.0928698441
 30
0.0
 10
120.2807428152
 20
176.0491779585
 30
0.0
 10
120.6118453966
 20
175.8593644938
 30
0.0
 10
120.839330709
 20
175.5699403193
 30
0.0
 10
120.8943163407
 20
175.3339238304
 30
0.0
 10
120.8944145098
 20
175.2196863033
 30
0.0
  0
SPLINE
  5
8D5
100
AcDbEntity
  8
0
100
AcDbSpline
 62
7
  6
CONTINUOUS
 70
0
 71
3
 72
11
 73
7
 74
0
 42
0.0000001
 43
0.0000001
 44
0.0000000001
 40
0.0
 40
0.0
 40
0.0
 40
0.0
 40
0.250222649
 40
0.5003010168
 40
0.7502683453
 40
1.0
 40
1.0
 40
1.0
 40
1.0
 10
120.8944188741
 20
175.2198305604
 30
0.0
 10
120.894409129
 20
175.3499636339
 30
0.0
 10
120.8422844434
 20
175.6130269965
 30
0.0
 10
120.6193339698
 20
175.9451668171
 30
0.0
 10
120.2870221789
 20
176.1673332807
 30
0.0
 10
120.0242966018
 20
176.219208317
 30
0.0
 10
119.8944188794
 20
176.2191972596
 30
0.0
  0
SPLINE
  5
8D6
100
AcDbEntity
  8
0
100
AcDbSpline
 62
7
  6
CONTINUOUS
 70
0
 71
3
 72
11
 73
7
 74
0
 42
0.0000001
 43
0.0000001
 44
0.0000000001
 40
0.0
 40
0.0
 40
0.0
 40
0.0
 40
0.2660581695
 40
0.5231949926
 40
0.7675105073
 40
1.0
 40
1.0
 40
1.0
 40
1.0
 10
119.8944883306
 20
174.4453472612
 30
0.0
 10
120.0244332726
 20
174.4452664819
 30
0.0
 10
120.2821986303
 20
174.4012388849
 30
0.0
 10
120.6143909935
 20
174.2101711117
 30
0.0
 10
120.8404268436
 20
173.9194328175
 30
0.0
 10
120.8951699099
 20
173.6835771566
 30
0.0
 10
120.8944699002
 20
173.5700295612
 30
0.0
  0
SPLINE
  5
8D7
100
AcDbEntity
  8
0
100
AcDbSpline
 62
7
  6
CONTINUOUS
 70
0
 71
3
 72
15
 73
11
 74
0
 42
0.0000001
 43
0.0000001
 44
0.0000000001
 40
0.0
 40
0.0
 40
0.0
 40
0.0
 40
0.3662435391
 40
0.5331469414
 40
0.6814210516
 40
0.8058123436
 40
0.9021882311
 40
0.967210207
 40
0.9875517383
 40
1.0
 40
1.0
 40
1.0
 40
1.0
 10
122.7606066886
 20
176.1597576489
 30
0.0
 10
122.6381283517
 20
176.1597576566
 30
0.0
 10
122.4598220272
 20
176.1575749503
 30
0.0
 10
122.232061562
 20
176.1496569916
 30
0.0
 10
122.0852823347
 20
176.1419202531
 30
0.0
 10
121.9621286524
 20
176.1326170616
 30
0.0
 10
121.8673099249
 20
176.1219593984
 30
0.0
 10
121.8069392991
 20
176.1120523523
 30
0.0
 10
121.775884405
 20
176.1024985368
 30
0.0
 10
121.7656681425
 20
176.097557602
 30
0.0
 10
121.7628008508
 20
176.0945395667
 30
0.0
  0
SPLINE
  5
8D8
100
AcDbEntity
  8
0
100
AcDbSpline
 62
7
  6
CONTINUOUS
 70
0
 71
3
 72
13
 73
9
 74
0
 42
0.0000001
 43
0.0000001
 44
0.0000000001
 40
0.0
 40
0.0
 40
0.0
 40
0.0
 40
0.3373409386
 40
0.4833657137
 40
0.6124609678
 40
0.820804356
 40
0.9104263806
 40
1.0
 40
1.0
 40
1.0
 40
1.0
 10
121.6194201992
 20
176.0160602685
 30
0.0
 10
121.507244559
 20
175.954879236
 30
0.0
 10
121.3487986813
 20
175.8624217748
 30
0.0
 10
121.1615990494
 20
175.7245981318
 30
0.0
 10
121.0253745432
 20
175.6027541325
 30
0.0
 10
120.927215268
 20
175.4666472144
 30
0.0
 10
120.8955972463
 20
175.3217083712
 30
0.0
 10
120.8945896959
 20
175.2536859812
 30
0.0
 10
120.8944191502
 20
175.219758467
 30
0.0
  0
SPLINE
  5
8D9
100
AcDbEntity
  8
0
100
AcDbSpline
 62
7
  6
CONTINUOUS
 70
0
 71
3
 72
14
 73
10
 74
0
 42
0.0000001
 43
0.0000001
 44
0.0000000001
 40
0.0
 40
0.0
 40
0.0
 40
0.0
 40
0.0930496763
 40
0.1799037698
 40
0.2708106919
 40
0.3762180476
 40
0.5015501954
 40
0.648280067
 40
1.0
 40
1.0
 40
1.0
 40
1.0
 10
123.3087197806
 20
169.7868445652
 30
0.0
 10
123.3342937397
 20
169.7762778097
 30
0.0
 10
123.3843760057
 20
169.7568464162
 30
0.0
 10
123.4658372611
 20
169.7475903542
 30
0.0
 10
123.5490570188
 20
169.7695482746
 30
0.0
 10
123.6300218705
 20
169.8223957769
 30
0.0
 10
123.7108225666
 20
169.9008875661
 30
0.0
 10
123.8259926561
 20
170.0467487658
 30
0.0
 10
123.9020666949
 20
170.174595373
 30
0.0
 10
123.9525892791
 20
170.266177989
 30
0.0
  0
SPLINE
  5
8DA
100
AcDbEntity
  8
0
100
AcDbSpline
 62
7
  6
CONTINUOUS
 70
0
 71
3
 72
9
 73
5
 74
0
 42
0.0000001
 43
0.0000001
 44
0.0000000001
 40
0.0
 40
0.0
 40
0.0
 40
0.0
 40
0.2397276486
 40
1.0
 40
1.0
 40
1.0
 40
1.0
 10
124.8426497113
 20
170.2504299188
 30
0.0
 10
124.9095982164
 20
170.252377612
 30
0.0
 10
125.188900652
 20
170.2593290427
 30
0.0
 10
125.4683035402
 20
170.2620676008
 30
0.0
 10
125.6807138853
 20
170.2620675979
 30
0.0
  0
SPLINE
  5
8DB
100
AcDbEntity
  8
0
100
AcDbSpline
 62
7
  6
CONTINUOUS
 70
0
 71
3
 72
16
 73
12
 74
0
 42
0.0000001
 43
0.0000001
 44
0.0000000001
 40
0.0
 40
0.0
 40
0.0
 40
0.0
 40
0.0119161184
 40
0.0319726521
 40
0.0602918404
 40
0.0967668438
 40
0.1931172058
 40
0.3176118202
 40
0.46607152
 40
0.6332111917
 40
1.0
 40
1.0
 40
1.0
 40
1.0
 10
127.5321004957
 20
170.3451553799
 30
0.0
 10
127.5347080224
 20
170.3481599336
 30
0.0
 10
127.5386659454
 20
170.3584265991
 30
0.0
 10
127.543664154
 20
170.3777603846
 30
0.0
 10
127.5485772871
 20
170.4057603644
 30
0.0
 10
127.5557364297
 20
170.4590436504
 30
0.0
 10
127.5634365913
 20
170.54466735
 30
0.0
 10
127.5711961222
 20
170.6677069522
 30
0.0
 10
127.5775412665
 20
170.8145119407
 30
0.0
 10
127.5840810184
 20
171.0422388893
 30
0.0
 10
127.5858743991
 20
171.2205067753
 30
0.0
 10
127.5858743927
 20
171.3429611285
 30
0.0
  0
SPLINE
  5
8DC
100
AcDbEntity
  8
0
100
AcDbSpline
 62
7
  6
CONTINUOUS
 70
0
 71
3
 72
15
 73
11
 74
0
 42
0.0000001
 43
0.0000001
 44
0.0000000001
 40
0.0
 40
0.0
 40
0.0
 40
0.0
 40
0.2060583712
 40
0.3954974545
 40
0.5644418885
 40
0.709933457
 40
0.8285483737
 40
0.9165001625
 40
0.9728567687
 40
1.0
 40
1.0
 40
1.0
 40
1.0
 10
125.2616838524
 20
169.2524191921
 30
0.0
 10
125.2213718445
 20
169.2527017049
 30
0.0
 10
125.1440047298
 20
169.2538830723
 30
0.0
 10
125.0336505872
 20
169.2593390652
 30
0.0
 10
124.9356989604
 20
169.2709595943
 30
0.0
 10
124.8524629164
 20
169.2879373637
 30
0.0
 10
124.7859917997
 20
169.3041196971
 30
0.0
 10
124.7341610071
 20
169.3131846157
 30
0.0
 10
124.7026494749
 20
169.3143934984
 30
0.0
 10
124.6835558425
 20
169.3101730641
 30
0.0
 10
124.681279165
 20
169.3053755983
 30
0.0
  0
SPLINE
  5
8DD
100
AcDbEntity
  8
0
100
AcDbSpline
 62
7
  6
CONTINUOUS
 70
0
 71
3
 72
9
 73
5
 74
0
 42
0.0000001
 43
0.0000001
 44
0.0000000001
 40
0.0
 40
0.0
 40
0.0
 40
0.0
 40
0.2572476489
 40
1.0
 40
1.0
 40
1.0
 40
1.0
 10
125.6807138874
 20
169.264081267
 30
0.0
 10
125.6447657455
 20
169.264081318
 30
0.0
 10
125.5050279074
 20
169.2631129674
 30
0.0
 10
125.3653010848
 20
169.2584613481
 30
0.0
 10
125.2616838087
 20
169.2524201002
 30
0.0
  0
SPLINE
  5
8DE
100
AcDbEntity
  8
0
100
AcDbSpline
 62
7
  6
CONTINUOUS
 70
0
 71
3
 72
15
 73
11
 74
0
 42
0.0000001
 43
0.0000001
 44
0.0000000001
 40
0.0
 40
0.0
 40
0.0
 40
0.0
 40
0.2295846107
 40
0.42950837
 40
0.5980895785
 40
0.7364070797
 40
0.8451591627
 40
0.924509931
 40
0.9751318681
 40
1.0
 40
1.0
 40
1.0
 40
1.0
 10
124.8426526602
 20
170.2504294589
 30
0.0
 10
124.7743090714
 20
170.247813135
 30
0.0
 10
124.646316416
 20
170.246135232
 30
0.0
 10
124.4681564242
 20
170.2512967658
 30
0.0
 10
124.3175072353
 20
170.2603823167
 30
0.0
 10
124.1938452923
 20
170.2699884581
 30
0.0
 10
124.0974430872
 20
170.277474542
 30
0.0
 10
124.0250836093
 20
170.2806993204
 30
0.0
 10
123.9814113743
 20
170.2792334224
 30
0.0
 10
123.9560038081
 20
170.2727475266
 30
0.0
 10
123.9525518097
 20
170.2661926803
 30
0.0
  0
SPLINE
  5
8DF
100
AcDbEntity
  8
0
100
AcDbSpline
 62
7
  6
CONTINUOUS
 70
0
 71
3
 72
12
 73
8
 74
0
 42
0.0000001
 43
0.0000001
 44
0.0000000001
 40
0.0
 40
0.0
 40
0.0
 40
0.0
 40
0.3257500263
 40
0.6154388723
 40
0.7376349469
 40
0.8419013449
 40
1.0
 40
1.0
 40
1.0
 40
1.0
 10
125.2616844512
 20
169.2524192395
 30
0.0
 10
125.2587110563
 20
169.3761252219
 30
0.0
 10
125.2351062904
 20
169.6097376069
 30
0.0
 10
125.161518236
 20
169.8820823783
 30
0.0
 10
125.0744010785
 20
170.0591063019
 30
0.0
 10
124.9910746067
 20
170.1778565446
 30
0.0
 10
124.9021585924
 20
170.2423169359
 30
0.0
 10
124.8426525662
 20
170.2504294561
 30
0.0
  0
SPLINE
  5
8E0
100
AcDbEntity
  8
0
100
AcDbSpline
 62
7
  6
CONTINUOUS
 70
0
 71
3
 72
9
 73
5
 74
0
 42
0.0000001
 43
0.0000001
 44
0.0000000001
 40
0.0
 40
0.0
 40
0.0
 40
0.0
 40
0.4998107234
 40
1.0
 40
1.0
 40
1.0
 40
1.0
 10
124.6812792931
 20
169.3053001897
 30
0.0
 10
124.6809216417
 20
169.5171763522
 30
0.0
 10
124.5369446146
 20
169.9525147356
 30
0.0
 10
124.1566172405
 20
170.2084499383
 30
0.0
 10
123.9525906563
 20
170.2661804854
 30
0.0
  0
SPLINE
  5
8E1
100
AcDbEntity
  8
0
100
AcDbSpline
 62
7
  6
CONTINUOUS
 70
0
 71
3
 72
11
 73
7
 74
0
 42
0.0000001
 43
0.0000001
 44
0.0000000001
 40
0.0
 40
0.0
 40
0.0
 40
0.0
 40
0.2499653476
 40
0.5000283017
 40
0.7500879017
 40
1.0
 40
1.0
 40
1.0
 40
1.0
 10
127.5858271794
 20
173.3596665156
 30
0.0
 10
127.585826127
 20
173.7237652533
 30
0.0
 10
127.4402496214
 20
174.4601434826
 30
0.0
 10
126.8167186371
 20
175.3906104867
 30
0.0
 10
125.8863334191
 20
176.0141173977
 30
0.0
 10
125.1500454848
 20
176.1597146172
 30
0.0
 10
124.7860243097
 20
176.1597159207
 30
0.0
  0
SPLINE
  5
8E2
100
AcDbEntity
  8
0
100
AcDbSpline
 62
7
  6
CONTINUOUS
 70
0
 71
3
 72
11
 73
7
 74
0
 42
0.0000001
 43
0.0000001
 44
0.0000000001
 40
0.0
 40
0.0
 40
0.0
 40
0.0
 40
0.2499870073
 40
0.4999359045
 40
0.749936948
 40
1.0
 40
1.0
 40
1.0
 40
1.0
 10
27.3672003834
 20
71.3506837425
 30
0.0
 10
27.3671071116
 20
71.2250700341
 30
0.0
 10
27.415491199
 20
70.9712224124
 30
0.0
 10
27.6238351623
 20
70.6466713779
 30
0.0
 10
27.9369696026
 20
70.42146572
 30
0.0
 10
28.1878900404
 20
70.3596133908
 30
0.0
 10
28.3133606947
 20
70.3528659115
 30
0.0
  0
SPLINE
  5
8E3
100
AcDbEntity
  8
0
100
AcDbSpline
 62
7
  6
CONTINUOUS
 70
0
 71
3
 72
11
 73
7
 74
0
 42
0.0000001
 43
0.0000001
 44
0.0000000001
 40
0.0
 40
0.0
 40
0.0
 40
0.0
 40
0.249979042
 40
0.499972696
 40
0.7500105449
 40
1.0
 40
1.0
 40
1.0
 40
1.0
 10
62.925255305
 20
60.5593818591
 30
0.0
 10
63.040768901
 20
60.5593624645
 30
0.0
 10
63.2738071308
 20
60.5183954653
 30
0.0
 10
63.5797062021
 20
60.3414231139
 30
0.0
 10
63.8075204776
 20
60.0712734637
 30
0.0
 10
63.8888929344
 20
59.8490960852
 30
0.0
 10
63.9092864614
 20
59.7353920528
 30
0.0
  0
SPLINE
  5
8E4
100
AcDbEntity
  8
0
100
AcDbSpline
 62
7
  6
CONTINUOUS
 70
0
 71
3
 72
9
 73
5
 74
0
 42
0.0000001
 43
0.0000001
 44
0.0000000001
 40
0.0
 40
0.0
 40
0.0
 40
0.0
 40
0.4368374096
 40
1.0
 40
1.0
 40
1.0
 40
1.0
 10
63.9093730803
 20
59.7351650643
 30
0.0
 10
63.9095076284
 20
59.7351203977
 30
0.0
 10
63.9098729297
 20
59.7349232806
 30
0.0
 10
63.9100320603
 20
59.7353603206
 30
0.0
 10
63.9102016602
 20
59.7354284311
 30
0.0
  0
SPLINE
  5
8E5
100
AcDbEntity
  8
0
100
AcDbSpline
 62
7
  6
CONTINUOUS
 70
0
 71
3
 72
14
 73
10
 74
0
 42
0.0000001
 43
0.0000001
 44
0.0000000001
 40
0.0
 40
0.0
 40
0.0
 40
0.0
 40
0.0171077558
 40
0.0687796642
 40
0.156674949
 40
0.2796954428
 40
0.4324452742
 40
0.6090203214
 40
1.0
 40
1.0
 40
1.0
 40
1.0
 10
63.9102016601
 20
59.7354284386
 30
0.0
 10
63.9110789006
 20
59.7357807344
 30
0.0
 10
63.9121210504
 20
59.7296778967
 30
0.0
 10
63.9146942151
 20
59.7237991273
 30
0.0
 10
63.9175537095
 20
59.7081665815
 30
0.0
 10
63.9210808493
 20
59.6889978216
 30
0.0
 10
63.9244411586
 20
59.6639913439
 30
0.0
 10
63.9282739873
 20
59.6244672756
 30
0.0
 10
63.9295484544
 20
59.5930471432
 30
0.0
 10
63.9295464154
 20
59.5714424508
 30
0.0
  0
SPLINE
  5
8E6
100
AcDbEntity
  8
0
100
AcDbSpline
 62
7
  6
CONTINUOUS
 70
0
 71
3
 72
10
 73
6
 74
0
 42
0.0000001
 43
0.0000001
 44
0.0000000001
 40
0.0
 40
0.0
 40
0.0
 40
0.0
 40
0.4950945577
 40
0.7455767479
 40
1.0
 40
1.0
 40
1.0
 40
1.0
 10
63.6553943397
 20
59.7774173138
 30
0.0
 10
63.697876107
 20
59.7746254393
 30
0.0
 10
63.7618394935
 20
59.768401794
 30
0.0
 10
63.84629032
 20
59.7522087529
 30
0.0
 10
63.8886115993
 20
59.7420648165
 30
0.0
 10
63.9093730803
 20
59.7351650643
 30
0.0
  0
SPLINE
  5
8E7
100
AcDbEntity
  8
0
100
AcDbSpline
 62
7
  6
CONTINUOUS
 70
0
 71
3
 72
9
 73
5
 74
0
 42
0.0000001
 43
0.0000001
 44
0.0000000001
 40
0.0
 40
0.0
 40
0.0
 40
0.0
 40
0.5000337474
 40
1.0
 40
1.0
 40
1.0
 40
1.0
 10
62.888373707
 20
60.4645581826
 30
0.0
 10
63.0633060356
 20
60.4310028521
 30
0.0
 10
63.4012303523
 20
60.2653494237
 30
0.0
 10
63.6028929126
 20
59.9476005093
 30
0.0
 10
63.6553943397
 20
59.7774173274
 30
0.0
  0
SPLINE
  5
8E8
100
AcDbEntity
  8
0
100
AcDbSpline
 62
7
  6
CONTINUOUS
 70
0
 71
3
 72
11
 73
7
 74
0
 42
0.0000001
 43
0.0000001
 44
0.0000000001
 40
0.0
 40
0.0
 40
0.0
 40
0.0
 40
0.213545205
 40
0.4426677689
 40
0.7013792703
 40
1.0
 40
1.0
 40
1.0
 40
1.0
 10
64.4307705178
 20
49.5110595054
 30
0.0
 10
64.3420288387
 20
49.5144775976
 30
0.0
 10
64.1579658035
 20
49.5546474176
 30
0.0
 10
63.9065479055
 20
49.7140084582
 30
0.0
 10
63.7075793509
 20
49.9833446484
 30
0.0
 10
63.6545103475
 20
50.2185694674
 30
0.0
 10
63.6550395124
 20
50.3427563556
 30
0.0
  0
SPLINE
  5
8E9
100
AcDbEntity
  8
0
100
AcDbSpline
 62
7
  6
CONTINUOUS
 70
0
 71
3
 72
11
 73
7
 74
0
 42
0.0000001
 43
0.0000001
 44
0.0000000001
 40
0.0
 40
0.0
 40
0.0
 40
0.0
 40
0.2499352545
 40
0.499959569
 40
0.7500075278
 40
1.0
 40
1.0
 40
1.0
 40
1.0
 10
63.9102016041
 20
50.6842629272
 30
0.0
 10
63.9102887853
 20
50.5803281506
 30
0.0
 10
63.9521301588
 20
50.3701737342
 30
0.0
 10
64.1303148702
 20
50.1047483625
 30
0.0
 10
64.3958054093
 20
49.9266228403
 30
0.0
 10
64.6059923587
 20
49.8847990934
 30
0.0
 10
64.7099509291
 20
49.8847119424
 30
0.0
  0
SPLINE
  5
8EA
100
AcDbEntity
  8
0
100
AcDbSpline
 62
7
  6
CONTINUOUS
 70
0
 71
3
 72
9
 73
5
 74
0
 42
0.0000001
 43
0.0000001
 44
0.0000000001
 40
0.0
 40
0.0
 40
0.0
 40
0.0
 40
0.1057029365
 40
1.0
 40
1.0
 40
1.0
 40
1.0
 10
63.9102016419
 20
50.6842629904
 30
0.0
 10
63.9108615122
 20
50.684439628
 30
0.0
 10
63.9173383358
 20
50.6849955535
 30
0.0
 10
63.9237706543
 20
50.6852253486
 30
0.0
 10
63.9295468252
 20
50.6854177786
 30
0.0
  0
SPLINE
  5
8EB
100
AcDbEntity
  8
0
100
AcDbSpline
 62
7
  6
CONTINUOUS
 70
0
 71
3
 72
14
 73
10
 74
0
 42
0.0000001
 43
0.0000001
 44
0.0000000001
 40
0.0
 40
0.0
 40
0.0
 40
0.0
 40
0.3591635548
 40
0.5236699402
 40
0.6708460397
 40
0.7957169175
 40
0.8942632435
 40
0.9630814182
 40
1.0
 40
1.0
 40
1.0
 40
1.0
 10
63.9690750426
 20
61.55935326
 30
0.0
 10
63.9690750426
 20
61.3212671317
 30
0.0
 10
63.9677691042
 20
60.9741257508
 30
0.0
 10
63.962986524
 20
60.529458207
 30
0.0
 10
63.9583843041
 20
60.240092354
 30
0.0
 10
63.9525537084
 20
59.9945344322
 30
0.0
 10
63.9465623811
 20
59.8008058115
 30
0.0
 10
63.9389446938
 20
59.6657840573
 30
0.0
 10
63.9343435879
 20
59.5955702763
 30
0.0
 10
63.9295460938
 20
59.5715721355
 30
0.0
  0
SPLINE
  5
8EC
100
AcDbEntity
  8
0
100
AcDbSpline
 62
7
  6
CONTINUOUS
 70
0
 71
3
 72
9
 73
5
 74
0
 42
0.0000001
 43
0.0000001
 44
0.0000000001
 40
0.0
 40
0.0
 40
0.0
 40
0.0
 40
0.5000847258
 40
1.0
 40
1.0
 40
1.0
 40
1.0
 10
123.9194919336
 20
168.8654602019
 30
0.0
 10
123.919583164
 20
169.0579367014
 30
0.0
 10
123.8032803392
 20
169.4516075029
 30
0.0
 10
123.4859698653
 20
169.7120824555
 30
0.0
 10
123.3086835247
 20
169.786859874
 30
0.0
  0
SPLINE
  5
8ED
100
AcDbEntity
  8
0
100
AcDbSpline
 62
7
  6
CONTINUOUS
 70
0
 71
3
 72
11
 73
7
 74
0
 42
0.0000001
 43
0.0000001
 44
0.0000000001
 40
0.0
 40
0.0
 40
0.0
 40
0.0
 40
0.2497315021
 40
0.4997416117
 40
0.7499027412
 40
1.0
 40
1.0
 40
1.0
 40
1.0
 10
120.764994718
 20
177.0939602367
 30
0.0
 10
120.8946245315
 20
177.0936602456
 30
0.0
 10
121.156744738
 20
177.0410259431
 30
0.0
 10
121.4877093002
 20
176.8182545924
 30
0.0
 10
121.7100083775
 20
176.4867694446
 30
0.0
 10
121.76250123
 20
176.2243891575
 30
0.0
 10
121.7628007183
 20
176.094569486
 30
0.0
  0
SPLINE
  5
8EE
100
AcDbEntity
  8
0
100
AcDbSpline
 62
7
  6
CONTINUOUS
 70
0
 71
3
 72
11
 73
7
 74
0
 42
0.0000001
 43
0.0000001
 44
0.0000000001
 40
0.0
 40
0.0
 40
0.0
 40
0.0
 40
0.2498048338
 40
0.499795436
 40
0.7499055095
 40
1.0
 40
1.0
 40
1.0
 40
1.0
 10
120.6213586659
 20
177.0154753755
 30
0.0
 10
120.7510492404
 20
177.0152010024
 30
0.0
 10
121.0132654827
 20
176.9625938302
 30
0.0
 10
121.3442611149
 20
176.7397637156
 30
0.0
 10
121.5667075894
 20
176.4083492483
 30
0.0
 10
121.619195301
 20
176.1459256145
 30
0.0
 10
121.6194655086
 20
176.0160846503
 30
0.0
  0
SPLINE
  5
8EF
100
AcDbEntity
  8
0
100
AcDbSpline
 62
7
  6
CONTINUOUS
 70
0
 71
3
 72
11
 73
7
 74
0
 42
0.0000001
 43
0.0000001
 44
0.0000000001
 40
0.0
 40
0.0
 40
0.0
 40
0.0
 40
0.2902810542
 40
0.5542201098
 40
0.787828862
 40
1.0
 40
1.0
 40
1.0
 40
1.0
 10
123.6348541969
 20
168.8654609453
 30
0.0
 10
123.655355104
 20
168.9650162457
 30
0.0
 10
123.6737235221
 20
169.1604224525
 30
0.0
 10
123.6272223577
 20
169.4361010397
 30
0.0
 10
123.5070177998
 20
169.6600979806
 30
0.0
 10
123.3771289424
 20
169.7579681343
 30
0.0
 10
123.3086817907
 20
169.7868557982
 30
0.0
  0
SPLINE
  5
8F0
100
AcDbEntity
  8
0
100
AcDbSpline
 62
7
  6
CONTINUOUS
 70
0
 71
3
 72
9
 73
5
 74
0
 42
0.0000001
 43
0.0000001
 44
0.0000000001
 40
0.0
 40
0.0
 40
0.0
 40
0.0
 40
0.2882520286
 40
1.0
 40
1.0
 40
1.0
 40
1.0
 10
78.7133144457
 20
176.2434727761
 30
0.0
 10
78.8467685922
 20
176.2435424091
 30
0.0
 10
79.3097335389
 20
176.24125783
 30
0.0
 10
79.7727375816
 20
176.2326397591
 30
0.0
 10
80.101986488
 20
176.2191973941
 30
0.0
  0
LINE
  5
8F1
100
AcDbEntity
  8
0
100
AcDbLine
 62
7
  6
CONTINUOUS
 10
27.3672003698
 20
71.3506837512
 11
27.3653197696
 21
71.294372257
  0
SPLINE
  5
8F2
100
AcDbEntity
  8
0
100
AcDbSpline
 62
7
  6
CONTINUOUS
 70
0
 71
3
 72
13
 73
9
 74
0
 42
0.0000001
 43
0.0000001
 44
0.0000000001
 40
0.0
 40
0.0
 40
0.0
 40
0.0
 40
0.0894668038
 40
0.1789934429
 40
0.3872906694
 40
0.5164429296
 40
0.6625329331
 40
1.0
 40
1.0
 40
1.0
 40
1.0
 10
119.8954695146
 20
176.2191966912
 30
0.0
 10
119.8956400957
 20
176.2531232848
 30
0.0
 10
119.8966439346
 20
176.3211488609
 30
0.0
 10
119.9283665379
 20
176.4661565613
 30
0.0
 10
120.0268963437
 20
176.6022259041
 30
0.0
 10
120.1634796652
 20
176.7240175946
 30
0.0
 10
120.351139431
 20
176.8618338914
 30
0.0
 10
120.5099131683
 20
176.9542916107
 30
0.0
 10
120.6223130436
 20
177.0154726596
 30
0.0
  0
SPLINE
  5
8F3
100
AcDbEntity
  8
0
100
AcDbSpline
 62
7
  6
CONTINUOUS
 70
0
 71
3
 72
12
 73
8
 74
0
 42
0.0000001
 43
0.0000001
 44
0.0000000001
 40
0.0
 40
0.0
 40
0.0
 40
0.0
 40
0.2353835303
 40
0.4875142186
 40
0.6155133322
 40
0.7439013344
 40
1.0
 40
1.0
 40
1.0
 40
1.0
 10
27.3653197878
 20
71.2943722565
 30
0.0
 10
27.3612250391
 20
71.1720235862
 30
0.0
 10
27.4083726709
 20
70.915128433
 30
0.0
 10
27.5841359864
 20
70.6373243809
 30
0.0
 10
27.7871065189
 20
70.465093196
 30
0.0
 10
28.0215871354
 20
70.3356384987
 30
0.0
 10
28.2245067317
 20
70.2943722565
 30
0.0
 10
28.3576973353
 20
70.2943722565
 30
0.0
  0
SPLINE
  5
8F4
100
AcDbEntity
  8
0
100
AcDbSpline
 62
7
  6
CONTINUOUS
 70
0
 71
3
 72
17
 73
13
 74
0
 42
0.0000001
 43
0.0000001
 44
0.0000000001
 40
0.0
 40
0.0
 40
0.0
 40
0.0
 40
0.0101577054
 40
0.0281837457
 40
0.0546717022
 40
0.089638124
 40
0.184091379
 40
0.3081878311
 40
0.457635117
 40
0.6268955473
 40
0.8099343539
 40
1.0
 40
1.0
 40
1.0
 40
1.0
 10
27.7754942273
 20
56.0728654116
 30
0.0
 10
27.7723979406
 20
56.0714448828
 30
0.0
 10
27.7669900453
 20
56.0626897679
 30
0.0
 10
27.7610628288
 20
56.0457749443
 30
0.0
 10
27.7548328624
 20
56.0196090892
 30
0.0
 10
27.7458812954
 20
55.9681951296
 30
0.0
 10
27.7361866448
 20
55.8835940183
 30
0.0
 10
27.7264416167
 20
55.7605948656
 30
0.0
 10
27.7184363584
 20
55.6122791256
 30
0.0
 10
27.7124156371
 20
55.4441138984
 30
0.0
 10
27.7087270714
 20
55.2622502358
 30
0.0
 10
27.7078887113
 20
55.1371208035
 30
0.0
 10
27.7078887131
 20
55.0733783773
 30
0.0
  0
SPLINE
  5
8F5
100
AcDbEntity
  8
0
100
AcDbSpline
 62
7
  6
CONTINUOUS
 70
0
 71
3
 72
11
 73
7
 74
0
 42
0.0000001
 43
0.0000001
 44
0.0000000001
 40
0.0
 40
0.0
 40
0.0
 40
0.0
 40
0.2948362219
 40
0.5550210595
 40
0.7853218198
 40
1.0
 40
1.0
 40
1.0
 40
1.0
 10
27.3352859623
 20
57.5726303162
 30
0.0
 10
27.3399097225
 20
57.4233279603
 30
0.0
 10
27.4111519539
 20
57.1404757829
 30
0.0
 10
27.6580282613
 20
56.8167851746
 30
0.0
 10
27.9674220929
 20
56.6242477431
 30
0.0
 10
28.1931479449
 20
56.5767428421
 30
0.0
 10
28.301851539
 20
56.5731431681
 30
0.0
  0
SPLINE
  5
8F6
100
AcDbEntity
  8
0
100
AcDbSpline
 62
7
  6
CONTINUOUS
 70
0
 71
3
 72
11
 73
7
 74
0
 42
0.0000001
 43
0.0000001
 44
0.0000000001
 40
0.0
 40
0.0
 40
0.0
 40
0.0
 40
0.2499433553
 40
0.499984296
 40
0.7500344195
 40
1.0
 40
1.0
 40
1.0
 40
1.0
 10
27.7754619988
 20
56.072865484
 30
0.0
 10
27.645566323
 20
56.0730106765
 30
0.0
 10
27.3829331935
 20
56.125360588
 30
0.0
 10
27.0512203521
 20
56.3480519558
 30
0.0
 10
26.8285577248
 20
56.6797964443
 30
0.0
 10
26.7762163855
 20
56.9424453735
 30
0.0
 10
26.7760712138
 20
57.0723525997
 30
0.0
  0
SPLINE
  5
8F7
100
AcDbEntity
  8
0
100
AcDbSpline
 62
7
  6
CONTINUOUS
 70
0
 71
3
 72
11
 73
7
 74
0
 42
0.0000001
 43
0.0000001
 44
0.0000000001
 40
0.0
 40
0.0
 40
0.0
 40
0.0
 40
0.2499416556
 40
0.4999958696
 40
0.7500440457
 40
1.0
 40
1.0
 40
1.0
 40
1.0
 10
27.7079224603
 20
53.0901026173
 30
0.0
 10
27.707923053
 20
52.7260494387
 30
0.0
 10
27.8535212309
 20
51.9897494588
 30
0.0
 10
28.4769652566
 20
51.0593562354
 30
0.0
 10
29.4073424695
 20
50.4358134329
 30
0.0
 10
30.1436722871
 20
50.2902785554
 30
0.0
 10
30.5077462925
 20
50.2902783474
 30
0.0
  0
SPLINE
  5
8F8
100
AcDbEntity
  8
0
100
AcDbSpline
 62
7
  6
CONTINUOUS
 70
0
 71
3
 72
17
 73
13
 74
0
 42
0.0000001
 43
0.0000001
 44
0.0000000001
 40
0.0
 40
0.0
 40
0.0
 40
0.0
 40
0.1899555249
 40
0.3728976181
 40
0.5420872157
 40
0.691499689
 40
0.8156059241
 40
0.9101182705
 40
0.9451334045
 40
0.9716819418
 40
0.9897775985
 40
1.0
 40
1.0
 40
1.0
 40
1.0
 10
27.707888652
 20
171.3756362194
 30
0.0
 10
27.7078886501
 20
171.311935402
 30
0.0
 10
27.7087259357
 20
171.1868845136
 30
0.0
 10
27.7124098558
 20
171.005127294
 30
0.0
 10
27.7184232824
 20
170.8370419835
 30
0.0
 10
27.726419186
 20
170.6887692074
 30
0.0
 10
27.7361547157
 20
170.5657660859
 30
0.0
 10
27.7458383117
 20
170.4811324296
 30
0.0
 10
27.7547828939
 20
170.4296612803
 30
0.0
 10
27.7610034698
 20
170.4034386945
 30
0.0
 10
27.7669394831
 20
170.3864489031
 30
0.0
 10
27.7723247099
 20
170.3776489827
 30
0.0
 10
27.7754231396
 20
170.3761822862
 30
0.0
  0
SPLINE
  5
8F9
100
AcDbEntity
  8
0
100
AcDbSpline
 62
7
  6
CONTINUOUS
 70
0
 71
3
 72
17
 73
13
 74
0
 42
0.0000001
 43
0.0000001
 44
0.0000000001
 40
0.0
 40
0.0
 40
0.0
 40
0.0
 40
0.1900598134
 40
0.3730908215
 40
0.5423476574
 40
0.6917961844
 40
0.8158975443
 40
0.9103565382
 40
0.9453251998
 40
0.9718147975
 40
0.9898418756
 40
1.0
 40
1.0
 40
1.0
 40
1.0
 10
32.4910224961
 20
50.2902445616
 30
0.0
 10
32.5547629602
 20
50.2902445581
 30
0.0
 10
32.6798878094
 20
50.2910828392
 30
0.0
 10
32.8617456792
 20
50.2947712576
 30
0.0
 10
33.0299074941
 20
50.3007916441
 30
0.0
 10
33.1782240956
 20
50.3087965794
 30
0.0
 10
33.3012272411
 20
50.3185414558
 30
0.0
 10
33.385832709
 20
50.328236098
 30
0.0
 10
33.4372498728
 20
50.3371879525
 30
0.0
 10
33.4634173973
 20
50.34341815
 30
0.0
 10
33.4803331814
 20
50.349345592
 30
0.0
 10
33.4890888778
 20
50.3547535841
 30
0.0
 10
33.4905094979
 20
50.3578499832
 30
0.0
  0
SPLINE
  5
8FA
100
AcDbEntity
  8
0
100
AcDbSpline
 62
7
  6
CONTINUOUS
 70
0
 71
3
 72
11
 73
7
 74
0
 42
0.0000001
 43
0.0000001
 44
0.0000000001
 40
0.0
 40
0.0
 40
0.0
 40
0.0
 40
0.2499655798
 40
0.5000156992
 40
0.7500566432
 40
1.0
 40
1.0
 40
1.0
 40
1.0
 10
34.4900191399
 20
49.3584270577
 30
0.0
 10
34.3601100778
 20
49.3585692739
 30
0.0
 10
34.0974561865
 20
49.4109062762
 30
0.0
 10
33.7657036792
 20
49.6335675619
 30
0.0
 10
33.5430062206
 20
49.9652834497
 30
0.0
 10
33.4906547975
 20
50.2279203652
 30
0.0
 10
33.4905096041
 20
50.3578178746
 30
0.0
  0
SPLINE
  5
8FB
100
AcDbEntity
  8
0
100
AcDbSpline
 62
7
  6
CONTINUOUS
 70
0
 71
3
 72
9
 73
5
 74
0
 42
0.0000001
 43
0.0000001
 44
0.0000000001
 40
0.0
 40
0.0
 40
0.0
 40
0.0
 40
0.2400647718
 40
1.0
 40
1.0
 40
1.0
 40
1.0
 10
112.7240720183
 20
170.35801761
 30
0.0
 10
112.7430511545
 20
170.3501139061
 30
0.0
 10
112.8208902011
 20
170.3142847145
 30
0.0
 10
112.8935794921
 20
170.2676781881
 30
0.0
 10
112.9452563793
 20
170.228118197
 30
0.0
  0
SPLINE
  5
8FC
100
AcDbEntity
  8
0
100
AcDbSpline
 62
7
  6
CONTINUOUS
 70
0
 71
3
 72
9
 73
5
 74
0
 42
0.0000001
 43
0.0000001
 44
0.0000000001
 40
0.0
 40
0.0
 40
0.0
 40
0.0
 40
0.5208672559
 40
1.0
 40
1.0
 40
1.0
 40
1.0
 10
120.6092972811
 20
173.5752674655
 30
0.0
 10
120.5553903548
 20
173.7683770406
 30
0.0
 10
120.3724512248
 20
174.1186184523
 30
0.0
 10
120.0647411919
 20
174.3775825695
 30
0.0
 10
119.8944876876
 20
174.4484871609
 30
0.0
  0
SPLINE
  5
8FD
100
AcDbEntity
  8
0
100
AcDbSpline
 62
7
  6
CONTINUOUS
 70
0
 71
3
 72
9
 73
5
 74
0
 42
0.0000001
 43
0.0000001
 44
0.0000000001
 40
0.0
 40
0.0
 40
0.0
 40
0.0
 40
0.2428967791
 40
1.0
 40
1.0
 40
1.0
 40
1.0
 10
112.9452563793
 20
170.228118197
 30
0.0
 10
113.0031597224
 20
170.1837810746
 30
0.0
 10
113.2239723372
 20
169.9792016903
 30
0.0
 10
113.377775425
 20
169.7037151651
 30
0.0
 10
113.4388895448
 20
169.4847679444
 30
0.0
  0
SPLINE
  5
8FE
100
AcDbEntity
  8
0
100
AcDbSpline
 62
7
  6
CONTINUOUS
 70
0
 71
3
 72
17
 73
13
 74
0
 42
0.0000001
 43
0.0000001
 44
0.0000000001
 40
0.0
 40
0.0
 40
0.0
 40
0.0
 40
0.0102227689
 40
0.0283194136
 40
0.0548695552
 40
0.0898869046
 40
0.1844049751
 40
0.3085161398
 40
0.4579298993
 40
0.6271159562
 40
0.8100502956
 40
1.0
 40
1.0
 40
1.0
 40
1.0
 10
33.4914617202
 20
176.0922210335
 30
0.0
 10
33.4899949727
 20
176.0953195752
 30
0.0
 10
33.4811945057
 20
176.1007049212
 30
0.0
 10
33.4642038085
 20
176.1066411547
 30
0.0
 10
33.4379795882
 20
176.1128619722
 30
0.0
 10
33.3865052609
 20
176.1218068513
 30
0.0
 10
33.3018672482
 20
176.1314904517
 30
0.0
 10
33.1788601099
 20
176.1412258396
 30
0.0
 10
33.030586422
 20
176.1492214291
 30
0.0
 10
32.8625044642
 20
176.1552345273
 30
0.0
 10
32.6807529877
 20
176.1589183046
 30
0.0
 10
32.5557066544
 20
176.1597555138
 30
0.0
 10
32.4920077906
 20
176.1597555113
 30
0.0
  0
SPLINE
  5
8FF
100
AcDbEntity
  8
0
100
AcDbSpline
 62
7
  6
CONTINUOUS
 70
0
 71
3
 72
9
 73
5
 74
0
 42
0.0000001
 43
0.0000001
 44
0.0000000001
 40
0.0
 40
0.0
 40
0.0
 40
0.0
 40
0.5000681201
 40
1.0
 40
1.0
 40
1.0
 40
1.0
 10
30.507746289
 20
176.1597102825
 30
0.0
 10
30.2783314307
 20
176.1597095706
 30
0.0
 10
29.8177768298
 20
176.1030161788
 30
0.0
 10
29.3852118135
 20
175.9350090076
 30
0.0
 10
29.1831989098
 20
175.8264120933
 30
0.0
  0
SPLINE
  5
900
100
AcDbEntity
  8
0
100
AcDbSpline
 62
7
  6
CONTINUOUS
 70
0
 71
3
 72
11
 73
7
 74
0
 42
0.0000001
 43
0.0000001
 44
0.0000000001
 40
0.0
 40
0.0
 40
0.0
 40
0.0
 40
0.2500512928
 40
0.5001146267
 40
0.7500315297
 40
1.0
 40
1.0
 40
1.0
 40
1.0
 10
29.0904755504
 20
175.7742840087
 30
0.0
 10
28.8818006719
 20
175.6517227868
 30
0.0
 10
28.4945103183
 20
175.3507867586
 30
0.0
 10
28.0505654827
 20
174.7664866782
 30
0.0
 10
27.7711729812
 20
174.0879848539
 30
0.0
 10
27.7079341717
 20
173.6018209435
 30
0.0
 10
27.7079338514
 20
173.3598960223
 30
0.0
  0
SPLINE
  5
901
100
AcDbEntity
  8
0
100
AcDbSpline
 62
7
  6
CONTINUOUS
 70
0
 71
3
 72
11
 73
7
 74
0
 42
0.0000001
 43
0.0000001
 44
0.0000000001
 40
0.0
 40
0.0
 40
0.0
 40
0.0
 40
0.2499605666
 40
0.5000103057
 40
0.7500540187
 40
1.0
 40
1.0
 40
1.0
 40
1.0
 10
26.7760001835
 20
169.3767282013
 30
0.0
 10
26.7761499628
 20
169.5066292807
 30
0.0
 10
26.8284997109
 20
169.769266083
 30
0.0
 10
27.0511649419
 20
170.1009929398
 30
0.0
 10
27.3828710253
 20
170.3236770388
 30
0.0
 10
27.6454974576
 20
170.3760324189
 30
0.0
 10
27.7753909572
 20
170.3761822151
 30
0.0
  0
SPLINE
  5
902
100
AcDbEntity
  8
0
100
AcDbSpline
 62
7
  6
CONTINUOUS
 70
0
 71
3
 72
9
 73
5
 74
0
 42
0.0000001
 43
0.0000001
 44
0.0000000001
 40
0.0
 40
0.0
 40
0.0
 40
0.0
 40
0.24586505
 40
1.0
 40
1.0
 40
1.0
 40
1.0
 10
85.8053476204
 20
115.2353563479
 30
0.0
 10
85.7874312307
 20
115.239565732
 30
0.0
 10
85.7150446476
 20
115.2587080983
 30
0.0
 10
85.6447718921
 20
115.2856712574
 30
0.0
 10
85.5936951956
 20
115.3097100525
 30
0.0
  0
SPLINE
  5
903
100
AcDbEntity
  8
0
100
AcDbSpline
 62
7
  6
CONTINUOUS
 70
0
 71
3
 72
9
 73
5
 74
0
 42
0.0000001
 43
0.0000001
 44
0.0000000001
 40
0.0
 40
0.0
 40
0.0
 40
0.0
 40
0.505969741
 40
1.0
 40
1.0
 40
1.0
 40
1.0
 10
85.5936951956
 20
115.3097100525
 30
0.0
 10
85.4305019504
 20
115.3865458592
 30
0.0
 10
85.1408192297
 20
115.6149726473
 30
0.0
 10
84.9695450043
 20
115.9436638464
 30
0.0
 10
84.9301198511
 20
116.1153147786
 30
0.0
  0
SPLINE
  5
904
100
AcDbEntity
  8
0
100
AcDbSpline
 62
7
  6
CONTINUOUS
 70
0
 71
3
 72
9
 73
5
 74
0
 42
0.0000001
 43
0.0000001
 44
0.0000000001
 40
0.0
 40
0.0
 40
0.0
 40
0.0
 40
0.5210173597
 40
1.0
 40
1.0
 40
1.0
 40
1.0
 10
113.4358505587
 20
116.1086215207
 30
0.0
 10
113.3821045027
 20
115.9152884387
 30
0.0
 10
113.1993078348
 20
115.5646942629
 30
0.0
 10
112.8914224215
 20
115.305458566
 30
0.0
 10
112.7210737845
 20
115.2346593543
 30
0.0
  0
SPLINE
  5
905
100
AcDbEntity
  8
0
100
AcDbSpline
 62
7
  6
CONTINUOUS
 70
0
 71
3
 72
9
 73
5
 74
0
 42
0.0000001
 43
0.0000001
 44
0.0000000001
 40
0.0
 40
0.0
 40
0.0
 40
0.0
 40
0.2470980815
 40
1.0
 40
1.0
 40
1.0
 40
1.0
 10
123.6351677165
 20
168.8654621486
 30
0.0
 10
123.5771630315
 20
168.8908312779
 30
0.0
 10
123.3439068089
 20
168.9968192151
 30
0.0
 10
123.1172563028
 20
169.1177265436
 30
0.0
 10
122.9527087889
 20
169.2184037666
 30
0.0
  0
SPLINE
  5
906
100
AcDbEntity
  8
0
100
AcDbSpline
 62
7
  6
CONTINUOUS
 70
0
 71
3
 72
9
 73
5
 74
0
 42
0.0000001
 43
0.0000001
 44
0.0000000001
 40
0.0
 40
0.0
 40
0.0
 40
0.0
 40
0.2446391876
 40
1.0
 40
1.0
 40
1.0
 40
1.0
 10
122.9527087889
 20
169.2184037666
 30
0.0
 10
122.8874781673
 20
169.2583146573
 30
0.0
 10
122.6246307142
 20
169.4275944845
 30
0.0
 10
122.3791882342
 20
169.6237484131
 30
0.0
 10
122.2058129179
 20
169.7840376983
 30
0.0
  0
SPLINE
  5
907
100
AcDbEntity
  8
0
100
AcDbSpline
 62
7
  6
CONTINUOUS
 70
0
 71
3
 72
11
 73
7
 74
0
 42
0.0000001
 43
0.0000001
 44
0.0000000001
 40
0.0
 40
0.0
 40
0.0
 40
0.0
 40
0.22632637
 40
0.4685615031
 40
0.7281091123
 40
1.0
 40
1.0
 40
1.0
 40
1.0
 10
122.2058129179
 20
169.7840376983
 30
0.0
 10
121.9823921384
 20
169.9905951125
 30
0.0
 10
121.55747727
 20
170.4609821131
 30
0.0
 10
121.0453266655
 20
171.3025003167
 30
0.0
 10
120.6989810082
 20
172.2920733239
 30
0.0
 10
120.6166298485
 20
173.0081655693
 30
0.0
 10
120.610123792
 20
173.3736390511
 30
0.0
  0
SPLINE
  5
908
100
AcDbEntity
  8
0
100
AcDbSpline
 62
7
  6
CONTINUOUS
 70
0
 71
3
 72
9
 73
5
 74
0
 42
0.0000001
 43
0.0000001
 44
0.0000000001
 40
0.0
 40
0.0
 40
0.0
 40
0.0
 40
0.2343573114
 40
1.0
 40
1.0
 40
1.0
 40
1.0
 10
123.1931426354
 20
110.5644816848
 30
0.0
 10
123.2311838424
 20
110.5428654031
 30
0.0
 10
123.3903692044
 20
110.4452301583
 30
0.0
 10
123.5354735796
 20
110.3245208074
 30
0.0
 10
123.6348431967
 20
110.2217664838
 30
0.0
  0
SPLINE
  5
909
100
AcDbEntity
  8
0
100
AcDbSpline
 62
7
  6
CONTINUOUS
 70
0
 71
3
 72
11
 73
7
 74
0
 42
0.0000001
 43
0.0000001
 44
0.0000000001
 40
0.0
 40
0.0
 40
0.0
 40
0.0
 40
0.2866849403
 40
0.5539097391
 40
0.7903579012
 40
1.0
 40
1.0
 40
1.0
 40
1.0
 10
122.919315908
 20
109.5184911336
 30
0.0
 10
123.0465560863
 20
109.5228221861
 30
0.0
 10
123.2937662208
 20
109.5540725351
 30
0.0
 10
123.6178361275
 20
109.7037405901
 30
0.0
 10
123.8504525475
 20
109.9307669658
 30
0.0
 10
123.9161306958
 20
110.1287381556
 30
0.0
 10
123.9195760612
 20
110.2217743073
 30
0.0
  0
SPLINE
  5
90A
100
AcDbEntity
  8
0
100
AcDbSpline
 62
7
  6
CONTINUOUS
 70
0
 71
3
 72
9
 73
5
 74
0
 42
0.0000001
 43
0.0000001
 44
0.0000000001
 40
0.0
 40
0.0
 40
0.0
 40
0.0
 40
0.4987749936
 40
1.0
 40
1.0
 40
1.0
 40
1.0
 10
123.6348474994
 20
110.2217749447
 30
0.0
 10
123.5586428376
 20
110.0711363662
 30
0.0
 10
123.3491129493
 20
109.797367705
 30
0.0
 10
123.0717515182
 20
109.5929440283
 30
0.0
 10
122.9193159085
 20
109.5184914712
 30
0.0
  0
LINE
  5
90B
100
AcDbEntity
  8
0
100
AcDbLine
 62
7
  6
CONTINUOUS
 10
123.9390293443
 20
107.7402885318
 11
123.9390278607
 21
108.8151816939
  0
SPLINE
  5
90C
100
AcDbEntity
  8
0
100
AcDbSpline
 62
7
  6
CONTINUOUS
 70
0
 71
3
 72
13
 73
9
 74
0
 42
0.0000001
 43
0.0000001
 44
0.0000000001
 40
0.0
 40
0.0
 40
0.0
 40
0.0
 40
0.1476973234
 40
0.2889729302
 40
0.4208822775
 40
0.5452372978
 40
0.7777458872
 40
1.0
 40
1.0
 40
1.0
 40
1.0
 10
122.9395931803
 20
108.8151832695
 30
0.0
 10
123.0191488165
 20
108.8152314649
 30
0.0
 10
123.1750795856
 20
108.7898189049
 30
0.0
 10
123.3864501868
 20
108.7038178709
 30
0.0
 10
123.5639737704
 20
108.5807122868
 30
0.0
 10
123.7437561807
 20
108.3862694587
 30
0.0
 10
123.8919970326
 20
108.1051566215
 30
0.0
 10
123.9354969721
 20
107.8599579439
 30
0.0
 10
123.939029342
 20
107.7402951673
 30
0.0
  0
SPLINE
  5
90D
100
AcDbEntity
  8
0
100
AcDbSpline
 62
7
  6
CONTINUOUS
 70
0
 71
3
 72
18
 73
14
 74
0
 42
0.0000001
 43
0.0000001
 44
0.0000000001
 40
0.0
 40
0.0
 40
0.0
 40
0.0
 40
0.1908104251
 40
0.3749217739
 40
0.5449794947
 40
0.6949499776
 40
0.8194044226
 40
0.8705448794
 40
0.9136906611
 40
0.9484348298
 40
0.9744539353
 40
0.9916153028
 40
1.0
 40
1.0
 40
1.0
 40
1.0
 10
26.7084662528
 20
55.0733787381
 30
0.0
 10
26.708466253
 20
55.2007419766
 30
0.0
 10
26.7093043795
 20
55.4509980257
 30
0.0
 10
26.7130008309
 20
55.8147470309
 30
0.0
 10
26.7189860404
 20
56.1512075185
 30
0.0
 10
26.7270397341
 20
56.4477777845
 30
0.0
 10
26.735528266
 20
56.6649577955
 30
0.0
 10
26.7435202814
 20
56.8107086309
 30
0.0
 10
26.7493152479
 20
56.8967303455
 30
0.0
 10
26.7555114686
 20
56.9655829607
 30
0.0
 10
26.7612496674
 20
57.0178500988
 30
0.0
 10
26.7679474255
 20
57.0505709963
 30
0.0
 10
26.7719473357
 20
57.0685689146
 30
0.0
 10
26.7760712139
 20
57.072352603
 30
0.0
  0
SPLINE
  5
90E
100
AcDbEntity
  8
0
100
AcDbSpline
 62
7
  6
CONTINUOUS
 70
0
 71
3
 72
11
 73
7
 74
0
 42
0.0000001
 43
0.0000001
 44
0.0000000001
 40
0.0
 40
0.0
 40
0.0
 40
0.0
 40
0.2500423678
 40
0.500051388
 40
0.750030335
 40
1.0
 40
1.0
 40
1.0
 40
1.0
 10
27.6241713544
 20
71.5209023634
 30
0.0
 10
27.6242679806
 20
71.3909028472
 30
0.0
 10
27.6764110244
 20
71.1281042959
 30
0.0
 10
27.8989421997
 20
70.7960415258
 30
0.0
 10
28.23090154
 20
70.5734163123
 30
0.0
 10
28.4936484314
 20
70.5212453841
 30
0.0
 10
28.6236101487
 20
70.5211487251
 30
0.0
  0
SPLINE
  5
90F
100
AcDbEntity
  8
0
100
AcDbSpline
 62
7
  6
CONTINUOUS
 70
0
 71
3
 72
11
 73
7
 74
0
 42
0.0000001
 43
0.0000001
 44
0.0000000001
 40
0.0
 40
0.0
 40
0.0
 40
0.0
 40
0.2499543247
 40
0.5000000624
 40
0.7500456982
 40
1.0
 40
1.0
 40
1.0
 40
1.0
 10
64.9386459455
 20
50.2065272494
 30
0.0
 10
64.834701269
 20
50.206606199
 30
0.0
 10
64.6245421933
 20
50.2485640695
 30
0.0
 10
64.3591171075
 20
50.4267655709
 30
0.0
 10
64.1810202023
 20
50.6922606418
 30
0.0
 10
64.1391447605
 20
50.9024363481
 30
0.0
 10
64.1391075193
 20
51.0063810384
 30
0.0
  0
SPLINE
  5
910
100
AcDbEntity
  8
0
100
AcDbSpline
 62
7
  6
CONTINUOUS
 70
0
 71
3
 72
9
 73
5
 74
0
 42
0.0000001
 43
0.0000001
 44
0.0000000001
 40
0.0
 40
0.0
 40
0.0
 40
0.0
 40
0.7127868817
 40
1.0
 40
1.0
 40
1.0
 40
1.0
 10
64.7271679982
 20
49.8872698185
 30
0.0
 10
64.7230326772
 20
49.8869584061
 30
0.0
 10
64.7178934779
 20
49.8857910322
 30
0.0
 10
64.7109504869
 20
49.8860505848
 30
0.0
 10
64.7099503117
 20
49.8847119442
 30
0.0
  0
SPLINE
  5
911
100
AcDbEntity
  8
0
100
AcDbSpline
 62
7
  6
CONTINUOUS
 70
0
 71
3
 72
11
 73
7
 74
0
 42
0.0000001
 43
0.0000001
 44
0.0000000001
 40
0.0
 40
0.0
 40
0.0
 40
0.0
 40
0.2158252883
 40
0.4466711535
 40
0.7063737299
 40
1.0
 40
1.0
 40
1.0
 40
1.0
 10
50.5426250037
 20
49.5110595053
 30
0.0
 10
50.6528398865
 20
49.5148077673
 30
0.0
 10
50.881282499
 20
49.5621221007
 30
0.0
 10
51.1956421708
 20
49.7533599494
 30
0.0
 10
51.4482449331
 20
50.076297689
 30
0.0
 10
51.5221001244
 20
50.3605479109
 30
0.0
 10
51.5270476517
 20
50.5104982879
 30
0.0
  0
SPLINE
  5
912
100
AcDbEntity
  8
0
100
AcDbSpline
 62
7
  6
CONTINUOUS
 70
0
 71
3
 72
18
 73
14
 74
0
 42
0.0000001
 43
0.0000001
 44
0.0000000001
 40
0.0
 40
0.0
 40
0.0
 40
0.0
 40
0.0084830463
 40
0.0257398978
 40
0.0518198979
 40
0.0865814786
 40
0.1297951844
 40
0.1810099094
 40
0.3054030054
 40
0.4553682983
 40
0.6253003914
 40
0.8091112269
 40
1.0
 40
1.0
 40
1.0
 40
1.0
 10
26.7760063824
 20
169.3766720248
 30
0.0
 10
26.7718895374
 20
169.3805586896
 30
0.0
 10
26.7678807127
 20
169.3986340666
 30
0.0
 10
26.7612036506
 20
169.4315720374
 30
0.0
 10
26.7554725202
 20
169.4839256255
 30
0.0
 10
26.7492796067
 20
169.5528794465
 30
0.0
 10
26.7434986721
 20
169.6389952774
 30
0.0
 10
26.7355245282
 20
169.7847863684
 30
0.0
 10
26.7270194808
 20
170.001945221
 30
0.0
 10
26.718992356
 20
170.2983551058
 30
0.0
 10
26.7129900292
 20
170.6344892745
 30
0.0
 10
26.7093021444
 20
170.9979654801
 30
0.0
 10
26.7084649654
 20
171.2480450859
 30
0.0
 10
26.7084645369
 20
171.3754462994
 30
0.0
  0
SPLINE
  5
913
100
AcDbEntity
  8
0
100
AcDbSpline
 62
7
  6
CONTINUOUS
 70
0
 71
3
 72
11
 73
7
 74
0
 42
0.0000001
 43
0.0000001
 44
0.0000000001
 40
0.0
 40
0.0
 40
0.0
 40
0.0
 40
0.2499459828
 40
0.499989697
 40
0.7500394358
 40
1.0
 40
1.0
 40
1.0
 40
1.0
 10
33.4914618
 20
176.0922531279
 30
0.0
 10
33.491611594
 20
176.2221466295
 30
0.0
 10
33.5439669705
 20
176.4847730665
 30
0.0
 10
33.7666510649
 20
176.8164791588
 30
0.0
 10
34.0983779192
 20
177.0391443992
 30
0.0
 10
34.3610147221
 20
177.0914941522
 30
0.0
 10
34.4909158014
 20
177.0916439328
 30
0.0
  0
SPLINE
  5
914
100
AcDbEntity
  8
0
100
AcDbSpline
 62
7
  6
CONTINUOUS
 70
0
 71
3
 72
18
 73
14
 74
0
 42
0.0000001
 43
0.0000001
 44
0.0000000001
 40
0.0
 40
0.0
 40
0.0
 40
0.0
 40
0.0070121988
 40
0.0225929186
 40
0.0472012628
 40
0.0807724928
 40
0.1231047335
 40
0.1737469389
 40
0.2978843525
 40
0.4486813407
 40
0.6203204689
 40
0.8064622512
 40
1.0
 40
1.0
 40
1.0
 40
1.0
 10
62.9252533119
 20
60.5593818597
 30
0.0
 10
62.9275651879
 20
60.5597756422
 30
0.0
 10
62.9310957413
 20
60.5683689435
 30
0.0
 10
62.9346771599
 20
60.5823837736
 30
0.0
 10
62.9387261889
 20
60.6074487187
 30
0.0
 10
62.9425975809
 20
60.6405430505
 30
0.0
 10
62.9464135212
 20
60.6828098444
 30
0.0
 10
62.9516062991
 20
60.7551861142
 30
0.0
 10
62.9571790251
 20
60.8639717687
 30
0.0
 10
62.9624221602
 20
61.0132227812
 30
0.0
 10
62.9663551769
 20
61.1832750894
 30
0.0
 10
62.9687716125
 20
61.3676443783
 30
0.0
 10
62.9693204767
 20
61.4946261355
 30
0.0
 10
62.9693204767
 20
61.55935326
 30
0.0
  0
SPLINE
  5
915
100
AcDbEntity
  8
0
100
AcDbSpline
 62
7
  6
CONTINUOUS
 70
0
 71
3
 72
8
 73
4
 74
0
 42
0.0000001
 43
0.0000001
 44
0.0000000001
 40
0.0
 40
0.0
 40
0.0
 40
0.0
 40
1.0
 40
1.0
 40
1.0
 40
1.0
 10
74.3627407501
 20
187.7532418391
 30
0.0
 10
74.3274731047
 20
187.8624189344
 30
0.0
 10
74.2672581325
 20
187.9659732133
 30
0.0
 10
74.1904843761
 20
188.0512330237
 30
0.0
  0
SPLINE
  5
916
100
AcDbEntity
  8
0
100
AcDbSpline
 62
7
  6
CONTINUOUS
 70
0
 71
3
 72
8
 73
4
 74
0
 42
0.0000001
 43
0.0000001
 44
0.0000000001
 40
0.0
 40
0.0
 40
0.0
 40
0.0
 40
1.0
 40
1.0
 40
1.0
 40
1.0
 10
74.1904843761
 20
188.0512330237
 30
0.0
 10
74.1139481773
 20
188.1362290184
 30
0.0
 10
74.0173856262
 20
188.206415907
 30
0.0
 10
73.912895949
 20
188.2529348946
 30
0.0
  0
SPLINE
  5
917
100
AcDbEntity
  8
0
100
AcDbSpline
 62
7
  6
CONTINUOUS
 70
0
 71
3
 72
8
 73
4
 74
0
 42
0.0000001
 43
0.0000001
 44
0.0000000001
 40
0.0
 40
0.0
 40
0.0
 40
0.0
 40
1.0
 40
1.0
 40
1.0
 40
1.0
 10
73.912895949
 20
188.2529348946
 30
0.0
 10
73.8076345121
 20
188.299797471
 30
0.0
 10
73.6900478775
 20
188.3249999981
 30
0.0
 10
73.5748260429
 20
188.3249999981
 30
0.0
  0
ELLIPSE
  5
918
100
AcDbEntity
  8
0
100
AcDbEllipse
 62
7
  6
CONTINUOUS
 10
63.6303519363
 20
50.5104982997
 30
0.0
 11
0.0
 21
1.0
 31
0.0
 40
0.0250424034
 41
-1.7393350343
 42
-1.5707963269
  0
ELLIPSE
  5
919
100
AcDbEntity
  8
0
100
AcDbEllipse
 62
7
  6
CONTINUOUS
 10
28.2901208013
 20
71.2943722565
 30
0.0
 11
1.0005615208
 21
0.0
 31
0.0
 40
0.9994387943
 41
-3.1415926536
 42
-1.5707963312
  0
ELLIPSE
  5
91A
100
AcDbEntity
  8
0
100
AcDbEllipse
 62
7
  6
CONTINUOUS
 10
50.5274773343
 20
50.544014817
 30
0.0
 11
-0.4121176036
 21
0.9118727376
 31
0.0
 40
0.9993242811
 41
-2.0285180587
 42
-1.9955211151
  0
ENDSEC
  0
SECTION
  2
OBJECTS
  0
DICTIONARY
  5
C
100
AcDbDictionary
280
0
281
1
  3
ACAD_GROUP
350
D
  3
ACAD_MLINESTYLE
350
17
  3
ACAD_LAYOUT
350
1A
  3
ACAD_PLOTSETTINGS
350
19
  3
ACAD_PLOTSTYLENAME
350
E
  0
DICTIONARY
  5
D
102
{ACAD_REACTORS
330
C
102
}
100
AcDbDictionary
280
0
281
1
  0
ACDBDICTIONARYWDFLT
  5
E
102
{ACAD_REACTORS
330
C
102
}
100
AcDbDictionary
281
1
  3
Normal
350
F
100
AcDbDictionaryWithDefault
340
F
  0
DICTIONARY
  5
17
102
{ACAD_REACTORS
330
C
102
}
100
AcDbDictionary
280
0
281
1
  3
Standard
350
18
  0
DICTIONARY
  5
19
102
{ACAD_REACTORS
330
C
102
}
100
AcDbDictionary
281
1
  0
DICTIONARY
  5
1A
102
{ACAD_REACTORS
330
C
102
}
100
AcDbDictionary
281
1
  3
Model
350
91B
  3
Layout1
350
91C
  0
ACDBPLACEHOLDER
  5
F
102
{ACAD_REACTORS
330
E
102
}
  0
MLINESTYLE
  5
18
102
{ACAD_REACTORS
330
17
102
}
100
AcDbMlineStyle
  2
STANDARD
 70
0
  3

 62
256
 51
90.0
 52
90.0
 71
2
 49
0.5
 62
256
  6
BYLAYER
 49
-0.5
 62
256
  6
BYLAYER
  0
LAYOUT
  5
91B
102
{ACAD_REACTORS
330
1A
102
}
100
AcDbPlotSettings
  1

  2
none_device
  4

  6

 40
0.0
 41
0.0
 42
0.0
 43
0.0
 44
210.0
 45
297.0
 46
0.0
 47
0.0
 48
0.0
 49
0.0
140
0.0
141
0.0
142
1.0
143
1.0
 70
1024
 72
1
 73
0
 74
0
  7

 75
0
147
1.0
148
0.0
149
0.0
100
AcDbLayout
  1
Model
 70
0
 71
0
 10
0.0
 20
0.0
 11
210.0
 21
297.0
 12
0.0
 22
0.0
 32
0.0
 14
0.0
 24
0.0
 34
0.0
 15
0.0
 25
0.0
 35
0.0
146
0.0
 13
0.0
 23
0.0
 33
0.0
 16
1.0
 26
0.0
 36
0.0
 17
0.0
 27
1.0
 37
0.0
 76
0
330
210
345
0
346
0
  0
LAYOUT
  5
91C
102
{ACAD_REACTORS
330
1A
102
}
100
AcDbPlotSettings
  1

  2
none_device
  4

  6

 40
0.0
 41
0.0
 42
0.0
 43
0.0
 44
210.0
 45
297.0
 46
0.0
 47
0.0
 48
0.0
 49
0.0
140
0.0
141
0.0
142
1.0
143
1.0
 70
0
 72
1
 73
0
 74
0
  7

 75
0
147
1.0
148
0.0
149
0.0
100
AcDbLayout
  1
Layout1
 70
0
 71
1
 10
0.0
 20
0.0
 11
210.0
 21
297.0
 12
0.0
 22
0.0
 32
0.0
 14
0.0
 24
0.0
 34
0.0
 15
0.0
 25
0.0
 35
0.0
146
0.0
 13
0.0
 23
0.0
 33
0.0
 16
1.0
 26
0.0
 36
0.0
 17
0.0
 27
1.0
 37
0.0
 76
0
330
211
345
0
346
0
  0
ENDSEC
  0
EOF
