999
DXF file: C:\Users\sesa63760\Dev\_Creo\CAD\MCADPD0004675_3D-CAD\drw0001_1.dxf
999
Pro/ENGINEER 2019471 by Parametric Technology Corporation
  0
SECTION
  2
HEADER
  9
$ACADVER
  1
AC1024
  9
$DWGCODEPAGE
  3
ANSI_1252
  9
$EXTMAX
 10
98.6386431662
 20
139.5032239065
 30
0.0
  9
$EXTMIN
 10
0.0
 20
0.0
 30
0.0
  9
$LIMMIN
 10
0.0
 20
0.0
  9
$LIMMAX
 10
98.6386431662
 20
139.5032239065
  9
$VIEWCTR
 10
49.3193215831
 20
69.7516119533
  9
$VIEWSIZE
 40
139.5032239065
  9
$CLAYER
  8
0
  9
$LTSCALE
 40
9.0935434843
  9
$CELTYPE
  6
BYLAYER
  9
$DIMSCALE
 40
1.0
  9
$DIMASZ
 40
1.1742695615
  9
$DIMEXO
 40
1.0
  9
$DIMDLI
 40
6.2828118619
  9
$DIMEXE
 40
1.0
  9
$DIMCEN
 40
1.4880343883
  9
$DIMLFAC
 40
1.0
  9
$DIMBLK
  1
_FILLED
  9
$DIMALT
 70
0
  9
$DIMALTF
 40
0.0393700787
  9
$DIMTXT
 40
1.6439773861
  9
$DIMTOL
 70
1
  9
$DIMLIM
 70
0
  9
$DIMTFAC
 40
1.0
  9
$DIMTP
 40
0.01
  9
$DIMTM
 40
0.01
  9
$DIMGAP
 40
0.625
  9
$DIMDSEP
 70
46
  9
$AUNITS
 70
0
  9
$PDMODE
 70
3
  9
$PDSIZE
 40
0.3125
  9
$HANDSEED
  5
32B
  9
$TILEMODE
 70
1
  9
$MEASUREMENT
 70
1
  9
$INSUNITS
 70
4
  0
ENDSEC
  0
SECTION
  2
CLASSES
  0
CLASS
  1
ACDBDICTIONARYWDFLT
  2
AcDbDictionaryWithDefault
  3
AutoCAD 2000
 90
0
 91
1
280
0
281
0
  0
CLASS
  1
ACDBPLACEHOLDER
  2
AcDbPlaceHolder
  3
AutoCAD 2000
 90
0
 91
1
280
0
281
0
  0
CLASS
  1
LAYOUT
  2
AcDbLayout
  3
AutoCAD 2000
 90
0
 91
0
280
0
281
0
  0
ENDSEC
  0
SECTION
  2
TABLES
  0
TABLE
  2
VPORT
  5
8
100
AcDbSymbolTable
 70
2
  0
VPORT
  5
1F4
100
AcDbSymbolTableRecord
100
AcDbViewportTableRecord
  2
*ACTIVE
 70
0
 10
0.0
 20
0.0
 11
1.0
 21
1.0
 12
49.3193215831
 22
69.7516119533
 13
0.0
 23
0.0
 14
1.0
 24
1.0
 15
0.0
 25
0.0
 16
0.0
 26
0.0
 36
1.0
 17
0.0
 27
0.0
 37
0.0
 40
139.5032239065
 41
0.7070707071
 42
50.0
 43
0.0
 44
0.0
 50
0.0
 51
0.0
 71
0
 72
100
 73
1
 74
1
 75
0
 76
0
 77
0
 78
0
  0
ENDTAB
  0
TABLE
  2
LTYPE
  5
5
100
AcDbSymbolTable
 70
6
  0
LTYPE
  5
14
100
AcDbSymbolTableRecord
100
AcDbLinetypeTableRecord
  2
BYBLOCK
 70
0
  3

 72
65
 73
0
 40
0.0
  0
LTYPE
  5
15
100
AcDbSymbolTableRecord
100
AcDbLinetypeTableRecord
  2
BYLAYER
 70
0
  3

 72
65
 73
0
 40
0.0
  0
LTYPE
  5
16
100
AcDbSymbolTableRecord
100
AcDbLinetypeTableRecord
  2
CONTINUOUS
 70
64
  3
Solid line
 72
65
 73
0
 40
0.0
  0
LTYPE
  5
1F5
100
AcDbSymbolTableRecord
100
AcDbLinetypeTableRecord
  2
CENTER
 70
64
  3
____ _ ____ _ ____ _ ____ _ ____ _ ____ _ ____
 72
65
 73
4
 40
0.6
 49
0.375
 74
0
 49
-0.075
 74
0
 49
0.075
 74
0
 49
-0.075
 74
0
  0
LTYPE
  5
1F6
100
AcDbSymbolTableRecord
100
AcDbLinetypeTableRecord
  2
HIDDEN
 70
64
  3
- - - - - - - - - - - - - - - - - - - -
 72
65
 73
2
 40
0.2
 49
0.1
 74
0
 49
-0.1
 74
0
  0
LTYPE
  5
1F7
100
AcDbSymbolTableRecord
100
AcDbLinetypeTableRecord
  2
PHANTOM
 70
64
  3
_____ _ _ _____ _ _ _____ _ _ _____
 72
65
 73
6
 40
0.8
 49
0.45
 74
0
 49
-0.05
 74
0
 49
0.1
 74
0
 49
-0.05
 74
0
 49
0.1
 74
0
 49
-0.05
 74
0
  0
LTYPE
  5
1F8
100
AcDbSymbolTableRecord
100
AcDbLinetypeTableRecord
  2
DOT
 70
64
  3
. . . . . . . . . . . . . . . . . . . .
 72
65
 73
2
 40
0.2
 49
0.1
 74
0
 49
-0.1
 74
0
  0
LTYPE
  5
1F9
100
AcDbSymbolTableRecord
100
AcDbLinetypeTableRecord
  2
DASHED
 70
64
  3
- - - - - - - - - - - - - - - - - - - -
 72
65
 73
2
 40
0.2
 49
0.1
 74
0
 49
-0.1
 74
0
  0
ENDTAB
  0
TABLE
  2
LAYER
  5
2
100
AcDbSymbolTable
 70
36
  0
LAYER
  5
10
100
AcDbSymbolTableRecord
100
AcDbLayerTableRecord
  2
0
 70
0
 62
7
  6
CONTINUOUS
370
-3
390
F
  0
LAYER
  5
1FA
100
AcDbSymbolTableRecord
100
AcDbLayerTableRecord
  2
DEFAULT_1
 70
0
 62
7
  6
CENTER
370
-3
390
F
  0
LAYER
  5
1FB
100
AcDbSymbolTableRecord
100
AcDbLayerTableRecord
  2
DEFAULT_2
 70
0
 62
7
  6
HIDDEN
370
-3
390
F
  0
LAYER
  5
1FC
100
AcDbSymbolTableRecord
100
AcDbLayerTableRecord
  2
DEFAULT_3
 70
0
 62
7
  6
PHANTOM
370
-3
390
F
  0
LAYER
  5
1FD
100
AcDbSymbolTableRecord
100
AcDbLayerTableRecord
  2
00_COMPONENTS
 70
0
 62
7
  6
CONTINUOUS
370
-3
390
F
  0
LAYER
  5
1FE
100
AcDbSymbolTableRecord
100
AcDbLayerTableRecord
  2
00_COMPONENTS_1
 70
0
 62
7
  6
CONTINUOUS
370
-3
390
F
  0
LAYER
  5
1FF
100
AcDbSymbolTableRecord
100
AcDbLayerTableRecord
  2
01_1_DEFAULT_DATUMS
 70
0
 62
7
  6
CONTINUOUS
370
-3
390
F
  0
LAYER
  5
200
100
AcDbSymbolTableRecord
100
AcDbLayerTableRecord
  2
01_PLANES
 70
0
 62
7
  6
CONTINUOUS
370
-3
390
F
  0
LAYER
  5
201
100
AcDbSymbolTableRecord
100
AcDbLayerTableRecord
  2
02_COORD_SYS
 70
0
 62
7
  6
CONTINUOUS
370
-3
390
F
  0
LAYER
  5
202
100
AcDbSymbolTableRecord
100
AcDbLayerTableRecord
  2
03_AXES
 70
0
 62
7
  6
CONTINUOUS
370
-3
390
F
  0
LAYER
  5
203
100
AcDbSymbolTableRecord
100
AcDbLayerTableRecord
  2
03_AXES_1
 70
0
 62
7
  6
CONTINUOUS
370
-3
390
F
  0
LAYER
  5
204
100
AcDbSymbolTableRecord
100
AcDbLayerTableRecord
  2
04_POINTS
 70
0
 62
7
  6
CONTINUOUS
370
-3
390
F
  0
LAYER
  5
205
100
AcDbSymbolTableRecord
100
AcDbLayerTableRecord
  2
05_CURVES
 70
0
 62
7
  6
CONTINUOUS
370
-3
390
F
  0
LAYER
  5
206
100
AcDbSymbolTableRecord
100
AcDbLayerTableRecord
  2
06_SURFS
 70
0
 62
7
  6
CONTINUOUS
370
-3
390
F
  0
LAYER
  5
207
100
AcDbSymbolTableRecord
100
AcDbLayerTableRecord
  2
07_COSMETICS
 70
0
 62
7
  6
CONTINUOUS
370
-3
390
F
  0
LAYER
  5
208
100
AcDbSymbolTableRecord
100
AcDbLayerTableRecord
  2
10_NOTES
 70
0
 62
7
  6
CONTINUOUS
370
-3
390
F
  0
LAYER
  5
209
100
AcDbSymbolTableRecord
100
AcDbLayerTableRecord
  2
11_NOTES_PUB
 70
0
 62
7
  6
CONTINUOUS
370
-3
390
F
  0
LAYER
  5
20A
100
AcDbSymbolTableRecord
100
AcDbLayerTableRecord
  2
13_REF_GTOL
 70
0
 62
7
  6
CONTINUOUS
370
-3
390
F
  0
LAYER
  5
20B
100
AcDbSymbolTableRecord
100
AcDbLayerTableRecord
  2
16_MISC
 70
0
 62
7
  6
CONTINUOUS
370
-3
390
F
  0
LAYER
  5
20C
100
AcDbSymbolTableRecord
100
AcDbLayerTableRecord
  2
17_NO_PRINT
 70
0
 62
7
  6
CONTINUOUS
370
-3
390
F
  0
LAYER
  5
20D
100
AcDbSymbolTableRecord
100
AcDbLayerTableRecord
  2
18_DATUM_CAMS_JOINTS
 70
0
 62
7
  6
CONTINUOUS
370
-3
390
F
  0
LAYER
  5
20E
100
AcDbSymbolTableRecord
100
AcDbLayerTableRecord
  2
19_DATUM_FUNCTIONAL
 70
0
 62
7
  6
CONTINUOUS
370
-3
390
F
  0
LAYER
  5
20F
100
AcDbSymbolTableRecord
100
AcDbLayerTableRecord
  2
20_DATUM_KINEMATIC_SCHEME
 70
0
 62
7
  6
CONTINUOUS
370
-3
390
F
  0
LAYER
  5
210
100
AcDbSymbolTableRecord
100
AcDbLayerTableRecord
  2
INTFCLR_31
 70
0
 62
7
  6
CONTINUOUS
370
-3
390
F
  0
LAYER
  5
211
100
AcDbSymbolTableRecord
100
AcDbLayerTableRecord
  2
INTFCLR_71
 70
0
 62
7
  6
CONTINUOUS
370
-3
390
F
  0
LAYER
  5
212
100
AcDbSymbolTableRecord
100
AcDbLayerTableRecord
  2
INTF_BLANK
 70
0
 62
7
  6
CONTINUOUS
370
-3
390
F
  0
LAYER
  5
213
100
AcDbSymbolTableRecord
100
AcDbLayerTableRecord
  2
_BLACK_HOLE
 70
0
 62
7
  6
CONTINUOUS
370
-3
390
F
  0
ENDTAB
  0
TABLE
  2
STYLE
  5
3
100
AcDbSymbolTable
 70
1
  0
STYLE
  5
11
100
AcDbSymbolTableRecord
100
AcDbTextStyleTableRecord
  2
STANDARD
 70
0
 40
0.0
 41
1.0
 50
0.0
 71
0
 42
0.2
  3
ARIAL.TTF
  4

  0
STYLE
  5
214
100
AcDbSymbolTableRecord
100
AcDbTextStyleTableRecord
  2
TEXTSTYLE_1
 70
0
 40
0.0
 41
0.8
 50
0.0
 71
0
 42
0.2
  3
gdt
  4

  0
ENDTAB
  0
TABLE
  2
VIEW
  5
6
100
AcDbSymbolTable
 70
0
  0
ENDTAB
  0
TABLE
  2
UCS
  5
7
100
AcDbSymbolTable
 70
0
  0
ENDTAB
  0
TABLE
  2
APPID
  5
9
100
AcDbSymbolTable
 70
1
  0
APPID
  5
215
100
AcDbSymbolTableRecord
100
AcDbRegAppTableRecord
  2
ACAD
 70
0
  0
ENDTAB
  0
TABLE
  2
BLOCK_RECORD
  5
1
100
AcDbSymbolTable
 70
0
  0
BLOCK_RECORD
  5
216
100
AcDbSymbolTableRecord
100
AcDbBlockTableRecord
  2
*Model_Space
  0
BLOCK_RECORD
  5
217
100
AcDbSymbolTableRecord
100
AcDbBlockTableRecord
  2
*Paper_Space
  0
BLOCK_RECORD
  5
218
100
AcDbSymbolTableRecord
100
AcDbBlockTableRecord
  2
_FILLED
  0
ENDTAB
  0
TABLE
  2
DIMSTYLE
  5
A
100
AcDbSymbolTable
 70
1
100
AcDbDimStyleTable
 71
0
  0
DIMSTYLE
105
219
100
AcDbSymbolTableRecord
100
AcDbDimStyleTableRecord
  2
STANDARD
 70
0
  3

  4

 40
1.0
 41
1.1742695615
 42
1.0
 43
0.38
 44
1.0
 45
0.0
 46
0.0
 47
0.01
 48
0.01
140
1.6439773861
141
0.09
142
0.0
143
25.4
144
1.0
145
0.0
146
1.0
147
0.625
 71
1
 72
0
 73
0
 74
0
 75
0
 76
0
 77
1
 78
8
 79
2
170
0
171
1
172
0
173
0
174
0
175
0
176
0
177
0
178
0
270
2
179
2
271
2
272
2
273
2
274
2
275
0
280
0
281
0
282
0
283
1
284
8
285
0
286
0
287
3
288
0
340
11
278
46
341
218
342
218
343
218
344
218
  0
ENDTAB
  0
ENDSEC
  0
SECTION
  2
BLOCKS
  0
BLOCK
  5
20
100
AcDbEntity
  8
0
100
AcDbBlockBegin
  2
*Model_Space
 70
0
 10
0.0
 20
0.0
 30
0.0
  3
*Model_Space
  1

  0
ENDBLK
  5
21
100
AcDbEntity
  8
0
100
AcDbBlockEnd
  0
BLOCK
  5
1C
100
AcDbEntity
  8
0
100
AcDbBlockBegin
  2
*Paper_Space
 70
0
 10
0.0
 20
0.0
 30
0.0
  3
*Paper_Space
  1

  0
ENDBLK
  5
1D
100
AcDbEntity
  8
0
100
AcDbBlockEnd
  0
BLOCK
  5
21A
100
AcDbEntity
  8
0
100
AcDbBlockBegin
  2
_FILLED
 70
64
 10
0.0
 20
0.0
  3
_FILLED
  1

  0
SOLID
  5
21B
100
AcDbEntity
  8
0
  6
BYBLOCK
 62
0
100
AcDbTrace
 10
0.0
 20
0.0
 11
-1.0
 21
0.25
 12
-1.0
 22
-0.25
 13
-1.0
 23
-0.25
  0
ENDBLK
  5
21C
100
AcDbEntity
  8
0
  6
BYBLOCK
 62
0
100
AcDbBlockEnd
  0
ENDSEC
  0
SECTION
  2
ENTITIES
  0
LINE
  5
21D
100
AcDbEntity
  8
00_COMPONENTS_1
100
AcDbLine
 62
7
  6
BYLAYER
 10
11.4432174718
 20
62.943867689
 11
11.4432174718
 21
83.7646793258
  0
LINE
  5
21E
100
AcDbEntity
  8
00_COMPONENTS_1
100
AcDbLine
 62
7
  6
BYLAYER
 10
12.6606254609
 20
76.7720410141
 11
12.6606254609
 21
66.5249356791
  0
LINE
  5
21F
100
AcDbEntity
  8
00_COMPONENTS_1
100
AcDbLine
 62
7
  6
BYLAYER
 10
12.7093007361
 20
66.38157565
 11
12.7093007361
 21
76.4572154774
  0
LINE
  5
220
100
AcDbEntity
  8
00_COMPONENTS_1
100
AcDbLine
 62
7
  6
BYLAYER
 10
14.7500255983
 20
56.5247182
 11
14.7500255983
 21
60.4909348293
  0
LINE
  5
221
100
AcDbEntity
  8
00_COMPONENTS_1
100
AcDbLine
 62
7
  6
BYLAYER
 10
15.7348885097
 20
61.1598292632
 11
15.7348885097
 21
60.6656274516
  0
LINE
  5
222
100
AcDbEntity
  8
00_COMPONENTS_1
100
AcDbLine
 62
7
  6
BYLAYER
 10
15.7914827347
 20
60.526839403
 11
15.7914827347
 21
61.0210412146
  0
LINE
  5
223
100
AcDbEntity
  8
00_COMPONENTS_1
100
AcDbLine
 62
7
  6
BYLAYER
 10
20.4563938969
 20
83.3754631908
 11
19.2472618167
 21
81.2811733691
  0
LINE
  5
224
100
AcDbEntity
  8
00_COMPONENTS_1
100
AcDbLine
 62
7
  6
BYLAYER
 10
37.9006211261
 20
101.7342733394
 11
39.9158670621
 21
102.8977691779
  0
LINE
  5
225
100
AcDbEntity
  8
00_COMPONENTS_1
100
AcDbLine
 62
7
  6
BYLAYER
 10
41.3300865124
 20
102.0812876689
 11
39.3148405764
 21
100.9177918304
  0
LINE
  5
226
100
AcDbEntity
  8
00_COMPONENTS_1
100
AcDbLine
 62
7
  6
BYLAYER
 10
18.7130134289
 20
67.6538609106
 11
18.7130134289
 21
68.8786145363
  0
LINE
  5
227
100
AcDbEntity
  8
00_COMPONENTS_1
100
AcDbLine
 62
7
  6
BYLAYER
 10
19.5649031896
 20
69.9070479364
 11
19.5649031896
 21
69.8009050558
  0
LINE
  5
228
100
AcDbEntity
  8
00_COMPONENTS_1
100
AcDbLine
 62
7
  6
BYLAYER
 10
19.9473256488
 20
69.2052071399
 11
19.9473256488
 21
68.5619670278
  0
LINE
  5
229
100
AcDbEntity
  8
00_COMPONENTS_1
100
AcDbLine
 62
7
  6
BYLAYER
 10
21.0112192815
 20
68.5946891229
 11
21.0112192815
 21
69.1090261936
  0
LINE
  5
22A
100
AcDbEntity
  8
00_COMPONENTS_1
100
AcDbLine
 62
7
  6
BYLAYER
 10
11.4432174718
 20
83.7646793258
 11
33.5098570174
 21
96.5047835594
  0
LINE
  5
22B
100
AcDbEntity
  8
00_COMPONENTS_1
100
AcDbLine
 62
7
  6
BYLAYER
 10
35.8098570174
 20
97.832681252
 11
37.0644590168
 21
98.5570217304
  0
LINE
  5
22C
100
AcDbEntity
  8
00_COMPONENTS_1
100
AcDbLine
 62
7
  6
BYLAYER
 10
41.3300865124
 20
101.0197682126
 11
44.215042495
 21
102.6853883833
  0
LINE
  5
22D
100
AcDbEntity
  8
00_COMPONENTS_1
100
AcDbLine
 62
7
  6
BYLAYER
 10
46.9913894843
 20
37.8697185249
 11
47.7013287806
 21
37.4598441536
  0
LINE
  5
22E
100
AcDbEntity
  8
00_COMPONENTS_1
100
AcDbLine
 62
7
  6
BYLAYER
 10
44.4486322881
 20
39.6235519827
 11
35.9350311973
 21
44.5387706671
  0
LWPOLYLINE
  5
22F
100
AcDbEntity
  8
00_COMPONENTS_1
100
AcDbPolyline
 62
7
  6
BYLAYER
 90
4
 70
0
 10
32.3119876412
 20
44.8127498181
 10
36.6896920094
 20
41.6779659251
 10
43.0577151455
 20
38.0014692268
 10
57.0704540349
 20
31.4788687226
  0
LWPOLYLINE
  5
230
100
AcDbEntity
  8
00_COMPONENTS_1
100
AcDbPolyline
 62
7
  6
BYLAYER
 90
4
 70
0
 10
11.4432174718
 20
62.943867689
 10
22.5158809076
 20
54.7303581818
 10
28.8950414937
 20
51.0472920899
 10
32.1591302089
 20
49.5804679372
  0
LINE
  5
231
100
AcDbEntity
  8
00_COMPONENTS_1
100
AcDbLine
 62
7
  6
BYLAYER
 10
21.7858109342
 20
68.1437811781
 11
21.7858109342
 21
66.9190275525
  0
LINE
  5
232
100
AcDbEntity
  8
00_COMPONENTS_1
100
AcDbLine
 62
7
  6
BYLAYER
 10
22.3508481326
 20
66.9431489568
 11
22.3508481326
 21
68.086252082
  0
LINE
  5
233
100
AcDbEntity
  8
00_COMPONENTS_1
100
AcDbLine
 62
7
  6
BYLAYER
 10
48.2308905525
 20
100.3668898778
 11
45.5285086917
 21
98.346927551
  0
LINE
  5
234
100
AcDbEntity
  8
00_COMPONENTS_1
100
AcDbLine
 62
7
  6
BYLAYER
 10
43.4093931695
 20
96.7629421111
 11
34.1607637629
 21
89.8498247437
  0
LINE
  5
235
100
AcDbEntity
  8
00_COMPONENTS_1
100
AcDbLine
 62
7
  6
BYLAYER
 10
47.1495985642
 20
100.9911599754
 11
57.0489771404
 21
106.706534745
  0
LINE
  5
236
100
AcDbEntity
  8
00_COMPONENTS_1
100
AcDbLine
 62
7
  6
BYLAYER
 10
41.3300865124
 20
97.1822731661
 11
37.7945673264
 21
95.1410523968
  0
LINE
  5
237
100
AcDbEntity
  8
00_COMPONENTS_1
100
AcDbLine
 62
7
  6
BYLAYER
 10
20.4563938969
 20
83.3754631908
 11
18.0380987737
 21
81.9792681845
  0
LINE
  5
238
100
AcDbEntity
  8
00_COMPONENTS_1
100
AcDbLine
 62
7
  6
BYLAYER
 10
64.4100011551
 20
107.548326239
 11
65.8242088295
 21
108.3648145467
  0
LINE
  5
239
100
AcDbEntity
  8
00_COMPONENTS_1
100
AcDbLine
 62
7
  6
BYLAYER
 10
35.9441157706
 20
47.8795618884
 11
43.1211339581
 21
44.6543359401
  0
LINE
  5
23A
100
AcDbEntity
  8
00_COMPONENTS_1
100
AcDbLine
 62
7
  6
BYLAYER
 10
47.6306178081
 20
38.9295474591
 11
47.7013287806
 21
38.8887233836
  0
LINE
  5
23B
100
AcDbEntity
  8
00_COMPONENTS_1
100
AcDbLine
 62
7
  6
BYLAYER
 10
34.8461471645
 20
47.245653202
 11
32.1591302089
 21
48.7969680692
  0
LINE
  5
23C
100
AcDbEntity
  8
00_COMPONENTS_1
100
AcDbLine
 62
7
  6
BYLAYER
 10
14.1101665326
 20
64.920251809
 11
14.0029466548
 21
65.0067565609
  0
LINE
  5
23D
100
AcDbEntity
  8
00_COMPONENTS_1
100
AcDbLine
 62
7
  6
BYLAYER
 10
27.2050688568
 20
66.5941172348
 11
27.2050688568
 21
52.8932066753
  0
LINE
  5
23E
100
AcDbEntity
  8
00_COMPONENTS_1
100
AcDbLine
 62
7
  6
BYLAYER
 10
27.4275438312
 20
52.6787238427
 11
27.4275438312
 21
66.7225654173
  0
LINE
  5
23F
100
AcDbEntity
  8
00_COMPONENTS_1
100
AcDbLine
 62
7
  6
BYLAYER
 10
36.718473856
 20
88.3731635395
 11
43.4093931695
 21
93.37445708
  0
LINE
  5
240
100
AcDbEntity
  8
00_COMPONENTS_1
100
AcDbLine
 62
7
  6
BYLAYER
 10
45.7093931695
 20
95.0936491079
 11
48.2308905525
 21
96.9784048467
  0
LINE
  5
241
100
AcDbEntity
  8
00_COMPONENTS_1
100
AcDbLine
 62
7
  6
BYLAYER
 10
12.7093007361
 20
76.4572154774
 11
12.9122144749
 21
76.5743670798
  0
LINE
  5
242
100
AcDbEntity
  8
00_COMPONENTS_1
100
AcDbLine
 62
7
  6
BYLAYER
 10
34.8461471645
 20
51.1648648042
 11
32.1591302089
 21
52.7161796714
  0
LINE
  5
243
100
AcDbEntity
  8
00_COMPONENTS_1
100
AcDbLine
 62
7
  6
BYLAYER
 10
32.1591302089
 20
52.7161796714
 11
32.1591302089
 21
48.7969680692
  0
LINE
  5
244
100
AcDbEntity
  8
00_COMPONENTS_1
100
AcDbLine
 62
7
  6
BYLAYER
 10
32.3126361105
 20
47.4952333074
 11
32.3126361105
 21
44.8136554011
  0
LINE
  5
245
100
AcDbEntity
  8
00_COMPONENTS_1
100
AcDbLine
 62
7
  6
BYLAYER
 10
37.9006211261
 20
101.7342733394
 11
36.3803478761
 21
95.9575339058
  0
LINE
  5
246
100
AcDbEntity
  8
00_COMPONENTS_1
100
AcDbLine
 62
7
  6
BYLAYER
 10
37.7945673264
 20
95.1410523968
 11
39.3148405764
 21
100.9177918304
  0
LINE
  5
247
100
AcDbEntity
  8
00_COMPONENTS_1
100
AcDbLine
 62
7
  6
BYLAYER
 10
40.126545845
 20
86.4055567725
 11
43.4093931695
 21
88.9840897611
  0
LINE
  5
248
100
AcDbEntity
  8
00_COMPONENTS_1
100
AcDbLine
 62
7
  6
BYLAYER
 10
45.7093931695
 20
90.790639164
 11
53.8045339331
 21
97.1490181696
  0
LINE
  5
249
100
AcDbEntity
  8
00_COMPONENTS_1
100
AcDbLine
 62
7
  6
BYLAYER
 10
56.6108371295
 20
44.0325997224
 11
56.540126157
 21
44.0734237978
  0
LINE
  5
24A
100
AcDbEntity
  8
00_COMPONENTS_1
100
AcDbLine
 62
7
  6
BYLAYER
 10
33.5098570174
 20
92.8461982625
 11
33.5098570174
 21
103.7465055312
  0
LINE
  5
24B
100
AcDbEntity
  8
00_COMPONENTS_1
100
AcDbLine
 62
7
  6
BYLAYER
 10
34.3865072962
 20
64.0043033659
 11
34.3865072962
 21
61.3098453894
  0
LINE
  5
24C
100
AcDbEntity
  8
00_COMPONENTS_1
100
AcDbLine
 62
7
  6
BYLAYER
 10
34.8461471645
 20
51.1648648042
 11
34.8461471645
 21
47.245653202
  0
LINE
  5
24D
100
AcDbEntity
  8
00_COMPONENTS_1
100
AcDbLine
 62
7
  6
BYLAYER
 10
35.1438616276
 20
64.792651995
 11
35.1438616276
 21
64.441559483
  0
LINE
  5
24E
100
AcDbEntity
  8
00_COMPONENTS_1
100
AcDbLine
 62
7
  6
BYLAYER
 10
35.1438616276
 20
54.7415072402
 11
35.1438616276
 21
54.4394048732
  0
LINE
  5
24F
100
AcDbEntity
  8
00_COMPONENTS_1
100
AcDbLine
 62
7
  6
BYLAYER
 10
35.8098570174
 20
92.8461982625
 11
35.8098570174
 21
103.7465055312
  0
LINE
  5
250
100
AcDbEntity
  8
00_COMPONENTS_1
100
AcDbLine
 62
7
  6
BYLAYER
 10
35.9350311973
 20
47.4801986656
 11
35.9350311973
 21
44.5387706671
  0
LINE
  5
251
100
AcDbEntity
  8
00_COMPONENTS_1
100
AcDbLine
 62
7
  6
BYLAYER
 10
33.9551440998
 20
72.7897656751
 11
35.16427618
 21
74.8840554968
  0
LINE
  5
252
100
AcDbEntity
  8
00_COMPONENTS_1
100
AcDbLine
 62
7
  6
BYLAYER
 10
58.1304267046
 20
94.6515193145
 11
55.4280448437
 21
92.6315569877
  0
LINE
  5
253
100
AcDbEntity
  8
00_COMPONENTS_1
100
AcDbLine
 62
7
  6
BYLAYER
 10
53.3089293216
 20
91.0475715478
 11
44.0602999149
 21
84.1344541804
  0
LINE
  5
254
100
AcDbEntity
  8
00_COMPONENTS_1
100
AcDbLine
 62
7
  6
BYLAYER
 10
12.6606254609
 20
66.5249356791
 11
12.7093007361
 21
66.5530381946
  0
LINE
  5
255
100
AcDbEntity
  8
00_COMPONENTS_1
100
AcDbLine
 62
7
  6
BYLAYER
 10
19.6949618182
 20
69.9821368724
 11
19.5649031896
 21
69.9070479364
  0
LINE
  5
256
100
AcDbEntity
  8
00_COMPONENTS_1
100
AcDbLine
 62
7
  6
BYLAYER
 10
19.2402159237
 20
69.6134478944
 11
19.7801214596
 21
69.9251606402
  0
LINE
  5
257
100
AcDbEntity
  8
00_COMPONENTS_1
100
AcDbLine
 62
7
  6
BYLAYER
 10
12.9980576865
 20
65.9032557401
 11
12.9482802029
 21
65.8745168681
  0
LINE
  5
258
100
AcDbEntity
  8
00_COMPONENTS_1
100
AcDbLine
 62
7
  6
BYLAYER
 10
19.9473256488
 20
69.2052071399
 11
20.4351913076
 21
69.486874828
  0
LINE
  5
259
100
AcDbEntity
  8
00_COMPONENTS_1
100
AcDbLine
 62
7
  6
BYLAYER
 10
69.1052162068
 20
97.2149266644
 11
69.8830304277
 21
97.6639952337
  0
LINE
  5
25A
100
AcDbEntity
  8
00_COMPONENTS_1
100
AcDbLine
 62
7
  6
BYLAYER
 10
21.0112192815
 20
68.5946891229
 11
21.080306526
 21
68.5548024861
  0
LINE
  5
25B
100
AcDbEntity
  8
00_COMPONENTS_1
100
AcDbLine
 62
7
  6
BYLAYER
 10
34.3865072962
 20
61.3098453894
 11
37.0735242517
 21
59.7585305222
  0
LINE
  5
25C
100
AcDbEntity
  8
00_COMPONENTS_1
100
AcDbLine
 62
7
  6
BYLAYER
 10
19.6949605963
 20
69.9821389888
 11
19.7801214596
 21
69.9251606402
  0
LINE
  5
25D
100
AcDbEntity
  8
00_COMPONENTS_1
100
AcDbLine
 62
7
  6
BYLAYER
 10
19.6949605963
 20
69.9821389888
 11
19.7796050928
 21
69.9249057813
  0
LINE
  5
25E
100
AcDbEntity
  8
00_COMPONENTS_1
100
AcDbLine
 62
7
  6
BYLAYER
 10
37.0735242517
 20
62.4529884988
 11
37.0735242517
 21
59.7585305222
  0
LINE
  5
25F
100
AcDbEntity
  8
00_COMPONENTS_1
100
AcDbLine
 62
7
  6
BYLAYER
 10
38.8478546912
 20
48.9599873244
 11
38.8478546912
 21
53.1241496517
  0
LINE
  5
260
100
AcDbEntity
  8
00_COMPONENTS_1
100
AcDbLine
 62
7
  6
BYLAYER
 10
38.8478546912
 20
60.1950605841
 11
38.8478546912
 21
63.1752944066
  0
LINE
  5
261
100
AcDbEntity
  8
00_COMPONENTS_1
100
AcDbLine
 62
7
  6
BYLAYER
 10
46.6180100081
 20
82.6577929762
 11
53.3089293216
 21
87.6590865167
  0
LINE
  5
262
100
AcDbEntity
  8
00_COMPONENTS_1
100
AcDbLine
 62
7
  6
BYLAYER
 10
55.6089293216
 20
89.3782785446
 11
58.1304267046
 21
91.2630342834
  0
LINE
  5
263
100
AcDbEntity
  8
00_COMPONENTS_1
100
AcDbLine
 62
7
  6
BYLAYER
 10
14.1101665326
 20
64.920251809
 11
14.1370706223
 21
64.9357847997
  0
LINE
  5
264
100
AcDbEntity
  8
00_COMPONENTS_1
100
AcDbLine
 62
7
  6
BYLAYER
 10
20.8157482881
 20
68.4818345659
 11
21.0112192815
 21
68.5946891229
  0
LINE
  5
265
100
AcDbEntity
  8
00_COMPONENTS_1
100
AcDbLine
 62
7
  6
BYLAYER
 10
21.4970134198
 20
68.7935331585
 11
21.0787012091
 21
68.5520219327
  0
LINE
  5
266
100
AcDbEntity
  8
00_COMPONENTS_1
100
AcDbLine
 62
7
  6
BYLAYER
 10
14.3928047816
 20
64.4069397782
 11
14.4090128664
 21
64.4162974645
  0
LINE
  5
267
100
AcDbEntity
  8
00_COMPONENTS_1
100
AcDbLine
 62
7
  6
BYLAYER
 10
58.4775141279
 20
89.8544673829
 11
60.4927600639
 21
91.0179632214
  0
LINE
  5
268
100
AcDbEntity
  8
00_COMPONENTS_1
100
AcDbLine
 62
7
  6
BYLAYER
 10
21.7858109342
 20
68.1437811781
 11
22.168574565
 21
68.3647685443
  0
LINE
  5
269
100
AcDbEntity
  8
00_COMPONENTS_1
100
AcDbLine
 62
7
  6
BYLAYER
 10
35.16427618
 20
74.8840554968
 11
43.3313254998
 21
79.599275474
  0
LINE
  5
26A
100
AcDbEntity
  8
00_COMPONENTS_1
100
AcDbLine
 62
7
  6
BYLAYER
 10
61.9069795142
 20
90.2014817123
 11
59.8917335782
 21
89.0379858738
  0
LINE
  5
26B
100
AcDbEntity
  8
00_COMPONENTS_1
100
AcDbLine
 62
7
  6
BYLAYER
 10
21.7858109342
 20
66.9190275525
 11
22.3508481326
 21
67.2452499838
  0
LINE
  5
26C
100
AcDbEntity
  8
00_COMPONENTS_1
100
AcDbLine
 62
7
  6
BYLAYER
 10
79.9522611379
 20
100.2081642714
 11
78.5380534635
 21
99.3916759637
  0
LINE
  5
26D
100
AcDbEntity
  8
00_COMPONENTS_1
100
AcDbLine
 62
7
  6
BYLAYER
 10
22.2155825493
 20
66.8650509802
 11
22.3508503732
 21
66.9431474285
  0
LINE
  5
26E
100
AcDbEntity
  8
00_COMPONENTS_1
100
AcDbLine
 62
7
  6
BYLAYER
 10
72.2872099699
 20
95.3778432691
 11
73.0650241909
 21
95.8269118384
  0
LINE
  5
26F
100
AcDbEntity
  8
00_COMPONENTS_1
100
AcDbLine
 62
7
  6
BYLAYER
 10
34.3865072962
 20
64.0043033659
 11
37.0735242517
 21
62.4529884988
  0
LINE
  5
270
100
AcDbEntity
  8
00_COMPONENTS_1
100
AcDbLine
 62
7
  6
BYLAYER
 10
41.3300865124
 20
102.0812876689
 11
41.3300865124
 21
97.1822731661
  0
LINE
  5
271
100
AcDbEntity
  8
00_COMPONENTS_1
100
AcDbLine
 62
7
  6
BYLAYER
 10
43.1211339581
 20
65.4751475769
 11
43.1211339581
 21
44.6543359401
  0
LINE
  5
272
100
AcDbEntity
  8
00_COMPONENTS_1
100
AcDbLine
 62
7
  6
BYLAYER
 10
50.026081997
 20
80.6901862092
 11
53.3089293216
 21
83.2687191978
  0
LINE
  5
273
100
AcDbEntity
  8
00_COMPONENTS_1
100
AcDbLine
 62
7
  6
BYLAYER
 10
55.6089293216
 20
85.0752686007
 11
57.6395048396
 21
86.6701968571
  0
LINE
  5
274
100
AcDbEntity
  8
00_COMPONENTS_1
100
AcDbLine
 62
7
  6
BYLAYER
 10
61.9069795142
 20
90.0221115637
 11
63.7040700852
 21
91.4336476063
  0
LINE
  5
275
100
AcDbEntity
  8
00_COMPONENTS_1
100
AcDbLine
 62
7
  6
BYLAYER
 10
15.5612561801
 20
61.6617237563
 11
15.5797447072
 21
61.6723980487
  0
LINE
  5
276
100
AcDbEntity
  8
00_COMPONENTS_1
100
AcDbLine
 62
7
  6
BYLAYER
 10
15.7676461872
 20
61.1787418042
 11
15.7348885097
 21
61.1598292632
  0
LINE
  5
277
100
AcDbEntity
  8
00_COMPONENTS_1
100
AcDbLine
 62
7
  6
BYLAYER
 10
34.9380590843
 20
72.2222922822
 11
43.3313254998
 21
77.0681179809
  0
LINE
  5
278
100
AcDbEntity
  8
00_COMPONENTS_1
100
AcDbLine
 62
7
  6
BYLAYER
 10
15.7348885097
 20
60.6656274516
 11
15.7914827347
 21
60.6983019476
  0
LINE
  5
279
100
AcDbEntity
  8
00_COMPONENTS_1
100
AcDbLine
 62
7
  6
BYLAYER
 10
27.2050688568
 20
66.5941172348
 11
27.4275451142
 21
66.7225631951
  0
LINE
  5
27A
100
AcDbEntity
  8
00_COMPONENTS_1
100
AcDbLine
 62
7
  6
BYLAYER
 10
16.1030607081
 20
60.0616951382
 11
16.040054321
 21
60.0253186007
  0
LINE
  5
27B
100
AcDbEntity
  8
00_COMPONENTS_1
100
AcDbLine
 62
7
  6
BYLAYER
 10
61.9069795142
 20
85.3024672096
 11
58.3714603281
 21
83.2612464402
  0
LINE
  5
27C
100
AcDbEntity
  8
00_COMPONENTS_1
100
AcDbLine
 62
7
  6
BYLAYER
 10
43.3313254998
 20
77.0681179809
 11
43.3313254998
 21
79.599275474
  0
LINE
  5
27D
100
AcDbEntity
  8
00_COMPONENTS_1
100
AcDbLine
 62
7
  6
BYLAYER
 10
43.4093931695
 20
87.1308276993
 11
43.4093931695
 21
98.0311349679
  0
LINE
  5
27E
100
AcDbEntity
  8
00_COMPONENTS_1
100
AcDbLine
 62
7
  6
BYLAYER
 10
44.4486322881
 20
39.6235519827
 11
44.4486322881
 21
43.4821845447
  0
LINE
  5
27F
100
AcDbEntity
  8
00_COMPONENTS_1
100
AcDbLine
 62
7
  6
BYLAYER
 10
45.1682578055
 20
45.8362363894
 11
45.1682578055
 21
38.7477558623
  0
LINE
  5
280
100
AcDbEntity
  8
00_COMPONENTS_1
100
AcDbLine
 62
7
  6
BYLAYER
 10
45.7093931695
 20
87.1308276993
 11
45.7093931695
 21
98.0311349679
  0
LINE
  5
281
100
AcDbEntity
  8
00_COMPONENTS_1
100
AcDbLine
 62
7
  6
BYLAYER
 10
46.4285412849
 20
46.5638570522
 11
46.4285412849
 21
38.2355323975
  0
LINE
  5
282
100
AcDbEntity
  8
00_COMPONENTS_1
100
AcDbLine
 62
7
  6
BYLAYER
 10
68.0299628566
 20
88.9361487512
 11
53.959836067
 21
78.4190836172
  0
LINE
  5
283
100
AcDbEntity
  8
00_COMPONENTS_1
100
AcDbLine
 62
7
  6
BYLAYER
 10
80.0984854995
 20
91.7662329233
 11
81.512693174
 21
92.582721231
  0
LINE
  5
284
100
AcDbEntity
  8
00_COMPONENTS_1
100
AcDbLine
 62
7
  6
BYLAYER
 10
18.0380987737
 20
81.9792681845
 11
43.8829592278
 21
67.0580686068
  0
LINE
  5
285
100
AcDbEntity
  8
00_COMPONENTS_1
100
AcDbLine
 62
7
  6
BYLAYER
 10
35.16427618
 20
74.8840554968
 11
20.4563938969
 21
83.3754631908
  0
LINE
  5
286
100
AcDbEntity
  8
00_COMPONENTS_1
100
AcDbLine
 62
7
  6
BYLAYER
 10
46.9913894843
 20
37.8697185249
 11
46.9913894843
 21
38.5604910172
  0
LINE
  5
287
100
AcDbEntity
  8
00_COMPONENTS_1
100
AcDbLine
 62
7
  6
BYLAYER
 10
47.7013287806
 20
37.4598441536
 11
47.7013287806
 21
38.8887233836
  0
LINE
  5
288
100
AcDbEntity
  8
00_COMPONENTS_1
100
AcDbLine
 62
7
  6
BYLAYER
 10
48.2308905525
 20
96.9784048467
 11
48.2308905525
 21
100.3668898778
  0
LINE
  5
289
100
AcDbEntity
  8
00_COMPONENTS_1
100
AcDbLine
 62
7
  6
BYLAYER
 10
56.5175461601
 20
76.9424224129
 11
68.0299628566
 21
85.5476637201
  0
LINE
  5
28A
100
AcDbEntity
  8
00_COMPONENTS_1
100
AcDbLine
 62
7
  6
BYLAYER
 10
34.3865072962
 20
64.0043033659
 11
35.4857200177
 21
64.6389303384
  0
LINE
  5
28B
100
AcDbEntity
  8
00_COMPONENTS_1
100
AcDbLine
 62
7
  6
BYLAYER
 10
53.5631983946
 20
74.3615493809
 11
56.4269689353
 21
76.0149382041
  0
LINE
  5
28C
100
AcDbEntity
  8
00_COMPONENTS_1
100
AcDbLine
 62
7
  6
BYLAYER
 10
54.4683036709
 20
73.1694835903
 11
43.8829592278
 21
67.0580686068
  0
LINE
  5
28D
100
AcDbEntity
  8
00_COMPONENTS_1
100
AcDbLine
 62
7
  6
BYLAYER
 10
55.1895788667
 20
73.4225794199
 11
56.4269689353
 21
74.1369826447
  0
LINE
  5
28E
100
AcDbEntity
  8
00_COMPONENTS_1
100
AcDbLine
 62
7
  6
BYLAYER
 10
38.5461376798
 20
63.3031971828
 11
37.0735242517
 21
62.4529884988
  0
LINE
  5
28F
100
AcDbEntity
  8
00_COMPONENTS_1
100
AcDbLine
 62
7
  6
BYLAYER
 10
43.1211339581
 20
65.4751475769
 11
56.0380824326
 21
72.9327067401
  0
LINE
  5
290
100
AcDbEntity
  8
00_COMPONENTS_1
100
AcDbLine
 62
7
  6
BYLAYER
 10
58.9018529733
 20
74.5860955633
 11
59.750377578
 21
75.0759885479
  0
LINE
  5
291
100
AcDbEntity
  8
00_COMPONENTS_1
100
AcDbLine
 62
7
  6
BYLAYER
 10
53.3089293216
 20
81.415457136
 11
53.3089293216
 21
92.3157644047
  0
LINE
  5
292
100
AcDbEntity
  8
00_COMPONENTS_1
100
AcDbLine
 62
7
  6
BYLAYER
 10
58.4775141279
 20
89.8544673829
 11
56.9572408779
 21
84.0777279492
  0
LINE
  5
293
100
AcDbEntity
  8
00_COMPONENTS_1
100
AcDbLine
 62
7
  6
BYLAYER
 10
62.849569119
 20
101.7246741488
 11
64.4100011551
 21
107.548326239
  0
LINE
  5
294
100
AcDbEntity
  8
00_COMPONENTS_1
100
AcDbLine
 62
7
  6
BYLAYER
 10
58.9018529733
 20
72.7081400039
 11
56.0380824326
 21
71.0547511807
  0
LINE
  5
295
100
AcDbEntity
  8
00_COMPONENTS_1
100
AcDbLine
 62
7
  6
BYLAYER
 10
38.8478546912
 20
60.7829345643
 11
37.0735242517
 21
59.7585305222
  0
LINE
  5
296
100
AcDbEntity
  8
00_COMPONENTS_1
100
AcDbLine
 62
7
  6
BYLAYER
 10
59.750377578
 20
71.6875035169
 11
88.727492827
 21
88.4173489425
  0
LINE
  5
297
100
AcDbEntity
  8
00_COMPONENTS_1
100
AcDbLine
 62
7
  6
BYLAYER
 10
27.2050688569
 20
52.8932066753
 11
27.4275438312
 21
53.0216518949
  0
LINE
  5
298
100
AcDbEntity
  8
00_COMPONENTS_1
100
AcDbLine
 62
7
  6
BYLAYER
 10
43.3313254998
 20
77.0681179809
 11
52.2762256433
 21
71.9038943055
  0
LINE
  5
299
100
AcDbEntity
  8
00_COMPONENTS_1
100
AcDbLine
 62
7
  6
BYLAYER
 10
55.6089293216
 20
81.415457136
 11
55.6089293216
 21
92.3157644047
  0
LINE
  5
29A
100
AcDbEntity
  8
00_COMPONENTS_1
100
AcDbLine
 62
7
  6
BYLAYER
 10
56.0380824326
 20
71.0547511807
 11
56.0380824326
 21
72.9327067401
  0
LINE
  5
29B
100
AcDbEntity
  8
00_COMPONENTS_1
100
AcDbLine
 62
7
  6
BYLAYER
 10
56.4269689353
 20
74.1369826447
 11
56.4269689353
 21
76.0149382041
  0
LINE
  5
29C
100
AcDbEntity
  8
00_COMPONENTS_1
100
AcDbLine
 62
7
  6
BYLAYER
 10
56.6108371295
 20
42.6037204924
 11
56.6108371295
 21
44.0325997224
  0
LINE
  5
29D
100
AcDbEntity
  8
00_COMPONENTS_1
100
AcDbLine
 62
7
  6
BYLAYER
 10
57.0704540349
 20
44.3796069132
 11
57.0704540349
 21
31.4788687226
  0
LINE
  5
29E
100
AcDbEntity
  8
00_COMPONENTS_1
100
AcDbLine
 62
7
  6
BYLAYER
 10
58.3714603281
 20
83.2612464402
 11
59.8917335782
 21
89.0379858738
  0
LINE
  5
29F
100
AcDbEntity
  8
00_COMPONENTS_1
100
AcDbLine
 62
7
  6
BYLAYER
 10
32.1591302089
 20
52.7161796714
 11
35.4380183678
 21
54.6092353326
  0
LINE
  5
2A0
100
AcDbEntity
  8
00_COMPONENTS_1
100
AcDbLine
 62
7
  6
BYLAYER
 10
43.3313254998
 20
79.599275474
 11
54.4683036709
 21
73.1694835903
  0
LINE
  5
2A1
100
AcDbEntity
  8
00_COMPONENTS_1
100
AcDbLine
 62
7
  6
BYLAYER
 10
53.5631983946
 20
74.3615493809
 11
56.0380824326
 21
72.9327067401
  0
LINE
  5
2A2
100
AcDbEntity
  8
00_COMPONENTS_1
100
AcDbLine
 62
7
  6
BYLAYER
 10
56.4269689353
 20
74.1369826447
 11
58.9018529733
 21
72.7081400039
  0
LINE
  5
2A3
100
AcDbEntity
  8
00_COMPONENTS_1
100
AcDbLine
 62
7
  6
BYLAYER
 10
58.1304267046
 20
91.2630342834
 11
58.1304267046
 21
94.6515193145
  0
LINE
  5
2A4
100
AcDbEntity
  8
00_COMPONENTS_1
100
AcDbLine
 62
7
  6
BYLAYER
 10
58.9018529733
 20
72.7081400039
 11
58.9018529733
 21
74.5860955633
  0
LINE
  5
2A5
100
AcDbEntity
  8
00_COMPONENTS_1
100
AcDbLine
 62
7
  6
BYLAYER
 10
59.750377578
 20
71.6875035169
 11
59.750377578
 21
75.0759885479
  0
LINE
  5
2A6
100
AcDbEntity
  8
00_COMPONENTS_1
100
AcDbLine
 62
7
  6
BYLAYER
 10
38.4972093401
 20
53.2727939515
 11
34.8461471645
 21
51.1648648042
  0
LINE
  5
2A7
100
AcDbEntity
  8
00_COMPONENTS_1
100
AcDbLine
 62
7
  6
BYLAYER
 10
56.4269689353
 20
76.0149382041
 11
58.9018529733
 21
74.5860955633
  0
LINE
  5
2A8
100
AcDbEntity
  8
00_COMPONENTS_1
100
AcDbLine
 62
7
  6
BYLAYER
 10
50.026081997
 20
80.6901862092
 11
44.0602999149
 21
84.1344541804
  0
LINE
  5
2A9
100
AcDbEntity
  8
00_COMPONENTS_1
100
AcDbLine
 62
7
  6
BYLAYER
 10
40.126545845
 20
86.4055567725
 11
34.1607637629
 21
89.8498247437
  0
LINE
  5
2AA
100
AcDbEntity
  8
00_COMPONENTS_1
100
AcDbLine
 62
7
  6
BYLAYER
 10
53.959836067
 20
78.4190836172
 11
59.750377578
 21
75.0759885479
  0
LINE
  5
2AB
100
AcDbEntity
  8
00_COMPONENTS_1
100
AcDbLine
 62
7
  6
BYLAYER
 10
61.9069795142
 20
90.2014817123
 11
61.9069795142
 21
85.3024672096
  0
LINE
  5
2AC
100
AcDbEntity
  8
00_COMPONENTS_1
100
AcDbLine
 62
7
  6
BYLAYER
 10
38.8478546912
 20
49.5560263287
 11
34.8461471645
 21
47.245653202
  0
LINE
  5
2AD
100
AcDbEntity
  8
00_COMPONENTS_1
100
AcDbLine
 62
7
  6
BYLAYER
 10
68.0299628566
 20
85.5476637201
 11
68.0299628566
 21
88.9361487512
  0
LINE
  5
2AE
100
AcDbEntity
  8
00_COMPONENTS_1
100
AcDbLine
 62
7
  6
BYLAYER
 10
44.0686884819
 20
43.1189443406
 11
44.4486322881
 21
43.4821845447
  0
LINE
  5
2AF
100
AcDbEntity
  8
00_COMPONENTS_1
100
AcDbLine
 62
7
  6
BYLAYER
 10
46.4285412849
 20
46.5638570522
 11
43.1211339581
 21
44.6543359401
  0
LINE
  5
2B0
100
AcDbEntity
  8
00_COMPONENTS_1
100
AcDbLine
 62
7
  6
BYLAYER
 10
58.3714603281
 20
83.2612464402
 11
56.9572408779
 21
84.0777279492
  0
LINE
  5
2B1
100
AcDbEntity
  8
00_COMPONENTS_1
100
AcDbLine
 62
7
  6
BYLAYER
 10
37.7945673264
 20
95.1410523968
 11
36.3803478761
 21
95.9575339058
  0
LINE
  5
2B2
100
AcDbEntity
  8
00_COMPONENTS_1
100
AcDbLine
 62
7
  6
BYLAYER
 10
69.8830304277
 20
99.2765875075
 11
69.8830304277
 21
97.6639952337
  0
LINE
  5
2B3
100
AcDbEntity
  8
00_COMPONENTS_1
100
AcDbLine
 62
7
  6
BYLAYER
 10
71.2972381021
 20
98.4601127971
 11
71.2972381021
 21
95.9493908633
  0
LINE
  5
2B4
100
AcDbEntity
  8
00_COMPONENTS_1
100
AcDbLine
 62
7
  6
BYLAYER
 10
59.8917335782
 20
89.0379858738
 11
58.4775141279
 21
89.8544673829
  0
LINE
  5
2B5
100
AcDbEntity
  8
00_COMPONENTS_1
100
AcDbLine
 62
7
  6
BYLAYER
 10
39.3148405764
 20
100.9177918304
 11
37.9006211261
 21
101.7342733394
  0
LINE
  5
2B6
100
AcDbEntity
  8
00_COMPONENTS_1
100
AcDbLine
 62
7
  6
BYLAYER
 10
73.0650241909
 20
97.4395041122
 11
73.0650241909
 21
95.8269118384
  0
LINE
  5
2B7
100
AcDbEntity
  8
00_COMPONENTS_1
100
AcDbLine
 62
7
  6
BYLAYER
 10
57.0704540349
 20
44.3796069132
 11
46.4285412849
 21
38.2355323975
  0
LINE
  5
2B8
100
AcDbEntity
  8
00_COMPONENTS_1
100
AcDbLine
 62
7
  6
BYLAYER
 10
47.7013287806
 20
38.8887233836
 11
56.6108371295
 21
44.0325997224
  0
LINE
  5
2B9
100
AcDbEntity
  8
00_COMPONENTS_1
100
AcDbLine
 62
7
  6
BYLAYER
 10
39.9158670621
 20
102.8977691779
 11
41.3300865124
 21
102.0812876689
  0
LINE
  5
2BA
100
AcDbEntity
  8
00_COMPONENTS_1
100
AcDbLine
 62
7
  6
BYLAYER
 10
60.4927600639
 20
91.0179632214
 11
61.9069795142
 21
90.2014817123
  0
LINE
  5
2BB
100
AcDbEntity
  8
00_COMPONENTS_1
100
AcDbLine
 62
7
  6
BYLAYER
 10
68.0299628566
 20
88.9361487512
 11
63.7040700852
 21
91.4336476063
  0
LINE
  5
2BC
100
AcDbEntity
  8
00_COMPONENTS_1
100
AcDbLine
 62
7
  6
BYLAYER
 10
58.1304267046
 20
94.6515193145
 11
53.8045339331
 21
97.1490181696
  0
LINE
  5
2BD
100
AcDbEntity
  8
00_COMPONENTS_1
100
AcDbLine
 62
7
  6
BYLAYER
 10
48.2308905525
 20
100.3668898778
 11
44.215042495
 21
102.6853883833
  0
LINE
  5
2BE
100
AcDbEntity
  8
00_COMPONENTS_1
100
AcDbLine
 62
7
  6
BYLAYER
 10
47.7013287806
 20
37.4598441536
 11
56.6108371295
 21
42.6037204924
  0
LINE
  5
2BF
100
AcDbEntity
  8
00_COMPONENTS_1
100
AcDbLine
 62
7
  6
BYLAYER
 10
72.2872099699
 20
95.3778432691
 11
69.1052162068
 21
97.2149266644
  0
LINE
  5
2C0
100
AcDbEntity
  8
00_COMPONENTS_1
100
AcDbLine
 62
7
  6
BYLAYER
 10
86.5354709316
 20
49.5110306358
 11
86.5354709316
 21
48.4904026144
  0
LINE
  5
2C1
100
AcDbEntity
  8
00_COMPONENTS_1
100
AcDbLine
 62
7
  6
BYLAYER
 10
57.0704540349
 20
31.4788687226
 11
86.5354709316
 21
48.4904026144
  0
LINE
  5
2C2
100
AcDbEntity
  8
00_COMPONENTS_1
100
AcDbLine
 62
7
  6
BYLAYER
 10
62.849569119
 20
101.7246741488
 11
69.8830304277
 21
97.6639952337
  0
LINE
  5
2C3
100
AcDbEntity
  8
00_COMPONENTS_1
100
AcDbLine
 62
7
  6
BYLAYER
 10
73.0650241909
 20
95.8269118384
 11
80.0984854995
 21
91.7662329233
  0
LINE
  5
2C4
100
AcDbEntity
  8
00_COMPONENTS_1
100
AcDbLine
 62
7
  6
BYLAYER
 10
73.0650241909
 20
97.4395041122
 11
69.8830304277
 21
99.2765875075
  0
LINE
  5
2C5
100
AcDbEntity
  8
00_COMPONENTS_1
100
AcDbLine
 62
7
  6
BYLAYER
 10
88.727492827
 20
88.4173489425
 11
81.512693174
 21
92.582721231
  0
LINE
  5
2C6
100
AcDbEntity
  8
00_COMPONENTS_1
100
AcDbLine
 62
7
  6
BYLAYER
 10
63.2284983752
 20
103.1388672081
 11
57.0489771404
 21
106.706534745
  0
LINE
  5
2C7
100
AcDbEntity
  8
00_COMPONENTS_1
100
AcDbLine
 62
7
  6
BYLAYER
 10
78.5380534635
 20
99.3916759637
 11
80.0984854995
 21
91.7662329233
  0
LINE
  5
2C8
100
AcDbEntity
  8
00_COMPONENTS_1
100
AcDbLine
 62
7
  6
BYLAYER
 10
81.512693174
 20
92.582721231
 11
79.9522611379
 21
100.2081642714
  0
LINE
  5
2C9
100
AcDbEntity
  8
00_COMPONENTS_1
100
AcDbLine
 62
7
  6
BYLAYER
 10
88.727492827
 20
88.4173489425
 11
88.727492827
 21
53.3077450059
  0
LINE
  5
2CA
100
AcDbEntity
  8
00_COMPONENTS_1
100
AcDbLine
 62
7
  6
BYLAYER
 10
88.727492827
 20
53.3077450059
 11
86.5354709316
 21
49.5110306358
  0
ARC
  5
2CB
100
AcDbEntity
  8
00_COMPONENTS_1
100
AcDbCircle
 62
7
  6
BYLAYER
 10
102.4331391551
 20
177.8367378034
 40
150.4161279032
100
AcDbArc
 50
247.6223489685
 51
248.1405475663
  0
ARC
  5
2CC
100
AcDbEntity
  8
00_COMPONENTS_1
100
AcDbCircle
 62
7
  6
BYLAYER
 10
87.9710627479
 20
177.8149910781
 40
127.4658292218
100
AcDbArc
 50
247.0453616008
 51
247.3324589484
  0
ARC
  5
2CD
100
AcDbEntity
  8
00_COMPONENTS_1
100
AcDbCircle
 62
7
  6
BYLAYER
 10
87.9682434675
 20
166.5731992206
 40
127.4585430879
100
AcDbArc
 50
247.0413684658
 51
247.3324644658
  0
ARC
  5
2CE
100
AcDbEntity
  8
00_COMPONENTS_1
100
AcDbCircle
 62
7
  6
BYLAYER
 10
86.7804669776
 20
178.0009684067
 40
124.4285768229
100
AcDbArc
 50
245.6535271877
 51
247.3424834704
  0
ARC
  5
2CF
100
AcDbEntity
  8
00_COMPONENTS_1
100
AcDbCircle
 62
7
  6
BYLAYER
 10
86.7600868587
 20
167.9026988381
 40
124.3772380486
100
AcDbArc
 50
245.6290725852
 51
247.3427846288
  0
ARC
  5
2D0
100
AcDbEntity
  8
00_COMPONENTS_1
100
AcDbCircle
 62
7
  6
BYLAYER
 10
85.6093031527
 20
175.3952174887
 40
121.5717412975
100
AcDbArc
 50
245.473861784
 51
245.6501251378
  0
ARC
  5
2D1
100
AcDbEntity
  8
00_COMPONENTS_1
100
AcDbCircle
 62
7
  6
BYLAYER
 10
85.5909804947
 20
165.3038143375
 40
121.5275094482
100
AcDbArc
 50
245.4738419098
 51
245.6255466752
  0
ARC
  5
2D2
100
AcDbEntity
  8
00_COMPONENTS_1
100
AcDbCircle
 62
7
  6
BYLAYER
 10
78.6953146404
 20
145.6398693821
 40
106.1610046286
100
AcDbArc
 50
240.9595030693
 51
241.1234066619
  0
ARC
  5
2D3
100
AcDbEntity
  8
00_COMPONENTS_1
100
AcDbCircle
 62
7
  6
BYLAYER
 10
73.4635042873
 20
148.0752745449
 40
96.0283806689
100
AcDbArc
 50
237.5696436928
 51
237.7459194291
  0
ARC
  5
2D4
100
AcDbEntity
  8
00_COMPONENTS_1
100
AcDbCircle
 62
7
  6
BYLAYER
 10
73.115158333
 20
148.9959363644
 40
95.3781571281
100
AcDbArc
 50
237.2344858365
 51
237.7468699014
  0
ARC
  5
2D5
100
AcDbEntity
  8
00_COMPONENTS_1
100
AcDbCircle
 62
7
  6
BYLAYER
 10
71.6545336481
 20
146.7433959118
 40
92.6935199383
100
AcDbArc
 50
235.9691494051
 51
237.240140735
  0
ARC
  5
2D6
100
AcDbEntity
  8
00_COMPONENTS_1
100
AcDbCircle
 62
7
  6
BYLAYER
 10
63.0296275812
 20
125.6680472671
 40
77.996202682
100
AcDbArc
 50
230.0514237219
 51
231.0547275635
  0
ARC
  5
2D7
100
AcDbEntity
  8
00_COMPONENTS_1
100
AcDbCircle
 62
7
  6
BYLAYER
 10
62.8303316147
 20
125.6628533046
 40
77.8107908051
100
AcDbArc
 50
230.0594405709
 51
231.1666474141
  0
ARC
  5
2D8
100
AcDbEntity
  8
00_COMPONENTS_1
100
AcDbCircle
 62
7
  6
BYLAYER
 10
61.891929992
 20
134.9591497235
 40
76.2198200326
100
AcDbArc
 50
229.7659034092
 51
229.9375168313
  0
ARC
  5
2D9
100
AcDbEntity
  8
00_COMPONENTS_1
100
AcDbCircle
 62
7
  6
BYLAYER
 10
21.7216323182
 20
65.8990827595
 40
7.4828279301
100
AcDbArc
 50
201.0092655526
 51
204.9141951978
  0
ARC
  5
2DA
100
AcDbEntity
  8
00_COMPONENTS_1
100
AcDbCircle
 62
7
  6
BYLAYER
 10
21.7106332858
 20
65.8951951262
 40
7.4711663028
100
AcDbArc
 50
199.8756984582
 51
201.0116748832
  0
ARC
  5
2DB
100
AcDbEntity
  8
00_COMPONENTS_1
100
AcDbCircle
 62
7
  6
BYLAYER
 10
21.6082094413
 20
65.8461873326
 40
7.3576774705
100
AcDbArc
 50
204.9126970885
 51
207.1682042047
  0
ARC
  5
2DC
100
AcDbEntity
  8
00_COMPONENTS_1
100
AcDbCircle
 62
7
  6
BYLAYER
 10
20.5825402531
 20
65.5953634151
 40
6.3027911236
100
AcDbArc
 50
190.8684755819
 51
191.6837499138
  0
ARC
  5
2DD
100
AcDbEntity
  8
00_COMPONENTS_1
100
AcDbCircle
 62
7
  6
BYLAYER
 10
20.5169877514
 20
65.1847366664
 40
6.0803696739
100
AcDbArc
 50
214.7810687701
 51
215.4088930586
  0
SPLINE
  5
2DE
100
AcDbEntity
  8
00_COMPONENTS_1
100
AcDbSpline
 62
7
  6
BYLAYER
 70
0
 71
3
 72
11
 73
7
 74
0
 42
0.0000001
 43
0.0000001
 44
0.0000000001
 40
0.0
 40
0.0
 40
0.0
 40
0.0
 40
0.2131608067
 40
0.4448396113
 40
0.7061393375
 40
1.0
 40
1.0
 40
1.0
 40
1.0
 10
22.3111967586
 20
66.8526268964
 30
0.0
 10
22.3175413743
 20
66.856293291
 30
0.0
 10
22.3294403814
 20
66.8664692105
 30
0.0
 10
22.3419571217
 20
66.8876566401
 30
0.0
 10
22.3493807218
 20
66.9139015538
 30
0.0
 10
22.3508502659
 20
66.9330456115
 30
0.0
 10
22.3508502659
 20
66.9431476143
 30
0.0
  0
SPLINE
  5
2DF
100
AcDbEntity
  8
00_COMPONENTS_1
100
AcDbSpline
 62
7
  6
BYLAYER
 70
0
 71
3
 72
11
 73
7
 74
0
 42
0.0000001
 43
0.0000001
 44
0.0000000001
 40
0.0
 40
0.0
 40
0.0
 40
0.0
 40
0.2966288939
 40
0.5569504123
 40
0.7863170165
 40
1.0
 40
1.0
 40
1.0
 40
1.0
 10
19.6949605963
 20
69.9821389888
 30
0.0
 10
19.6869495755
 20
69.9875622673
 30
0.0
 10
19.6710889939
 20
69.996642608
 30
0.0
 10
19.6463913164
 20
70.0044921206
 30
0.0
 10
19.6230743415
 20
70.0048731661
 30
0.0
 10
19.6090674756
 20
70.0000341808
 30
0.0
 10
19.6030167217
 20
69.996576627
 30
0.0
  0
SPLINE
  5
2E0
100
AcDbEntity
  8
00_COMPONENTS_1
100
AcDbSpline
 62
7
  6
BYLAYER
 70
0
 71
3
 72
11
 73
7
 74
0
 42
0.0000001
 43
0.0000001
 44
0.0000000001
 40
0.0
 40
0.0
 40
0.0
 40
0.0
 40
0.2386945026
 40
0.5028516043
 40
0.7654814332
 40
1.0
 40
1.0
 40
1.0
 40
1.0
 10
22.3508503484
 20
68.0862506914
 30
0.0
 10
22.3508503484
 20
68.109516476
 30
0.0
 10
22.3424964575
 20
68.1585517221
 30
0.0
 10
22.3135663912
 20
68.2278635327
 30
0.0
 10
22.2713041053
 20
68.2894621473
 30
0.0
 10
22.234886047
 20
68.3225743084
 30
0.0
 10
22.2155546414
 20
68.33477346
 30
0.0
  0
SPLINE
  5
2E1
100
AcDbEntity
  8
00_COMPONENTS_1
100
AcDbSpline
 62
7
  6
BYLAYER
 70
0
 71
3
 72
9
 73
5
 74
0
 42
0.0000001
 43
0.0000001
 44
0.0000000001
 40
0.0
 40
0.0
 40
0.0
 40
0.0
 40
0.4898392521
 40
1.0
 40
1.0
 40
1.0
 40
1.0
 10
15.9687077037
 20
60.1555923656
 30
0.0
 10
17.7118874005
 20
58.8367036805
 30
0.0
 10
21.377360714
 20
56.2833270348
 30
0.0
 10
25.213368721
 20
53.9959077032
 30
0.0
 10
27.2050688569
 20
52.8932066753
 30
0.0
  0
SPLINE
  5
2E2
100
AcDbEntity
  8
00_COMPONENTS_1
100
AcDbSpline
 62
7
  6
BYLAYER
 70
0
 71
3
 72
13
 73
9
 74
0
 42
0.0000001
 43
0.0000001
 44
0.0000000001
 40
0.0
 40
0.0
 40
0.0
 40
0.0
 40
0.116063112
 40
0.2420993532
 40
0.5090422656
 40
0.770879396
 40
0.8910991285
 40
1.0
 40
1.0
 40
1.0
 40
1.0
 10
15.7914827347
 20
60.526839403
 30
0.0
 10
15.7914827347
 20
60.5104745842
 30
0.0
 10
15.7941034885
 20
60.4763173022
 30
0.0
 10
15.808048695
 20
60.4057862611
 30
0.0
 10
15.8401890763
 20
60.3185739372
 30
0.0
 10
15.8873653763
 20
60.2393752559
 30
0.0
 10
15.9323810848
 20
60.1866053588
 30
0.0
 10
15.9564626431
 20
60.1648569709
 30
0.0
 10
15.9687077037
 20
60.1555923656
 30
0.0
  0
SPLINE
  5
2E3
100
AcDbEntity
  8
00_COMPONENTS_1
100
AcDbSpline
 62
7
  6
BYLAYER
 70
0
 71
3
 72
11
 73
7
 74
0
 42
0.0000001
 43
0.0000001
 44
0.0000000001
 40
0.0
 40
0.0
 40
0.0
 40
0.0
 40
0.254948997
 40
0.5168481832
 40
0.7700645092
 40
1.0
 40
1.0
 40
1.0
 40
1.0
 10
15.5444817764
 20
61.7334756011
 30
0.0
 10
15.5821520266
 20
61.6805733665
 30
0.0
 10
15.6501952328
 20
61.5672369507
 30
0.0
 10
15.7276917002
 20
61.3864021706
 30
0.0
 10
15.7779347265
 20
61.2027701249
 30
0.0
 10
15.7914827347
 20
61.0796132404
 30
0.0
 10
15.7914827347
 20
61.0210412146
 30
0.0
  0
SPLINE
  5
2E4
100
AcDbEntity
  8
00_COMPONENTS_1
100
AcDbSpline
 62
7
  6
BYLAYER
 70
0
 71
3
 72
11
 73
7
 74
0
 42
0.0000001
 43
0.0000001
 44
0.0000000001
 40
0.0
 40
0.0
 40
0.0
 40
0.0
 40
0.2458436522
 40
0.4998722634
 40
0.7538905858
 40
1.0
 40
1.0
 40
1.0
 40
1.0
 10
14.4403784814
 20
64.3217450334
 30
0.0
 10
14.4842618649
 20
64.0937638501
 30
0.0
 10
14.6007002001
 20
63.6351488603
 30
0.0
 10
14.8465532662
 20
62.9657591776
 30
0.0
 10
15.1587699405
 20
62.324326635
 30
0.0
 10
15.4096695467
 20
61.9227992223
 30
0.0
 10
15.5444817764
 20
61.7334756011
 30
0.0
  0
SPLINE
  5
2E5
100
AcDbEntity
  8
00_COMPONENTS_1
100
AcDbSpline
 62
7
  6
BYLAYER
 70
0
 71
3
 72
12
 73
8
 74
0
 42
0.0000001
 43
0.0000001
 44
0.0000000001
 40
0.0
 40
0.0
 40
0.0
 40
0.0
 40
0.1054423232
 40
0.2206591536
 40
0.4727880343
 40
0.7393642518
 40
1.0
 40
1.0
 40
1.0
 40
1.0
 10
14.0385019695
 20
65.0503420088
 30
0.0
 10
14.0616701812
 20
65.0316891883
 30
0.0
 10
14.1075138243
 20
64.9893225721
 30
0.0
 10
14.1954090159
 20
64.8887822758
 30
0.0
 10
14.2936666457
 20
64.7382373208
 30
0.0
 10
14.3852418585
 20
64.5376424012
 30
0.0
 10
14.4264816273
 20
64.393941409
 30
0.0
 10
14.4403784814
 20
64.3217450334
 30
0.0
  0
SPLINE
  5
2E6
100
AcDbEntity
  8
00_COMPONENTS_1
100
AcDbSpline
 62
7
  6
BYLAYER
 70
0
 71
3
 72
13
 73
9
 74
0
 42
0.0000001
 43
0.0000001
 44
0.0000000001
 40
0.0
 40
0.0
 40
0.0
 40
0.0
 40
0.1168374864
 40
0.2439285835
 40
0.5125606113
 40
0.7740309171
 40
0.8930299944
 40
1.0
 40
1.0
 40
1.0
 40
1.0
 10
12.7093007361
 20
66.38157565
 30
0.0
 10
12.7093007361
 20
66.3651113866
 30
0.0
 10
12.7117987039
 20
66.3307196521
 30
0.0
 10
12.7250137853
 20
66.2596019487
 30
0.0
 10
12.7553086619
 20
66.17151826
 30
0.0
 10
12.7997300855
 20
66.0908711465
 30
0.0
 10
12.8421426495
 20
66.0366850413
 30
0.0
 10
12.8648271202
 20
66.0141509379
 30
0.0
 10
12.8763841044
 20
66.0044733916
 30
0.0
  0
SPLINE
  5
2E7
100
AcDbEntity
  8
00_COMPONENTS_1
100
AcDbSpline
 62
7
  6
BYLAYER
 70
0
 71
3
 72
11
 73
7
 74
0
 42
0.0000001
 43
0.0000001
 44
0.0000000001
 40
0.0
 40
0.0
 40
0.0
 40
0.0
 40
0.2087107575
 40
0.4388535607
 40
0.7018879936
 40
1.0
 40
1.0
 40
1.0
 40
1.0
 10
19.6030167217
 20
69.996576627
 30
0.0
 10
19.5968828629
 20
69.993071585
 30
0.0
 10
19.5853281159
 20
69.9831449639
 30
0.0
 10
19.5733331985
 20
69.96224725
 30
0.0
 10
19.5662766067
 20
69.9361883105
 30
0.0
 10
19.5649031896
 20
69.9171387558
 30
0.0
 10
19.5649031896
 20
69.9070479364
 30
0.0
  0
SPLINE
  5
2E8
100
AcDbEntity
  8
00_COMPONENTS_1
100
AcDbSpline
 62
7
  6
BYLAYER
 70
0
 71
3
 72
11
 73
7
 74
0
 42
0.0000001
 43
0.0000001
 44
0.0000000001
 40
0.0
 40
0.0
 40
0.0
 40
0.0
 40
0.2602717856
 40
0.5137540741
 40
0.7603427477
 40
1.0
 40
1.0
 40
1.0
 40
1.0
 10
27.2050688569
 20
66.5941172348
 30
0.0
 10
25.8723393419
 20
67.3319804199
 30
0.0
 10
23.272529526
 20
68.8452174723
 30
0.0
 10
19.5316104301
 20
71.2586022584
 30
0.0
 10
16.0097583501
 20
73.7798209642
 30
0.0
 10
13.782173882
 20
75.5536069208
 30
0.0
 10
12.7093007361
 20
76.4572154774
 30
0.0
  0
SPLINE
  5
2E9
100
AcDbEntity
  8
00_COMPONENTS_1
100
AcDbSpline
 62
7
  6
BYLAYER
 70
0
 71
3
 72
11
 73
7
 74
0
 42
0.0000001
 43
0.0000001
 44
0.0000000001
 40
0.0
 40
0.0
 40
0.0
 40
0.0
 40
0.2928843739
 40
0.5528556819
 40
0.7842700891
 40
1.0
 40
1.0
 40
1.0
 40
1.0
 10
22.2155536845
 20
66.8650691955
 30
0.0
 10
22.2238988315
 20
66.8598029609
 30
0.0
 10
22.2404956216
 20
66.8510805745
 30
0.0
 10
22.2661669859
 20
66.843847934
 30
0.0
 10
22.2903564913
 20
66.8438190827
 30
0.0
 10
22.3049035928
 20
66.8489902333
 30
0.0
 10
22.3111967586
 20
66.8526268964
 30
0.0
  0
SPLINE
  5
2EA
100
AcDbEntity
  8
00_COMPONENTS_1
100
AcDbSpline
 62
7
  6
BYLAYER
 70
0
 71
3
 72
11
 73
7
 74
0
 42
0.0000001
 43
0.0000001
 44
0.0000000001
 40
0.0
 40
0.0
 40
0.0
 40
0.0
 40
0.2177673224
 40
0.4508917992
 40
0.7103618814
 40
1.0
 40
1.0
 40
1.0
 40
1.0
 10
33.5098794558
 20
103.7465054532
 30
0.0
 10
33.5098964242
 20
103.7903034494
 30
0.0
 10
33.5260201013
 20
103.8816009162
 30
0.0
 10
33.5952650158
 20
104.008815387
 30
0.0
 10
33.7046943214
 20
104.1237817127
 30
0.0
 10
33.7962322984
 20
104.1868560974
 30
0.0
 10
33.8466808335
 20
104.2159823989
 30
0.0
  0
SPLINE
  5
2EB
100
AcDbEntity
  8
00_COMPONENTS_1
100
AcDbSpline
 62
7
  6
BYLAYER
 70
0
 71
3
 72
11
 73
7
 74
0
 42
0.0000001
 43
0.0000001
 44
0.0000000001
 40
0.0
 40
0.0
 40
0.0
 40
0.0
 40
0.2177673224
 40
0.4508917992
 40
0.7103618814
 40
1.0
 40
1.0
 40
1.0
 40
1.0
 10
53.3089517599
 20
92.3157643266
 30
0.0
 10
53.3089687283
 20
92.3595623228
 30
0.0
 10
53.3250924054
 20
92.4508597896
 30
0.0
 10
53.3943373199
 20
92.5780742604
 30
0.0
 10
53.5037666255
 20
92.6930405862
 30
0.0
 10
53.5953046025
 20
92.7561149709
 30
0.0
 10
53.6457531376
 20
92.7852412723
 30
0.0
  0
SPLINE
  5
2EC
100
AcDbEntity
  8
00_COMPONENTS_1
100
AcDbSpline
 62
7
  6
BYLAYER
 70
0
 71
3
 72
11
 73
7
 74
0
 42
0.0000001
 43
0.0000001
 44
0.0000000001
 40
0.0
 40
0.0
 40
0.0
 40
0.0
 40
0.2177673224
 40
0.4508917992
 40
0.7103618814
 40
1.0
 40
1.0
 40
1.0
 40
1.0
 10
43.4094156078
 20
98.0311348899
 30
0.0
 10
43.4094325763
 20
98.0749328861
 30
0.0
 10
43.4255562534
 20
98.1662303529
 30
0.0
 10
43.4948011679
 20
98.2934448237
 30
0.0
 10
43.6042304734
 20
98.4084111495
 30
0.0
 10
43.6957684504
 20
98.4714855341
 30
0.0
 10
43.7462169856
 20
98.5006118356
 30
0.0
  0
SPLINE
  5
2ED
100
AcDbEntity
  8
00_COMPONENTS_1
100
AcDbSpline
 62
7
  6
BYLAYER
 70
0
 71
3
 72
9
 73
5
 74
0
 42
0.0000001
 43
0.0000001
 44
0.0000000001
 40
0.0
 40
0.0
 40
0.0
 40
0.0
 40
0.485856648
 40
1.0
 40
1.0
 40
1.0
 40
1.0
 10
14.7500255983
 20
56.5247182
 30
0.0
 10
17.3828125799
 20
54.3373648117
 30
0.0
 10
23.0621086856
 20
50.1433303559
 30
0.0
 10
29.1238949728
 20
46.5317798997
 30
0.0
 10
32.3126361106
 20
44.8136554011
 30
0.0
  0
SPLINE
  5
2EE
100
AcDbEntity
  8
00_COMPONENTS_1
100
AcDbSpline
 62
7
  6
BYLAYER
 70
0
 71
3
 72
12
 73
8
 74
0
 42
0.0000001
 43
0.0000001
 44
0.0000000001
 40
0.0
 40
0.0
 40
0.0
 40
0.0
 40
0.2513594419
 40
0.5137045485
 40
0.7686751394
 40
0.8882214076
 40
1.0
 40
1.0
 40
1.0
 40
1.0
 10
32.3126361106
 20
44.8136554011
 30
0.0
 10
32.6087055692
 20
44.9124388987
 30
0.0
 10
33.2383682433
 20
45.0442533288
 30
0.0
 10
34.1973019051
 20
45.0617904815
 30
0.0
 10
34.9830316032
 20
44.9295118874
 30
0.0
 10
35.5553527355
 20
44.7336913899
 30
0.0
 10
35.8148296342
 20
44.6081675019
 30
0.0
 10
35.9350311973
 20
44.5387706671
 30
0.0
  0
SPLINE
  5
2EF
100
AcDbEntity
  8
00_COMPONENTS_1
100
AcDbSpline
 62
7
  6
BYLAYER
 70
0
 71
3
 72
11
 73
7
 74
0
 42
0.0000001
 43
0.0000001
 44
0.0000000001
 40
0.0
 40
0.0
 40
0.0
 40
0.0
 40
0.2858861319
 40
0.5456245335
 40
0.7815168833
 40
1.0
 40
1.0
 40
1.0
 40
1.0
 10
44.4486322881
 20
39.6235519827
 30
0.0
 10
44.5449920694
 20
39.5679198955
 30
0.0
 10
44.7218602968
 20
39.4485238473
 30
0.0
 10
44.9416691898
 20
39.2355402766
 30
0.0
 10
45.0965262741
 20
39.0017690939
 30
0.0
 10
45.1536271442
 20
38.8315207427
 30
0.0
 10
45.1682578055
 20
38.7477558623
 30
0.0
  0
SPLINE
  5
2F0
100
AcDbEntity
  8
00_COMPONENTS_1
100
AcDbSpline
 62
7
  6
BYLAYER
 70
0
 71
3
 72
10
 73
6
 74
0
 42
0.0000001
 43
0.0000001
 44
0.0000000001
 40
0.0
 40
0.0
 40
0.0
 40
0.0
 40
0.2344576085
 40
0.4762362945
 40
1.0
 40
1.0
 40
1.0
 40
1.0
 10
26.9151945332
 20
51.1782986801
 30
0.0
 10
26.9748865497
 20
51.2126567185
 30
0.0
 10
27.0892684194
 20
51.2952052925
 30
0.0
 10
27.2899947669
 20
51.5116822014
 30
0.0
 10
27.3938541247
 20
51.7171678272
 30
0.0
 10
27.4446866267
 20
51.862388163
 30
0.0
  0
SPLINE
  5
2F1
100
AcDbEntity
  8
00_COMPONENTS_1
100
AcDbSpline
 62
7
  6
BYLAYER
 70
0
 71
3
 72
11
 73
7
 74
0
 42
0.0000001
 43
0.0000001
 44
0.0000000001
 40
0.0
 40
0.0
 40
0.0
 40
0.0
 40
0.2295999545
 40
0.4731882115
 40
0.7303118399
 40
1.0
 40
1.0
 40
1.0
 40
1.0
 10
79.9522611379
 20
100.2081642714
 30
0.0
 10
78.7576716423
 20
100.5944120055
 30
0.0
 10
76.3427522238
 20
101.5411662911
 30
0.0
 10
72.7919877264
 20
103.3817744795
 30
0.0
 10
69.2442008546
 20
105.6632831747
 30
0.0
 10
66.9582042852
 20
107.4220748127
 30
0.0
 10
65.8242088295
 20
108.3648145467
 30
0.0
  0
SPLINE
  5
2F2
100
AcDbEntity
  8
00_COMPONENTS_1
100
AcDbSpline
 62
7
  6
BYLAYER
 70
0
 71
3
 72
17
 73
13
 74
0
 42
0.0000001
 43
0.0000001
 44
0.0000000001
 40
0.0
 40
0.0
 40
0.0
 40
0.0
 40
0.0428564416
 40
0.0874773011
 40
0.1353154706
 40
0.1872715181
 40
0.3045386024
 40
0.4382046992
 40
0.5825465808
 40
0.729672205
 40
0.8713410965
 40
1.0
 40
1.0
 40
1.0
 40
1.0
 10
19.7130475181
 20
68.8786145596
 30
0.0
 10
19.7130636134
 20
68.8558428514
 30
0.0
 10
19.7191453301
 20
68.8091693337
 30
0.0
 10
19.7458737617
 20
68.7417418396
 30
0.0
 10
19.7893617155
 20
68.6778704488
 30
0.0
 10
19.8710978079
 20
68.5957447286
 30
0.0
 10
20.0104899978
 20
68.5109504021
 30
0.0
 10
20.210854535
 20
68.4440027295
 30
0.0
 10
20.4357069596
 20
68.4124375799
 30
0.0
 10
20.6668611036
 20
68.4187686483
 30
0.0
 10
20.8853824257
 20
68.4625450308
 30
0.0
 10
21.0194972519
 20
68.5178407161
 30
0.0
 10
21.0787012091
 20
68.5520219327
 30
0.0
  0
SPLINE
  5
2F3
100
AcDbEntity
  8
00_COMPONENTS_1
100
AcDbSpline
 62
7
  6
BYLAYER
 70
0
 71
3
 72
11
 73
7
 74
0
 42
0.0000001
 43
0.0000001
 44
0.0000000001
 40
0.0
 40
0.0
 40
0.0
 40
0.0
 40
0.2177648073
 40
0.4508950352
 40
0.7103684932
 40
1.0
 40
1.0
 40
1.0
 40
1.0
 10
18.7130511602
 20
68.8786144148
 30
0.0
 10
18.7130783905
 20
68.9471671244
 30
0.0
 10
18.7383045504
 20
69.0900705294
 30
0.0
 10
18.846695731
 20
69.2891895522
 30
0.0
 10
19.0179775741
 20
69.4691361346
 30
0.0
 10
19.1612546678
 20
69.5678598642
 30
0.0
 10
19.2402159237
 20
69.6134478944
 30
0.0
  0
SPLINE
  5
2F4
100
AcDbEntity
  8
00_COMPONENTS_1
100
AcDbSpline
 62
7
  6
BYLAYER
 70
0
 71
3
 72
17
 73
13
 74
0
 42
0.0000001
 43
0.0000001
 44
0.0000000001
 40
0.0
 40
0.0
 40
0.0
 40
0.0
 40
0.0428571351
 40
0.0874839364
 40
0.1353160071
 40
0.1872791416
 40
0.3045400115
 40
0.4382081091
 40
0.5825513186
 40
0.7297108723
 40
0.8713103985
 40
1.0
 40
1.0
 40
1.0
 40
1.0
 10
18.7130456267
 20
67.6538608529
 30
0.0
 10
18.7130250429
 20
67.6026227056
 30
0.0
 10
18.7267444932
 20
67.4975841745
 30
0.0
 10
18.7869669431
 20
67.3459166548
 30
0.0
 10
18.8847348291
 20
67.2021375202
 30
0.0
 10
19.0687346048
 20
67.0174394245
 30
0.0
 10
19.3823025806
 20
66.826567408
 30
0.0
 10
19.8331513053
 20
66.6759643998
 30
0.0
 10
20.3391131516
 20
66.6048608984
 30
0.0
 10
20.8591738181
 20
66.6192477468
 30
0.0
 10
21.3508726202
 20
66.7176231192
 30
0.0
 10
21.6525677348
 20
66.8421000146
 30
0.0
 10
21.7858109342
 20
66.9190275525
 30
0.0
  0
SPLINE
  5
2F5
100
AcDbEntity
  8
00_COMPONENTS_1
100
AcDbSpline
 62
7
  6
BYLAYER
 70
0
 71
3
 72
9
 73
5
 74
0
 42
0.0000001
 43
0.0000001
 44
0.0000000001
 40
0.0
 40
0.0
 40
0.0
 40
0.0
 40
0.4970258893
 40
1.0
 40
1.0
 40
1.0
 40
1.0
 10
52.9510896351
 20
40.3275746935
 30
0.0
 10
53.0438097492
 20
40.3810543894
 30
0.0
 10
53.2192742708
 20
40.5091847674
 30
0.0
 10
53.3630108686
 20
40.6719709586
 30
0.0
 10
53.4261023892
 20
40.7600188261
 30
0.0
  0
SPLINE
  5
2F6
100
AcDbEntity
  8
00_COMPONENTS_1
100
AcDbSpline
 62
7
  6
BYLAYER
 70
0
 71
3
 72
11
 73
7
 74
0
 42
0.0000001
 43
0.0000001
 44
0.0000000001
 40
0.0
 40
0.0
 40
0.0
 40
0.0
 40
0.2333127102
 40
0.4914497467
 40
0.7541625877
 40
1.0
 40
1.0
 40
1.0
 40
1.0
 10
33.8466808335
 20
104.2159823989
 30
0.0
 10
33.9505876034
 20
104.2759726424
 30
0.0
 10
34.1900179281
 20
104.3671939349
 30
0.0
 10
34.5764339033
 20
104.4220054276
 30
0.0
 10
34.9725124568
 20
104.3993711505
 30
0.0
 10
35.2276419981
 20
104.3298885193
 30
0.0
 10
35.3438993734
 20
104.2802225665
 30
0.0
  0
SPLINE
  5
2F7
100
AcDbEntity
  8
00_COMPONENTS_1
100
AcDbSpline
 62
7
  6
BYLAYER
 70
0
 71
3
 72
11
 73
7
 74
0
 42
0.0000001
 43
0.0000001
 44
0.0000000001
 40
0.0
 40
0.0
 40
0.0
 40
0.0
 40
0.2973743397
 40
0.5600175141
 40
0.7901217294
 40
1.0
 40
1.0
 40
1.0
 40
1.0
 10
35.3438993734
 20
104.2802225665
 30
0.0
 10
35.4119693702
 20
104.2511425943
 30
0.0
 10
35.5361163671
 20
104.1856106295
 30
0.0
 10
35.6878374847
 20
104.0574322866
 30
0.0
 10
35.7861576447
 20
103.9091712626
 30
0.0
 10
35.8098548191
 20
103.7987477916
 30
0.0
 10
35.8098345791
 20
103.7465056092
 30
0.0
  0
SPLINE
  5
2F8
100
AcDbEntity
  8
00_COMPONENTS_1
100
AcDbSpline
 62
7
  6
BYLAYER
 70
0
 71
3
 72
11
 73
7
 74
0
 42
0.0000001
 43
0.0000001
 44
0.0000000001
 40
0.0
 40
0.0
 40
0.0
 40
0.0
 40
0.2973743397
 40
0.5600175141
 40
0.7901217294
 40
1.0
 40
1.0
 40
1.0
 40
1.0
 10
55.1429716775
 20
92.84948144
 30
0.0
 10
55.2110416743
 20
92.8204014677
 30
0.0
 10
55.3351886712
 20
92.754869503
 30
0.0
 10
55.4869097888
 20
92.62669116
 30
0.0
 10
55.5852299488
 20
92.478430136
 30
0.0
 10
55.6089271232
 20
92.3680066651
 30
0.0
 10
55.6089068832
 20
92.3157644827
 30
0.0
  0
SPLINE
  5
2F9
100
AcDbEntity
  8
00_COMPONENTS_1
100
AcDbSpline
 62
7
  6
BYLAYER
 70
0
 71
3
 72
11
 73
7
 74
0
 42
0.0000001
 43
0.0000001
 44
0.0000000001
 40
0.0
 40
0.0
 40
0.0
 40
0.0
 40
0.2333127102
 40
0.4914497467
 40
0.7541625877
 40
1.0
 40
1.0
 40
1.0
 40
1.0
 10
53.6457531376
 20
92.7852412723
 30
0.0
 10
53.7496599075
 20
92.8452315158
 30
0.0
 10
53.9890902322
 20
92.9364528083
 30
0.0
 10
54.3755062074
 20
92.9912643011
 30
0.0
 10
54.7715847609
 20
92.968630024
 30
0.0
 10
55.0267143022
 20
92.8991473927
 30
0.0
 10
55.1429716775
 20
92.84948144
 30
0.0
  0
SPLINE
  5
2FA
100
AcDbEntity
  8
00_COMPONENTS_1
100
AcDbSpline
 62
7
  6
BYLAYER
 70
0
 71
3
 72
11
 73
7
 74
0
 42
0.0000001
 43
0.0000001
 44
0.0000000001
 40
0.0
 40
0.0
 40
0.0
 40
0.0
 40
0.2333127102
 40
0.4914497467
 40
0.7541625877
 40
1.0
 40
1.0
 40
1.0
 40
1.0
 10
43.7462169856
 20
98.5006118356
 30
0.0
 10
43.8501237554
 20
98.5606020791
 30
0.0
 10
44.0895540801
 20
98.6518233716
 30
0.0
 10
44.4759700553
 20
98.7066348643
 30
0.0
 10
44.8720486089
 20
98.6840005873
 30
0.0
 10
45.1271781501
 20
98.614517956
 30
0.0
 10
45.2434355255
 20
98.5648520032
 30
0.0
  0
SPLINE
  5
2FB
100
AcDbEntity
  8
00_COMPONENTS_1
100
AcDbSpline
 62
7
  6
BYLAYER
 70
0
 71
3
 72
11
 73
7
 74
0
 42
0.0000001
 43
0.0000001
 44
0.0000000001
 40
0.0
 40
0.0
 40
0.0
 40
0.0
 40
0.2973743397
 40
0.5600175141
 40
0.7901217294
 40
1.0
 40
1.0
 40
1.0
 40
1.0
 10
45.2434355255
 20
98.5648520032
 30
0.0
 10
45.3115055222
 20
98.535772031
 30
0.0
 10
45.4356525191
 20
98.4702400663
 30
0.0
 10
45.5873736367
 20
98.3420617233
 30
0.0
 10
45.6856937968
 20
98.1938006993
 30
0.0
 10
45.7093909711
 20
98.0833772284
 30
0.0
 10
45.7093707312
 20
98.0311350459
 30
0.0
  0
SPLINE
  5
2FC
100
AcDbEntity
  8
00_COMPONENTS_1
100
AcDbSpline
 62
7
  6
BYLAYER
 70
0
 71
3
 72
9
 73
5
 74
0
 42
0.0000001
 43
0.0000001
 44
0.0000000001
 40
0.0
 40
0.0
 40
0.0
 40
0.0
 40
0.4861613182
 40
1.0
 40
1.0
 40
1.0
 40
1.0
 10
12.835129184
 20
76.6248436911
 30
0.0
 10
15.0249321134
 20
74.7833029771
 30
0.0
 10
19.7434190735
 20
71.2457134999
 30
0.0
 10
24.7794587067
 20
68.1829797266
 30
0.0
 10
27.4275438312
 20
66.7225654173
 30
0.0
  0
SPLINE
  5
2FD
100
AcDbEntity
  8
00_COMPONENTS_1
100
AcDbSpline
 62
7
  6
BYLAYER
 70
0
 71
3
 72
11
 73
7
 74
0
 42
0.0000001
 43
0.0000001
 44
0.0000000001
 40
0.0
 40
0.0
 40
0.0
 40
0.0
 40
0.2241801737
 40
0.4620484052
 40
0.7199444483
 40
1.0
 40
1.0
 40
1.0
 40
1.0
 10
44.4486322881
 20
43.4821845447
 30
0.0
 10
44.4954228468
 20
43.5528226508
 30
0.0
 10
44.5760500015
 20
43.7092879631
 30
0.0
 10
44.6551550141
 20
43.9707678904
 30
0.0
 10
44.6998573311
 20
44.2613110394
 30
0.0
 10
44.7087021567
 20
44.4648120143
 30
0.0
 10
44.7087021567
 20
44.5706598394
 30
0.0
  0
SPLINE
  5
2FE
100
AcDbEntity
  8
00_COMPONENTS_1
100
AcDbSpline
 62
7
  6
BYLAYER
 70
0
 71
3
 72
9
 73
5
 74
0
 42
0.0000001
 43
0.0000001
 44
0.0000000001
 40
0.0
 40
0.0
 40
0.0
 40
0.0
 40
0.4823714387
 40
1.0
 40
1.0
 40
1.0
 40
1.0
 10
44.7087021567
 20
44.5706598394
 30
0.0
 10
44.7087021567
 20
44.7224873332
 30
0.0
 10
44.6892119695
 20
45.0373761814
 30
0.0
 10
44.6361692754
 20
45.3483551718
 30
0.0
 10
44.5996725801
 20
45.5071395104
 30
0.0
  0
SPLINE
  5
2FF
100
AcDbEntity
  8
00_COMPONENTS_1
100
AcDbSpline
 62
7
  6
BYLAYER
 70
0
 71
3
 72
11
 73
7
 74
0
 42
0.0000001
 43
0.0000001
 44
0.0000000001
 40
0.0
 40
0.0
 40
0.0
 40
0.0
 40
0.2333127102
 40
0.4914497467
 40
0.7541625877
 40
1.0
 40
1.0
 40
1.0
 40
1.0
 10
55.2721055055
 20
91.846287537
 30
0.0
 10
55.1681987356
 20
91.7862972935
 30
0.0
 10
54.9287684109
 20
91.695076001
 30
0.0
 10
54.5423524357
 20
91.6402645082
 30
0.0
 10
54.1462738822
 20
91.6628987853
 30
0.0
 10
53.8911443409
 20
91.7323814166
 30
0.0
 10
53.7748869656
 20
91.7820473693
 30
0.0
  0
SPLINE
  5
300
100
AcDbEntity
  8
00_COMPONENTS_1
100
AcDbSpline
 62
7
  6
BYLAYER
 70
0
 71
3
 72
11
 73
7
 74
0
 42
0.0000001
 43
0.0000001
 44
0.0000000001
 40
0.0
 40
0.0
 40
0.0
 40
0.0
 40
0.2973743397
 40
0.5600175141
 40
0.7901217294
 40
1.0
 40
1.0
 40
1.0
 40
1.0
 10
53.7748869656
 20
91.7820473693
 30
0.0
 10
53.7068169688
 20
91.8111273416
 30
0.0
 10
53.5826699719
 20
91.8766593063
 30
0.0
 10
53.4309488543
 20
92.0048376493
 30
0.0
 10
53.3326286943
 20
92.1530986733
 30
0.0
 10
53.3089315199
 20
92.2635221442
 30
0.0
 10
53.3089517599
 20
92.3157643266
 30
0.0
  0
SPLINE
  5
301
100
AcDbEntity
  8
00_COMPONENTS_1
100
AcDbSpline
 62
7
  6
BYLAYER
 70
0
 71
3
 72
11
 73
7
 74
0
 42
0.0000001
 43
0.0000001
 44
0.0000000001
 40
0.0
 40
0.0
 40
0.0
 40
0.0
 40
0.2973743397
 40
0.5600175141
 40
0.7901217294
 40
1.0
 40
1.0
 40
1.0
 40
1.0
 10
43.8753508135
 20
97.4974179326
 30
0.0
 10
43.8072808168
 20
97.5264979048
 30
0.0
 10
43.6831338199
 20
97.5920298696
 30
0.0
 10
43.5314127023
 20
97.7202082126
 30
0.0
 10
43.4330925422
 20
97.8684692366
 30
0.0
 10
43.4093953679
 20
97.9788927075
 30
0.0
 10
43.4094156078
 20
98.0311348899
 30
0.0
  0
SPLINE
  5
302
100
AcDbEntity
  8
00_COMPONENTS_1
100
AcDbSpline
 62
7
  6
BYLAYER
 70
0
 71
3
 72
11
 73
7
 74
0
 42
0.0000001
 43
0.0000001
 44
0.0000000001
 40
0.0
 40
0.0
 40
0.0
 40
0.0
 40
0.2333127102
 40
0.4914497467
 40
0.7541625877
 40
1.0
 40
1.0
 40
1.0
 40
1.0
 10
45.3725693534
 20
97.5616581002
 30
0.0
 10
45.2686625836
 20
97.5016678568
 30
0.0
 10
45.0292322589
 20
97.4104465643
 30
0.0
 10
44.6428162837
 20
97.3556350715
 30
0.0
 10
44.2467377301
 20
97.3782693486
 30
0.0
 10
43.9916081889
 20
97.4477519799
 30
0.0
 10
43.8753508135
 20
97.4974179326
 30
0.0
  0
SPLINE
  5
303
100
AcDbEntity
  8
00_COMPONENTS_1
100
AcDbSpline
 62
7
  6
BYLAYER
 70
0
 71
3
 72
11
 73
7
 74
0
 42
0.0000001
 43
0.0000001
 44
0.0000000001
 40
0.0
 40
0.0
 40
0.0
 40
0.0
 40
0.2458375799
 40
0.5085504754
 40
0.7666874515
 40
1.0
 40
1.0
 40
1.0
 40
1.0
 10
43.8753508135
 20
86.597110664
 30
0.0
 10
43.9916082681
 20
86.5474446773
 30
0.0
 10
44.2467379305
 20
86.4779620373
 30
0.0
 10
44.6428165709
 20
86.4553278145
 30
0.0
 10
45.0292324523
 20
86.5101393553
 30
0.0
 10
45.2686626556
 20
86.6013606297
 30
0.0
 10
45.3725693534
 20
86.6613508316
 30
0.0
  0
SPLINE
  5
304
100
AcDbEntity
  8
00_COMPONENTS_1
100
AcDbSpline
 62
7
  6
BYLAYER
 70
0
 71
3
 72
11
 73
7
 74
0
 42
0.0000001
 43
0.0000001
 44
0.0000000001
 40
0.0
 40
0.0
 40
0.0
 40
0.0
 40
0.289638136
 40
0.549108108
 40
0.7822326063
 40
1.0
 40
1.0
 40
1.0
 40
1.0
 10
45.3725693534
 20
86.6613508316
 30
0.0
 10
45.4230178921
 20
86.6904771351
 30
0.0
 10
45.5145558744
 20
86.7535514834
 30
0.0
 10
45.6239851482
 20
86.8685178246
 30
0.0
 10
45.6932300654
 20
86.9957322833
 30
0.0
 10
45.7093537793
 20
87.0870297662
 30
0.0
 10
45.7093707475
 20
87.1308277772
 30
0.0
  0
SPLINE
  5
305
100
AcDbEntity
  8
00_COMPONENTS_1
100
AcDbSpline
 62
7
  6
BYLAYER
 70
0
 71
3
 72
11
 73
7
 74
0
 42
0.0000001
 43
0.0000001
 44
0.0000000001
 40
0.0
 40
0.0
 40
0.0
 40
0.0
 40
0.2098782119
 40
0.4399823763
 40
0.7026256392
 40
1.0
 40
1.0
 40
1.0
 40
1.0
 10
33.5098794395
 20
92.8461981846
 30
0.0
 10
33.5098591998
 20
92.7939560171
 30
0.0
 10
33.5335563922
 20
92.6835325818
 30
0.0
 10
33.6318765098
 20
92.5352715412
 30
0.0
 10
33.7835976564
 20
92.4070932048
 30
0.0
 10
33.9077446602
 20
92.3415612014
 30
0.0
 10
33.9758146615
 20
92.3124812272
 30
0.0
  0
SPLINE
  5
306
100
AcDbEntity
  8
00_COMPONENTS_1
100
AcDbSpline
 62
7
  6
BYLAYER
 70
0
 71
3
 72
11
 73
7
 74
0
 42
0.0000001
 43
0.0000001
 44
0.0000000001
 40
0.0
 40
0.0
 40
0.0
 40
0.0
 40
0.2177673224
 40
0.4508917992
 40
0.7103618814
 40
1.0
 40
1.0
 40
1.0
 40
1.0
 10
35.8098345791
 20
103.7465056092
 30
0.0
 10
35.8098176107
 20
103.702707613
 30
0.0
 10
35.7936939336
 20
103.6114101463
 30
0.0
 10
35.7244490191
 20
103.4841956754
 30
0.0
 10
35.6150197135
 20
103.3692293497
 30
0.0
 10
35.5234817365
 20
103.306154965
 30
0.0
 10
35.4730332014
 20
103.2770286635
 30
0.0
  0
SPLINE
  5
307
100
AcDbEntity
  8
00_COMPONENTS_1
100
AcDbSpline
 62
7
  6
BYLAYER
 70
0
 71
3
 72
11
 73
7
 74
0
 42
0.0000001
 43
0.0000001
 44
0.0000000001
 40
0.0
 40
0.0
 40
0.0
 40
0.0
 40
0.2458375799
 40
0.5085504754
 40
0.7666874515
 40
1.0
 40
1.0
 40
1.0
 40
1.0
 10
53.7748869656
 20
80.8817401007
 30
0.0
 10
53.8911444202
 20
80.832074114
 30
0.0
 10
54.1462740825
 20
80.762591474
 30
0.0
 10
54.542352723
 20
80.7399572513
 30
0.0
 10
54.9287686044
 20
80.794768792
 30
0.0
 10
55.1681988076
 20
80.8859900664
 30
0.0
 10
55.2721055055
 20
80.9459802683
 30
0.0
  0
SPLINE
  5
308
100
AcDbEntity
  8
00_COMPONENTS_1
100
AcDbSpline
 62
7
  6
BYLAYER
 70
0
 71
3
 72
11
 73
7
 74
0
 42
0.0000001
 43
0.0000001
 44
0.0000000001
 40
0.0
 40
0.0
 40
0.0
 40
0.0
 40
0.2402656445
 40
0.4933877543
 40
0.7498798291
 40
1.0
 40
1.0
 40
1.0
 40
1.0
 10
30.8730922232
 20
50.1485400288
 30
0.0
 10
30.9164454474
 20
49.9071473204
 30
0.0
 10
31.05139696
 20
49.4190898533
 30
0.0
 10
31.3667777718
 20
48.7187113655
 30
0.0
 10
31.786639498
 20
48.0635320942
 30
0.0
 10
32.1287826508
 20
47.6723862045
 30
0.0
 10
32.3126361105
 20
47.4952333074
 30
0.0
  0
SPLINE
  5
309
100
AcDbEntity
  8
00_COMPONENTS_1
100
AcDbSpline
 62
7
  6
BYLAYER
 70
0
 71
3
 72
18
 73
14
 74
0
 42
0.0000001
 43
0.0000001
 44
0.0000000001
 40
0.0
 40
0.0
 40
0.0
 40
0.0
 40
0.1483836107
 40
0.2993601842
 40
0.4467700651
 40
0.5850063931
 40
0.7095911806
 40
0.7661845521
 40
0.8188994929
 40
0.8678973527
 40
0.9137511599
 40
0.9574054302
 40
1.0
 40
1.0
 40
1.0
 40
1.0
 10
23.4118620557
 20
54.1969311861
 30
0.0
 10
23.481826672
 20
53.9524892381
 30
0.0
 10
23.6590982079
 20
53.4690913401
 30
0.0
 10
24.0159164214
 20
52.7894679908
 30
0.0
 10
24.4501308935
 20
52.1771364582
 30
0.0
 10
24.9386237419
 20
51.6678056406
 30
0.0
 10
25.3847897492
 20
51.343553522
 30
0.0
 10
25.7455298747
 20
51.1668955085
 30
0.0
 10
26.0032228421
 20
51.079403275
 30
0.0
 10
26.2533715464
 20
51.0352222085
 30
0.0
 10
26.492132538
 20
51.0363097631
 30
0.0
 10
26.715391166
 20
51.0819151991
 30
0.0
 10
26.8519382187
 20
51.1418890726
 30
0.0
 10
26.9151945332
 20
51.1782986801
 30
0.0
  0
SPLINE
  5
30A
100
AcDbEntity
  8
00_COMPONENTS_1
100
AcDbSpline
 62
7
  6
BYLAYER
 70
0
 71
3
 72
18
 73
14
 74
0
 42
0.0000001
 43
0.0000001
 44
0.0000000001
 40
0.0
 40
0.0
 40
0.0
 40
0.0
 40
0.1543091973
 40
0.3102895785
 40
0.4611073994
 40
0.6006864535
 40
0.7242651894
 40
0.77944471
 40
0.8301635394
 40
0.8766445565
 40
0.9196059838
 40
0.9602379752
 40
1.0
 40
1.0
 40
1.0
 40
1.0
 10
16.4991451543
 20
59.1766529266
 30
0.0
 10
16.5629585653
 20
58.9281087975
 30
0.0
 10
16.7238374663
 20
58.4362166737
 30
0.0
 10
17.0471663263
 20
57.7391014679
 30
0.0
 10
17.4395090509
 20
57.1065049569
 30
0.0
 10
17.8800557921
 20
56.5745012437
 30
0.0
 10
18.2841702814
 20
56.2265801638
 30
0.0
 10
18.6124812414
 20
56.030366698
 30
0.0
 10
18.8458875047
 20
55.9294906792
 30
0.0
 10
19.0730193715
 20
55.8720046188
 30
0.0
 10
19.29057872
 20
55.8602930941
 30
0.0
 10
19.4946174419
 20
55.8942824955
 30
0.0
 10
19.6189761339
 20
55.9473276426
 30
0.0
 10
19.6762855348
 20
55.9803076524
 30
0.0
  0
SPLINE
  5
30B
100
AcDbEntity
  8
00_COMPONENTS_1
100
AcDbSpline
 62
7
  6
BYLAYER
 70
0
 71
3
 72
11
 73
7
 74
0
 42
0.0000001
 43
0.0000001
 44
0.0000000001
 40
0.0
 40
0.0
 40
0.0
 40
0.0
 40
0.2696881601
 40
0.5268117885
 40
0.7704000455
 40
1.0
 40
1.0
 40
1.0
 40
1.0
 10
64.4100011551
 20
107.548326239
 30
0.0
 10
65.5439966108
 20
106.6055865049
 30
0.0
 10
67.8299931802
 20
104.846794867
 30
0.0
 10
71.377780052
 20
102.5652861718
 30
0.0
 10
74.9285445494
 20
100.7246779833
 30
0.0
 10
77.3434639678
 20
99.7779236977
 30
0.0
 10
78.5380534635
 20
99.3916759637
 30
0.0
  0
SPLINE
  5
30C
100
AcDbEntity
  8
00_COMPONENTS_1
100
AcDbSpline
 62
7
  6
BYLAYER
 70
0
 71
3
 72
9
 73
5
 74
0
 42
0.0000001
 43
0.0000001
 44
0.0000000001
 40
0.0
 40
0.0
 40
0.0
 40
0.0
 40
0.2352703704
 40
1.0
 40
1.0
 40
1.0
 40
1.0
 10
12.6606254609
 20
66.5249356791
 30
0.0
 10
12.6606254609
 20
66.5139302342
 30
0.0
 10
12.6619907495
 20
66.4671549604
 30
0.0
 10
12.6681910771
 20
66.4205843177
 30
0.0
 10
12.674951603
 20
66.385456535
 30
0.0
  0
SPLINE
  5
30D
100
AcDbEntity
  8
00_COMPONENTS_1
100
AcDbSpline
 62
7
  6
BYLAYER
 70
0
 71
3
 72
9
 73
5
 74
0
 42
0.0000001
 43
0.0000001
 44
0.0000000001
 40
0.0
 40
0.0
 40
0.0
 40
0.0
 40
0.2439018213
 40
1.0
 40
1.0
 40
1.0
 40
1.0
 10
12.674951603
 20
66.385456535
 30
0.0
 10
12.6785026842
 20
66.3670050694
 30
0.0
 10
12.6954641545
 20
66.2918284999
 30
0.0
 10
12.7211439036
 20
66.2186811974
 30
0.0
 10
12.7446643461
 20
66.1653915824
 30
0.0
  0
SPLINE
  5
30E
100
AcDbEntity
  8
00_COMPONENTS_1
100
AcDbSpline
 62
7
  6
BYLAYER
 70
0
 71
3
 72
9
 73
5
 74
0
 42
0.0000001
 43
0.0000001
 44
0.0000000001
 40
0.0
 40
0.0
 40
0.0
 40
0.0
 40
0.2595504495
 40
1.0
 40
1.0
 40
1.0
 40
1.0
 10
12.7446643461
 20
66.1653915824
 30
0.0
 10
12.7524796361
 20
66.1476846965
 30
0.0
 10
12.7844268879
 20
66.0803112919
 30
0.0
 10
12.8234718273
 20
66.0161283687
 30
0.0
 10
12.8569347397
 20
65.9722075423
 30
0.0
  0
SPLINE
  5
30F
100
AcDbEntity
  8
00_COMPONENTS_1
100
AcDbSpline
 62
7
  6
BYLAYER
 70
0
 71
3
 72
9
 73
5
 74
0
 42
0.0000001
 43
0.0000001
 44
0.0000000001
 40
0.0
 40
0.0
 40
0.0
 40
0.0
 40
0.2673954672
 40
1.0
 40
1.0
 40
1.0
 40
1.0
 10
12.8569347397
 20
65.9722075423
 30
0.0
 10
12.8641670054
 20
65.9627150306
 30
0.0
 10
12.8920304742
 20
65.9278659339
 30
0.0
 10
12.9232162861
 20
65.8955123661
 30
0.0
 10
12.9482802029
 20
65.8745168681
 30
0.0
  0
SPLINE
  5
310
100
AcDbEntity
  8
00_COMPONENTS_1
100
AcDbSpline
 62
7
  6
BYLAYER
 70
0
 71
3
 72
11
 73
7
 74
0
 42
0.0000001
 43
0.0000001
 44
0.0000000001
 40
0.0
 40
0.0
 40
0.0
 40
0.0
 40
0.2203529066
 40
0.472567992
 40
0.7392689961
 40
1.0
 40
1.0
 40
1.0
 40
1.0
 10
14.1101665326
 20
64.920251809
 30
0.0
 10
14.1442487112
 20
64.8928033626
 30
0.0
 10
14.2092281975
 20
64.8238514715
 30
0.0
 10
14.289659802
 20
64.7004004766
 30
0.0
 10
14.354106383
 20
64.5590146286
 30
0.0
 10
14.3830431405
 20
64.4577910245
 30
0.0
 10
14.3928047816
 20
64.4069397782
 30
0.0
  0
SPLINE
  5
311
100
AcDbEntity
  8
00_COMPONENTS_1
100
AcDbSpline
 62
7
  6
BYLAYER
 70
0
 71
3
 72
9
 73
5
 74
0
 42
0.0000001
 43
0.0000001
 44
0.0000000001
 40
0.0
 40
0.0
 40
0.0
 40
0.0
 40
0.2445125929
 40
1.0
 40
1.0
 40
1.0
 40
1.0
 10
14.4103411636
 20
64.3189879423
 30
0.0
 10
14.4268861714
 20
64.2389675176
 30
0.0
 10
14.5008201806
 20
63.9130202215
 30
0.0
 10
14.5986724551
 20
63.5925784778
 30
0.0
 10
14.6845063416
 20
63.3551427468
 30
0.0
  0
SPLINE
  5
312
100
AcDbEntity
  8
00_COMPONENTS_1
100
AcDbSpline
 62
7
  6
BYLAYER
 70
0
 71
3
 72
9
 73
5
 74
0
 42
0.0000001
 43
0.0000001
 44
0.0000000001
 40
0.0
 40
0.0
 40
0.0
 40
0.0
 40
0.2544302692
 40
1.0
 40
1.0
 40
1.0
 40
1.0
 10
15.0623052703
 20
62.4866402881
 30
0.0
 10
15.0970847983
 20
62.4188878492
 30
0.0
 10
15.2379701634
 20
62.1547809282
 30
0.0
 10
15.3956421326
 20
61.8995317213
 30
0.0
 10
15.5229506949
 20
61.7162370989
 30
0.0
  0
SPLINE
  5
313
100
AcDbEntity
  8
00_COMPONENTS_1
100
AcDbSpline
 62
7
  6
BYLAYER
 70
0
 71
3
 72
11
 73
7
 74
0
 42
0.0000001
 43
0.0000001
 44
0.0000000001
 40
0.0
 40
0.0
 40
0.0
 40
0.0
 40
0.2547851425
 40
0.5168355218
 40
0.770152957
 40
1.0
 40
1.0
 40
1.0
 40
1.0
 10
15.5612561801
 20
61.6617237563
 30
0.0
 10
15.5877414096
 20
61.6244692048
 30
0.0
 10
15.6355495364
 20
61.544587067
 30
0.0
 10
15.6901386213
 20
61.4172104417
 30
0.0
 10
15.7253135165
 20
61.2877938919
 30
0.0
 10
15.7348885097
 20
61.2010648704
 30
0.0
 10
15.7348885097
 20
61.1598292632
 30
0.0
  0
SPLINE
  5
314
100
AcDbEntity
  8
00_COMPONENTS_1
100
AcDbSpline
 62
7
  6
BYLAYER
 70
0
 71
3
 72
9
 73
5
 74
0
 42
0.0000001
 43
0.0000001
 44
0.0000000001
 40
0.0
 40
0.0
 40
0.0
 40
0.0
 40
0.2357916076
 40
1.0
 40
1.0
 40
1.0
 40
1.0
 10
15.7348885097
 20
60.6656274516
 30
0.0
 10
15.7348885097
 20
60.6547798793
 30
0.0
 10
15.7362916028
 20
60.6087777865
 30
0.0
 10
15.7427022584
 20
60.5629960519
 30
0.0
 10
15.7497038629
 20
60.5285429516
 30
0.0
  0
SPLINE
  5
315
100
AcDbEntity
  8
00_COMPONENTS_1
100
AcDbSpline
 62
7
  6
BYLAYER
 70
0
 71
3
 72
9
 73
5
 74
0
 42
0.0000001
 43
0.0000001
 44
0.0000000001
 40
0.0
 40
0.0
 40
0.0
 40
0.0
 40
0.2434041913
 40
1.0
 40
1.0
 40
1.0
 40
1.0
 10
15.7497038629
 20
60.5285429516
 30
0.0
 10
15.7534715569
 20
60.5100030957
 30
0.0
 10
15.771572013
 20
60.4343809394
 30
0.0
 10
15.7992151674
 20
60.3611213413
 30
0.0
 10
15.8245348623
 20
60.3080441253
 30
0.0
  0
SPLINE
  5
316
100
AcDbEntity
  8
00_COMPONENTS_1
100
AcDbSpline
 62
7
  6
BYLAYER
 70
0
 71
3
 72
9
 73
5
 74
0
 42
0.0000001
 43
0.0000001
 44
0.0000000001
 40
0.0
 40
0.0
 40
0.0
 40
0.0
 40
0.2586018216
 40
1.0
 40
1.0
 40
1.0
 40
1.0
 10
15.8245348623
 20
60.3080441253
 30
0.0
 10
15.832852522
 20
60.2906079664
 30
0.0
 10
15.8669498165
 20
60.2241467168
 30
0.0
 10
15.9085441617
 20
60.1613441117
 30
0.0
 10
15.9440032987
 20
60.118798214
 30
0.0
  0
SPLINE
  5
317
100
AcDbEntity
  8
00_COMPONENTS_1
100
AcDbSpline
 62
7
  6
BYLAYER
 70
0
 71
3
 72
9
 73
5
 74
0
 42
0.0000001
 43
0.0000001
 44
0.0000000001
 40
0.0
 40
0.0
 40
0.0
 40
0.0
 40
0.2660408209
 40
1.0
 40
1.0
 40
1.0
 40
1.0
 10
15.9440032987
 20
60.118798214
 30
0.0
 10
15.9516216797
 20
60.1096572455
 30
0.0
 10
15.9810779024
 20
60.0760112646
 30
0.0
 10
16.0138771364
 20
60.0451292992
 30
0.0
 10
16.040054321
 20
60.0253186007
 30
0.0
  0
SPLINE
  5
318
100
AcDbEntity
  8
00_COMPONENTS_1
100
AcDbSpline
 62
7
  6
BYLAYER
 70
0
 71
3
 72
11
 73
7
 74
0
 42
0.0000001
 43
0.0000001
 44
0.0000000001
 40
0.0
 40
0.0
 40
0.0
 40
0.0
 40
0.289638136
 40
0.549108108
 40
0.7822326063
 40
1.0
 40
1.0
 40
1.0
 40
1.0
 10
55.2721055055
 20
80.9459802683
 30
0.0
 10
55.3225540441
 20
80.9751065718
 30
0.0
 10
55.4140920265
 20
81.0381809201
 30
0.0
 10
55.5235213003
 20
81.1531472613
 30
0.0
 10
55.5927662175
 20
81.28036172
 30
0.0
 10
55.6088899313
 20
81.3716592029
 30
0.0
 10
55.6089068995
 20
81.4154572139
 30
0.0
  0
SPLINE
  5
319
100
AcDbEntity
  8
00_COMPONENTS_1
100
AcDbSpline
 62
7
  6
BYLAYER
 70
0
 71
3
 72
11
 73
7
 74
0
 42
0.0000001
 43
0.0000001
 44
0.0000000001
 40
0.0
 40
0.0
 40
0.0
 40
0.0
 40
0.2098782119
 40
0.4399823763
 40
0.7026256392
 40
1.0
 40
1.0
 40
1.0
 40
1.0
 10
53.3089517436
 20
81.4154570581
 30
0.0
 10
53.308931504
 20
81.3632148905
 30
0.0
 10
53.3326286963
 20
81.2527914553
 30
0.0
 10
53.4309488139
 20
81.1045304146
 30
0.0
 10
53.5826699605
 20
80.9763520782
 30
0.0
 10
53.7068169643
 20
80.9108200748
 30
0.0
 10
53.7748869656
 20
80.8817401007
 30
0.0
  0
SPLINE
  5
31A
100
AcDbEntity
  8
00_COMPONENTS_1
100
AcDbSpline
 62
7
  6
BYLAYER
 70
0
 71
3
 72
9
 73
5
 74
0
 42
0.0000001
 43
0.0000001
 44
0.0000000001
 40
0.0
 40
0.0
 40
0.0
 40
0.0
 40
0.5073093306
 40
1.0
 40
1.0
 40
1.0
 40
1.0
 10
52.4049916584
 20
40.1349794061
 30
0.0
 10
52.501965165
 20
40.1511746199
 30
0.0
 10
52.6909147075
 20
40.1988966493
 30
0.0
 10
52.8683783411
 20
40.2798679483
 30
0.0
 10
52.9510896351
 20
40.3275746935
 30
0.0
  0
SPLINE
  5
31B
100
AcDbEntity
  8
00_COMPONENTS_1
100
AcDbSpline
 62
7
  6
BYLAYER
 70
0
 71
3
 72
11
 73
7
 74
0
 42
0.0000001
 43
0.0000001
 44
0.0000000001
 40
0.0
 40
0.0
 40
0.0
 40
0.0
 40
0.2458375799
 40
0.5085504754
 40
0.7666874515
 40
1.0
 40
1.0
 40
1.0
 40
1.0
 10
33.9758146615
 20
92.3124812272
 30
0.0
 10
34.0920721161
 20
92.2628152406
 30
0.0
 10
34.3472017784
 20
92.1933326006
 30
0.0
 10
34.7432804189
 20
92.1706983778
 30
0.0
 10
35.1296963002
 20
92.2255099186
 30
0.0
 10
35.3691265035
 20
92.316731193
 30
0.0
 10
35.4730332014
 20
92.3767213948
 30
0.0
  0
SPLINE
  5
31C
100
AcDbEntity
  8
00_COMPONENTS_1
100
AcDbSpline
 62
7
  6
BYLAYER
 70
0
 71
3
 72
17
 73
13
 74
0
 42
0.0000001
 43
0.0000001
 44
0.0000000001
 40
0.0
 40
0.0
 40
0.0
 40
0.0
 40
0.128688448
 40
0.2702796817
 40
0.4174325464
 40
0.5617749928
 40
0.6954478191
 40
0.8127119577
 40
0.8646769781
 40
0.912510124
 40
0.9571398159
 40
1.0
 40
1.0
 40
1.0
 40
1.0
 10
21.7858109342
 20
68.1437811781
 30
0.0
 10
21.6525690142
 20
68.066854379
 30
0.0
 10
21.3508851293
 20
67.9423806115
 30
0.0
 10
20.8592064413
 20
67.8440071111
 30
0.0
 10
20.3391652401
 20
67.8296111095
 30
0.0
 10
19.8332066779
 20
67.9007068962
 30
0.0
 10
19.3823440594
 20
68.0513000978
 30
0.0
 10
19.068768729
 20
68.2421771967
 30
0.0
 10
18.8847478239
 20
68.4268664333
 30
0.0
 10
18.7869842966
 20
68.5706559666
 30
0.0
 10
18.7267421725
 20
68.7223250994
 30
0.0
 10
18.7130308061
 20
68.8273726549
 30
0.0
 10
18.7130511602
 20
68.8786144148
 30
0.0
  0
SPLINE
  5
31D
100
AcDbEntity
  8
00_COMPONENTS_1
100
AcDbSpline
 62
7
  6
BYLAYER
 70
0
 71
3
 72
11
 73
7
 74
0
 42
0.0000001
 43
0.0000001
 44
0.0000000001
 40
0.0
 40
0.0
 40
0.0
 40
0.0
 40
0.2893980704
 40
0.5491296536
 40
0.782314874
 40
1.0
 40
1.0
 40
1.0
 40
1.0
 10
19.9473256488
 20
69.2052071399
 30
0.0
 10
19.9122608789
 20
69.1849626064
 30
0.0
 10
19.8486229387
 20
69.1410362404
 30
0.0
 10
19.7724108914
 20
69.0611251744
 30
0.0
 10
19.7242678656
 20
68.9725770659
 30
0.0
 10
19.7130259916
 20
68.9090705502
 30
0.0
 10
19.7130475181
 20
68.8786145596
 30
0.0
  0
SPLINE
  5
31E
100
AcDbEntity
  8
00_COMPONENTS_1
100
AcDbSpline
 62
7
  6
BYLAYER
 70
0
 71
3
 72
11
 73
7
 74
0
 42
0.0000001
 43
0.0000001
 44
0.0000000001
 40
0.0
 40
0.0
 40
0.0
 40
0.0
 40
0.2973743397
 40
0.5600175141
 40
0.7901217294
 40
1.0
 40
1.0
 40
1.0
 40
1.0
 10
33.9758146615
 20
103.2127884959
 30
0.0
 10
33.9077446647
 20
103.2418684681
 30
0.0
 10
33.7835976678
 20
103.3074004329
 30
0.0
 10
33.6318765502
 20
103.4355787758
 30
0.0
 10
33.5335563902
 20
103.5838397998
 30
0.0
 10
33.5098592158
 20
103.6942632708
 30
0.0
 10
33.5098794558
 20
103.7465054532
 30
0.0
  0
SPLINE
  5
31F
100
AcDbEntity
  8
00_COMPONENTS_1
100
AcDbSpline
 62
7
  6
BYLAYER
 70
0
 71
3
 72
11
 73
7
 74
0
 42
0.0000001
 43
0.0000001
 44
0.0000000001
 40
0.0
 40
0.0
 40
0.0
 40
0.0
 40
0.2333127102
 40
0.4914497467
 40
0.7541625877
 40
1.0
 40
1.0
 40
1.0
 40
1.0
 10
35.4730332014
 20
103.2770286635
 30
0.0
 10
35.3691264315
 20
103.2170384201
 30
0.0
 10
35.1296961068
 20
103.1258171276
 30
0.0
 10
34.7432801316
 20
103.0710056348
 30
0.0
 10
34.3472015781
 20
103.0936399119
 30
0.0
 10
34.0920720368
 20
103.1631225432
 30
0.0
 10
33.9758146615
 20
103.2127884959
 30
0.0
  0
SPLINE
  5
320
100
AcDbEntity
  8
00_COMPONENTS_1
100
AcDbSpline
 62
7
  6
BYLAYER
 70
0
 71
3
 72
11
 73
7
 74
0
 42
0.0000001
 43
0.0000001
 44
0.0000000001
 40
0.0
 40
0.0
 40
0.0
 40
0.0
 40
0.289638136
 40
0.549108108
 40
0.7822326063
 40
1.0
 40
1.0
 40
1.0
 40
1.0
 10
35.4730332014
 20
92.3767213948
 30
0.0
 10
35.52348174
 20
92.4058476983
 30
0.0
 10
35.6150197224
 20
92.4689220467
 30
0.0
 10
35.7244489962
 20
92.5838883879
 30
0.0
 10
35.7936939134
 20
92.7111028466
 30
0.0
 10
35.8098176272
 20
92.8024003295
 30
0.0
 10
35.8098345954
 20
92.8461983404
 30
0.0
  0
SPLINE
  5
321
100
AcDbEntity
  8
00_COMPONENTS_1
100
AcDbSpline
 62
7
  6
BYLAYER
 70
0
 71
3
 72
9
 73
5
 74
0
 42
0.0000001
 43
0.0000001
 44
0.0000000001
 40
0.0
 40
0.0
 40
0.0
 40
0.0
 40
0.5100825253
 40
1.0
 40
1.0
 40
1.0
 40
1.0
 10
27.1618239811
 20
52.8257635349
 30
0.0
 10
25.1911753165
 20
53.9199364164
 30
0.0
 10
21.3948664269
 20
56.1887837754
 30
0.0
 10
17.766350166
 20
58.7188707491
 30
0.0
 10
16.040054321
 20
60.0253186007
 30
0.0
  0
SPLINE
  5
322
100
AcDbEntity
  8
00_COMPONENTS_1
100
AcDbSpline
 62
7
  6
BYLAYER
 70
0
 71
3
 72
11
 73
7
 74
0
 42
0.0000001
 43
0.0000001
 44
0.0000000001
 40
0.0
 40
0.0
 40
0.0
 40
0.0
 40
0.2177673224
 40
0.4508917992
 40
0.7103618814
 40
1.0
 40
1.0
 40
1.0
 40
1.0
 10
55.6089068832
 20
92.3157644827
 30
0.0
 10
55.6088899148
 20
92.2719664865
 30
0.0
 10
55.5927662377
 20
92.1806690197
 30
0.0
 10
55.5235213232
 20
92.0534545489
 30
0.0
 10
55.4140920176
 20
91.9384882231
 30
0.0
 10
55.3225540406
 20
91.8754138384
 30
0.0
 10
55.2721055055
 20
91.846287537
 30
0.0
  0
SPLINE
  5
323
100
AcDbEntity
  8
00_COMPONENTS_1
100
AcDbSpline
 62
7
  6
BYLAYER
 70
0
 71
3
 72
17
 73
13
 74
0
 42
0.0000001
 43
0.0000001
 44
0.0000000001
 40
0.0
 40
0.0
 40
0.0
 40
0.0
 40
0.1483651849
 40
0.2982016947
 40
0.4441259028
 40
0.5811969186
 40
0.7055797183
 40
0.7624081643
 40
0.8155781895
 40
0.9118239957
 40
0.9564825486
 40
1.0
 40
1.0
 40
1.0
 40
1.0
 10
40.4705808146
 20
45.817706765
 30
0.0
 10
40.5545874981
 20
45.5867129962
 30
0.0
 10
40.75706997
 20
45.1340620065
 30
0.0
 10
41.1451399387
 20
44.5065495238
 30
0.0
 10
41.6026277981
 20
43.9512154823
 30
0.0
 10
42.1055976839
 20
43.49731156
 30
0.0
 10
42.5550100967
 20
43.2144223797
 30
0.0
 10
42.9145748917
 20
43.0652136357
 30
0.0
 10
43.244384894
 20
42.9742976592
 30
0.0
 10
43.5722826906
 20
42.954776349
 30
0.0
 10
43.8718874569
 20
43.0226192616
 30
0.0
 10
44.0062843078
 20
43.0828416819
 30
0.0
 10
44.0687208838
 20
43.118888218
 30
0.0
  0
SPLINE
  5
324
100
AcDbEntity
  8
00_COMPONENTS_1
100
AcDbSpline
 62
7
  6
BYLAYER
 70
0
 71
3
 72
10
 73
6
 74
0
 42
0.0000001
 43
0.0000001
 44
0.0000000001
 40
0.0
 40
0.0
 40
0.0
 40
0.0
 40
0.2362177401
 40
0.4848438129
 40
1.0
 40
1.0
 40
1.0
 40
1.0
 10
32.3126361105
 20
47.4952333074
 30
0.0
 10
32.4714338578
 20
47.5334896835
 30
0.0
 10
32.8043243523
 20
47.5837782222
 30
0.0
 10
33.4963889527
 20
47.6058040754
 30
0.0
 10
34.0237385652
 20
47.560035644
 30
0.0
 10
34.3783815312
 20
47.5265250469
 30
0.0
  0
SPLINE
  5
325
100
AcDbEntity
  8
00_COMPONENTS_1
100
AcDbSpline
 62
7
  6
BYLAYER
 70
0
 71
3
 72
9
 73
5
 74
0
 42
0.0000001
 43
0.0000001
 44
0.0000000001
 40
0.0
 40
0.0
 40
0.0
 40
0.0
 40
0.5423827156
 40
1.0
 40
1.0
 40
1.0
 40
1.0
 10
35.2774588422
 20
47.4529414728
 30
0.0
 10
35.3965048328
 20
47.4476011573
 30
0.0
 10
35.6162996735
 20
47.4434164955
 30
0.0
 10
35.8361331874
 20
47.4620908055
 30
0.0
 10
35.9350311973
 20
47.4801986656
 30
0.0
  0
SPLINE
  5
326
100
AcDbEntity
  8
00_COMPONENTS_1
100
AcDbSpline
 62
7
  6
BYLAYER
 70
0
 71
3
 72
11
 73
7
 74
0
 42
0.0000001
 43
0.0000001
 44
0.0000000001
 40
0.0
 40
0.0
 40
0.0
 40
0.0
 40
0.2098782119
 40
0.4399823763
 40
0.7026256392
 40
1.0
 40
1.0
 40
1.0
 40
1.0
 10
43.4094155915
 20
87.1308276214
 30
0.0
 10
43.4093953519
 20
87.0785854538
 30
0.0
 10
43.4330925442
 20
86.9681620186
 30
0.0
 10
43.5314126618
 20
86.8199009779
 30
0.0
 10
43.6831338084
 20
86.6917226415
 30
0.0
 10
43.8072808122
 20
86.6261906381
 30
0.0
 10
43.8753508135
 20
86.597110664
 30
0.0
  0
SPLINE
  5
327
100
AcDbEntity
  8
00_COMPONENTS_1
100
AcDbSpline
 62
7
  6
BYLAYER
 70
0
 71
3
 72
11
 73
7
 74
0
 42
0.0000001
 43
0.0000001
 44
0.0000000001
 40
0.0
 40
0.0
 40
0.0
 40
0.0
 40
0.2688320196
 40
0.5256144395
 40
0.7694778152
 40
1.0
 40
1.0
 40
1.0
 40
1.0
 10
43.1211339581
 20
65.4751475769
 30
0.0
 10
40.0387080716
 20
66.6378894868
 30
0.0
 10
34.0917539375
 20
69.1317327855
 30
0.0
 10
25.708780162
 20
73.4738562612
 30
0.0
 10
18.1401709196
 20
78.2927767244
 30
0.0
 10
13.5600701624
 20
81.8940218883
 30
0.0
 10
11.4432174718
 20
83.7646793258
 30
0.0
  0
SPLINE
  5
328
100
AcDbEntity
  8
00_COMPONENTS_1
100
AcDbSpline
 62
7
  6
BYLAYER
 70
0
 71
3
 72
11
 73
7
 74
0
 42
0.0000001
 43
0.0000001
 44
0.0000000001
 40
0.0
 40
0.0
 40
0.0
 40
0.0
 40
0.2177673224
 40
0.4508917992
 40
0.7103618814
 40
1.0
 40
1.0
 40
1.0
 40
1.0
 10
45.7093707312
 20
98.0311350459
 30
0.0
 10
45.7093537627
 20
97.9873370497
 30
0.0
 10
45.6932300856
 20
97.896039583
 30
0.0
 10
45.6239851711
 20
97.7688251122
 30
0.0
 10
45.5145558656
 20
97.6538587864
 30
0.0
 10
45.4230178886
 20
97.5907844017
 30
0.0
 10
45.3725693534
 20
97.5616581002
 30
0.0
  0
ENDSEC
  0
SECTION
  2
OBJECTS
  0
DICTIONARY
  5
C
100
AcDbDictionary
280
0
281
1
  3
ACAD_GROUP
350
D
  3
ACAD_MLINESTYLE
350
17
  3
ACAD_LAYOUT
350
1A
  3
ACAD_PLOTSETTINGS
350
19
  3
ACAD_PLOTSTYLENAME
350
E
  0
DICTIONARY
  5
D
102
{ACAD_REACTORS
330
C
102
}
100
AcDbDictionary
280
0
281
1
  0
ACDBDICTIONARYWDFLT
  5
E
102
{ACAD_REACTORS
330
C
102
}
100
AcDbDictionary
281
1
  3
Normal
350
F
100
AcDbDictionaryWithDefault
340
F
  0
DICTIONARY
  5
17
102
{ACAD_REACTORS
330
C
102
}
100
AcDbDictionary
280
0
281
1
  3
Standard
350
18
  0
DICTIONARY
  5
19
102
{ACAD_REACTORS
330
C
102
}
100
AcDbDictionary
281
1
  0
DICTIONARY
  5
1A
102
{ACAD_REACTORS
330
C
102
}
100
AcDbDictionary
281
1
  3
Model
350
329
  3
Layout1
350
32A
  0
ACDBPLACEHOLDER
  5
F
102
{ACAD_REACTORS
330
E
102
}
  0
MLINESTYLE
  5
18
102
{ACAD_REACTORS
330
17
102
}
100
AcDbMlineStyle
  2
STANDARD
 70
0
  3

 62
256
 51
90.0
 52
90.0
 71
2
 49
0.5
 62
256
  6
BYLAYER
 49
-0.5
 62
256
  6
BYLAYER
  0
LAYOUT
  5
329
102
{ACAD_REACTORS
330
1A
102
}
100
AcDbPlotSettings
  1

  2
none_device
  4

  6

 40
0.0
 41
0.0
 42
0.0
 43
0.0
 44
210.0
 45
297.0
 46
0.0
 47
0.0
 48
0.0
 49
0.0
140
0.0
141
0.0
142
1.0
143
1.0
 70
1024
 72
1
 73
0
 74
0
  7

 75
0
147
1.0
148
0.0
149
0.0
100
AcDbLayout
  1
Model
 70
0
 71
0
 10
0.0
 20
0.0
 11
210.0
 21
297.0
 12
0.0
 22
0.0
 32
0.0
 14
0.0
 24
0.0
 34
0.0
 15
0.0
 25
0.0
 35
0.0
146
0.0
 13
0.0
 23
0.0
 33
0.0
 16
1.0
 26
0.0
 36
0.0
 17
0.0
 27
1.0
 37
0.0
 76
0
330
216
345
0
346
0
  0
LAYOUT
  5
32A
102
{ACAD_REACTORS
330
1A
102
}
100
AcDbPlotSettings
  1

  2
none_device
  4

  6

 40
0.0
 41
0.0
 42
0.0
 43
0.0
 44
210.0
 45
297.0
 46
0.0
 47
0.0
 48
0.0
 49
0.0
140
0.0
141
0.0
142
1.0
143
1.0
 70
0
 72
1
 73
0
 74
0
  7

 75
0
147
1.0
148
0.0
149
0.0
100
AcDbLayout
  1
Layout1
 70
0
 71
1
 10
0.0
 20
0.0
 11
210.0
 21
297.0
 12
0.0
 22
0.0
 32
0.0
 14
0.0
 24
0.0
 34
0.0
 15
0.0
 25
0.0
 35
0.0
146
0.0
 13
0.0
 23
0.0
 33
0.0
 16
1.0
 26
0.0
 36
0.0
 17
0.0
 27
1.0
 37
0.0
 76
0
330
217
345
0
346
0
  0
ENDSEC
  0
EOF
