999
DXF file: C:\Users\sesa63760\Dev\_Creo\CAD\MCADID0004360_3D-CAD\drw0001_1.dxf
999
Pro/ENGINEER 2019471 by Parametric Technology Corporation
  0
SECTION
  2
HEADER
  9
$ACADVER
  1
AC1024
  9
$DWGCODEPAGE
  3
ANSI_1252
  9
$EXTMAX
 10
72.1740363274
 20
102.0747085202
 30
0.0
  9
$EXTMIN
 10
0.0
 20
0.0
 30
0.0
  9
$LIMMIN
 10
0.0
 20
0.0
  9
$LIMMAX
 10
72.1740363274
 20
102.0747085202
  9
$VIEWCTR
 10
36.0870181637
 20
51.0373542601
  9
$VIEWSIZE
 40
102.0747085202
  9
$CLAYER
  8
0
  9
$LTSCALE
 40
6.6537587776
  9
$CELTYPE
  6
BYLAYER
  9
$DIMSCALE
 40
1.0
  9
$DIMASZ
 40
0.8592147182
  9
$DIMEXO
 40
1.0
  9
$DIMDLI
 40
4.5971424282
  9
$DIMEXE
 40
1.0
  9
$DIMCEN
 40
1.0887968909
  9
$DIMLFAC
 40
1.0
  9
$DIMBLK
  1
_FILLED
  9
$DIMALT
 70
0
  9
$DIMALTF
 40
0.0393700787
  9
$DIMTXT
 40
1.2029006055
  9
$DIMTOL
 70
1
  9
$DIMLIM
 70
0
  9
$DIMTFAC
 40
1.0
  9
$DIMTP
 40
0.01
  9
$DIMTM
 40
0.01
  9
$DIMGAP
 40
0.625
  9
$DIMDSEP
 70
46
  9
$AUNITS
 70
0
  9
$PDMODE
 70
3
  9
$PDSIZE
 40
0.3125
  9
$HANDSEED
  5
5A1
  9
$TILEMODE
 70
1
  9
$MEASUREMENT
 70
1
  9
$INSUNITS
 70
4
  0
ENDSEC
  0
SECTION
  2
CLASSES
  0
CLASS
  1
ACDBDICTIONARYWDFLT
  2
AcDbDictionaryWithDefault
  3
AutoCAD 2000
 90
0
 91
1
280
0
281
0
  0
CLASS
  1
ACDBPLACEHOLDER
  2
AcDbPlaceHolder
  3
AutoCAD 2000
 90
0
 91
1
280
0
281
0
  0
CLASS
  1
LAYOUT
  2
AcDbLayout
  3
AutoCAD 2000
 90
0
 91
0
280
0
281
0
  0
ENDSEC
  0
SECTION
  2
TABLES
  0
TABLE
  2
VPORT
  5
8
100
AcDbSymbolTable
 70
2
  0
VPORT
  5
1F4
100
AcDbSymbolTableRecord
100
AcDbViewportTableRecord
  2
*ACTIVE
 70
0
 10
0.0
 20
0.0
 11
1.0
 21
1.0
 12
36.0870181637
 22
51.0373542601
 13
0.0
 23
0.0
 14
1.0
 24
1.0
 15
0.0
 25
0.0
 16
0.0
 26
0.0
 36
1.0
 17
0.0
 27
0.0
 37
0.0
 40
102.0747085202
 41
0.7070707071
 42
50.0
 43
0.0
 44
0.0
 50
0.0
 51
0.0
 71
0
 72
100
 73
1
 74
1
 75
0
 76
0
 77
0
 78
0
  0
ENDTAB
  0
TABLE
  2
LTYPE
  5
5
100
AcDbSymbolTable
 70
6
  0
LTYPE
  5
14
100
AcDbSymbolTableRecord
100
AcDbLinetypeTableRecord
  2
BYBLOCK
 70
0
  3

 72
65
 73
0
 40
0.0
  0
LTYPE
  5
15
100
AcDbSymbolTableRecord
100
AcDbLinetypeTableRecord
  2
BYLAYER
 70
0
  3

 72
65
 73
0
 40
0.0
  0
LTYPE
  5
16
100
AcDbSymbolTableRecord
100
AcDbLinetypeTableRecord
  2
CONTINUOUS
 70
64
  3
Solid line
 72
65
 73
0
 40
0.0
  0
LTYPE
  5
1F5
100
AcDbSymbolTableRecord
100
AcDbLinetypeTableRecord
  2
CENTER
 70
64
  3
____ _ ____ _ ____ _ ____ _ ____ _ ____ _ ____
 72
65
 73
4
 40
0.6
 49
0.375
 74
0
 49
-0.075
 74
0
 49
0.075
 74
0
 49
-0.075
 74
0
  0
LTYPE
  5
1F6
100
AcDbSymbolTableRecord
100
AcDbLinetypeTableRecord
  2
HIDDEN
 70
64
  3
- - - - - - - - - - - - - - - - - - - -
 72
65
 73
2
 40
0.2
 49
0.1
 74
0
 49
-0.1
 74
0
  0
LTYPE
  5
1F7
100
AcDbSymbolTableRecord
100
AcDbLinetypeTableRecord
  2
PHANTOM
 70
64
  3
_____ _ _ _____ _ _ _____ _ _ _____
 72
65
 73
6
 40
0.8
 49
0.45
 74
0
 49
-0.05
 74
0
 49
0.1
 74
0
 49
-0.05
 74
0
 49
0.1
 74
0
 49
-0.05
 74
0
  0
LTYPE
  5
1F8
100
AcDbSymbolTableRecord
100
AcDbLinetypeTableRecord
  2
DOT
 70
64
  3
. . . . . . . . . . . . . . . . . . . .
 72
65
 73
2
 40
0.2
 49
0.1
 74
0
 49
-0.1
 74
0
  0
LTYPE
  5
1F9
100
AcDbSymbolTableRecord
100
AcDbLinetypeTableRecord
  2
DASHED
 70
64
  3
- - - - - - - - - - - - - - - - - - - -
 72
65
 73
2
 40
0.2
 49
0.1
 74
0
 49
-0.1
 74
0
  0
ENDTAB
  0
TABLE
  2
LAYER
  5
2
100
AcDbSymbolTable
 70
36
  0
LAYER
  5
10
100
AcDbSymbolTableRecord
100
AcDbLayerTableRecord
  2
0
 70
0
 62
7
  6
CONTINUOUS
370
-3
390
F
  0
LAYER
  5
1FA
100
AcDbSymbolTableRecord
100
AcDbLayerTableRecord
  2
DEFAULT_1
 70
0
 62
7
  6
CENTER
370
-3
390
F
  0
LAYER
  5
1FB
100
AcDbSymbolTableRecord
100
AcDbLayerTableRecord
  2
DEFAULT_2
 70
0
 62
7
  6
HIDDEN
370
-3
390
F
  0
LAYER
  5
1FC
100
AcDbSymbolTableRecord
100
AcDbLayerTableRecord
  2
DEFAULT_3
 70
0
 62
7
  6
PHANTOM
370
-3
390
F
  0
LAYER
  5
1FD
100
AcDbSymbolTableRecord
100
AcDbLayerTableRecord
  2
00_COMPONENTS
 70
0
 62
7
  6
CONTINUOUS
370
-3
390
F
  0
LAYER
  5
1FE
100
AcDbSymbolTableRecord
100
AcDbLayerTableRecord
  2
01_1_DEFAULT_DATUMS
 70
0
 62
7
  6
CONTINUOUS
370
-3
390
F
  0
LAYER
  5
1FF
100
AcDbSymbolTableRecord
100
AcDbLayerTableRecord
  2
01_PLANES
 70
0
 62
7
  6
CONTINUOUS
370
-3
390
F
  0
LAYER
  5
200
100
AcDbSymbolTableRecord
100
AcDbLayerTableRecord
  2
02_COORD_SYS
 70
0
 62
7
  6
CONTINUOUS
370
-3
390
F
  0
LAYER
  5
201
100
AcDbSymbolTableRecord
100
AcDbLayerTableRecord
  2
03_AXES
 70
0
 62
7
  6
CONTINUOUS
370
-3
390
F
  0
LAYER
  5
202
100
AcDbSymbolTableRecord
100
AcDbLayerTableRecord
  2
04_POINTS
 70
0
 62
7
  6
CONTINUOUS
370
-3
390
F
  0
LAYER
  5
203
100
AcDbSymbolTableRecord
100
AcDbLayerTableRecord
  2
05_CURVES
 70
0
 62
7
  6
CONTINUOUS
370
-3
390
F
  0
LAYER
  5
204
100
AcDbSymbolTableRecord
100
AcDbLayerTableRecord
  2
06_SURFS
 70
0
 62
7
  6
CONTINUOUS
370
-3
390
F
  0
LAYER
  5
205
100
AcDbSymbolTableRecord
100
AcDbLayerTableRecord
  2
07_COSMETICS
 70
0
 62
7
  6
CONTINUOUS
370
-3
390
F
  0
LAYER
  5
206
100
AcDbSymbolTableRecord
100
AcDbLayerTableRecord
  2
10_NOTES
 70
0
 62
7
  6
CONTINUOUS
370
-3
390
F
  0
LAYER
  5
207
100
AcDbSymbolTableRecord
100
AcDbLayerTableRecord
  2
11_NOTES_PUB
 70
0
 62
7
  6
CONTINUOUS
370
-3
390
F
  0
LAYER
  5
208
100
AcDbSymbolTableRecord
100
AcDbLayerTableRecord
  2
13_REF_GTOL
 70
0
 62
7
  6
CONTINUOUS
370
-3
390
F
  0
LAYER
  5
209
100
AcDbSymbolTableRecord
100
AcDbLayerTableRecord
  2
16_MISC
 70
0
 62
7
  6
CONTINUOUS
370
-3
390
F
  0
LAYER
  5
20A
100
AcDbSymbolTableRecord
100
AcDbLayerTableRecord
  2
17_NO_PRINT
 70
0
 62
7
  6
CONTINUOUS
370
-3
390
F
  0
LAYER
  5
20B
100
AcDbSymbolTableRecord
100
AcDbLayerTableRecord
  2
18_DATUM_CAMS_JOINTS
 70
0
 62
7
  6
CONTINUOUS
370
-3
390
F
  0
LAYER
  5
20C
100
AcDbSymbolTableRecord
100
AcDbLayerTableRecord
  2
19_DATUM_FUNCTIONAL
 70
0
 62
7
  6
CONTINUOUS
370
-3
390
F
  0
LAYER
  5
20D
100
AcDbSymbolTableRecord
100
AcDbLayerTableRecord
  2
20_DATUM_KINEMATIC_SCHEME
 70
0
 62
7
  6
CONTINUOUS
370
-3
390
F
  0
ENDTAB
  0
TABLE
  2
STYLE
  5
3
100
AcDbSymbolTable
 70
1
  0
STYLE
  5
11
100
AcDbSymbolTableRecord
100
AcDbTextStyleTableRecord
  2
STANDARD
 70
0
 40
0.0
 41
1.0
 50
0.0
 71
0
 42
0.2
  3
ARIAL.TTF
  4

  0
STYLE
  5
20E
100
AcDbSymbolTableRecord
100
AcDbTextStyleTableRecord
  2
TEXTSTYLE_1
 70
0
 40
0.0
 41
0.8
 50
0.0
 71
0
 42
0.2
  3
gdt
  4

  0
ENDTAB
  0
TABLE
  2
VIEW
  5
6
100
AcDbSymbolTable
 70
0
  0
ENDTAB
  0
TABLE
  2
UCS
  5
7
100
AcDbSymbolTable
 70
0
  0
ENDTAB
  0
TABLE
  2
APPID
  5
9
100
AcDbSymbolTable
 70
1
  0
APPID
  5
20F
100
AcDbSymbolTableRecord
100
AcDbRegAppTableRecord
  2
ACAD
 70
0
  0
ENDTAB
  0
TABLE
  2
BLOCK_RECORD
  5
1
100
AcDbSymbolTable
 70
0
  0
BLOCK_RECORD
  5
210
100
AcDbSymbolTableRecord
100
AcDbBlockTableRecord
  2
*Model_Space
  0
BLOCK_RECORD
  5
211
100
AcDbSymbolTableRecord
100
AcDbBlockTableRecord
  2
*Paper_Space
  0
BLOCK_RECORD
  5
212
100
AcDbSymbolTableRecord
100
AcDbBlockTableRecord
  2
_FILLED
  0
ENDTAB
  0
TABLE
  2
DIMSTYLE
  5
A
100
AcDbSymbolTable
 70
1
100
AcDbDimStyleTable
 71
0
  0
DIMSTYLE
105
213
100
AcDbSymbolTableRecord
100
AcDbDimStyleTableRecord
  2
STANDARD
 70
0
  3

  4

 40
1.0
 41
0.8592147182
 42
1.0
 43
0.38
 44
1.0
 45
0.0
 46
0.0
 47
0.01
 48
0.01
140
1.2029006055
141
0.09
142
0.0
143
25.4
144
1.0
145
0.0
146
1.0
147
0.625
 71
1
 72
0
 73
0
 74
0
 75
0
 76
0
 77
1
 78
8
 79
2
170
0
171
1
172
0
173
0
174
0
175
0
176
0
177
0
178
0
270
2
179
2
271
2
272
2
273
2
274
2
275
0
280
0
281
0
282
0
283
1
284
8
285
0
286
0
287
3
288
0
340
11
278
46
341
212
342
212
343
212
344
212
  0
ENDTAB
  0
ENDSEC
  0
SECTION
  2
BLOCKS
  0
BLOCK
  5
20
100
AcDbEntity
  8
0
100
AcDbBlockBegin
  2
*Model_Space
 70
0
 10
0.0
 20
0.0
 30
0.0
  3
*Model_Space
  1

  0
ENDBLK
  5
21
100
AcDbEntity
  8
0
100
AcDbBlockEnd
  0
BLOCK
  5
1C
100
AcDbEntity
  8
0
100
AcDbBlockBegin
  2
*Paper_Space
 70
0
 10
0.0
 20
0.0
 30
0.0
  3
*Paper_Space
  1

  0
ENDBLK
  5
1D
100
AcDbEntity
  8
0
100
AcDbBlockEnd
  0
BLOCK
  5
214
100
AcDbEntity
  8
0
100
AcDbBlockBegin
  2
_FILLED
 70
64
 10
0.0
 20
0.0
  3
_FILLED
  1

  0
SOLID
  5
215
100
AcDbEntity
  8
0
  6
BYBLOCK
 62
0
100
AcDbTrace
 10
0.0
 20
0.0
 11
-1.0
 21
0.25
 12
-1.0
 22
-0.25
 13
-1.0
 23
-0.25
  0
ENDBLK
  5
216
100
AcDbEntity
  8
0
  6
BYBLOCK
 62
0
100
AcDbBlockEnd
  0
ENDSEC
  0
SECTION
  2
ENTITIES
  0
LINE
  5
217
100
AcDbEntity
  8
0
100
AcDbLine
 62
7
  6
BYLAYER
 10
10.510353596
 20
73.0030827489
 11
19.7027034798
 21
78.3102567492
  0
LINE
  5
218
100
AcDbEntity
  8
0
100
AcDbLine
 62
7
  6
BYLAYER
 10
19.7027093678
 20
77.4937718408
 11
11.9245671584
 21
73.0030861483
  0
LINE
  5
219
100
AcDbEntity
  8
0
100
AcDbLine
 62
7
  6
BYLAYER
 10
19.7027093678
 20
76.881396438
 11
12.4549073956
 21
72.6969009964
  0
LINE
  5
21A
100
AcDbEntity
  8
0
100
AcDbLine
 62
7
  6
BYLAYER
 10
19.3491751129
 20
74.7993713279
 11
16.5207597641
 21
73.1663947124
  0
LINE
  5
21B
100
AcDbEntity
  8
0
100
AcDbLine
 62
7
  6
BYLAYER
 10
8.373018596
 20
50.9803636267
 11
8.373018596
 21
49.7419732567
  0
LINE
  5
21C
100
AcDbEntity
  8
0
100
AcDbLine
 62
7
  6
BYLAYER
 10
8.5138105841
 20
66.9512646389
 11
8.5138145674
 21
66.3989079989
  0
LINE
  5
21D
100
AcDbEntity
  8
0
100
AcDbLine
 62
7
  6
BYLAYER
 10
9.441686096
 20
49.7441868914
 11
9.441686096
 21
50.3633821159
  0
LINE
  5
21E
100
AcDbEntity
  8
0
100
AcDbLine
 62
7
  6
BYLAYER
 10
10.510353596
 20
73.0030827489
 11
10.510353596
 21
49.1272053805
  0
LINE
  5
21F
100
AcDbEntity
  8
0
100
AcDbLine
 62
7
  6
BYLAYER
 10
22.1776140135
 20
73.1664083098
 11
19.3491986647
 21
71.5334316943
  0
LINE
  5
220
100
AcDbEntity
  8
0
100
AcDbLine
 62
7
  6
BYLAYER
 10
22.1776140135
 20
72.5948566178
 11
19.3491986647
 21
70.9618800023
  0
LINE
  5
221
100
AcDbEntity
  8
0
100
AcDbLine
 62
7
  6
BYLAYER
 10
11.5790210961
 20
50.0582708012
 11
11.5790210961
 21
58.1713289024
  0
LINE
  5
222
100
AcDbEntity
  8
0
100
AcDbLine
 62
7
  6
BYLAYER
 10
12.1133548461
 20
47.5825378898
 11
12.1133548461
 21
48.8209283388
  0
LINE
  5
223
100
AcDbEntity
  8
0
100
AcDbLine
 62
7
  6
BYLAYER
 10
12.6476885961
 20
57.5543473916
 11
12.6476885961
 21
51.0589439582
  0
LINE
  5
224
100
AcDbEntity
  8
0
100
AcDbLine
 62
7
  6
BYLAYER
 10
25.0060529141
 20
71.5334452917
 11
22.1776375653
 21
69.9004686762
  0
LINE
  5
225
100
AcDbEntity
  8
0
100
AcDbLine
 62
7
  6
BYLAYER
 10
12.1133548461
 20
48.8209283388
 11
11.5790210961
 21
50.0582708012
  0
LINE
  5
226
100
AcDbEntity
  8
0
100
AcDbLine
 62
7
  6
BYLAYER
 10
27.8344918147
 20
69.9004822736
 11
25.0060764659
 21
68.2675056581
  0
LINE
  5
227
100
AcDbEntity
  8
0
100
AcDbLine
 62
7
  6
BYLAYER
 10
57.9117617312
 20
30.203912136
 11
57.9751706291
 21
30.2057156742
  0
LINE
  5
228
100
AcDbEntity
  8
0
100
AcDbLine
 62
7
  6
BYLAYER
 10
16.5207597641
 20
72.5948430204
 11
16.5207597641
 21
73.1663947124
  0
LINE
  5
229
100
AcDbEntity
  8
0
100
AcDbLine
 62
7
  6
BYLAYER
 10
27.8344918147
 20
69.3289305816
 11
25.0060764659
 21
67.6959539661
  0
LINE
  5
22A
100
AcDbEntity
  8
0
100
AcDbLine
 62
7
  6
BYLAYER
 10
11.5790210961
 20
58.1713289024
 11
12.0872138789
 21
58.464732391
  0
LINE
  5
22B
100
AcDbEntity
  8
0
100
AcDbLine
 62
7
  6
BYLAYER
 10
64.2255596138
 20
32.9285281579
 11
64.1621507159
 21
32.9267246197
  0
LINE
  5
22C
100
AcDbEntity
  8
0
100
AcDbLine
 62
7
  6
BYLAYER
 10
57.9620105668
 20
30.5673066635
 11
58.0157979108
 21
30.5653239999
  0
LINE
  5
22D
100
AcDbEntity
  8
0
100
AcDbLine
 62
7
  6
BYLAYER
 10
18.0756756351
 20
47.9251654769
 11
19.1913071759
 21
43.4961728275
  0
LINE
  5
22E
100
AcDbEntity
  8
0
100
AcDbLine
 62
7
  6
BYLAYER
 10
19.3491986647
 20
71.5334316943
 11
19.3491986647
 21
70.9618800023
  0
LINE
  5
22F
100
AcDbEntity
  8
0
100
AcDbLine
 62
7
  6
BYLAYER
 10
19.7027093678
 20
77.4937718408
 11
19.7027093678
 21
76.881396438
  0
LINE
  5
230
100
AcDbEntity
  8
0
100
AcDbLine
 62
7
  6
BYLAYER
 10
30.6629307153
 20
68.2675192555
 11
27.8345153664
 21
66.6345426401
  0
LINE
  5
231
100
AcDbEntity
  8
0
100
AcDbLine
 62
7
  6
BYLAYER
 10
58.0387642457
 20
30.9392235686
 11
58.0831434505
 21
30.9346339894
  0
LINE
  5
232
100
AcDbEntity
  8
0
100
AcDbLine
 62
7
  6
BYLAYER
 10
58.1413679327
 20
31.3164897874
 11
58.1765584534
 21
31.3103688954
  0
LINE
  5
233
100
AcDbEntity
  8
0
100
AcDbLine
 62
7
  6
BYLAYER
 10
8.373018596
 20
49.7419732567
 11
12.1133548461
 21
47.5825378898
  0
LINE
  5
234
100
AcDbEntity
  8
0
100
AcDbLine
 62
7
  6
BYLAYER
 10
19.1913071759
 20
43.4961728275
 11
22.4770040259
 21
41.5992179019
  0
LINE
  5
235
100
AcDbEntity
  8
0
100
AcDbLine
 62
7
  6
BYLAYER
 10
36.5068502628
 20
33.4992661956
 11
52.9369371049
 21
24.0135663738
  0
LINE
  5
236
100
AcDbEntity
  8
0
100
AcDbLine
 62
7
  6
BYLAYER
 10
22.1776140135
 20
72.5948566178
 11
22.1776140135
 21
73.1664083098
  0
LINE
  5
237
100
AcDbEntity
  8
0
100
AcDbLine
 62
7
  6
BYLAYER
 10
22.1776375653
 20
69.3289169842
 11
22.1776375653
 21
69.9004686762
  0
LINE
  5
238
100
AcDbEntity
  8
0
100
AcDbLine
 62
7
  6
BYLAYER
 10
33.4913696159
 20
66.6345562375
 11
30.662954267
 21
65.001579622
  0
LINE
  5
239
100
AcDbEntity
  8
0
100
AcDbLine
 62
7
  6
BYLAYER
 10
33.4913696159
 20
66.0630045455
 11
30.662954267
 21
64.43002793
  0
LINE
  5
23A
100
AcDbEntity
  8
0
100
AcDbLine
 62
7
  6
BYLAYER
 10
28.8952005619
 20
63.2053080398
 11
36.6733427713
 21
67.6959937324
  0
LINE
  5
23B
100
AcDbEntity
  8
0
100
AcDbLine
 62
7
  6
BYLAYER
 10
8.373018596
 20
50.9803636267
 11
10.510353596
 21
52.2143471984
  0
LINE
  5
23C
100
AcDbEntity
  8
0
100
AcDbLine
 62
7
  6
BYLAYER
 10
9.441686096
 20
50.3633821159
 11
10.510353596
 21
50.9803739017
  0
LINE
  5
23D
100
AcDbEntity
  8
0
100
AcDbLine
 62
7
  6
BYLAYER
 10
36.3198026285
 20
65.8589018386
 11
32.0771796053
 21
63.4094369154
  0
LINE
  5
23E
100
AcDbEntity
  8
0
100
AcDbLine
 62
7
  6
BYLAYER
 10
36.3198026285
 20
65.7772530069
 11
32.1478905786
 21
63.3686128395
  0
LINE
  5
23F
100
AcDbEntity
  8
0
100
AcDbLine
 62
7
  6
BYLAYER
 10
58.2689462491
 20
31.6958866176
 11
58.2952322453
 21
31.6892981967
  0
LINE
  5
240
100
AcDbEntity
  8
0
100
AcDbLine
 62
7
  6
BYLAYER
 10
10.510353596
 20
49.1272053805
 11
9.441686096
 21
49.7441868914
  0
LINE
  5
241
100
AcDbEntity
  8
0
100
AcDbLine
 62
7
  6
BYLAYER
 10
9.441686096
 20
50.3633821159
 11
8.373018596
 21
50.9803636267
  0
LINE
  5
242
100
AcDbEntity
  8
0
100
AcDbLine
 62
7
  6
BYLAYER
 10
36.3287836463
 20
35.7693138194
 11
35.2601161463
 21
36.3862952513
  0
LINE
  5
243
100
AcDbEntity
  8
0
100
AcDbLine
 62
7
  6
BYLAYER
 10
25.0060764659
 20
68.2675056581
 11
25.0060764659
 21
67.6959539661
  0
LINE
  5
244
100
AcDbEntity
  8
0
100
AcDbLine
 62
7
  6
BYLAYER
 10
22.4770040259
 20
41.5992179019
 11
23.5926355313
 21
44.7400192533
  0
LINE
  5
245
100
AcDbEntity
  8
0
100
AcDbLine
 62
7
  6
BYLAYER
 10
9.441686096
 20
49.7441868914
 11
10.510353596
 21
50.3611786772
  0
LINE
  5
246
100
AcDbEntity
  8
0
100
AcDbLine
 62
7
  6
BYLAYER
 10
11.5790210961
 20
50.0582708012
 11
12.979971182
 21
50.8671048823
  0
LINE
  5
247
100
AcDbEntity
  8
0
100
AcDbLine
 62
7
  6
BYLAYER
 10
12.1133548461
 20
48.8209283388
 11
14.3187256922
 21
50.0941921901
  0
LINE
  5
248
100
AcDbEntity
  8
0
100
AcDbLine
 62
7
  6
BYLAYER
 10
57.9117617312
 20
39.593689933
 11
57.9751706291
 21
39.5954934712
  0
LINE
  5
249
100
AcDbEntity
  8
0
100
AcDbLine
 62
7
  6
BYLAYER
 10
57.9620105668
 20
39.9570844605
 11
58.0157979108
 21
39.9551017969
  0
LINE
  5
24A
100
AcDbEntity
  8
0
100
AcDbLine
 62
7
  6
BYLAYER
 10
58.4204107419
 20
32.0741771791
 11
58.4381708273
 21
32.068219832
  0
LINE
  5
24B
100
AcDbEntity
  8
0
100
AcDbLine
 62
7
  6
BYLAYER
 10
12.6476885961
 20
51.0589439582
 11
18.0756756351
 21
47.9251654769
  0
LINE
  5
24C
100
AcDbEntity
  8
0
100
AcDbLine
 62
7
  6
BYLAYER
 10
23.5926355313
 20
44.7400192533
 11
36.3287835566
 21
37.3869680522
  0
LINE
  5
24D
100
AcDbEntity
  8
0
100
AcDbLine
 62
7
  6
BYLAYER
 10
27.8344918147
 20
69.3289305816
 11
27.8344918147
 21
69.9004822736
  0
LINE
  5
24E
100
AcDbEntity
  8
0
100
AcDbLine
 62
7
  6
BYLAYER
 10
27.8345153664
 20
66.0629909481
 11
27.8345153664
 21
66.6345426401
  0
LINE
  5
24F
100
AcDbEntity
  8
0
100
AcDbLine
 62
7
  6
BYLAYER
 10
12.1133548461
 20
47.5825378898
 11
15.3912186817
 21
49.4750021611
  0
LINE
  5
250
100
AcDbEntity
  8
0
100
AcDbLine
 62
7
  6
BYLAYER
 10
64.2255596138
 20
42.3183059549
 11
64.1621507159
 21
42.3165024167
  0
LINE
  5
251
100
AcDbEntity
  8
0
100
AcDbLine
 62
7
  6
BYLAYER
 10
58.0387642457
 20
40.3290013655
 11
58.0831434505
 21
40.3244117864
  0
LINE
  5
252
100
AcDbEntity
  8
0
100
AcDbLine
 62
7
  6
BYLAYER
 10
58.5944691694
 20
32.4481340304
 11
58.6041808931
 21
32.4439489873
  0
LINE
  5
253
100
AcDbEntity
  8
0
100
AcDbLine
 62
7
  6
BYLAYER
 10
55.9614719681
 20
29.3190980311
 11
58.7899108687
 21
27.6861350131
  0
LINE
  5
254
100
AcDbEntity
  8
0
100
AcDbLine
 62
7
  6
BYLAYER
 10
58.8550028395
 20
27.6645449615
 11
59.0045466369
 21
27.578207763
  0
LINE
  5
255
100
AcDbEntity
  8
0
100
AcDbLine
 62
7
  6
BYLAYER
 10
58.6470188865
 20
27.7846324078
 11
55.818579986
 21
29.4175954258
  0
LINE
  5
256
100
AcDbEntity
  8
0
100
AcDbLine
 62
7
  6
BYLAYER
 10
55.7662776898
 20
29.4601287995
 11
58.5947165904
 21
27.8271657814
  0
LINE
  5
257
100
AcDbEntity
  8
0
100
AcDbLine
 62
7
  6
BYLAYER
 10
59.0885255402
 20
27.5899049755
 11
59.2367926983
 21
27.5043048284
  0
LINE
  5
258
100
AcDbEntity
  8
0
100
AcDbLine
 62
7
  6
BYLAYER
 10
58.4668967677
 20
27.9488171602
 11
55.6384578671
 21
29.5817801783
  0
LINE
  5
259
100
AcDbEntity
  8
0
100
AcDbLine
 62
7
  6
BYLAYER
 10
55.59219023
 20
29.6330598614
 11
58.4206291306
 21
28.0000968433
  0
LINE
  5
25A
100
AcDbEntity
  8
0
100
AcDbLine
 62
7
  6
BYLAYER
 10
59.3389420557
 20
27.5491895085
 11
59.4846676113
 21
27.4650567231
  0
LINE
  5
25B
100
AcDbEntity
  8
0
100
AcDbLine
 62
7
  6
BYLAYER
 10
58.3089719811
 20
28.1438643195
 11
55.4805330805
 21
29.7768273376
  0
LINE
  5
25C
100
AcDbEntity
  8
0
100
AcDbLine
 62
7
  6
BYLAYER
 10
55.4406948418
 20
29.8364158299
 11
58.2691337423
 21
28.2034528118
  0
LINE
  5
25D
100
AcDbEntity
  8
0
100
AcDbLine
 62
7
  6
BYLAYER
 10
59.6041159206
 20
27.5427459306
 11
59.7460565947
 21
27.4607982982
  0
LINE
  5
25E
100
AcDbEntity
  8
0
100
AcDbLine
 62
7
  6
BYLAYER
 10
58.1745918854
 20
28.368109812
 11
55.3461529848
 21
30.0010728301
  0
LINE
  5
25F
100
AcDbEntity
  8
0
100
AcDbLine
 62
7
  6
BYLAYER
 10
55.3130840302
 20
30.0684617437
 11
58.1415229307
 21
28.4354987256
  0
LINE
  5
260
100
AcDbEntity
  8
0
100
AcDbLine
 62
7
  6
BYLAYER
 10
59.8817847649
 20
27.5706292161
 11
60.0187295697
 21
27.4915658849
  0
LINE
  5
261
100
AcDbEntity
  8
0
100
AcDbLine
 62
7
  6
BYLAYER
 10
58.0649029641
 20
28.6196404543
 11
55.2364640635
 21
30.2526034724
  0
LINE
  5
262
100
AcDbEntity
  8
0
100
AcDbLine
 62
7
  6
BYLAYER
 10
55.2104465257
 20
30.3272178687
 11
58.0388854263
 21
28.6942548506
  0
LINE
  5
263
100
AcDbEntity
  8
0
100
AcDbLine
 62
7
  6
BYLAYER
 10
60.1776823005
 20
27.6279234934
 11
60.3003601866
 21
27.5570969851
  0
LINE
  5
264
100
AcDbEntity
  8
0
100
AcDbLine
 62
7
  6
BYLAYER
 10
57.9808410446
 20
28.8963102755
 11
55.152402144
 21
30.5292732936
  0
LINE
  5
265
100
AcDbEntity
  8
0
100
AcDbLine
 62
7
  6
BYLAYER
 10
55.1336579953
 20
30.6104765891
 11
57.9620968959
 21
28.977513571
  0
LINE
  5
266
100
AcDbEntity
  8
0
100
AcDbLine
 62
7
  6
BYLAYER
 10
60.4650451096
 20
27.7281339807
 11
60.5885456724
 21
27.6568325105
  0
LINE
  5
267
100
AcDbEntity
  8
0
100
AcDbLine
 62
7
  6
BYLAYER
 10
57.9231233133
 20
29.1957588265
 11
55.0946844127
 21
30.8287218445
  0
LINE
  5
268
100
AcDbEntity
  8
0
100
AcDbLine
 62
7
  6
BYLAYER
 10
55.0833735718
 20
30.9158212411
 11
57.9118124724
 21
29.2828582231
  0
LINE
  5
269
100
AcDbEntity
  8
0
100
AcDbLine
 62
7
  6
BYLAYER
 10
60.7683582614
 20
27.854854131
 11
60.8808273302
 21
27.7899215529
  0
LINE
  5
26A
100
AcDbEntity
  8
0
100
AcDbLine
 62
7
  6
BYLAYER
 10
57.8922421977
 20
29.5154313175
 11
55.0638032971
 21
31.1483943356
  0
LINE
  5
26B
100
AcDbEntity
  8
0
100
AcDbLine
 62
7
  6
BYLAYER
 10
55.060022264
 20
31.2406467321
 11
57.8884611646
 21
29.607683714
  0
LINE
  5
26C
100
AcDbEntity
  8
0
100
AcDbLine
 62
7
  6
BYLAYER
 10
61.07292828
 20
28.0139918925
 11
61.1747115157
 21
27.9552286433
  0
LINE
  5
26D
100
AcDbEntity
  8
0
100
AcDbLine
 62
7
  6
BYLAYER
 10
57.8884611646
 20
29.8526004158
 11
55.060022264
 21
31.4855634339
  0
LINE
  5
26E
100
AcDbEntity
  8
0
100
AcDbLine
 62
7
  6
BYLAYER
 10
55.0638032971
 20
31.5821817653
 11
57.8922421977
 21
29.9492187472
  0
LINE
  5
26F
100
AcDbEntity
  8
0
100
AcDbLine
 62
7
  6
BYLAYER
 10
61.3740092365
 20
28.2054293576
 11
61.4676909129
 21
28.1513434401
  0
LINE
  5
270
100
AcDbEntity
  8
0
100
AcDbLine
 62
7
  6
BYLAYER
 10
57.9118124724
 20
30.2043895135
 11
55.0833735718
 21
31.8373525316
  0
LINE
  5
271
100
AcDbEntity
  8
0
100
AcDbLine
 62
7
  6
BYLAYER
 10
30.662954267
 20
65.001579622
 11
30.662954267
 21
64.43002793
  0
LINE
  5
272
100
AcDbEntity
  8
0
100
AcDbLine
 62
7
  6
BYLAYER
 10
58.1413679327
 20
40.7062675844
 11
58.1765584534
 21
40.7001466924
  0
LINE
  5
273
100
AcDbEntity
  8
0
100
AcDbLine
 62
7
  6
BYLAYER
 10
55.0946844127
 20
31.9375124843
 11
57.9231233133
 21
30.3045494662
  0
LINE
  5
274
100
AcDbEntity
  8
0
100
AcDbLine
 62
7
  6
BYLAYER
 10
59.8186818813
 20
29.4011443927
 11
61.9400110567
 21
28.1764221292
  0
LINE
  5
275
100
AcDbEntity
  8
0
100
AcDbLine
 62
7
  6
BYLAYER
 10
57.9620968959
 20
30.5677972699
 11
55.1336579953
 21
32.200760288
  0
LINE
  5
276
100
AcDbEntity
  8
0
100
AcDbLine
 62
7
  6
BYLAYER
 10
55.152402144
 20
32.3036073327
 11
57.9808410446
 21
30.6706443147
  0
LINE
  5
277
100
AcDbEntity
  8
0
100
AcDbLine
 62
7
  6
BYLAYER
 10
61.4579462516
 20
28.9332568074
 11
60.0437268013
 21
29.7497383164
  0
LINE
  5
278
100
AcDbEntity
  8
0
100
AcDbLine
 62
7
  6
BYLAYER
 10
58.0388854263
 20
30.9397232183
 11
55.2104465257
 21
32.5726862364
  0
LINE
  5
279
100
AcDbEntity
  8
0
100
AcDbLine
 62
7
  6
BYLAYER
 10
55.2364640635
 20
32.6773429184
 11
58.0649029641
 21
31.0443799003
  0
LINE
  5
27A
100
AcDbEntity
  8
0
100
AcDbLine
 62
7
  6
BYLAYER
 10
58.1415229307
 20
31.3169942176
 11
55.3130840302
 21
32.9499572357
  0
LINE
  5
27B
100
AcDbEntity
  8
0
100
AcDbLine
 62
7
  6
BYLAYER
 10
55.3461529848
 20
33.055530661
 11
58.1745918854
 21
31.4225676429
  0
LINE
  5
27C
100
AcDbEntity
  8
0
100
AcDbLine
 62
7
  6
BYLAYER
 10
60.0437268013
 20
30.5662407335
 11
61.4579462516
 21
29.7497592245
  0
LINE
  5
27D
100
AcDbEntity
  8
0
100
AcDbLine
 62
7
  6
BYLAYER
 10
61.4828720669
 20
29.7641500648
 11
62.1899940113
 21
29.3559022557
  0
LINE
  5
27E
100
AcDbEntity
  8
0
100
AcDbLine
 62
7
  6
BYLAYER
 10
58.2691337423
 20
31.6963915246
 11
55.4406948418
 21
33.3293545427
  0
LINE
  5
27F
100
AcDbEntity
  8
0
100
AcDbLine
 62
7
  6
BYLAYER
 10
55.4805330805
 20
33.4349439962
 11
58.3089719811
 21
31.8019809781
  0
LINE
  5
280
100
AcDbEntity
  8
0
100
AcDbLine
 62
7
  6
BYLAYER
 10
58.4206291306
 20
32.0746782554
 11
55.59219023
 21
33.7076412735
  0
LINE
  5
281
100
AcDbEntity
  8
0
100
AcDbLine
 62
7
  6
BYLAYER
 10
55.6384578671
 20
33.812345903
 11
58.4668967677
 21
32.179382885
  0
LINE
  5
282
100
AcDbEntity
  8
0
100
AcDbLine
 62
7
  6
BYLAYER
 10
58.5947165904
 20
32.4486270008
 11
55.7662776898
 21
34.0815900189
  0
LINE
  5
283
100
AcDbEntity
  8
0
100
AcDbLine
 62
7
  6
BYLAYER
 10
55.818579986
 20
34.1845165216
 11
58.6470188865
 21
32.5515535035
  0
LINE
  5
284
100
AcDbEntity
  8
0
100
AcDbLine
 62
7
  6
BYLAYER
 10
35.2601161463
 20
36.3862952513
 11
36.5068502628
 21
33.4992661956
  0
LINE
  5
285
100
AcDbEntity
  8
0
100
AcDbLine
 62
7
  6
BYLAYER
 10
33.4913696159
 20
66.0630045455
 11
33.4913696159
 21
66.6345562375
  0
LINE
  5
286
100
AcDbEntity
  8
0
100
AcDbLine
 62
7
  6
BYLAYER
 10
40.562496307
 20
58.5105478612
 11
44.8051193303
 21
60.9600127844
  0
LINE
  5
287
100
AcDbEntity
  8
0
100
AcDbLine
 62
7
  6
BYLAYER
 10
58.2689462491
 20
41.0856644145
 11
58.2952322453
 21
41.0790759936
  0
LINE
  5
288
100
AcDbEntity
  8
0
100
AcDbLine
 62
7
  6
BYLAYER
 10
58.4204107419
 20
41.4639549761
 11
58.4381708273
 21
41.457997629
  0
LINE
  5
289
100
AcDbEntity
  8
0
100
AcDbLine
 62
7
  6
BYLAYER
 10
58.7899108687
 20
32.8150473621
 11
55.9614719681
 21
34.4480103802
  0
LINE
  5
28A
100
AcDbEntity
  8
0
100
AcDbLine
 62
7
  6
BYLAYER
 10
56.0193626987
 20
34.5482806234
 11
58.8478015993
 21
32.9153176053
  0
LINE
  5
28B
100
AcDbEntity
  8
0
100
AcDbLine
 62
7
  6
BYLAYER
 10
59.0045466369
 20
33.1708131699
 11
56.1761077363
 21
34.803776188
  0
LINE
  5
28C
100
AcDbEntity
  8
0
100
AcDbLine
 62
7
  6
BYLAYER
 10
56.239092998
 20
34.9005347014
 11
59.0675318986
 21
33.2675716833
  0
LINE
  5
28D
100
AcDbEntity
  8
0
100
AcDbLine
 62
7
  6
BYLAYER
 10
64.1899856845
 20
30.510591094
 11
62.8643382088
 21
31.2759367065
  0
LINE
  5
28E
100
AcDbEntity
  8
0
100
AcDbLine
 62
7
  6
BYLAYER
 10
59.2367926983
 20
33.5128891558
 11
56.4083537977
 21
35.1458521739
  0
LINE
  5
28F
100
AcDbEntity
  8
0
100
AcDbLine
 62
7
  6
BYLAYER
 10
56.4758962224
 20
35.2382734479
 11
59.304335123
 21
33.6053104298
  0
LINE
  5
290
100
AcDbEntity
  8
0
100
AcDbLine
 62
7
  6
BYLAYER
 10
59.4846676113
 20
33.8383568481
 11
56.6562287108
 21
35.4713198662
  0
LINE
  5
291
100
AcDbEntity
  8
0
100
AcDbLine
 62
7
  6
BYLAYER
 10
56.7277520503
 20
35.5586153951
 11
59.5561909509
 21
33.9256523771
  0
LINE
  5
292
100
AcDbEntity
  8
0
100
AcDbLine
 62
7
  6
BYLAYER
 10
63.6492171063
 20
31.6392993323
 11
64.1899856845
 21
31.3270935111
  0
LINE
  5
293
100
AcDbEntity
  8
0
100
AcDbLine
 62
7
  6
BYLAYER
 10
64.2149114999
 20
31.3414843514
 11
64.9220334443
 21
30.9332365423
  0
LINE
  5
294
100
AcDbEntity
  8
0
100
AcDbLine
 62
7
  6
BYLAYER
 10
59.7460565947
 20
34.1444394712
 11
56.9176176941
 21
35.7774024893
  0
LINE
  5
295
100
AcDbEntity
  8
0
100
AcDbLine
 62
7
  6
BYLAYER
 10
56.9925117366
 20
35.8588274985
 11
59.8209506372
 21
34.2258644804
  0
LINE
  5
296
100
AcDbEntity
  8
0
100
AcDbLine
 62
7
  6
BYLAYER
 10
60.0187295697
 20
34.4285256361
 11
57.1902906691
 21
36.0614886542
  0
LINE
  5
297
100
AcDbEntity
  8
0
100
AcDbLine
 62
7
  6
BYLAYER
 10
57.267916445
 20
36.1363484541
 11
60.0963553456
 21
34.503385436
  0
LINE
  5
298
100
AcDbEntity
  8
0
100
AcDbLine
 62
7
  6
BYLAYER
 10
60.3003601866
 20
34.6881916198
 11
57.471921286
 21
36.3211546379
  0
LINE
  5
299
100
AcDbEntity
  8
0
100
AcDbLine
 62
7
  6
BYLAYER
 10
57.5516165197
 20
36.3888105511
 11
60.3800554203
 21
34.755847533
  0
LINE
  5
29A
100
AcDbEntity
  8
0
100
AcDbLine
 62
7
  6
BYLAYER
 10
36.3198026285
 20
65.8589018386
 11
36.3198026285
 21
65.7772530069
  0
LINE
  5
29B
100
AcDbEntity
  8
0
100
AcDbLine
 62
7
  6
BYLAYER
 10
36.3287835566
 20
37.3869680522
 11
36.3287836463
 21
35.7693138194
  0
LINE
  5
29C
100
AcDbEntity
  8
0
100
AcDbLine
 62
7
  6
BYLAYER
 10
58.5944691694
 20
41.8379118274
 11
58.6041808931
 21
41.8337267843
  0
LINE
  5
29D
100
AcDbEntity
  8
0
100
AcDbLine
 62
7
  6
BYLAYER
 10
62.3186394637
 20
33.7312959012
 11
64.4399686391
 21
32.5065736376
  0
LINE
  5
29E
100
AcDbEntity
  8
0
100
AcDbLine
 62
7
  6
BYLAYER
 10
60.5885456724
 20
34.9212220436
 11
57.7601067719
 21
36.5541850617
  0
LINE
  5
29F
100
AcDbEntity
  8
0
100
AcDbLine
 62
7
  6
BYLAYER
 10
9.3422638502
 20
64.5677906034
 11
10.510353596
 21
63.8934089308
  0
LINE
  5
2A0
100
AcDbEntity
  8
0
100
AcDbLine
 62
7
  6
BYLAYER
 10
64.2255088726
 20
32.9280507804
 11
64.1296958115
 21
32.9833672256
  0
LINE
  5
2A1
100
AcDbEntity
  8
0
100
AcDbLine
 62
7
  6
BYLAYER
 10
57.8411915315
 20
36.6140598719
 11
60.6696304321
 21
34.9810968538
  0
LINE
  5
2A2
100
AcDbEntity
  8
0
100
AcDbLine
 62
7
  6
BYLAYER
 10
60.8808273302
 20
35.1256287742
 11
58.0523884296
 21
36.7585917923
  0
LINE
  5
2A3
100
AcDbEntity
  8
0
100
AcDbLine
 62
7
  6
BYLAYER
 10
64.2488601804
 20
33.2798398781
 11
64.1428093372
 21
33.3410669758
  0
LINE
  5
2A4
100
AcDbEntity
  8
0
100
AcDbLine
 62
7
  6
BYLAYER
 10
58.1341709287
 20
36.8101746687
 11
60.9626098293
 21
35.1772116506
  0
LINE
  5
2A5
100
AcDbEntity
  8
0
100
AcDbLine
 62
7
  6
BYLAYER
 10
61.1747115157
 20
35.2996678854
 11
58.3462726151
 21
36.9326309035
  0
LINE
  5
2A6
100
AcDbEntity
  8
0
100
AcDbLine
 62
7
  6
BYLAYER
 10
64.2450791472
 20
33.6170089764
 11
64.1296953103
 21
33.6836243586
  0
LINE
  5
2A7
100
AcDbEntity
  8
0
100
AcDbLine
 62
7
  6
BYLAYER
 10
58.4280551142
 20
36.9754817591
 11
61.2564940148
 21
35.3425187411
  0
LINE
  5
2A8
100
AcDbEntity
  8
0
100
AcDbLine
 62
7
  6
BYLAYER
 10
61.4676909129
 20
35.4418545369
 11
58.6392520123
 21
37.074817555
  0
LINE
  5
2A9
100
AcDbEntity
  8
0
100
AcDbLine
 62
7
  6
BYLAYER
 10
64.2141980317
 20
33.9366814675
 11
64.0904656153
 21
34.0081167953
  0
LINE
  5
2AA
100
AcDbEntity
  8
0
100
AcDbLine
 62
7
  6
BYLAYER
 10
58.844827291
 20
37.0366977928
 11
61.5487756725
 21
35.4756077834
  0
LINE
  5
2AB
100
AcDbEntity
  8
0
100
AcDbLine
 62
7
  6
BYLAYER
 10
55.9614719681
 20
38.7088758281
 11
58.7899108687
 21
37.07591281
  0
LINE
  5
2AC
100
AcDbEntity
  8
0
100
AcDbLine
 62
7
  6
BYLAYER
 10
58.8550028395
 20
37.0543227585
 11
59.0045466369
 21
36.9679855599
  0
LINE
  5
2AD
100
AcDbEntity
  8
0
100
AcDbLine
 62
7
  6
BYLAYER
 10
58.6470188865
 20
37.1744102048
 11
55.818579986
 21
38.8073732228
  0
LINE
  5
2AE
100
AcDbEntity
  8
0
100
AcDbLine
 62
7
  6
BYLAYER
 10
55.7662776898
 20
38.8499065965
 11
58.5947165904
 21
37.2169435784
  0
LINE
  5
2AF
100
AcDbEntity
  8
0
100
AcDbLine
 62
7
  6
BYLAYER
 10
59.0885255402
 20
36.9796827725
 11
59.2367926983
 21
36.8940826254
  0
LINE
  5
2B0
100
AcDbEntity
  8
0
100
AcDbLine
 62
7
  6
BYLAYER
 10
58.4668967677
 20
37.3385949572
 11
55.6384578671
 21
38.9715579753
  0
LINE
  5
2B1
100
AcDbEntity
  8
0
100
AcDbLine
 62
7
  6
BYLAYER
 10
55.59219023
 20
39.0228376584
 11
58.4206291306
 21
37.3898746403
  0
LINE
  5
2B2
100
AcDbEntity
  8
0
100
AcDbLine
 62
7
  6
BYLAYER
 10
59.3389420557
 20
36.9389673055
 11
59.4846676113
 21
36.8548345201
  0
LINE
  5
2B3
100
AcDbEntity
  8
0
100
AcDbLine
 62
7
  6
BYLAYER
 10
58.3089719811
 20
37.5336421165
 11
55.4805330805
 21
39.1666051346
  0
LINE
  5
2B4
100
AcDbEntity
  8
0
100
AcDbLine
 62
7
  6
BYLAYER
 10
61.7572659247
 20
35.5509756422
 11
59.5011111713
 21
36.8535377285
  0
LINE
  5
2B5
100
AcDbEntity
  8
0
100
AcDbLine
 62
7
  6
BYLAYER
 10
55.4406948418
 20
39.2261936269
 11
58.2691337423
 21
37.5932306088
  0
LINE
  5
2B6
100
AcDbEntity
  8
0
100
AcDbLine
 62
7
  6
BYLAYER
 10
64.1564803004
 20
34.2361300184
 11
64.0340250154
 21
34.3068280108
  0
LINE
  5
2B7
100
AcDbEntity
  8
0
100
AcDbLine
 62
7
  6
BYLAYER
 10
59.5746385752
 20
36.8814663128
 11
61.8369611583
 21
35.5753433088
  0
LINE
  5
2B8
100
AcDbEntity
  8
0
100
AcDbLine
 62
7
  6
BYLAYER
 10
59.6041159206
 20
36.9325237276
 11
59.7460565947
 21
36.8505760951
  0
LINE
  5
2B9
100
AcDbEntity
  8
0
100
AcDbLine
 62
7
  6
BYLAYER
 10
58.1745918854
 20
37.757887609
 11
55.3461529848
 21
39.3908506271
  0
LINE
  5
2BA
100
AcDbEntity
  8
0
100
AcDbLine
 62
7
  6
BYLAYER
 10
55.3130840302
 20
39.4582395407
 11
58.1415229307
 21
37.8252765226
  0
LINE
  5
2BB
100
AcDbEntity
  8
0
100
AcDbLine
 62
7
  6
BYLAYER
 10
62.0409659993
 20
35.6261002187
 11
59.8437965015
 21
36.8946079223
  0
LINE
  5
2BC
100
AcDbEntity
  8
0
100
AcDbLine
 62
7
  6
BYLAYER
 10
64.0724183808
 20
34.5127998396
 11
63.9352179503
 21
34.5920107531
  0
LINE
  5
2BD
100
AcDbEntity
  8
0
100
AcDbLine
 62
7
  6
BYLAYER
 10
59.8695996266
 20
36.9393012571
 11
62.1185917753
 21
35.640874409
  0
LINE
  5
2BE
100
AcDbEntity
  8
0
100
AcDbLine
 62
7
  6
BYLAYER
 10
59.8817847649
 20
36.9604070131
 11
60.0187295697
 21
36.8813436819
  0
LINE
  5
2BF
100
AcDbEntity
  8
0
100
AcDbLine
 62
7
  6
BYLAYER
 10
58.0649029641
 20
38.0094182513
 11
55.2364640635
 21
39.6423812693
  0
LINE
  5
2C0
100
AcDbEntity
  8
0
100
AcDbLine
 62
7
  6
BYLAYER
 10
55.2104465257
 20
39.7169956657
 11
58.0388854263
 21
38.0840326476
  0
LINE
  5
2C1
100
AcDbEntity
  8
0
100
AcDbLine
 62
7
  6
BYLAYER
 10
62.3163707077
 20
35.6665873299
 11
60.1191906855
 21
36.9351011095
  0
LINE
  5
2C2
100
AcDbEntity
  8
0
100
AcDbLine
 62
7
  6
BYLAYER
 10
63.9627294596
 20
34.7643304819
 11
63.8205244988
 21
34.846430697
  0
LINE
  5
2C3
100
AcDbEntity
  8
0
100
AcDbLine
 62
7
  6
BYLAYER
 10
60.1401022706
 20
36.9713218567
 11
62.3912647503
 21
35.6716419958
  0
LINE
  5
2C4
100
AcDbEntity
  8
0
100
AcDbLine
 62
7
  6
BYLAYER
 10
60.1776823005
 20
37.0177012904
 11
60.3003601866
 21
36.9468747821
  0
LINE
  5
2C5
100
AcDbEntity
  8
0
100
AcDbLine
 62
7
  6
BYLAYER
 10
57.9808410446
 20
38.2860880725
 11
55.152402144
 21
39.9190510906
  0
LINE
  5
2C6
100
AcDbEntity
  8
0
100
AcDbLine
 62
7
  6
BYLAYER
 10
62.581130394
 20
35.672091554
 11
60.3482234243
 21
36.9612318298
  0
LINE
  5
2C7
100
AcDbEntity
  8
0
100
AcDbLine
 62
7
  6
BYLAYER
 10
55.1336579953
 20
40.000254386
 11
57.9620968959
 21
38.367291368
  0
LINE
  5
2C8
100
AcDbEntity
  8
0
100
AcDbLine
 62
7
  6
BYLAYER
 10
63.8283493639
 20
34.9885759744
 11
63.6823531154
 21
35.0728650409
  0
LINE
  5
2C9
100
AcDbEntity
  8
0
100
AcDbLine
 62
7
  6
BYLAYER
 10
60.3838386738
 20
36.9772549231
 11
62.6526537336
 21
35.6673835708
  0
LINE
  5
2CA
100
AcDbEntity
  8
0
100
AcDbLine
 62
7
  6
BYLAYER
 10
62.832986222
 20
35.6425659309
 11
60.4085915949
 21
37.0422591562
  0
LINE
  5
2CB
100
AcDbEntity
  8
0
100
AcDbLine
 62
7
  6
BYLAYER
 10
63.6704245773
 20
35.1836231337
 11
63.5218826296
 21
35.2693819271
  0
LINE
  5
2CC
100
AcDbEntity
  8
0
100
AcDbLine
 62
7
  6
BYLAYER
 10
60.4288105634
 20
37.0551502829
 11
62.9005286467
 21
35.6281354655
  0
LINE
  5
2CD
100
AcDbEntity
  8
0
100
AcDbLine
 62
7
  6
BYLAYER
 10
63.0697894464
 20
35.5782623629
 11
60.4495288848
 21
37.09103628
  0
LINE
  5
2CE
100
AcDbEntity
  8
0
100
AcDbLine
 62
7
  6
BYLAYER
 10
63.4903024584
 20
35.3478078861
 11
63.340482119
 21
35.4343047426
  0
LINE
  5
2CF
100
AcDbEntity
  8
0
100
AcDbLine
 62
7
  6
BYLAYER
 10
60.4538796049
 20
37.1008583505
 11
63.132774708
 21
35.554232531
  0
LINE
  5
2D0
100
AcDbEntity
  8
0
100
AcDbLine
 62
7
  6
BYLAYER
 10
63.2895197457
 20
35.4797294654
 11
60.5852946448
 21
37.0409792351
  0
LINE
  5
2D1
100
AcDbEntity
  8
0
100
AcDbLine
 62
7
  6
BYLAYER
 10
60.4650451096
 20
37.1179117777
 11
60.5885456724
 21
37.0466103075
  0
LINE
  5
2D2
100
AcDbEntity
  8
0
100
AcDbLine
 62
7
  6
BYLAYER
 10
57.9231233133
 20
38.5855366234
 11
55.0946844127
 21
40.2184996415
  0
LINE
  5
2D3
100
AcDbEntity
  8
0
100
AcDbLine
 62
7
  6
BYLAYER
 10
55.0833735718
 20
40.3055990381
 11
57.9118124724
 21
38.6726360201
  0
LINE
  5
2D4
100
AcDbEntity
  8
0
100
AcDbLine
 62
7
  6
BYLAYER
 10
60.7683582614
 20
37.244631928
 11
60.8808273302
 21
37.1796993498
  0
LINE
  5
2D5
100
AcDbEntity
  8
0
100
AcDbLine
 62
7
  6
BYLAYER
 10
57.8922421977
 20
38.9052091145
 11
55.0638032971
 21
40.5381721326
  0
LINE
  5
2D6
100
AcDbEntity
  8
0
100
AcDbLine
 62
7
  6
BYLAYER
 10
55.060022264
 20
40.6304245291
 11
57.8884611646
 21
38.997461511
  0
LINE
  5
2D7
100
AcDbEntity
  8
0
100
AcDbLine
 62
7
  6
BYLAYER
 10
61.07292828
 20
37.4037696895
 11
61.1747115157
 21
37.3450064403
  0
LINE
  5
2D8
100
AcDbEntity
  8
0
100
AcDbLine
 62
7
  6
BYLAYER
 10
57.8884611646
 20
39.2423782128
 11
55.060022264
 21
40.8753412309
  0
LINE
  5
2D9
100
AcDbEntity
  8
0
100
AcDbLine
 62
7
  6
BYLAYER
 10
59.0762364368
 20
33.261580512
 11
59.0675318986
 21
33.2675716833
  0
LINE
  5
2DA
100
AcDbEntity
  8
0
100
AcDbLine
 62
7
  6
BYLAYER
 10
22.4770040259
 20
41.5992179019
 11
25.7548679162
 21
43.4916822048
  0
LINE
  5
2DB
100
AcDbEntity
  8
0
100
AcDbLine
 62
7
  6
BYLAYER
 10
55.0638032971
 20
40.9719595623
 11
57.8922421977
 21
39.3389965442
  0
LINE
  5
2DC
100
AcDbEntity
  8
0
100
AcDbLine
 62
7
  6
BYLAYER
 10
61.3740092365
 20
37.5952071546
 11
61.4676909129
 21
37.5411212371
  0
LINE
  5
2DD
100
AcDbEntity
  8
0
100
AcDbLine
 62
7
  6
BYLAYER
 10
57.9118124724
 20
39.5941673105
 11
55.0833735718
 21
41.2271303286
  0
LINE
  5
2DE
100
AcDbEntity
  8
0
100
AcDbLine
 62
7
  6
BYLAYER
 10
55.0946844127
 20
41.3272902813
 11
57.9231233133
 21
39.6943272632
  0
LINE
  5
2DF
100
AcDbEntity
  8
0
100
AcDbLine
 62
7
  6
BYLAYER
 10
59.8186818813
 20
38.7909221897
 11
61.9400110567
 21
37.5661999262
  0
LINE
  5
2E0
100
AcDbEntity
  8
0
100
AcDbLine
 62
7
  6
BYLAYER
 10
57.9620968959
 20
39.9575750669
 11
55.1336579953
 21
41.590538085
  0
LINE
  5
2E1
100
AcDbEntity
  8
0
100
AcDbLine
 62
7
  6
BYLAYER
 10
55.152402144
 20
41.6933851297
 11
57.9808410446
 21
40.0604221117
  0
LINE
  5
2E2
100
AcDbEntity
  8
0
100
AcDbLine
 62
7
  6
BYLAYER
 10
61.4579462516
 20
38.3230346044
 11
60.0437268013
 21
39.1395161134
  0
LINE
  5
2E3
100
AcDbEntity
  8
0
100
AcDbLine
 62
7
  6
BYLAYER
 10
58.0388854263
 20
40.3295010153
 11
55.2104465257
 21
41.9624640334
  0
LINE
  5
2E4
100
AcDbEntity
  8
0
100
AcDbLine
 62
7
  6
BYLAYER
 10
55.2364640635
 20
42.0671207154
 11
58.0649029641
 21
40.4341576973
  0
LINE
  5
2E5
100
AcDbEntity
  8
0
100
AcDbLine
 62
7
  6
BYLAYER
 10
58.1415229307
 20
40.7067720146
 11
55.3130840302
 21
42.3397350327
  0
LINE
  5
2E6
100
AcDbEntity
  8
0
100
AcDbLine
 62
7
  6
BYLAYER
 10
55.3461529848
 20
42.445308458
 11
58.1745918854
 21
40.8123454399
  0
LINE
  5
2E7
100
AcDbEntity
  8
0
100
AcDbLine
 62
7
  6
BYLAYER
 10
60.0437268013
 20
39.9560185305
 11
61.4579462516
 21
39.1395370215
  0
LINE
  5
2E8
100
AcDbEntity
  8
0
100
AcDbLine
 62
7
  6
BYLAYER
 10
61.4828720669
 20
39.1539278618
 11
62.1899940113
 21
38.7456800527
  0
LINE
  5
2E9
100
AcDbEntity
  8
0
100
AcDbLine
 62
7
  6
BYLAYER
 10
58.2691337423
 20
41.0861693216
 11
55.4406948418
 21
42.7191323397
  0
LINE
  5
2EA
100
AcDbEntity
  8
0
100
AcDbLine
 62
7
  6
BYLAYER
 10
55.4805330805
 20
42.8247217932
 11
58.3089719811
 21
41.1917587751
  0
LINE
  5
2EB
100
AcDbEntity
  8
0
100
AcDbLine
 62
7
  6
BYLAYER
 10
58.4206291306
 20
41.4644560524
 11
55.59219023
 21
43.0974190704
  0
LINE
  5
2EC
100
AcDbEntity
  8
0
100
AcDbLine
 62
7
  6
BYLAYER
 10
55.6384578671
 20
43.2021237
 11
58.4668967677
 21
41.569160682
  0
LINE
  5
2ED
100
AcDbEntity
  8
0
100
AcDbLine
 62
7
  6
BYLAYER
 10
58.5947165904
 20
41.8384047978
 11
55.7662776898
 21
43.4713678159
  0
LINE
  5
2EE
100
AcDbEntity
  8
0
100
AcDbLine
 62
7
  6
BYLAYER
 10
59.3187041545
 20
33.5933545493
 11
59.304335123
 21
33.6053104298
  0
LINE
  5
2EF
100
AcDbEntity
  8
0
100
AcDbLine
 62
7
  6
BYLAYER
 10
55.818579986
 20
43.5742943186
 11
58.6470188865
 21
41.9413313005
  0
LINE
  5
2F0
100
AcDbEntity
  8
0
100
AcDbLine
 62
7
  6
BYLAYER
 10
58.7899108687
 20
42.2048251591
 11
55.9614719681
 21
43.8377881772
  0
LINE
  5
2F1
100
AcDbEntity
  8
0
100
AcDbLine
 62
7
  6
BYLAYER
 10
56.0193626987
 20
43.9380584204
 11
58.8478015993
 21
42.3050954023
  0
LINE
  5
2F2
100
AcDbEntity
  8
0
100
AcDbLine
 62
7
  6
BYLAYER
 10
59.0045466369
 20
42.5605909669
 11
56.1761077363
 21
44.193553985
  0
LINE
  5
2F3
100
AcDbEntity
  8
0
100
AcDbLine
 62
7
  6
BYLAYER
 10
56.239092998
 20
44.2903124984
 11
59.0675318986
 21
42.6573494803
  0
LINE
  5
2F4
100
AcDbEntity
  8
0
100
AcDbLine
 62
7
  6
BYLAYER
 10
64.1899856845
 20
39.900368891
 11
62.8643382088
 21
40.6657145035
  0
LINE
  5
2F5
100
AcDbEntity
  8
0
100
AcDbLine
 62
7
  6
BYLAYER
 10
59.2367926983
 20
42.9026669528
 11
56.4083537977
 21
44.5356299709
  0
LINE
  5
2F6
100
AcDbEntity
  8
0
100
AcDbLine
 62
7
  6
BYLAYER
 10
56.4758962224
 20
44.6280512449
 11
59.304335123
 21
42.9950882268
  0
LINE
  5
2F7
100
AcDbEntity
  8
0
100
AcDbLine
 62
7
  6
BYLAYER
 10
59.4846676113
 20
43.2281346451
 11
56.6562287108
 21
44.8610976632
  0
LINE
  5
2F8
100
AcDbEntity
  8
0
100
AcDbLine
 62
7
  6
BYLAYER
 10
56.7277520503
 20
44.9483931921
 11
59.5561909509
 21
43.315430174
  0
LINE
  5
2F9
100
AcDbEntity
  8
0
100
AcDbLine
 62
7
  6
BYLAYER
 10
63.6492171063
 20
41.0290771293
 11
64.1899856845
 21
40.7168713081
  0
LINE
  5
2FA
100
AcDbEntity
  8
0
100
AcDbLine
 62
7
  6
BYLAYER
 10
64.2149114999
 20
40.7312621484
 11
64.9220334443
 21
40.3230143393
  0
LINE
  5
2FB
100
AcDbEntity
  8
0
100
AcDbLine
 62
7
  6
BYLAYER
 10
59.7460565947
 20
43.5342172682
 11
56.9176176941
 21
45.1671802863
  0
LINE
  5
2FC
100
AcDbEntity
  8
0
100
AcDbLine
 62
7
  6
BYLAYER
 10
56.9925117366
 20
45.2486052955
 11
59.8209506372
 21
43.6156422774
  0
LINE
  5
2FD
100
AcDbEntity
  8
0
100
AcDbLine
 62
7
  6
BYLAYER
 10
60.0187295697
 20
43.8183034331
 11
57.1902906691
 21
45.4512664512
  0
LINE
  5
2FE
100
AcDbEntity
  8
0
100
AcDbLine
 62
7
  6
BYLAYER
 10
57.267916445
 20
45.5261262511
 11
60.0963553456
 21
43.893163233
  0
LINE
  5
2FF
100
AcDbEntity
  8
0
100
AcDbLine
 62
7
  6
BYLAYER
 10
59.5754176643
 20
33.9066516983
 11
59.5561909509
 21
33.9256523771
  0
LINE
  5
300
100
AcDbEntity
  8
0
100
AcDbLine
 62
7
  6
BYLAYER
 10
60.3003601866
 20
44.0779694168
 11
57.471921286
 21
45.7109324348
  0
LINE
  5
301
100
AcDbEntity
  8
0
100
AcDbLine
 62
7
  6
BYLAYER
 10
57.5516165197
 20
45.7785883481
 11
60.3800554203
 21
44.14562533
  0
LINE
  5
302
100
AcDbEntity
  8
0
100
AcDbLine
 62
7
  6
BYLAYER
 10
52.9369371049
 20
48.5086374777
 11
10.510353596
 21
73.0030827489
  0
LINE
  5
303
100
AcDbEntity
  8
0
100
AcDbLine
 62
7
  6
BYLAYER
 10
62.3186394637
 20
43.1210736982
 11
64.4399686391
 21
41.8963514346
  0
LINE
  5
304
100
AcDbEntity
  8
0
100
AcDbLine
 62
7
  6
BYLAYER
 10
60.5885456724
 20
44.3109998406
 11
57.7601067719
 21
45.9439628587
  0
LINE
  5
305
100
AcDbEntity
  8
0
100
AcDbLine
 62
7
  6
BYLAYER
 10
64.2255088726
 20
42.3178285774
 11
64.1296958115
 21
42.3731450226
  0
LINE
  5
306
100
AcDbEntity
  8
0
100
AcDbLine
 62
7
  6
BYLAYER
 10
57.8411915315
 20
46.0038376689
 11
60.6696304321
 21
44.3708746508
  0
LINE
  5
307
100
AcDbEntity
  8
0
100
AcDbLine
 62
7
  6
BYLAYER
 10
60.8808273302
 20
44.5154065712
 11
58.0523884296
 21
46.1483695893
  0
LINE
  5
308
100
AcDbEntity
  8
0
100
AcDbLine
 62
7
  6
BYLAYER
 10
64.2488601804
 20
42.6696176751
 11
64.1428093372
 21
42.7308447728
  0
LINE
  5
309
100
AcDbEntity
  8
0
100
AcDbLine
 62
7
  6
BYLAYER
 10
58.1341709287
 20
46.1999524657
 11
60.9626098293
 21
44.5669894476
  0
LINE
  5
30A
100
AcDbEntity
  8
0
100
AcDbLine
 62
7
  6
BYLAYER
 10
11.9245671584
 20
73.0030861483
 11
28.8952005619
 21
63.2053080398
  0
LINE
  5
30B
100
AcDbEntity
  8
0
100
AcDbLine
 62
7
  6
BYLAYER
 10
61.1747115157
 20
44.6894456824
 11
58.3462726151
 21
46.3224087005
  0
LINE
  5
30C
100
AcDbEntity
  8
0
100
AcDbLine
 62
7
  6
BYLAYER
 10
64.2450791472
 20
43.0067867734
 11
64.1296953103
 21
43.0734021556
  0
LINE
  5
30D
100
AcDbEntity
  8
0
100
AcDbLine
 62
7
  6
BYLAYER
 10
58.4280551142
 20
46.3652595561
 11
61.2564940148
 21
44.732296538
  0
LINE
  5
30E
100
AcDbEntity
  8
0
100
AcDbLine
 62
7
  6
BYLAYER
 10
61.4676909129
 20
44.8316323339
 11
58.6392520123
 21
46.4645953519
  0
LINE
  5
30F
100
AcDbEntity
  8
0
100
AcDbLine
 62
7
  6
BYLAYER
 10
64.2141980317
 20
43.3264592645
 11
64.0904656153
 21
43.3978945923
  0
LINE
  5
310
100
AcDbEntity
  8
0
100
AcDbLine
 62
7
  6
BYLAYER
 10
58.7203367719
 20
46.4983485985
 11
61.5487756725
 21
44.8653855804
  0
LINE
  5
311
100
AcDbEntity
  8
0
100
AcDbLine
 62
7
  6
BYLAYER
 10
61.7572659247
 20
44.9407534392
 11
58.9288270241
 21
46.5737164573
  0
LINE
  5
312
100
AcDbEntity
  8
0
100
AcDbLine
 62
7
  6
BYLAYER
 10
64.1564803004
 20
43.6259078154
 11
64.0340250154
 21
43.6966058078
  0
LINE
  5
313
100
AcDbEntity
  8
0
100
AcDbLine
 62
7
  6
BYLAYER
 10
59.0085222577
 20
46.5980841239
 11
61.8369611583
 21
44.9651211058
  0
LINE
  5
314
100
AcDbEntity
  8
0
100
AcDbLine
 62
7
  6
BYLAYER
 10
62.0409659993
 20
45.0158780157
 11
59.2125270987
 21
46.6488410338
  0
LINE
  5
315
100
AcDbEntity
  8
0
100
AcDbLine
 62
7
  6
BYLAYER
 10
64.0724183808
 20
43.9025776366
 11
63.9352179503
 21
43.9817885501
  0
LINE
  5
316
100
AcDbEntity
  8
0
100
AcDbLine
 62
7
  6
BYLAYER
 10
59.2901528747
 20
46.6636152241
 11
62.1185917753
 21
45.030652206
  0
LINE
  5
317
100
AcDbEntity
  8
0
100
AcDbLine
 62
7
  6
BYLAYER
 10
62.3163707077
 20
45.0563651269
 11
59.4879318071
 21
46.6893281449
  0
LINE
  5
318
100
AcDbEntity
  8
0
100
AcDbLine
 62
7
  6
BYLAYER
 10
63.9627294596
 20
44.1541082789
 11
63.8205244988
 21
44.2362084939
  0
LINE
  5
319
100
AcDbEntity
  8
0
100
AcDbLine
 62
7
  6
BYLAYER
 10
59.5628258497
 20
46.6943828108
 11
62.3912647503
 21
45.0614197928
  0
LINE
  5
31A
100
AcDbEntity
  8
0
100
AcDbLine
 62
7
  6
BYLAYER
 10
62.581130394
 20
45.061869351
 11
59.7526914934
 21
46.6948323691
  0
LINE
  5
31B
100
AcDbEntity
  8
0
100
AcDbLine
 62
7
  6
BYLAYER
 10
63.8283493639
 20
44.3783537714
 11
63.6823531154
 21
44.4626428379
  0
LINE
  5
31C
100
AcDbEntity
  8
0
100
AcDbLine
 62
7
  6
BYLAYER
 10
59.824214833
 20
46.6901243859
 11
62.6526537336
 21
45.0571613678
  0
LINE
  5
31D
100
AcDbEntity
  8
0
100
AcDbLine
 62
7
  6
BYLAYER
 10
62.832986222
 20
45.0323437279
 11
60.0045473214
 21
46.665306746
  0
LINE
  5
31E
100
AcDbEntity
  8
0
100
AcDbLine
 62
7
  6
BYLAYER
 10
63.6704245773
 20
44.5734009307
 11
63.5218826296
 21
44.6591597241
  0
LINE
  5
31F
100
AcDbEntity
  8
0
100
AcDbLine
 62
7
  6
BYLAYER
 10
60.0720897461
 20
46.6508762806
 11
62.9005286467
 21
45.0179132625
  0
LINE
  5
320
100
AcDbEntity
  8
0
100
AcDbLine
 62
7
  6
BYLAYER
 10
63.0697894464
 20
44.9680401599
 11
60.2413505458
 21
46.601003178
  0
LINE
  5
321
100
AcDbEntity
  8
0
100
AcDbLine
 62
7
  6
BYLAYER
 10
63.4903024584
 20
44.7375856831
 11
63.340482119
 21
44.8240825396
  0
LINE
  5
322
100
AcDbEntity
  8
0
100
AcDbLine
 62
7
  6
BYLAYER
 10
60.3043358074
 20
46.576973346
 11
63.132774708
 21
44.944010328
  0
LINE
  5
323
100
AcDbEntity
  8
0
100
AcDbLine
 62
7
  6
BYLAYER
 10
63.2895197457
 20
44.8695072624
 11
60.4610808451
 21
46.5024702804
  0
LINE
  5
324
100
AcDbEntity
  8
0
100
AcDbLine
 62
7
  6
BYLAYER
 10
59.0762364368
 20
42.651358309
 11
59.0675318986
 21
42.6573494803
  0
LINE
  5
325
100
AcDbEntity
  8
0
100
AcDbLine
 62
7
  6
BYLAYER
 10
59.8442273419
 20
34.1988673888
 11
59.8209506372
 21
34.2258644804
  0
LINE
  5
326
100
AcDbEntity
  8
0
100
AcDbLine
 62
7
  6
BYLAYER
 10
62.4400913064
 20
29.0426059797
 11
62.1899940113
 21
29.3559022557
  0
LINE
  5
327
100
AcDbEntity
  8
0
100
AcDbLine
 62
7
  6
BYLAYER
 10
52.9369371049
 20
48.5086374777
 11
62.1292869886
 21
53.815811478
  0
LINE
  5
328
100
AcDbEntity
  8
0
100
AcDbLine
 62
7
  6
BYLAYER
 10
32.0771796053
 20
63.4094369154
 11
40.562496307
 21
58.5105478612
  0
LINE
  5
329
100
AcDbEntity
  8
0
100
AcDbLine
 62
7
  6
BYLAYER
 10
30.662954267
 20
64.43002793
 11
27.8345153664
 21
66.0629909481
  0
LINE
  5
32A
100
AcDbEntity
  8
0
100
AcDbLine
 62
7
  6
BYLAYER
 10
25.0060764659
 20
67.6959539661
 11
22.1776375653
 21
69.3289169842
  0
LINE
  5
32B
100
AcDbEntity
  8
0
100
AcDbLine
 62
7
  6
BYLAYER
 10
19.3491986647
 20
70.9618800023
 11
16.5207597641
 21
72.5948430204
  0
LINE
  5
32C
100
AcDbEntity
  8
0
100
AcDbLine
 62
7
  6
BYLAYER
 10
16.5207597641
 20
73.1663947124
 11
19.3491986647
 21
71.5334316943
  0
LINE
  5
32D
100
AcDbEntity
  8
0
100
AcDbLine
 62
7
  6
BYLAYER
 10
22.1776375653
 20
69.9004686762
 11
25.0060764659
 21
68.2675056581
  0
LINE
  5
32E
100
AcDbEntity
  8
0
100
AcDbLine
 62
7
  6
BYLAYER
 10
27.8345153664
 20
66.6345426401
 11
30.662954267
 21
65.001579622
  0
LINE
  5
32F
100
AcDbEntity
  8
0
100
AcDbLine
 62
7
  6
BYLAYER
 10
59.3187041545
 20
42.9831323463
 11
59.304335123
 21
42.9950882268
  0
LINE
  5
330
100
AcDbEntity
  8
0
100
AcDbLine
 62
7
  6
BYLAYER
 10
59.5754176643
 20
43.2964294953
 11
59.5561909509
 21
43.315430174
  0
LINE
  5
331
100
AcDbEntity
  8
0
100
AcDbLine
 62
7
  6
BYLAYER
 10
63.9398883895
 20
31.6403897871
 11
64.1899856845
 21
31.3270935111
  0
LINE
  5
332
100
AcDbEntity
  8
0
100
AcDbLine
 62
7
  6
BYLAYER
 10
60.1228734577
 20
34.4675648693
 11
60.0963553456
 21
34.503385436
  0
LINE
  5
333
100
AcDbEntity
  8
0
100
AcDbLine
 62
7
  6
BYLAYER
 10
61.437194021
 20
28.2069389788
 11
61.4676909129
 21
28.1513434401
  0
LINE
  5
334
100
AcDbEntity
  8
0
100
AcDbLine
 62
7
  6
BYLAYER
 10
35.2601161463
 20
36.3862952513
 11
36.3287835779
 21
37.0032869976
  0
LINE
  5
335
100
AcDbEntity
  8
0
100
AcDbLine
 62
7
  6
BYLAYER
 10
33.4913696159
 20
66.6345562375
 11
30.6629307153
 21
68.2675192555
  0
LINE
  5
336
100
AcDbEntity
  8
0
100
AcDbLine
 62
7
  6
BYLAYER
 10
27.8344918147
 20
69.9004822736
 11
25.0060529141
 21
71.5334452917
  0
LINE
  5
337
100
AcDbEntity
  8
0
100
AcDbLine
 62
7
  6
BYLAYER
 10
22.1776140135
 20
73.1664083098
 11
19.3491751129
 21
74.7993713279
  0
LINE
  5
338
100
AcDbEntity
  8
0
100
AcDbLine
 62
7
  6
BYLAYER
 10
36.3198026285
 20
65.7772530069
 11
44.734408357
 21
60.9191880286
  0
LINE
  5
339
100
AcDbEntity
  8
0
100
AcDbLine
 62
7
  6
BYLAYER
 10
44.8051193303
 20
60.9600127844
 11
36.3198026285
 21
65.8589018386
  0
LINE
  5
33A
100
AcDbEntity
  8
0
100
AcDbLine
 62
7
  6
BYLAYER
 10
59.8442273419
 20
43.5886451858
 11
59.8209506372
 21
43.6156422774
  0
LINE
  5
33B
100
AcDbEntity
  8
0
100
AcDbLine
 62
7
  6
BYLAYER
 10
62.4400913064
 20
38.4323837767
 11
62.1899940113
 21
38.7456800527
  0
LINE
  5
33C
100
AcDbEntity
  8
0
100
AcDbLine
 62
7
  6
BYLAYER
 10
60.4090075324
 20
34.7105025182
 11
60.3800554203
 21
34.755847533
  0
LINE
  5
33D
100
AcDbEntity
  8
0
100
AcDbLine
 62
7
  6
BYLAYER
 10
60.7001273239
 20
34.9255013151
 11
60.6696304321
 21
34.9810968538
  0
LINE
  5
33E
100
AcDbEntity
  8
0
100
AcDbLine
 62
7
  6
BYLAYER
 10
19.7027093678
 20
76.881396438
 11
36.1430025341
 21
67.3898034814
  0
LINE
  5
33F
100
AcDbEntity
  8
0
100
AcDbLine
 62
7
  6
BYLAYER
 10
36.6733427713
 20
67.6959937324
 11
19.7027093678
 21
77.4937718408
  0
LINE
  5
340
100
AcDbEntity
  8
0
100
AcDbLine
 62
7
  6
BYLAYER
 10
19.7027034798
 20
78.3102567492
 11
62.1292869886
 21
53.815811478
  0
LINE
  5
341
100
AcDbEntity
  8
0
100
AcDbLine
 62
7
  6
BYLAYER
 10
63.9398883895
 20
41.0301675841
 11
64.1899856845
 21
40.7168713081
  0
LINE
  5
342
100
AcDbEntity
  8
0
100
AcDbLine
 62
7
  6
BYLAYER
 10
60.1228734577
 20
43.8573426663
 11
60.0963553456
 21
43.893163233
  0
LINE
  5
343
100
AcDbEntity
  8
0
100
AcDbLine
 62
7
  6
BYLAYER
 10
61.437194021
 20
37.5967167758
 11
61.4676909129
 21
37.5411212371
  0
LINE
  5
344
100
AcDbEntity
  8
0
100
AcDbLine
 62
7
  6
BYLAYER
 10
52.9369371049
 20
24.0135663738
 11
52.9369371049
 21
48.5086374777
  0
LINE
  5
345
100
AcDbEntity
  8
0
100
AcDbLine
 62
7
  6
BYLAYER
 10
60.4090075324
 20
44.1002803151
 11
60.3800554203
 21
44.14562533
  0
LINE
  5
346
100
AcDbEntity
  8
0
100
AcDbLine
 62
7
  6
BYLAYER
 10
60.7001273239
 20
44.3152791121
 11
60.6696304321
 21
44.3708746508
  0
LINE
  5
347
100
AcDbEntity
  8
0
100
AcDbLine
 62
7
  6
BYLAYER
 10
60.7508487457
 20
39.5477707214
 11
60.0437268013
 21
39.1395161134
  0
LINE
  5
348
100
AcDbEntity
  8
0
100
AcDbLine
 62
7
  6
BYLAYER
 10
64.9220334443
 20
41.1395167564
 11
64.1899856845
 21
40.7168713081
  0
LINE
  5
349
100
AcDbEntity
  8
0
100
AcDbLine
 62
7
  6
BYLAYER
 10
62.1899940113
 20
39.5621824698
 11
61.4579462516
 21
39.1395370215
  0
LINE
  5
34A
100
AcDbEntity
  8
0
100
AcDbLine
 62
7
  6
BYLAYER
 10
61.4579462516
 20
38.3230346044
 11
62.1899940113
 21
38.7456800527
  0
LINE
  5
34B
100
AcDbEntity
  8
0
100
AcDbLine
 62
7
  6
BYLAYER
 10
64.1899856845
 20
39.900368891
 11
64.9220334443
 21
40.3230143393
  0
LINE
  5
34C
100
AcDbEntity
  8
0
100
AcDbLine
 62
7
  6
BYLAYER
 10
62.1292869886
 20
53.815811478
 11
62.1292869886
 21
45.5397819432
  0
LINE
  5
34D
100
AcDbEntity
  8
0
100
AcDbLine
 62
7
  6
BYLAYER
 10
62.1292869886
 20
37.5191601624
 11
62.1292869886
 21
36.1500041462
  0
LINE
  5
34E
100
AcDbEntity
  8
0
100
AcDbLine
 62
7
  6
BYLAYER
 10
60.7508487457
 20
30.1579929244
 11
60.0437268013
 21
29.7497383164
  0
LINE
  5
34F
100
AcDbEntity
  8
0
100
AcDbLine
 62
7
  6
BYLAYER
 10
64.9220334443
 20
31.7497389594
 11
64.1899856845
 21
31.3270935111
  0
LINE
  5
350
100
AcDbEntity
  8
0
100
AcDbLine
 62
7
  6
BYLAYER
 10
62.1899940113
 20
30.1724046728
 11
61.4579462516
 21
29.7497592245
  0
LINE
  5
351
100
AcDbEntity
  8
0
100
AcDbLine
 62
7
  6
BYLAYER
 10
61.4579462516
 20
28.9332568074
 11
62.1899940113
 21
29.3559022557
  0
LINE
  5
352
100
AcDbEntity
  8
0
100
AcDbLine
 62
7
  6
BYLAYER
 10
64.1899856845
 20
30.510591094
 11
64.9220334443
 21
30.9332365423
  0
LINE
  5
353
100
AcDbEntity
  8
0
100
AcDbLine
 62
7
  6
BYLAYER
 10
52.9369371049
 20
24.0135663738
 11
59.1099500703
 21
27.5775357971
  0
ARC
  5
354
100
AcDbEntity
  8
0
100
AcDbCircle
 62
7
  6
BYLAYER
 10
57.9798775853
 20
31.2246366296
 40
2.9117277533
100
AcDbArc
 50
192.1766428937
 51
193.8244018157
  0
ARC
  5
355
100
AcDbEntity
  8
0
100
AcDbCircle
 62
7
  6
BYLAYER
 10
57.5670506542
 20
31.1070405082
 40
2.482278463
100
AcDbArc
 50
198.3098690007
 51
200.1425657458
  0
ARC
  5
356
100
AcDbEntity
  8
0
100
AcDbCircle
 62
7
  6
BYLAYER
 10
57.2466630387
 20
30.9754299788
 40
2.1357245051
100
AcDbArc
 50
205.1294842035
 51
207.1529764826
  0
ARC
  5
357
100
AcDbEntity
  8
0
100
AcDbCircle
 62
7
  6
BYLAYER
 10
57.0053601398
 20
30.8393028944
 40
1.8584832415
100
AcDbArc
 50
212.6582261319
 51
214.8787003136
  0
ARC
  5
358
100
AcDbEntity
  8
0
100
AcDbCircle
 62
7
  6
BYLAYER
 10
56.5967960329
 20
31.604047405
 40
1.8389268113
100
AcDbArc
 50
205.7950586426
 51
208.448061201
  0
ARC
  5
359
100
AcDbEntity
  8
0
100
AcDbCircle
 62
7
  6
BYLAYER
 10
56.5461565982
 20
31.5767824621
 40
1.7814141499
100
AcDbArc
 50
208.4528861832
 51
209.3594029613
  0
ARC
  5
35A
100
AcDbEntity
  8
0
100
AcDbCircle
 62
7
  6
BYLAYER
 10
56.4469807162
 20
31.5184679263
 40
1.6663869096
100
AcDbArc
 50
209.2837556668
 51
215.5593140501
  0
ARC
  5
35B
100
AcDbEntity
  8
0
100
AcDbCircle
 62
7
  6
BYLAYER
 10
56.8496275036
 20
30.721009926
 40
1.6627639159
100
AcDbArc
 50
220.8667591419
 51
223.2582096114
  0
ARC
  5
35C
100
AcDbEntity
  8
0
100
AcDbCircle
 62
7
  6
BYLAYER
 10
56.3720129191
 20
31.4655728433
 40
1.5746387705
100
AcDbArc
 50
215.5799195701
 51
218.4295164451
  0
ARC
  5
35D
100
AcDbEntity
  8
0
100
AcDbCircle
 62
7
  6
BYLAYER
 10
56.3371396505
 20
31.4383514758
 40
1.5304005413
100
AcDbArc
 50
218.4426586622
 51
219.3485183484
  0
ARC
  5
35E
100
AcDbEntity
  8
0
100
AcDbCircle
 62
7
  6
BYLAYER
 10
56.3213069001
 20
31.425347233
 40
1.5099118615
100
AcDbArc
 50
219.3478468928
 51
220.5854662461
  0
ARC
  5
35F
100
AcDbEntity
  8
0
100
AcDbCircle
 62
7
  6
BYLAYER
 10
56.2859403447
 20
31.3944919902
 40
1.4629794216
100
AcDbArc
 50
220.5688700861
 51
224.1787749273
  0
ARC
  5
360
100
AcDbEntity
  8
0
100
AcDbCircle
 62
7
  6
BYLAYER
 10
55.5515656514
 20
29.6049903258
 40
0.2590098863
100
AcDbArc
 50
325.9933194413
 51
335.2984662036
  0
ARC
  5
361
100
AcDbEntity
  8
0
100
AcDbCircle
 62
7
  6
BYLAYER
 10
55.7428032924
 20
29.4503264883
 40
0.2550233278
100
AcDbArc
 50
329.0309933752
 51
332.1820523187
  0
ARC
  5
362
100
AcDbEntity
  8
0
100
AcDbCircle
 62
7
  6
BYLAYER
 10
60.212922335
 20
31.3087223603
 40
5.1567176041
100
AcDbArc
 50
172.9961453746
 51
174.1214381937
  0
ARC
  5
363
100
AcDbEntity
  8
0
100
AcDbCircle
 62
7
  6
BYLAYER
 10
58.4556768768
 20
32.3153076934
 40
5.1391465105
100
AcDbArc
 50
305.8801913006
 51
307.0093584458
  0
ARC
  5
364
100
AcDbEntity
  8
0
100
AcDbCircle
 62
7
  6
BYLAYER
 10
60.5357931432
 20
32.9117349544
 40
4.5788231531
100
AcDbArc
 50
121.6350227299
 51
122.85076872
  0
ARC
  5
365
100
AcDbEntity
  8
0
100
AcDbCircle
 62
7
  6
BYLAYER
 10
59.6087050151
 20
31.3558632707
 40
4.5505331211
100
AcDbArc
 50
177.1492469324
 51
178.3725187312
  0
ARC
  5
366
100
AcDbEntity
  8
0
100
AcDbCircle
 62
7
  6
BYLAYER
 10
58.8039996707
 20
31.8044199682
 40
4.5206800934
100
AcDbArc
 50
301.6288606626
 51
302.8602722539
  0
ARC
  5
367
100
AcDbEntity
  8
0
100
AcDbCircle
 62
7
  6
BYLAYER
 10
59.0191364744
 20
31.3566372704
 40
3.9608129388
100
AcDbArc
 50
181.6781197854
 51
183.0201184016
  0
ARC
  5
368
100
AcDbEntity
  8
0
100
AcDbCircle
 62
7
  6
BYLAYER
 10
59.1030060082
 20
31.2828604159
 40
3.9193427702
100
AcDbArc
 50
296.9750067972
 51
298.3312301119
  0
ARC
  5
369
100
AcDbEntity
  8
0
100
AcDbCircle
 62
7
  6
BYLAYER
 10
58.4691668101
 20
31.3111506789
 40
3.4087946868
100
AcDbArc
 50
186.6597712258
 51
188.1431142221
  0
ARC
  5
36A
100
AcDbEntity
  8
0
100
AcDbCircle
 62
7
  6
BYLAYER
 10
59.3236878541
 20
30.8098333001
 40
3.3972458374
100
AcDbArc
 50
291.858682676
 51
293.3471149804
  0
ARC
  5
36B
100
AcDbEntity
  8
0
100
AcDbCircle
 62
7
  6
BYLAYER
 10
59.4918598182
 20
30.3440633953
 40
2.9018708823
100
AcDbArc
 50
286.1774707659
 51
287.8308803942
  0
ARC
  5
36C
100
AcDbEntity
  8
0
100
AcDbCircle
 62
7
  6
BYLAYER
 10
60.4045982931
 20
29.4772541626
 40
2.4919240138
100
AcDbArc
 50
198.3134162333
 51
200.1390185131
  0
ARC
  5
36D
100
AcDbEntity
  8
0
100
AcDbCircle
 62
7
  6
BYLAYER
 10
59.5951260972
 20
29.928902712
 40
2.4738736247
100
AcDbArc
 50
279.8593907211
 51
281.698373291
  0
ARC
  5
36E
100
AcDbEntity
  8
0
100
AcDbCircle
 62
7
  6
BYLAYER
 10
60.0751019393
 20
29.3424669607
 40
2.1357245051
100
AcDbArc
 50
205.1294842035
 51
207.1529764826
  0
ARC
  5
36F
100
AcDbEntity
  8
0
100
AcDbCircle
 62
7
  6
BYLAYER
 10
59.6398602523
 20
29.5925628627
 40
2.1344080729
100
AcDbArc
 50
272.8518986173
 51
274.8766996303
  0
ARC
  5
370
100
AcDbEntity
  8
0
100
AcDbCircle
 62
7
  6
BYLAYER
 10
59.6425338619
 20
29.3168271057
 40
1.8584873696
100
AcDbArc
 50
265.1272293918
 51
267.3477555777
  0
ARC
  5
371
100
AcDbEntity
  8
0
100
AcDbCircle
 62
7
  6
BYLAYER
 10
59.8337990405
 20
29.2063398763
 40
1.8584832416
100
AcDbArc
 50
212.6582261319
 51
214.8787003135
  0
ARC
  5
372
100
AcDbEntity
  8
0
100
AcDbCircle
 62
7
  6
BYLAYER
 10
59.6179531985
 20
29.1227947466
 40
1.662766653
100
AcDbArc
 50
256.7480978066
 51
259.1395896609
  0
ARC
  5
373
100
AcDbEntity
  8
0
100
AcDbCircle
 62
7
  6
BYLAYER
 10
59.6780664042
 20
29.0880469079
 40
1.6627639159
100
AcDbArc
 50
220.8667591419
 51
223.2582096114
  0
ARC
  5
374
100
AcDbEntity
  8
0
100
AcDbCircle
 62
7
  6
BYLAYER
 10
59.5871283933
 20
29.0105165563
 40
1.5462567647
100
AcDbArc
 50
247.8663042332
 51
250.3764365036
  0
ARC
  5
375
100
AcDbEntity
  8
0
100
AcDbCircle
 62
7
  6
BYLAYER
 10
59.5962554727
 20
29.005225898
 40
1.5462554029
100
AcDbArc
 50
229.6301616839
 51
232.1402707662
  0
ARC
  5
376
100
AcDbEntity
  8
0
100
AcDbCircle
 62
7
  6
BYLAYER
 10
59.5761473575
 20
28.9811620338
 40
1.5150172492
100
AcDbArc
 50
240.0026273014
 51
241.2775867426
  0
ARC
  5
377
100
AcDbEntity
  8
0
100
AcDbCircle
 62
7
  6
BYLAYER
 10
59.5686566351
 20
28.9680910273
 40
1.4999520629
100
AcDbArc
 50
238.7227071769
 51
240.0008068971
  0
ARC
  5
378
100
AcDbEntity
  8
0
100
AcDbCircle
 62
7
  6
BYLAYER
 10
58.4132607154
 20
32.0232509107
 40
0.0512888075
100
AcDbArc
 50
39.0777557362
 51
61.0176853932
  0
ARC
  5
379
100
AcDbEntity
  8
0
100
AcDbCircle
 62
7
  6
BYLAYER
 10
58.2715583747
 20
31.6462163007
 40
0.0490415302
100
AcDbArc
 50
47.8565048833
 51
61.212745132
  0
ARC
  5
37A
100
AcDbEntity
  8
0
100
AcDbCircle
 62
7
  6
BYLAYER
 10
58.1536879338
 20
31.2691409953
 40
0.0471029545
100
AcDbArc
 50
56.8623826891
 51
60.9819838911
  0
ARC
  5
37B
100
AcDbEntity
  8
0
100
AcDbCircle
 62
7
  6
BYLAYER
 10
59.0858417968
 20
33.4578232718
 40
5.1668997045
100
AcDbArc
 50
352.9972541838
 51
354.1203293845
  0
ARC
  5
37C
100
AcDbEntity
  8
0
100
AcDbCircle
 62
7
  6
BYLAYER
 10
59.6880951814
 20
33.4100124557
 40
4.5626239141
100
AcDbArc
 50
357.1508678074
 51
358.3708978563
  0
ARC
  5
37D
100
AcDbEntity
  8
0
100
AcDbCircle
 62
7
  6
BYLAYER
 10
60.2377736327
 20
33.4219374123
 40
3.9878262927
100
AcDbArc
 50
116.9884431189
 51
118.3213896459
  0
ARC
  5
37E
100
AcDbEntity
  8
0
100
AcDbCircle
 62
7
  6
BYLAYER
 10
60.276877568
 20
33.4082381431
 40
3.9736912838
100
AcDbArc
 50
1.6802945276
 51
3.0179436595
  0
ARC
  5
37F
100
AcDbEntity
  8
0
100
AcDbCircle
 62
7
  6
BYLAYER
 10
60.0065004325
 20
33.9049477381
 40
3.4521667551
100
AcDbArc
 50
112.3576543775
 51
113.3388114557
  0
ARC
  5
380
100
AcDbEntity
  8
0
100
AcDbCircle
 62
7
  6
BYLAYER
 10
59.9682716859
 20
33.9973544369
 40
3.3521647956
100
AcDbArc
 50
111.8561340066
 51
112.3541557953
  0
ARC
  5
381
100
AcDbEntity
  8
0
100
AcDbCircle
 62
7
  6
BYLAYER
 10
58.452752696
 20
37.0438430896
 40
0.1609554659
100
AcDbArc
 50
303.0841280347
 51
306.3567757139
  0
ARC
  5
382
100
AcDbEntity
  8
0
100
AcDbCircle
 62
7
  6
BYLAYER
 10
60.1475062599
 20
34.5101749438
 40
0.0492153003
100
AcDbArc
 50
236.2706815682
 51
239.9678746465
  0
ARC
  5
383
100
AcDbEntity
  8
0
100
AcDbCircle
 62
7
  6
BYLAYER
 10
57.9798775851
 20
40.6144144265
 40
2.9117277531
100
AcDbArc
 50
192.1766428936
 51
193.8244018158
  0
ARC
  5
384
100
AcDbEntity
  8
0
100
AcDbCircle
 62
7
  6
BYLAYER
 10
57.5670506542
 20
40.4968183052
 40
2.4822784629
100
AcDbArc
 50
198.3098690007
 51
200.1425657458
  0
ARC
  5
385
100
AcDbEntity
  8
0
100
AcDbCircle
 62
7
  6
BYLAYER
 10
57.2466630387
 20
40.3652077758
 40
2.1357245051
100
AcDbArc
 50
205.1294842034
 51
207.1529764826
  0
ARC
  5
386
100
AcDbEntity
  8
0
100
AcDbCircle
 62
7
  6
BYLAYER
 10
57.0053601399
 20
40.2290806913
 40
1.8584832415
100
AcDbArc
 50
212.6582261319
 51
214.8787003136
  0
ARC
  5
387
100
AcDbEntity
  8
0
100
AcDbCircle
 62
7
  6
BYLAYER
 10
56.5967960329
 20
40.993825202
 40
1.8389268113
100
AcDbArc
 50
205.7950586426
 51
208.448061201
  0
ARC
  5
388
100
AcDbEntity
  8
0
100
AcDbCircle
 62
7
  6
BYLAYER
 10
56.5461565982
 20
40.9665602591
 40
1.7814141499
100
AcDbArc
 50
208.4528861832
 51
209.3594029613
  0
ARC
  5
389
100
AcDbEntity
  8
0
100
AcDbCircle
 62
7
  6
BYLAYER
 10
56.4469807162
 20
40.9082457232
 40
1.6663869096
100
AcDbArc
 50
209.2837556668
 51
215.5593140501
  0
ARC
  5
38A
100
AcDbEntity
  8
0
100
AcDbCircle
 62
7
  6
BYLAYER
 10
56.8496275036
 20
40.110787723
 40
1.6627639159
100
AcDbArc
 50
220.8667591419
 51
223.2582096114
  0
ARC
  5
38B
100
AcDbEntity
  8
0
100
AcDbCircle
 62
7
  6
BYLAYER
 10
56.3720129191
 20
40.8553506403
 40
1.5746387706
100
AcDbArc
 50
215.5799195701
 51
218.4295164451
  0
ARC
  5
38C
100
AcDbEntity
  8
0
100
AcDbCircle
 62
7
  6
BYLAYER
 10
56.3371396508
 20
40.8281292731
 40
1.5304005417
100
AcDbArc
 50
218.4426586623
 51
219.3485183483
  0
ARC
  5
38D
100
AcDbEntity
  8
0
100
AcDbCircle
 62
7
  6
BYLAYER
 10
56.3213069001
 20
40.81512503
 40
1.5099118615
100
AcDbArc
 50
219.3478468928
 51
220.5854662461
  0
ARC
  5
38E
100
AcDbEntity
  8
0
100
AcDbCircle
 62
7
  6
BYLAYER
 10
56.2859403447
 20
40.7842697872
 40
1.4629794217
100
AcDbArc
 50
220.5688700861
 51
224.1787749273
  0
ARC
  5
38F
100
AcDbEntity
  8
0
100
AcDbCircle
 62
7
  6
BYLAYER
 10
55.5515656514
 20
38.9947681228
 40
0.2590098863
100
AcDbArc
 50
325.9933194413
 51
335.2984662036
  0
ARC
  5
390
100
AcDbEntity
  8
0
100
AcDbCircle
 62
7
  6
BYLAYER
 10
55.7428032924
 20
38.8401042853
 40
0.2550233278
100
AcDbArc
 50
329.030993375
 51
332.1820523187
  0
ARC
  5
391
100
AcDbEntity
  8
0
100
AcDbCircle
 62
7
  6
BYLAYER
 10
60.2129223342
 20
40.6985001574
 40
5.1567176034
100
AcDbArc
 50
172.9961453745
 51
174.1214381938
  0
ARC
  5
392
100
AcDbEntity
  8
0
100
AcDbCircle
 62
7
  6
BYLAYER
 10
58.4556768769
 20
41.7050854904
 40
5.1391465105
100
AcDbArc
 50
305.8801913006
 51
307.0093584458
  0
ARC
  5
393
100
AcDbEntity
  8
0
100
AcDbCircle
 62
7
  6
BYLAYER
 10
60.5357931431
 20
42.3015127516
 40
4.5788231528
100
AcDbArc
 50
121.6350227298
 51
122.85076872
  0
ARC
  5
394
100
AcDbEntity
  8
0
100
AcDbCircle
 62
7
  6
BYLAYER
 10
59.6087050154
 20
40.7456410677
 40
4.5505331215
100
AcDbArc
 50
177.1492469325
 51
178.3725187312
  0
ARC
  5
395
100
AcDbEntity
  8
0
100
AcDbCircle
 62
7
  6
BYLAYER
 10
58.8039996707
 20
41.1941977651
 40
4.5206800934
100
AcDbArc
 50
301.6288606626
 51
302.8602722539
  0
ARC
  5
396
100
AcDbEntity
  8
0
100
AcDbCircle
 62
7
  6
BYLAYER
 10
59.0191364742
 20
40.7464150674
 40
3.9608129386
100
AcDbArc
 50
181.6781197854
 51
183.0201184016
  0
ARC
  5
397
100
AcDbEntity
  8
0
100
AcDbCircle
 62
7
  6
BYLAYER
 10
59.1030060082
 20
40.6726382128
 40
3.9193427702
100
AcDbArc
 50
296.9750067972
 51
298.3312301119
  0
ARC
  5
398
100
AcDbEntity
  8
0
100
AcDbCircle
 62
7
  6
BYLAYER
 10
58.4691668103
 20
40.7009284759
 40
3.408794687
100
AcDbArc
 50
186.6597712258
 51
188.143114222
  0
ARC
  5
399
100
AcDbEntity
  8
0
100
AcDbCircle
 62
7
  6
BYLAYER
 10
59.323687854
 20
40.1996110972
 40
3.3972458375
100
AcDbArc
 50
291.858682676
 51
293.3471149804
  0
ARC
  5
39A
100
AcDbEntity
  8
0
100
AcDbCircle
 62
7
  6
BYLAYER
 10
59.4918598182
 20
39.7338411924
 40
2.9018708824
100
AcDbArc
 50
286.1774707659
 51
287.8308803942
  0
ARC
  5
39B
100
AcDbEntity
  8
0
100
AcDbCircle
 62
7
  6
BYLAYER
 10
60.4045982932
 20
38.8670319596
 40
2.491924014
100
AcDbArc
 50
198.3134162333
 51
200.1390185131
  0
ARC
  5
39C
100
AcDbEntity
  8
0
100
AcDbCircle
 62
7
  6
BYLAYER
 10
59.5951260972
 20
39.318680509
 40
2.4738736246
100
AcDbArc
 50
279.8593907211
 51
281.698373291
  0
ARC
  5
39D
100
AcDbEntity
  8
0
100
AcDbCircle
 62
7
  6
BYLAYER
 10
60.0751019393
 20
38.7322447577
 40
2.1357245051
100
AcDbArc
 50
205.1294842035
 51
207.1529764826
  0
ARC
  5
39E
100
AcDbEntity
  8
0
100
AcDbCircle
 62
7
  6
BYLAYER
 10
59.6398602523
 20
38.9823406596
 40
2.1344080729
100
AcDbArc
 50
272.8518986173
 51
274.8766996303
  0
ARC
  5
39F
100
AcDbEntity
  8
0
100
AcDbCircle
 62
7
  6
BYLAYER
 10
59.6425338619
 20
38.7066049027
 40
1.8584873696
100
AcDbArc
 50
265.1272293918
 51
267.3477555777
  0
ARC
  5
3A0
100
AcDbEntity
  8
0
100
AcDbCircle
 62
7
  6
BYLAYER
 10
59.8337990405
 20
38.5961176733
 40
1.8584832416
100
AcDbArc
 50
212.658226132
 51
214.8787003135
  0
ARC
  5
3A1
100
AcDbEntity
  8
0
100
AcDbCircle
 62
7
  6
BYLAYER
 10
59.6179531985
 20
38.5125725437
 40
1.6627666531
100
AcDbArc
 50
256.7480978066
 51
259.1395896609
  0
ARC
  5
3A2
100
AcDbEntity
  8
0
100
AcDbCircle
 62
7
  6
BYLAYER
 10
59.6780664042
 20
38.4778247049
 40
1.6627639159
100
AcDbArc
 50
220.8667591419
 51
223.2582096114
  0
ARC
  5
3A3
100
AcDbEntity
  8
0
100
AcDbCircle
 62
7
  6
BYLAYER
 10
59.5871283933
 20
38.4002943533
 40
1.5462567647
100
AcDbArc
 50
247.8663042332
 51
250.3764365037
  0
ARC
  5
3A4
100
AcDbEntity
  8
0
100
AcDbCircle
 62
7
  6
BYLAYER
 10
59.5962554727
 20
38.395003695
 40
1.5462554029
100
AcDbArc
 50
229.6301616839
 51
232.1402707662
  0
ARC
  5
3A5
100
AcDbEntity
  8
0
100
AcDbCircle
 62
7
  6
BYLAYER
 10
59.5761473574
 20
38.3709398306
 40
1.5150172491
100
AcDbArc
 50
240.0026273013
 51
241.2775867426
  0
ARC
  5
3A6
100
AcDbEntity
  8
0
100
AcDbCircle
 62
7
  6
BYLAYER
 10
59.5686566351
 20
38.3578688244
 40
1.499952063
100
AcDbArc
 50
238.722707177
 51
240.0008068971
  0
ARC
  5
3A7
100
AcDbEntity
  8
0
100
AcDbCircle
 62
7
  6
BYLAYER
 10
58.4132607154
 20
41.4130287076
 40
0.0512888075
100
AcDbArc
 50
39.0777557363
 51
61.0176853932
  0
ARC
  5
3A8
100
AcDbEntity
  8
0
100
AcDbCircle
 62
7
  6
BYLAYER
 10
58.2715583747
 20
41.0359940977
 40
0.0490415302
100
AcDbArc
 50
47.8565048833
 51
61.212745132
  0
ARC
  5
3A9
100
AcDbEntity
  8
0
100
AcDbCircle
 62
7
  6
BYLAYER
 10
58.1536879338
 20
40.6589187922
 40
0.0471029546
100
AcDbArc
 50
56.8623826892
 51
60.9819838907
  0
ARC
  5
3AA
100
AcDbEntity
  8
0
100
AcDbCircle
 62
7
  6
BYLAYER
 10
59.085841797
 20
42.8476010687
 40
5.1668997042
100
AcDbArc
 50
352.9972541837
 51
354.1203293845
  0
ARC
  5
3AB
100
AcDbEntity
  8
0
100
AcDbCircle
 62
7
  6
BYLAYER
 10
59.6880951814
 20
42.7997902527
 40
4.5626239141
100
AcDbArc
 50
357.1508678074
 51
358.3708978563
  0
ARC
  5
3AC
100
AcDbEntity
  8
0
100
AcDbCircle
 62
7
  6
BYLAYER
 10
60.2377736327
 20
42.8117152093
 40
3.9878262927
100
AcDbArc
 50
116.9884431189
 51
118.3213896459
  0
ARC
  5
3AD
100
AcDbEntity
  8
0
100
AcDbCircle
 62
7
  6
BYLAYER
 10
60.276877568
 20
42.7980159401
 40
3.9736912838
100
AcDbArc
 50
1.6802945276
 51
3.0179436595
  0
ARC
  5
3AE
100
AcDbEntity
  8
0
100
AcDbCircle
 62
7
  6
BYLAYER
 10
59.999174437
 20
43.3117681729
 40
3.4336162544
100
AcDbArc
 50
111.8665661866
 51
113.3392314699
  0
ARC
  5
3AF
100
AcDbEntity
  8
0
100
AcDbCircle
 62
7
  6
BYLAYER
 10
59.8263162428
 20
43.7807275847
 40
2.9336470256
100
AcDbArc
 50
106.1864259279
 51
107.8219252322
  0
ARC
  5
3B0
100
AcDbEntity
  8
0
100
AcDbCircle
 62
7
  6
BYLAYER
 10
59.7187938697
 20
44.1998177966
 40
2.5008060433
100
AcDbArc
 50
99.8692940146
 51
101.6884699975
  0
ARC
  5
3B1
100
AcDbEntity
  8
0
100
AcDbCircle
 62
7
  6
BYLAYER
 10
59.6690221921
 20
44.5626182463
 40
2.1344080729
100
AcDbArc
 50
92.8518986173
 51
94.8766996303
  0
ARC
  5
3B2
100
AcDbEntity
  8
0
100
AcDbCircle
 62
7
  6
BYLAYER
 10
58.8054255533
 20
44.7230901021
 40
1.9258116413
100
AcDbArc
 50
93.4580214183
 51
95.8333881249
  0
ARC
  5
3B3
100
AcDbEntity
  8
0
100
AcDbCircle
 62
7
  6
BYLAYER
 10
59.6663485824
 20
44.8383540033
 40
1.8584873696
100
AcDbArc
 50
85.1272293918
 51
87.3477555777
  0
ARC
  5
3B4
100
AcDbEntity
  8
0
100
AcDbCircle
 62
7
  6
BYLAYER
 10
58.7995218563
 20
44.8149630084
 40
1.8337499508
100
AcDbArc
 50
91.2051746357
 51
93.4470409642
  0
ARC
  5
3B5
100
AcDbEntity
  8
0
100
AcDbCircle
 62
7
  6
BYLAYER
 10
58.8060869833
 20
45.0614536686
 40
1.5869458611
100
AcDbArc
 50
82.6989504028
 51
84.7878413289
  0
ARC
  5
3B6
100
AcDbEntity
  8
0
100
AcDbCircle
 62
7
  6
BYLAYER
 10
58.8097477185
 20
45.0910542567
 40
1.5571200603
100
AcDbArc
 50
82.0723977731
 51
82.6941422486
  0
ARC
  5
3B7
100
AcDbEntity
  8
0
100
AcDbCircle
 62
7
  6
BYLAYER
 10
58.8124106828
 20
45.1099417716
 40
1.5380457706
100
AcDbArc
 50
80.8380297423
 51
82.0736090868
  0
ARC
  5
3B8
100
AcDbEntity
  8
0
100
AcDbCircle
 62
7
  6
BYLAYER
 10
58.8154611382
 20
45.1290449333
 40
1.5187006125
100
AcDbArc
 50
80.1138749322
 51
80.8368911157
  0
ARC
  5
3B9
100
AcDbEntity
  8
0
100
AcDbCircle
 62
7
  6
BYLAYER
 10
58.8220001154
 20
45.1654361128
 40
1.4817271402
100
AcDbArc
 50
76.077461642
 51
80.1213710911
  0
ARC
  5
3BA
100
AcDbEntity
  8
0
100
AcDbCircle
 62
7
  6
BYLAYER
 10
60.2214761463
 20
46.635413784
 40
0.2736957434
100
AcDbArc
 50
328.049197731
 51
330.9766562229
  0
ARC
  5
3BB
100
AcDbEntity
  8
0
100
AcDbCircle
 62
7
  6
BYLAYER
 10
59.9986355996
 20
46.7189430943
 40
0.269531421
100
AcDbArc
 50
325.1702815569
 51
334.0769650918
  0
ARC
  5
3BC
100
AcDbEntity
  8
0
100
AcDbCircle
 62
7
  6
BYLAYER
 10
58.452752696
 20
46.4336208866
 40
0.1609554659
100
AcDbArc
 50
303.0841280348
 51
306.3567757139
  0
ARC
  5
3BD
100
AcDbEntity
  8
0
100
AcDbCircle
 62
7
  6
BYLAYER
 10
60.1475062599
 20
43.8999527408
 40
0.0492153003
100
AcDbArc
 50
236.2706815685
 51
239.9678746464
  0
ARC
  5
3BE
100
AcDbEntity
  8
0
100
AcDbCircle
 62
7
  6
BYLAYER
 10
62.7721586423
 20
30.5826205548
 40
7.831137391
100
AcDbArc
 50
149.5759051217
 51
150.4270697832
  0
ARC
  5
3BF
100
AcDbEntity
  8
0
100
AcDbCircle
 62
7
  6
BYLAYER
 10
62.7146816263
 20
30.6162403038
 40
7.7645622264
100
AcDbArc
 50
146.5111019866
 51
147.3671266795
  0
ARC
  5
3C0
100
AcDbEntity
  8
0
100
AcDbCircle
 62
7
  6
BYLAYER
 10
62.7143108233
 20
30.6155828942
 40
7.7645599372
100
AcDbArc
 50
152.635860149
 51
153.4918821414
  0
ARC
  5
3C1
100
AcDbEntity
  8
0
100
AcDbCircle
 62
7
  6
BYLAYER
 10
62.5522895656
 20
30.7265779275
 40
7.568219905
100
AcDbArc
 50
143.4062749072
 51
144.2770434085
  0
ARC
  5
3C2
100
AcDbEntity
  8
0
100
AcDbCircle
 62
7
  6
BYLAYER
 10
62.5375655382
 20
30.7010441936
 40
7.5682154425
100
AcDbArc
 50
155.7259768987
 51
156.5967399067
  0
ARC
  5
3C3
100
AcDbEntity
  8
0
100
AcDbCircle
 62
7
  6
BYLAYER
 10
62.3013831958
 20
30.9189395507
 40
7.2520311698
100
AcDbArc
 50
140.2248779823
 51
141.120778572
  0
ARC
  5
3C4
100
AcDbEntity
  8
0
100
AcDbCircle
 62
7
  6
BYLAYER
 10
62.2455282874
 20
30.8221479955
 40
7.252024758
100
AcDbArc
 50
158.8822979146
 51
159.7781900303
  0
ARC
  5
3C5
100
AcDbEntity
  8
0
100
AcDbCircle
 62
7
  6
BYLAYER
 10
61.9830677956
 20
31.1932792926
 40
6.8317633038
100
AcDbArc
 50
136.9277495931
 51
137.8600278645
  0
ARC
  5
3C6
100
AcDbEntity
  8
0
100
AcDbCircle
 62
7
  6
BYLAYER
 10
61.8487918294
 20
30.9606397408
 40
6.8317552585
100
AcDbArc
 50
162.1431294181
 51
163.0753959468
  0
ARC
  5
3C7
100
AcDbEntity
  8
0
100
AcDbCircle
 62
7
  6
BYLAYER
 10
61.6215250883
 20
31.5440777891
 40
6.3279426419
100
AcDbArc
 50
133.471801004
 51
134.4529320289
  0
ARC
  5
3C8
100
AcDbEntity
  8
0
100
AcDbCircle
 62
7
  6
BYLAYER
 10
61.3642272996
 20
31.0983374692
 40
6.3279333503
100
AcDbArc
 50
165.5503333953
 51
166.5314490148
  0
ARC
  5
3C9
100
AcDbEntity
  8
0
100
AcDbCircle
 62
7
  6
BYLAYER
 10
60.8138105925
 20
31.2185850486
 40
5.7644443772
100
AcDbArc
 50
169.1506860964
 51
170.1947403238
  0
ARC
  5
3CA
100
AcDbEntity
  8
0
100
AcDbCircle
 62
7
  6
BYLAYER
 10
63.0514795483
 20
29.6746170221
 40
5.1668997046
100
AcDbArc
 50
172.9972541838
 51
174.1203293845
  0
ARC
  5
3CB
100
AcDbEntity
  8
0
100
AcDbCircle
 62
7
  6
BYLAYER
 10
62.4492261635
 20
29.7224278383
 40
4.562623914
100
AcDbArc
 50
177.1508678074
 51
178.3708978563
  0
ARC
  5
3CC
100
AcDbEntity
  8
0
100
AcDbCircle
 62
7
  6
BYLAYER
 10
61.8604437771
 20
29.7242021509
 40
3.9736912839
100
AcDbArc
 50
181.6802945276
 51
183.0179436595
  0
ARC
  5
3CD
100
AcDbEntity
  8
0
100
AcDbCircle
 62
7
  6
BYLAYER
 10
61.3101349368
 20
29.679815244
 40
3.42142813
100
AcDbArc
 50
186.6625099609
 51
188.140375487
  0
ARC
  5
3CE
100
AcDbEntity
  8
0
100
AcDbCircle
 62
7
  6
BYLAYER
 10
60.8195207923
 20
29.594260437
 40
2.9232256191
100
AcDbArc
 50
192.1798836646
 51
193.8211610448
  0
ARC
  5
3CF
100
AcDbEntity
  8
0
100
AcDbCircle
 62
7
  6
BYLAYER
 10
61.2421678977
 20
31.9606319152
 40
5.7644544847
100
AcDbArc
 50
129.8086445877
 51
130.8527183836
  0
ARC
  5
3D0
100
AcDbEntity
  8
0
100
AcDbCircle
 62
7
  6
BYLAYER
 10
60.8805674978
 20
32.4130434555
 40
5.1852044507
100
AcDbArc
 50
125.8852064137
 51
127.0043433327
  0
ARC
  5
3D1
100
AcDbEntity
  8
0
100
AcDbCircle
 62
7
  6
BYLAYER
 10
63.0474353469
 20
31.8248081444
 40
3.9473736455
100
AcDbArc
 50
116.9816127945
 51
118.3282199703
  0
ARC
  5
3D2
100
AcDbEntity
  8
0
100
AcDbCircle
 62
7
  6
BYLAYER
 10
60.8271864079
 20
33.4526250499
 40
3.4214281303
100
AcDbArc
 50
6.6625099609
 51
8.1403754869
  0
ARC
  5
3D3
100
AcDbEntity
  8
0
100
AcDbCircle
 62
7
  6
BYLAYER
 10
62.8136334908
 20
32.3226069939
 40
3.3972458373
100
AcDbArc
 50
111.858682676
 51
113.3471149804
  0
ARC
  5
3D4
100
AcDbEntity
  8
0
100
AcDbCircle
 62
7
  6
BYLAYER
 10
61.3178005523
 20
33.5381798568
 40
2.9232256195
100
AcDbArc
 50
12.1798836647
 51
13.8211610447
  0
ARC
  5
3D5
100
AcDbEntity
  8
0
100
AcDbCircle
 62
7
  6
BYLAYER
 10
62.6454615267
 20
32.7883768986
 40
2.9018708823
100
AcDbArc
 50
106.1774707659
 51
107.8308803942
  0
ARC
  5
3D6
100
AcDbEntity
  8
0
100
AcDbCircle
 62
7
  6
BYLAYER
 10
61.7327230518
 20
33.6551861313
 40
2.4919240139
100
AcDbArc
 50
18.3134162333
 51
20.1390185131
  0
ARC
  5
3D7
100
AcDbEntity
  8
0
100
AcDbCircle
 62
7
  6
BYLAYER
 10
62.5421952478
 20
33.203537582
 40
2.4738736246
100
AcDbArc
 50
99.8593907211
 51
101.698373291
  0
ARC
  5
3D8
100
AcDbEntity
  8
0
100
AcDbCircle
 62
7
  6
BYLAYER
 10
62.0622194056
 20
33.7899733332
 40
2.1357245052
100
AcDbArc
 50
25.1294842035
 51
27.1529764826
  0
ARC
  5
3D9
100
AcDbEntity
  8
0
100
AcDbCircle
 62
7
  6
BYLAYER
 10
62.4974610927
 20
33.5398774312
 40
2.1344080729
100
AcDbArc
 50
92.8518986173
 51
94.8766996303
  0
ARC
  5
3DA
100
AcDbEntity
  8
0
100
AcDbCircle
 62
7
  6
BYLAYER
 10
62.494787483
 20
33.8156131882
 40
1.8584873696
100
AcDbArc
 50
85.1272293918
 51
87.3477555777
  0
ARC
  5
3DB
100
AcDbEntity
  8
0
100
AcDbCircle
 62
7
  6
BYLAYER
 10
62.3035223045
 20
33.9261004176
 40
1.8584832415
100
AcDbArc
 50
32.6582261319
 51
34.8787003136
  0
ARC
  5
3DC
100
AcDbEntity
  8
0
100
AcDbCircle
 62
7
  6
BYLAYER
 10
62.5193681464
 20
34.0096455472
 40
1.6627666531
100
AcDbArc
 50
76.7480978066
 51
79.1395896609
  0
ARC
  5
3DD
100
AcDbEntity
  8
0
100
AcDbCircle
 62
7
  6
BYLAYER
 10
62.4592549408
 20
34.044393386
 40
1.6627639159
100
AcDbArc
 50
40.8667591419
 51
43.2582096114
  0
ARC
  5
3DE
100
AcDbEntity
  8
0
100
AcDbCircle
 62
7
  6
BYLAYER
 10
62.5501929516
 20
34.1219237376
 40
1.5462567647
100
AcDbArc
 50
67.8663042332
 51
70.3764365037
  0
ARC
  5
3DF
100
AcDbEntity
  8
0
100
AcDbCircle
 62
7
  6
BYLAYER
 10
62.5410658723
 20
34.127214396
 40
1.5462554029
100
AcDbArc
 50
49.6301616839
 51
52.1402707662
  0
ARC
  5
3E0
100
AcDbEntity
  8
0
100
AcDbCircle
 62
7
  6
BYLAYER
 10
62.5611739874
 20
34.15127826
 40
1.5150172493
100
AcDbArc
 50
60.0026273014
 51
61.2775867425
  0
ARC
  5
3E1
100
AcDbEntity
  8
0
100
AcDbCircle
 62
7
  6
BYLAYER
 10
62.5686647099
 20
34.1643492667
 40
1.4999520629
100
AcDbArc
 50
58.7227071769
 51
60.0008068971
  0
ARC
  5
3E2
100
AcDbEntity
  8
0
100
AcDbCircle
 62
7
  6
BYLAYER
 10
65.6005975425
 20
28.9496575369
 40
7.8311373906
100
AcDbArc
 50
149.5759051216
 51
150.4270697832
  0
ARC
  5
3E3
100
AcDbEntity
  8
0
100
AcDbCircle
 62
7
  6
BYLAYER
 10
65.543120527
 20
28.9832772856
 40
7.7645622266
100
AcDbArc
 50
146.5111019866
 51
147.3671266795
  0
ARC
  5
3E4
100
AcDbEntity
  8
0
100
AcDbCircle
 62
7
  6
BYLAYER
 10
65.5427497239
 20
28.9826198762
 40
7.7645599372
100
AcDbArc
 50
152.635860149
 51
153.4918821414
  0
ARC
  5
3E5
100
AcDbEntity
  8
0
100
AcDbCircle
 62
7
  6
BYLAYER
 10
65.3807284659
 20
29.0936149096
 40
7.5682199046
100
AcDbArc
 50
143.4062749072
 51
144.2770434085
  0
ARC
  5
3E6
100
AcDbEntity
  8
0
100
AcDbCircle
 62
7
  6
BYLAYER
 10
65.3660044392
 20
29.0680811754
 40
7.568215443
100
AcDbArc
 50
155.7259768987
 51
156.5967399066
  0
ARC
  5
3E7
100
AcDbEntity
  8
0
100
AcDbCircle
 62
7
  6
BYLAYER
 10
65.1298220966
 20
29.2859765324
 40
7.2520311701
100
AcDbArc
 50
140.2248779823
 51
141.120778572
  0
ARC
  5
3E8
100
AcDbEntity
  8
0
100
AcDbCircle
 62
7
  6
BYLAYER
 10
65.073967188
 20
29.1891849774
 40
7.252024758
100
AcDbArc
 50
158.8822979146
 51
159.7781900303
  0
ARC
  5
3E9
100
AcDbEntity
  8
0
100
AcDbCircle
 62
7
  6
BYLAYER
 10
64.8115066962
 20
29.5603162746
 40
6.8317633037
100
AcDbArc
 50
136.9277495931
 51
137.8600278645
  0
ARC
  5
3EA
100
AcDbEntity
  8
0
100
AcDbCircle
 62
7
  6
BYLAYER
 10
64.6772307304
 20
29.3276767226
 40
6.8317552589
100
AcDbArc
 50
162.1431294182
 51
163.0753959468
  0
ARC
  5
3EB
100
AcDbEntity
  8
0
100
AcDbCircle
 62
7
  6
BYLAYER
 10
64.4499639891
 20
29.9111147708
 40
6.3279426422
100
AcDbArc
 50
133.471801004
 51
134.4529320289
  0
ARC
  5
3EC
100
AcDbEntity
  8
0
100
AcDbCircle
 62
7
  6
BYLAYER
 10
64.1926662002
 20
29.4653744511
 40
6.3279333503
100
AcDbArc
 50
165.5503333953
 51
166.5314490148
  0
ARC
  5
3ED
100
AcDbEntity
  8
0
100
AcDbCircle
 62
7
  6
BYLAYER
 10
64.0706067983
 20
30.3276688971
 40
5.7644544847
100
AcDbArc
 50
129.8086445877
 51
130.8527183836
  0
ARC
  5
3EE
100
AcDbEntity
  8
0
100
AcDbCircle
 62
7
  6
BYLAYER
 10
63.6422494931
 20
29.5856220306
 40
5.7644443772
100
AcDbArc
 50
169.1506860964
 51
170.1947403238
  0
ARC
  5
3EF
100
AcDbEntity
  8
0
100
AcDbCircle
 62
7
  6
BYLAYER
 10
63.6816444682
 20
30.8171326004
 40
5.1391465106
100
AcDbArc
 50
125.8801913006
 51
127.0093584458
  0
ARC
  5
3F0
100
AcDbEntity
  8
0
100
AcDbCircle
 62
7
  6
BYLAYER
 10
63.3408839717
 20
31.31578656
 40
4.5350624723
100
AcDbArc
 50
121.6291568903
 51
122.8566345595
  0
ARC
  5
3F1
100
AcDbEntity
  8
0
100
AcDbCircle
 62
7
  6
BYLAYER
 10
62.7721586422
 20
39.9723983518
 40
7.8311373909
100
AcDbArc
 50
149.5759051217
 51
150.4270697832
  0
ARC
  5
3F2
100
AcDbEntity
  8
0
100
AcDbCircle
 62
7
  6
BYLAYER
 10
62.714681626
 20
40.0060181009
 40
7.7645622261
100
AcDbArc
 50
146.5111019866
 51
147.3671266795
  0
ARC
  5
3F3
100
AcDbEntity
  8
0
100
AcDbCircle
 62
7
  6
BYLAYER
 10
62.7143108234
 20
40.0053606912
 40
7.7645599373
100
AcDbArc
 50
152.635860149
 51
153.4918821414
  0
ARC
  5
3F4
100
AcDbEntity
  8
0
100
AcDbCircle
 62
7
  6
BYLAYER
 10
62.5522895656
 20
40.1163557245
 40
7.568219905
100
AcDbArc
 50
143.4062749072
 51
144.2770434085
  0
ARC
  5
3F5
100
AcDbEntity
  8
0
100
AcDbCircle
 62
7
  6
BYLAYER
 10
62.5375655382
 20
40.0908219906
 40
7.5682154425
100
AcDbArc
 50
155.7259768987
 51
156.5967399067
  0
ARC
  5
3F6
100
AcDbEntity
  8
0
100
AcDbCircle
 62
7
  6
BYLAYER
 10
62.3013831957
 20
40.3087173477
 40
7.2520311697
100
AcDbArc
 50
140.2248779823
 51
141.120778572
  0
ARC
  5
3F7
100
AcDbEntity
  8
0
100
AcDbCircle
 62
7
  6
BYLAYER
 10
62.2455282874
 20
40.2119257925
 40
7.252024758
100
AcDbArc
 50
158.8822979146
 51
159.7781900303
  0
ARC
  5
3F8
100
AcDbEntity
  8
0
100
AcDbCircle
 62
7
  6
BYLAYER
 10
61.9830677956
 20
40.5830570896
 40
6.8317633038
100
AcDbArc
 50
136.9277495931
 51
137.8600278645
  0
ARC
  5
3F9
100
AcDbEntity
  8
0
100
AcDbCircle
 62
7
  6
BYLAYER
 10
61.8487918294
 20
40.3504175379
 40
6.8317552584
100
AcDbArc
 50
162.1431294181
 51
163.0753959468
  0
ARC
  5
3FA
100
AcDbEntity
  8
0
100
AcDbCircle
 62
7
  6
BYLAYER
 10
61.6215250884
 20
40.933855586
 40
6.327942642
100
AcDbArc
 50
133.471801004
 51
134.4529320289
  0
ARC
  5
3FB
100
AcDbEntity
  8
0
100
AcDbCircle
 62
7
  6
BYLAYER
 10
61.3642272996
 20
40.4881152662
 40
6.3279333503
100
AcDbArc
 50
165.5503333953
 51
166.5314490148
  0
ARC
  5
3FC
100
AcDbEntity
  8
0
100
AcDbCircle
 62
7
  6
BYLAYER
 10
60.8138105925
 20
40.6083628456
 40
5.7644443772
100
AcDbArc
 50
169.1506860964
 51
170.1947403238
  0
ARC
  5
3FD
100
AcDbEntity
  8
0
100
AcDbCircle
 62
7
  6
BYLAYER
 10
63.0514795482
 20
39.0643948191
 40
5.1668997045
100
AcDbArc
 50
172.9972541838
 51
174.1203293845
  0
ARC
  5
3FE
100
AcDbEntity
  8
0
100
AcDbCircle
 62
7
  6
BYLAYER
 10
62.4492261635
 20
39.1122056352
 40
4.562623914
100
AcDbArc
 50
177.1508678074
 51
178.3708978563
  0
ARC
  5
3FF
100
AcDbEntity
  8
0
100
AcDbCircle
 62
7
  6
BYLAYER
 10
61.8604437767
 20
39.1139799478
 40
3.9736912836
100
AcDbArc
 50
181.6802945275
 51
183.0179436595
  0
ARC
  5
400
100
AcDbEntity
  8
0
100
AcDbCircle
 62
7
  6
BYLAYER
 10
61.3101349368
 20
39.069593041
 40
3.42142813
100
AcDbArc
 50
186.6625099609
 51
188.140375487
  0
ARC
  5
401
100
AcDbEntity
  8
0
100
AcDbCircle
 62
7
  6
BYLAYER
 10
60.8195207926
 20
38.9840382341
 40
2.9232256195
100
AcDbArc
 50
192.1798836647
 51
193.8211610447
  0
ARC
  5
402
100
AcDbEntity
  8
0
100
AcDbCircle
 62
7
  6
BYLAYER
 10
61.2421678977
 20
41.3504097122
 40
5.7644544847
100
AcDbArc
 50
129.8086445877
 51
130.8527183836
  0
ARC
  5
403
100
AcDbEntity
  8
0
100
AcDbCircle
 62
7
  6
BYLAYER
 10
60.8805674978
 20
41.8028212525
 40
5.1852044506
100
AcDbArc
 50
125.8852064137
 51
127.0043433327
  0
ARC
  5
404
100
AcDbEntity
  8
0
100
AcDbCircle
 62
7
  6
BYLAYER
 10
63.0474353469
 20
41.2145859414
 40
3.9473736455
100
AcDbArc
 50
116.9816127945
 51
118.3282199703
  0
ARC
  5
405
100
AcDbEntity
  8
0
100
AcDbCircle
 62
7
  6
BYLAYER
 10
60.8271864081
 20
42.8424028469
 40
3.4214281301
100
AcDbArc
 50
6.6625099609
 51
8.140375487
  0
ARC
  5
406
100
AcDbEntity
  8
0
100
AcDbCircle
 62
7
  6
BYLAYER
 10
62.8136334908
 20
41.712384791
 40
3.3972458372
100
AcDbArc
 50
111.8586826759
 51
113.3471149805
  0
ARC
  5
407
100
AcDbEntity
  8
0
100
AcDbCircle
 62
7
  6
BYLAYER
 10
61.3178005525
 20
42.9279576538
 40
2.9232256193
100
AcDbArc
 50
12.1798836646
 51
13.8211610448
  0
ARC
  5
408
100
AcDbEntity
  8
0
100
AcDbCircle
 62
7
  6
BYLAYER
 10
62.6454615268
 20
42.1781546955
 40
2.9018708824
100
AcDbArc
 50
106.1774707659
 51
107.8308803942
  0
ARC
  5
409
100
AcDbEntity
  8
0
100
AcDbCircle
 62
7
  6
BYLAYER
 10
61.7327230519
 20
43.0449639283
 40
2.4919240138
100
AcDbArc
 50
18.3134162333
 51
20.1390185132
  0
ARC
  5
40A
100
AcDbEntity
  8
0
100
AcDbCircle
 62
7
  6
BYLAYER
 10
62.5421952478
 20
42.5933153789
 40
2.4738736247
100
AcDbArc
 50
99.8593907212
 51
101.698373291
  0
ARC
  5
40B
100
AcDbEntity
  8
0
100
AcDbCircle
 62
7
  6
BYLAYER
 10
62.0622194056
 20
43.1797511302
 40
2.1357245052
100
AcDbArc
 50
25.1294842035
 51
27.1529764826
  0
ARC
  5
40C
100
AcDbEntity
  8
0
100
AcDbCircle
 62
7
  6
BYLAYER
 10
62.4974610927
 20
42.9296552282
 40
2.1344080729
100
AcDbArc
 50
92.8518986173
 51
94.8766996303
  0
ARC
  5
40D
100
AcDbEntity
  8
0
100
AcDbCircle
 62
7
  6
BYLAYER
 10
62.494787483
 20
43.2053909852
 40
1.8584873696
100
AcDbArc
 50
85.1272293918
 51
87.3477555777
  0
ARC
  5
40E
100
AcDbEntity
  8
0
100
AcDbCircle
 62
7
  6
BYLAYER
 10
62.3035223045
 20
43.3158782146
 40
1.8584832416
100
AcDbArc
 50
32.6582261319
 51
34.8787003135
  0
ARC
  5
40F
100
AcDbEntity
  8
0
100
AcDbCircle
 62
7
  6
BYLAYER
 10
62.5193681464
 20
43.3994233443
 40
1.662766653
100
AcDbArc
 50
76.7480978066
 51
79.1395896609
  0
ARC
  5
410
100
AcDbEntity
  8
0
100
AcDbCircle
 62
7
  6
BYLAYER
 10
62.4592549408
 20
43.434171183
 40
1.6627639159
100
AcDbArc
 50
40.8667591419
 51
43.2582096114
  0
ARC
  5
411
100
AcDbEntity
  8
0
100
AcDbCircle
 62
7
  6
BYLAYER
 10
62.5501929517
 20
43.5117015346
 40
1.5462567647
100
AcDbArc
 50
67.8663042331
 51
70.3764365037
  0
ARC
  5
412
100
AcDbEntity
  8
0
100
AcDbCircle
 62
7
  6
BYLAYER
 10
62.5410658723
 20
43.516992193
 40
1.5462554028
100
AcDbArc
 50
49.6301616839
 51
52.1402707663
  0
ARC
  5
413
100
AcDbEntity
  8
0
100
AcDbCircle
 62
7
  6
BYLAYER
 10
62.5611739875
 20
43.5410560571
 40
1.5150172492
100
AcDbArc
 50
60.0026273014
 51
61.2775867426
  0
ARC
  5
414
100
AcDbEntity
  8
0
100
AcDbCircle
 62
7
  6
BYLAYER
 10
62.5686647099
 20
43.5541270636
 40
1.4999520629
100
AcDbArc
 50
58.7227071769
 51
60.0008068971
  0
ARC
  5
415
100
AcDbEntity
  8
0
100
AcDbCircle
 62
7
  6
BYLAYER
 10
65.6005975424
 20
38.339435334
 40
7.8311373904
100
AcDbArc
 50
149.5759051216
 51
150.4270697832
  0
ARC
  5
416
100
AcDbEntity
  8
0
100
AcDbCircle
 62
7
  6
BYLAYER
 10
65.5431205269
 20
38.3730550826
 40
7.7645622265
100
AcDbArc
 50
146.5111019866
 51
147.3671266795
  0
ARC
  5
417
100
AcDbEntity
  8
0
100
AcDbCircle
 62
7
  6
BYLAYER
 10
65.542749724
 20
38.3723976731
 40
7.7645599373
100
AcDbArc
 50
152.635860149
 51
153.4918821414
  0
ARC
  5
418
100
AcDbEntity
  8
0
100
AcDbCircle
 62
7
  6
BYLAYER
 10
65.3807284658
 20
38.4833927066
 40
7.5682199046
100
AcDbArc
 50
143.4062749072
 51
144.2770434085
  0
ARC
  5
419
100
AcDbEntity
  8
0
100
AcDbCircle
 62
7
  6
BYLAYER
 10
65.3660044391
 20
38.4578589724
 40
7.5682154429
100
AcDbArc
 50
155.7259768987
 51
156.5967399066
  0
ARC
  5
41A
100
AcDbEntity
  8
0
100
AcDbCircle
 62
7
  6
BYLAYER
 10
65.1298220966
 20
38.6757543294
 40
7.25203117
100
AcDbArc
 50
140.2248779823
 51
141.120778572
  0
ARC
  5
41B
100
AcDbEntity
  8
0
100
AcDbCircle
 62
7
  6
BYLAYER
 10
65.073967188
 20
38.5789627744
 40
7.252024758
100
AcDbArc
 50
158.8822979146
 51
159.7781900303
  0
ARC
  5
41C
100
AcDbEntity
  8
0
100
AcDbCircle
 62
7
  6
BYLAYER
 10
64.8115066962
 20
38.9500940715
 40
6.8317633038
100
AcDbArc
 50
136.9277495931
 51
137.8600278645
  0
ARC
  5
41D
100
AcDbEntity
  8
0
100
AcDbCircle
 62
7
  6
BYLAYER
 10
64.6772307304
 20
38.7174545196
 40
6.8317552589
100
AcDbArc
 50
162.1431294182
 51
163.0753959468
  0
ARC
  5
41E
100
AcDbEntity
  8
0
100
AcDbCircle
 62
7
  6
BYLAYER
 10
64.4499639891
 20
39.3008925678
 40
6.3279426423
100
AcDbArc
 50
133.471801004
 51
134.4529320289
  0
ARC
  5
41F
100
AcDbEntity
  8
0
100
AcDbCircle
 62
7
  6
BYLAYER
 10
64.1926662002
 20
38.8551522481
 40
6.3279333503
100
AcDbArc
 50
165.5503333953
 51
166.5314490148
  0
ARC
  5
420
100
AcDbEntity
  8
0
100
AcDbCircle
 62
7
  6
BYLAYER
 10
64.0706067983
 20
39.7174466941
 40
5.7644544847
100
AcDbArc
 50
129.8086445877
 51
130.8527183836
  0
ARC
  5
421
100
AcDbEntity
  8
0
100
AcDbCircle
 62
7
  6
BYLAYER
 10
63.6422494931
 20
38.9753998276
 40
5.7644443772
100
AcDbArc
 50
169.1506860964
 51
170.1947403238
  0
ARC
  5
422
100
AcDbEntity
  8
0
100
AcDbCircle
 62
7
  6
BYLAYER
 10
63.6816444683
 20
40.2069103972
 40
5.1391465108
100
AcDbArc
 50
125.8801913006
 51
127.0093584458
  0
ARC
  5
423
100
AcDbEntity
  8
0
100
AcDbCircle
 62
7
  6
BYLAYER
 10
63.3408839717
 20
40.7055643569
 40
4.5350624723
100
AcDbArc
 50
121.6291568903
 51
122.8566345595
  0
SPLINE
  5
424
100
AcDbEntity
  8
0
100
AcDbSpline
 62
7
  6
BYLAYER
 70
0
 71
3
 72
12
 73
8
 74
0
 42
0.0000001
 43
0.0000001
 44
0.0000000001
 40
0.0
 40
0.0
 40
0.0
 40
0.0
 40
0.2894832083
 40
0.5486755374
 40
0.7816290778
 40
0.8918324007
 40
1.0
 40
1.0
 40
1.0
 40
1.0
 10
22.2837305197
 20
44.1603103336
 30
0.0
 10
22.2837305197
 20
44.0564410034
 30
0.0
 10
22.2679325945
 20
43.8588755228
 30
0.0
 10
22.1881345231
 20
43.5875734211
 30
0.0
 10
22.0732899728
 20
43.4003817964
 30
0.0
 10
21.9573548398
 20
43.2864018597
 30
0.0
 10
21.8927578814
 20
43.2412634376
 30
0.0
 10
21.8591474973
 20
43.2218552026
 30
0.0
  0
SPLINE
  5
425
100
AcDbEntity
  8
0
100
AcDbSpline
 62
7
  6
BYLAYER
 70
0
 71
3
 72
12
 73
8
 74
0
 42
0.0000001
 43
0.0000001
 44
0.0000000001
 40
0.0
 40
0.0
 40
0.0
 40
0.0
 40
0.2894832083
 40
0.5486755374
 40
0.7816290778
 40
0.8918324007
 40
1.0
 40
1.0
 40
1.0
 40
1.0
 10
40.2443175385
 20
33.7909951688
 30
0.0
 10
40.2443175385
 20
33.6871258386
 30
0.0
 10
40.2285196132
 20
33.4895603579
 30
0.0
 10
40.1487215419
 20
33.2182582562
 30
0.0
 10
40.0338769915
 20
33.0310666316
 30
0.0
 10
39.9179418585
 20
32.9170866949
 30
0.0
 10
39.8533449002
 20
32.8719482727
 30
0.0
 10
39.819734516
 20
32.8525400378
 30
0.0
  0
SPLINE
  5
426
100
AcDbEntity
  8
0
100
AcDbSpline
 62
7
  6
BYLAYER
 70
0
 71
3
 72
12
 73
8
 74
0
 42
0.0000001
 43
0.0000001
 44
0.0000000001
 40
0.0
 40
0.0
 40
0.0
 40
0.0
 40
0.1081668378
 40
0.2183765485
 40
0.4513518201
 40
0.710453619
 40
1.0
 40
1.0
 40
1.0
 40
1.0
 10
61.9400253209
 20
37.5662246062
 30
0.0
 10
61.9810121856
 20
37.5425570759
 30
0.0
 10
62.0680388028
 20
37.5017810039
 30
0.0
 10
62.2591495676
 20
37.4489374023
 30
0.0
 10
62.5268191803
 20
37.4417652171
 30
0.0
 10
62.8620160293
 20
37.5228619123
 30
0.0
 10
63.0802696522
 20
37.6266730312
 30
0.0
 10
63.1899898479
 20
37.6900196376
 30
0.0
  0
SPLINE
  5
427
100
AcDbEntity
  8
0
100
AcDbSpline
 62
7
  6
BYLAYER
 70
0
 71
3
 72
11
 73
7
 74
0
 42
0.0000001
 43
0.0000001
 44
0.0000000001
 40
0.0
 40
0.0
 40
0.0
 40
0.0
 40
0.2186116406
 40
0.452575031
 40
0.7122545754
 40
1.0
 40
1.0
 40
1.0
 40
1.0
 10
60.9936647283
 20
44.5003586275
 30
0.0
 10
60.9888266802
 20
44.5031533265
 30
0.0
 10
60.979741605
 20
44.5107076066
 30
0.0
 10
60.9699831325
 20
44.5263669644
 30
0.0
 10
60.9640718284
 20
44.5456203137
 30
0.0
 10
60.9627168713
 20
44.5596361003
 30
0.0
 10
60.9626098293
 20
44.5669894476
 30
0.0
  0
SPLINE
  5
428
100
AcDbEntity
  8
0
100
AcDbSpline
 62
7
  6
BYLAYER
 70
0
 71
3
 72
9
 73
5
 74
0
 42
0.0000001
 43
0.0000001
 44
0.0000000001
 40
0.0
 40
0.0
 40
0.0
 40
0.0
 40
0.23875291
 40
1.0
 40
1.0
 40
1.0
 40
1.0
 10
58.23585537
 20
46.13834287
 30
0.0
 10
58.2382749453
 20
46.1396255364
 30
0.0
 10
58.24824322
 20
46.1453090738
 30
0.0
 10
58.2575424756
 20
46.1521347132
 30
0.0
 10
58.2642088858
 20
46.1577738933
 30
0.0
  0
SPLINE
  5
429
100
AcDbEntity
  8
0
100
AcDbSpline
 62
7
  6
BYLAYER
 70
0
 71
3
 72
10
 73
6
 74
0
 42
0.0000001
 43
0.0000001
 44
0.0000000001
 40
0.0
 40
0.0
 40
0.0
 40
0.0
 40
0.2502700445
 40
0.5135389034
 40
1.0
 40
1.0
 40
1.0
 40
1.0
 10
58.2642088858
 20
46.1577738933
 30
0.0
 10
58.2761695901
 20
46.1678915674
 30
0.0
 10
58.2982349518
 20
46.1917126489
 30
0.0
 10
58.3315242253
 20
46.2447923972
 30
0.0
 10
58.3454456443
 20
46.2917521903
 30
0.0
 10
58.3458815425
 20
46.3221999137
 30
0.0
  0
SPLINE
  5
42A
100
AcDbEntity
  8
0
100
AcDbSpline
 62
7
  6
BYLAYER
 70
0
 71
3
 72
9
 73
5
 74
0
 42
0.0000001
 43
0.0000001
 44
0.0000000001
 40
0.0
 40
0.0
 40
0.0
 40
0.0
 40
0.2321418481
 40
1.0
 40
1.0
 40
1.0
 40
1.0
 10
57.9348529836
 20
45.949531124
 30
0.0
 10
57.9387565717
 20
45.9512810674
 30
0.0
 10
57.9551557501
 20
45.9597429946
 30
0.0
 10
57.9698425635
 20
45.9712975188
 30
0.0
 10
57.9800441747
 20
45.9811031221
 30
0.0
  0
SPLINE
  5
42B
100
AcDbEntity
  8
0
100
AcDbSpline
 62
7
  6
BYLAYER
 70
0
 71
3
 72
10
 73
6
 74
0
 42
0.0000001
 43
0.0000001
 44
0.0000000001
 40
0.0
 40
0.0
 40
0.0
 40
0.0
 40
0.2578896802
 40
0.5237372562
 40
1.0
 40
1.0
 40
1.0
 40
1.0
 10
57.9800441747
 20
45.9811031221
 30
0.0
 10
57.9915810242
 20
45.992192132
 30
0.0
 10
58.0125080202
 20
46.0174645286
 30
0.0
 10
58.0427324231
 20
46.0716522182
 30
0.0
 10
58.0540114496
 20
46.1186358739
 30
0.0
 10
58.051997667
 20
46.1481192428
 30
0.0
  0
SPLINE
  5
42C
100
AcDbEntity
  8
0
100
AcDbSpline
 62
7
  6
BYLAYER
 70
0
 71
3
 72
9
 73
5
 74
0
 42
0.0000001
 43
0.0000001
 44
0.0000000001
 40
0.0
 40
0.0
 40
0.0
 40
0.0
 40
0.4566405579
 40
1.0
 40
1.0
 40
1.0
 40
1.0
 10
57.6218169198
 20
45.7275253876
 30
0.0
 10
57.6354504948
 20
45.7301288915
 30
0.0
 10
57.6638600926
 20
45.7430834456
 30
0.0
 10
57.6868993533
 20
45.7633536011
 30
0.0
 10
57.6980992072
 20
45.7754917899
 30
0.0
  0
SPLINE
  5
42D
100
AcDbEntity
  8
0
100
AcDbSpline
 62
7
  6
BYLAYER
 70
0
 71
3
 72
10
 73
6
 74
0
 42
0.0000001
 43
0.0000001
 44
0.0000000001
 40
0.0
 40
0.0
 40
0.0
 40
0.0
 40
0.2655885195
 40
0.5338793991
 40
1.0
 40
1.0
 40
1.0
 40
1.0
 10
57.6980992072
 20
45.7754917899
 30
0.0
 10
57.7091207077
 20
45.7874366829
 30
0.0
 10
57.7287624343
 20
45.8139344246
 30
0.0
 10
57.7557535103
 20
45.8687721265
 30
0.0
 10
57.7642433896
 20
45.9155096179
 30
0.0
 10
57.7597196531
 20
45.9436730883
 30
0.0
  0
SPLINE
  5
42E
100
AcDbEntity
  8
0
100
AcDbSpline
 62
7
  6
BYLAYER
 70
0
 71
3
 72
10
 73
6
 74
0
 42
0.0000001
 43
0.0000001
 44
0.0000000001
 40
0.0
 40
0.0
 40
0.0
 40
0.0
 40
0.4360220749
 40
0.7052012045
 40
1.0
 40
1.0
 40
1.0
 40
1.0
 10
57.3164040183
 20
45.4835332598
 30
0.0
 10
57.3342733803
 20
45.4819342192
 30
0.0
 10
57.3638868201
 20
45.4921221344
 30
0.0
 10
57.3968694115
 20
45.5164396366
 30
0.0
 10
57.4130777385
 20
45.5333229242
 30
0.0
 10
57.4207794381
 20
45.5426941003
 30
0.0
  0
SPLINE
  5
42F
100
AcDbEntity
  8
0
100
AcDbSpline
 62
7
  6
BYLAYER
 70
0
 71
3
 72
9
 73
5
 74
0
 42
0.0000001
 43
0.0000001
 44
0.0000000001
 40
0.0
 40
0.0
 40
0.0
 40
0.0
 40
0.5120589766
 40
1.0
 40
1.0
 40
1.0
 40
1.0
 10
57.4207794381
 20
45.5426941003
 30
0.0
 10
57.4347384479
 20
45.5596789667
 30
0.0
 10
57.4575830579
 20
45.5965724956
 30
0.0
 10
57.4709826293
 20
45.6380814314
 30
0.0
 10
57.4738289411
 20
45.658836668
 30
0.0
  0
SPLINE
  5
430
100
AcDbEntity
  8
0
100
AcDbSpline
 62
7
  6
BYLAYER
 70
0
 71
3
 72
9
 73
5
 74
0
 42
0.0000001
 43
0.0000001
 44
0.0000000001
 40
0.0
 40
0.0
 40
0.0
 40
0.0
 40
0.2717376324
 40
1.0
 40
1.0
 40
1.0
 40
1.0
 10
57.4738289411
 20
45.658836668
 30
0.0
 10
57.4744688859
 20
45.6635031301
 30
0.0
 10
57.4760886252
 20
45.6807499802
 30
0.0
 10
57.4747903771
 20
45.698407799
 30
0.0
 10
57.4715411139
 20
45.7106057127
 30
0.0
  0
SPLINE
  5
431
100
AcDbEntity
  8
0
100
AcDbSpline
 62
7
  6
BYLAYER
 70
0
 71
3
 72
10
 73
6
 74
0
 42
0.0000001
 43
0.0000001
 44
0.0000000001
 40
0.0
 40
0.0
 40
0.0
 40
0.0
 40
0.4289834528
 40
0.7011908768
 40
1.0
 40
1.0
 40
1.0
 40
1.0
 10
57.0330912594
 20
45.2153876101
 30
0.0
 10
57.053004388
 20
45.2119991776
 30
0.0
 10
57.0875455174
 20
45.2239072188
 30
0.0
 10
57.1242394321
 20
45.2528895318
 30
0.0
 10
57.1421324317
 20
45.2733487022
 30
0.0
 10
57.1504508622
 20
45.284696201
 30
0.0
  0
SPLINE
  5
432
100
AcDbEntity
  8
0
100
AcDbSpline
 62
7
  6
BYLAYER
 70
0
 71
3
 72
9
 73
5
 74
0
 42
0.0000001
 43
0.0000001
 44
0.0000000001
 40
0.0
 40
0.0
 40
0.0
 40
0.0
 40
0.5188647015
 40
1.0
 40
1.0
 40
1.0
 40
1.0
 10
57.1504508622
 20
45.284696201
 30
0.0
 10
57.1634584627
 20
45.3024403815
 30
0.0
 10
57.1841574408
 20
45.3399373005
 30
0.0
 10
57.1951163606
 20
45.3816919808
 30
0.0
 10
57.1964409489
 20
45.4020503283
 30
0.0
  0
SPLINE
  5
433
100
AcDbEntity
  8
0
100
AcDbSpline
 62
7
  6
BYLAYER
 70
0
 71
3
 72
9
 73
5
 74
0
 42
0.0000001
 43
0.0000001
 44
0.0000000001
 40
0.0
 40
0.0
 40
0.0
 40
0.0
 40
0.2734832509
 40
1.0
 40
1.0
 40
1.0
 40
1.0
 10
57.1964409489
 20
45.4020503283
 30
0.0
 10
57.1967339126
 20
45.4065530525
 30
0.0
 10
57.1970490843
 20
45.4230352068
 30
0.0
 10
57.1942859164
 20
45.4397417399
 30
0.0
 10
57.1899206871
 20
45.4509055649
 30
0.0
  0
SPLINE
  5
434
100
AcDbEntity
  8
0
100
AcDbSpline
 62
7
  6
BYLAYER
 70
0
 71
3
 72
10
 73
6
 74
0
 42
0.0000001
 43
0.0000001
 44
0.0000000001
 40
0.0
 40
0.0
 40
0.0
 40
0.0
 40
0.4268872514
 40
0.7010213493
 40
1.0
 40
1.0
 40
1.0
 40
1.0
 10
56.7639569855
 20
44.9231190767
 30
0.0
 10
56.7856789898
 20
44.9193005939
 30
0.0
 10
56.8235485549
 20
44.933877818
 30
0.0
 10
56.8623500034
 20
44.9672798147
 30
0.0
 10
56.8809742324
 20
44.9907658621
 30
0.0
 10
56.8894198274
 20
45.0036992392
 30
0.0
  0
SPLINE
  5
435
100
AcDbEntity
  8
0
100
AcDbSpline
 62
7
  6
BYLAYER
 70
0
 71
3
 72
10
 73
6
 74
0
 42
0.0000001
 43
0.0000001
 44
0.0000000001
 40
0.0
 40
0.0
 40
0.0
 40
0.0
 40
0.2886179785
 40
0.5629800303
 40
1.0
 40
1.0
 40
1.0
 40
1.0
 10
56.8894198274
 20
45.0036992392
 30
0.0
 10
56.8984181202
 20
45.017479004
 30
0.0
 10
56.9134312438
 20
45.046253863
 30
0.0
 10
56.9301166709
 20
45.1004053929
 30
0.0
 10
56.9291512622
 20
45.1448881811
 30
0.0
 10
56.9172610588
 20
45.1667883147
 30
0.0
  0
SPLINE
  5
436
100
AcDbEntity
  8
0
100
AcDbSpline
 62
7
  6
BYLAYER
 70
0
 71
3
 72
10
 73
6
 74
0
 42
0.0000001
 43
0.0000001
 44
0.0000000001
 40
0.0
 40
0.0
 40
0.0
 40
0.0
 40
0.4240084022
 40
0.7005256991
 40
1.0
 40
1.0
 40
1.0
 40
1.0
 10
56.505491999
 20
44.6100732404
 30
0.0
 10
56.529019327
 20
44.605116459
 30
0.0
 10
56.570951411
 20
44.622432827
 30
0.0
 10
56.6120037953
 20
44.6605456299
 30
0.0
 10
56.6314013318
 20
44.6874059178
 30
0.0
 10
56.6399133585
 20
44.7021005817
 30
0.0
  0
SPLINE
  5
437
100
AcDbEntity
  8
0
100
AcDbSpline
 62
7
  6
BYLAYER
 70
0
 71
3
 72
11
 73
7
 74
0
 42
0.0000001
 43
0.0000001
 44
0.0000000001
 40
0.0
 40
0.0
 40
0.0
 40
0.0
 40
0.2937763238
 40
0.5674672962
 40
0.8040680788
 40
1.0
 40
1.0
 40
1.0
 40
1.0
 10
56.6399133585
 20
44.7021005817
 30
0.0
 10
56.6481032584
 20
44.7162391447
 30
0.0
 10
56.6613954126
 20
44.7451130102
 30
0.0
 10
56.6719131818
 20
44.7889136536
 30
0.0
 10
56.6715510617
 20
44.828734335
 30
0.0
 10
56.662347193
 20
44.8519008269
 30
0.0
 10
56.6558884648
 20
44.8606779505
 30
0.0
  0
SPLINE
  5
438
100
AcDbEntity
  8
0
100
AcDbSpline
 62
7
  6
BYLAYER
 70
0
 71
3
 72
12
 73
8
 74
0
 42
0.0000001
 43
0.0000001
 44
0.0000000001
 40
0.0
 40
0.0
 40
0.0
 40
0.0
 40
0.2887489824
 40
0.5698855357
 40
0.6974802663
 40
0.8119273745
 40
1.0
 40
1.0
 40
1.0
 40
1.0
 10
56.3673849233
 20
44.3287605408
 30
0.0
 10
56.3819187843
 20
44.34495302
 30
0.0
 10
56.4062407406
 20
44.3809754891
 30
0.0
 10
56.4245781406
 20
44.4309199848
 30
0.0
 10
56.4294799322
 20
44.4702603296
 30
0.0
 10
56.4277885386
 20
44.5026464421
 30
0.0
 10
56.4180242941
 20
44.5251353256
 30
0.0
 10
56.408032844
 20
44.535186098
 30
0.0
  0
SPLINE
  5
439
100
AcDbEntity
  8
0
100
AcDbSpline
 62
7
  6
BYLAYER
 70
0
 71
3
 72
10
 73
6
 74
0
 42
0.0000001
 43
0.0000001
 44
0.0000000001
 40
0.0
 40
0.0
 40
0.0
 40
0.0
 40
0.5318456435
 40
0.781455071
 40
1.0
 40
1.0
 40
1.0
 40
1.0
 10
64.1025245597
 20
42.0893189943
 30
0.0
 10
64.1129920673
 20
42.1183611444
 30
0.0
 10
64.1365140811
 20
42.1587594113
 30
0.0
 10
64.1786161572
 20
42.1990457707
 30
0.0
 10
64.2023452338
 20
42.2131485358
 30
0.0
 10
64.2141980317
 20
42.2176686247
 30
0.0
  0
SPLINE
  5
43A
100
AcDbEntity
  8
0
100
AcDbSpline
 62
7
  6
BYLAYER
 70
0
 71
3
 72
9
 73
5
 74
0
 42
0.0000001
 43
0.0000001
 44
0.0000000001
 40
0.0
 40
0.0
 40
0.0
 40
0.0
 40
0.4596147681
 40
1.0
 40
1.0
 40
1.0
 40
1.0
 10
64.1620285112
 20
42.3162912113
 30
0.0
 10
64.1534603676
 20
42.3212705636
 30
0.0
 10
64.138252738
 20
42.3382790706
 30
0.0
 10
64.1329174057
 20
42.3598024889
 30
0.0
 10
64.1316901477
 20
42.3713891467
 30
0.0
  0
SPLINE
  5
43B
100
AcDbEntity
  8
0
100
AcDbSpline
 62
7
  6
BYLAYER
 70
0
 71
3
 72
9
 73
5
 74
0
 42
0.0000001
 43
0.0000001
 44
0.0000000001
 40
0.0
 40
0.0
 40
0.0
 40
0.0
 40
0.2323904614
 40
1.0
 40
1.0
 40
1.0
 40
1.0
 10
64.1316901477
 20
42.3713891467
 30
0.0
 10
64.1312546376
 20
42.3755008383
 30
0.0
 10
64.130325954
 20
42.3932921325
 30
0.0
 10
64.1327292812
 20
42.4111626683
 30
0.0
 10
64.1358523046
 20
42.4244581142
 30
0.0
  0
SPLINE
  5
43C
100
AcDbEntity
  8
0
100
AcDbSpline
 62
7
  6
BYLAYER
 70
0
 71
3
 72
10
 73
6
 74
0
 42
0.0000001
 43
0.0000001
 44
0.0000000001
 40
0.0
 40
0.0
 40
0.0
 40
0.0
 40
0.5192591616
 40
0.7737871634
 40
1.0
 40
1.0
 40
1.0
 40
1.0
 10
64.1358523046
 20
42.4244581142
 30
0.0
 10
64.143328383
 20
42.4562855401
 30
0.0
 10
64.1652607878
 20
42.5017345344
 30
0.0
 10
64.2072850548
 20
42.548874187
 30
0.0
 10
64.2322878421
 20
42.5667350568
 30
0.0
 10
64.2450791472
 20
42.5729993437
 30
0.0
  0
SPLINE
  5
43D
100
AcDbEntity
  8
0
100
AcDbSpline
 62
7
  6
BYLAYER
 70
0
 71
3
 72
18
 73
14
 74
0
 42
0.0000001
 43
0.0000001
 44
0.0000000001
 40
0.0
 40
0.0
 40
0.0
 40
0.0
 40
0.0450032962
 40
0.0929539341
 40
0.1459516848
 40
0.2051012893
 40
0.3409213553
 40
0.4928317388
 40
0.6465139389
 40
0.7873851085
 40
0.8496425612
 40
0.9053222694
 40
1.0
 40
1.0
 40
1.0
 40
1.0
 10
56.0193626987
 20
34.5482806234
 30
0.0
 10
56.0240691952
 20
34.5452323838
 30
0.0
 10
56.0349823475
 20
34.5406424697
 30
0.0
 10
56.053364127
 20
34.539200536
 30
0.0
 10
56.0731367507
 20
34.5430841823
 30
0.0
 10
56.1016408527
 20
34.5554611389
 30
0.0
 10
56.1359869656
 20
34.5828282678
 30
0.0
 10
56.1698558251
 20
34.6266834361
 30
0.0
 10
56.1938089305
 20
34.6773561052
 30
0.0
 10
56.20330281
 20
34.7213930757
 30
0.0
 10
56.2024346736
 20
34.7538173964
 30
0.0
 10
56.1966515347
 20
34.7797610472
 30
0.0
 10
56.1853255454
 20
34.796340818
 30
0.0
 10
56.1758088131
 20
34.8033119418
 30
0.0
  0
SPLINE
  5
43E
100
AcDbEntity
  8
0
100
AcDbSpline
 62
7
  6
BYLAYER
 70
0
 71
3
 72
18
 73
14
 74
0
 42
0.0000001
 43
0.0000001
 44
0.0000000001
 40
0.0
 40
0.0
 40
0.0
 40
0.0
 40
0.0950355881
 40
0.1509224546
 40
0.2130879046
 40
0.3537948796
 40
0.5075228612
 40
0.6593645329
 40
0.7953272252
 40
0.8545571824
 40
0.90735054
 40
0.9550168161
 40
1.0
 40
1.0
 40
1.0
 40
1.0
 10
55.818579986
 20
34.1845165216
 30
0.0
 10
55.8294171703
 20
34.1797416869
 30
0.0
 10
55.8495916713
 20
34.178726248
 30
0.0
 10
55.8749403617
 20
34.1867395938
 30
0.0
 10
55.9035021294
 20
34.2021311735
 30
0.0
 10
55.9368799784
 20
34.2323556312
 30
0.0
 10
55.9687851011
 20
34.2784126937
 30
0.0
 10
55.9898491565
 20
34.3296892864
 30
0.0
 10
55.9963827063
 20
34.3731308183
 30
0.0
 10
55.992936679
 20
34.4040166004
 30
0.0
 10
55.986378938
 20
34.4230428695
 30
0.0
 10
55.9756741258
 20
34.4380024436
 30
0.0
 10
55.9661888747
 20
34.4449786869
 30
0.0
 10
55.9611976257
 20
34.4475297215
 30
0.0
  0
SPLINE
  5
43F
100
AcDbEntity
  8
0
100
AcDbSpline
 62
7
  6
BYLAYER
 70
0
 71
3
 72
10
 73
6
 74
0
 42
0.0000001
 43
0.0000001
 44
0.0000000001
 40
0.0
 40
0.0
 40
0.0
 40
0.0
 40
0.4219018191
 40
0.6977618004
 40
1.0
 40
1.0
 40
1.0
 40
1.0
 10
55.6384578671
 20
33.812345903
 30
0.0
 10
55.6605629534
 20
33.8064923952
 30
0.0
 10
55.7013876388
 20
33.8208665647
 30
0.0
 10
55.7419398742
 20
33.8558904842
 30
0.0
 10
55.7615121286
 20
33.88091261
 30
0.0
 10
55.7702943549
 20
33.8947407453
 30
0.0
  0
SPLINE
  5
440
100
AcDbEntity
  8
0
100
AcDbSpline
 62
7
  6
BYLAYER
 70
0
 71
3
 72
13
 73
9
 74
0
 42
0.0000001
 43
0.0000001
 44
0.0000000001
 40
0.0
 40
0.0
 40
0.0
 40
0.0
 40
0.3049987011
 40
0.5830674472
 40
0.7049913456
 40
0.8135294857
 40
0.9101109242
 40
1.0
 40
1.0
 40
1.0
 40
1.0
 10
55.7702943549
 20
33.8947407453
 30
0.0
 10
55.7811617426
 20
33.9118520906
 30
0.0
 10
55.7982302352
 20
33.9470563373
 30
0.0
 10
55.8080528203
 20
33.9935998763
 30
0.0
 10
55.8064758084
 20
34.0275388199
 30
0.0
 10
55.800952
 20
34.048783809
 30
0.0
 10
55.7907514126
 20
34.0659086991
 30
0.0
 10
55.7809188229
 20
34.0739305444
 30
0.0
 10
55.7757114648
 20
34.0768586637
 30
0.0
  0
SPLINE
  5
441
100
AcDbEntity
  8
0
100
AcDbSpline
 62
7
  6
BYLAYER
 70
0
 71
3
 72
10
 73
6
 74
0
 42
0.0000001
 43
0.0000001
 44
0.0000000001
 40
0.0
 40
0.0
 40
0.0
 40
0.0
 40
0.4295926301
 40
0.7046827834
 40
1.0
 40
1.0
 40
1.0
 40
1.0
 10
55.4805330805
 20
33.4349439962
 30
0.0
 10
55.5045021794
 20
33.4322770386
 30
0.0
 10
55.5446765829
 20
33.4510230765
 30
0.0
 10
55.5846092617
 20
33.4896981803
 30
0.0
 10
55.6031768391
 20
33.516294561
 30
0.0
 10
55.6113054111
 20
33.5307439883
 30
0.0
  0
SPLINE
  5
442
100
AcDbEntity
  8
0
100
AcDbSpline
 62
7
  6
BYLAYER
 70
0
 71
3
 72
10
 73
6
 74
0
 42
0.0000001
 43
0.0000001
 44
0.0000000001
 40
0.0
 40
0.0
 40
0.0
 40
0.0
 40
0.2987252485
 40
0.5743389515
 40
1.0
 40
1.0
 40
1.0
 40
1.0
 10
55.6113054111
 20
33.5307439883
 30
0.0
 10
55.6194277585
 20
33.5451823505
 30
0.0
 10
55.6324613907
 20
33.5747421602
 30
0.0
 10
55.644340973
 20
33.6281978081
 30
0.0
 10
55.6389919395
 20
33.67213985
 30
0.0
 10
55.6234725156
 20
33.6899266738
 30
0.0
  0
SPLINE
  5
443
100
AcDbEntity
  8
0
100
AcDbSpline
 62
7
  6
BYLAYER
 70
0
 71
3
 72
11
 73
7
 74
0
 42
0.0000001
 43
0.0000001
 44
0.0000000001
 40
0.0
 40
0.0
 40
0.0
 40
0.0
 40
0.2007191437
 40
0.4416416375
 40
0.7137851121
 40
1.0
 40
1.0
 40
1.0
 40
1.0
 10
55.3461529848
 20
33.055530661
 30
0.0
 10
55.3578490794
 20
33.055836986
 30
0.0
 10
55.3833580043
 20
33.0631970582
 30
0.0
 10
55.4181482305
 20
33.0867133422
 30
0.0
 10
55.4500891425
 20
33.1211004936
 30
0.0
 10
55.4673551292
 20
33.1489608648
 30
0.0
 10
55.4747454549
 20
33.1639184713
 30
0.0
  0
SPLINE
  5
444
100
AcDbEntity
  8
0
100
AcDbSpline
 62
7
  6
BYLAYER
 70
0
 71
3
 72
10
 73
6
 74
0
 42
0.0000001
 43
0.0000001
 44
0.0000000001
 40
0.0
 40
0.0
 40
0.0
 40
0.0
 40
0.2997355483
 40
0.5735985793
 40
1.0
 40
1.0
 40
1.0
 40
1.0
 10
55.4747454549
 20
33.1639184713
 30
0.0
 10
55.4815399402
 20
33.1776701302
 30
0.0
 10
55.4922240037
 20
33.2054093204
 30
0.0
 10
55.5011112995
 20
33.2552934959
 30
0.0
 10
55.4944598198
 20
33.2950420421
 30
0.0
 10
55.4800604311
 20
33.3114370397
 30
0.0
  0
SPLINE
  5
445
100
AcDbEntity
  8
0
100
AcDbSpline
 62
7
  6
BYLAYER
 70
0
 71
3
 72
11
 73
7
 74
0
 42
0.0000001
 43
0.0000001
 44
0.0000000001
 40
0.0
 40
0.0
 40
0.0
 40
0.0
 40
0.2060984468
 40
0.4504866981
 40
0.7211489474
 40
1.0
 40
1.0
 40
1.0
 40
1.0
 10
55.2364640635
 20
32.6773429184
 30
0.0
 10
55.248662422
 20
32.6791971054
 30
0.0
 10
55.2743449592
 20
32.6894519536
 30
0.0
 10
55.3086549822
 20
32.7162144686
 30
0.0
 10
55.3392235129
 20
32.7530275696
 30
0.0
 10
55.3552074236
 20
32.78204798
 30
0.0
 10
55.3617795675
 20
32.7973938202
 30
0.0
  0
SPLINE
  5
446
100
AcDbEntity
  8
0
100
AcDbSpline
 62
7
  6
BYLAYER
 70
0
 71
3
 72
10
 73
6
 74
0
 42
0.0000001
 43
0.0000001
 44
0.0000000001
 40
0.0
 40
0.0
 40
0.0
 40
0.0
 40
0.2992884875
 40
0.5711200643
 40
1.0
 40
1.0
 40
1.0
 40
1.0
 10
55.3617795675
 20
32.7973938202
 30
0.0
 10
55.3672666757
 20
32.8102061213
 30
0.0
 10
55.3757047679
 20
32.8357373134
 30
0.0
 10
55.3818926027
 20
32.8815604521
 30
0.0
 10
55.3745971629
 20
32.9169736993
 30
0.0
 10
55.3616124497
 20
32.9321498035
 30
0.0
  0
SPLINE
  5
447
100
AcDbEntity
  8
0
100
AcDbSpline
 62
7
  6
BYLAYER
 70
0
 71
3
 72
10
 73
6
 74
0
 42
0.0000001
 43
0.0000001
 44
0.0000000001
 40
0.0
 40
0.0
 40
0.0
 40
0.0
 40
0.2127181476
 40
0.461053277
 40
1.0
 40
1.0
 40
1.0
 40
1.0
 10
55.152402144
 20
32.3036073327
 30
0.0
 10
55.1649440545
 20
32.3069875076
 30
0.0
 10
55.1906045905
 20
32.319965124
 30
0.0
 10
55.2364755404
 20
32.3607082447
 30
0.0
 10
55.2621180738
 20
32.4033706655
 30
0.0
 10
55.2733715341
 20
32.4342970942
 30
0.0
  0
SPLINE
  5
448
100
AcDbEntity
  8
0
100
AcDbSpline
 62
7
  6
BYLAYER
 70
0
 71
3
 72
10
 73
6
 74
0
 42
0.0000001
 43
0.0000001
 44
0.0000000001
 40
0.0
 40
0.0
 40
0.0
 40
0.0
 40
0.2949219552
 40
0.5636981546
 40
1.0
 40
1.0
 40
1.0
 40
1.0
 10
55.2733715341
 20
32.4342970942
 30
0.0
 10
55.277458054
 20
32.445527548
 30
0.0
 10
55.2836574618
 20
32.4677118306
 30
0.0
 10
55.2877726341
 20
32.5078713268
 30
0.0
 10
55.2815475696
 20
32.5380368342
 30
0.0
 10
55.2712993584
 20
32.5524434763
 30
0.0
  0
SPLINE
  5
449
100
AcDbEntity
  8
0
100
AcDbSpline
 62
7
  6
BYLAYER
 70
0
 71
3
 72
10
 73
6
 74
0
 42
0.0000001
 43
0.0000001
 44
0.0000000001
 40
0.0
 40
0.0
 40
0.0
 40
0.0
 40
0.2192879237
 40
0.4707826033
 40
1.0
 40
1.0
 40
1.0
 40
1.0
 10
55.0946844127
 20
31.9375124843
 30
0.0
 10
55.1074203192
 20
31.9423693485
 30
0.0
 10
55.1328464937
 20
31.957881276
 30
0.0
 10
55.1769433639
 20
32.0020250254
 30
0.0
 10
55.2008293522
 20
32.0462163203
 30
0.0
 10
55.2102756208
 20
32.0777261064
 30
0.0
  0
SPLINE
  5
44A
100
AcDbEntity
  8
0
100
AcDbSpline
 62
7
  6
BYLAYER
 70
0
 71
3
 72
9
 73
5
 74
0
 42
0.0000001
 43
0.0000001
 44
0.0000000001
 40
0.0
 40
0.0
 40
0.0
 40
0.0
 40
0.5422269565
 40
1.0
 40
1.0
 40
1.0
 40
1.0
 10
55.2102756208
 20
32.0777261064
 30
0.0
 10
55.2148373121
 20
32.0929424763
 30
0.0
 10
55.2204189727
 20
32.1219787627
 30
0.0
 10
55.2175444113
 20
32.151875801
 30
0.0
 10
55.2132756435
 20
32.1645895068
 30
0.0
  0
SPLINE
  5
44B
100
AcDbEntity
  8
0
100
AcDbSpline
 62
7
  6
BYLAYER
 70
0
 71
3
 72
10
 73
6
 74
0
 42
0.0000001
 43
0.0000001
 44
0.0000000001
 40
0.0
 40
0.0
 40
0.0
 40
0.0
 40
0.2262128366
 40
0.4807408384
 40
1.0
 40
1.0
 40
1.0
 40
1.0
 10
55.0638032971
 20
31.5821817653
 30
0.0
 10
55.0765946022
 20
31.5884460522
 30
0.0
 10
55.1015973896
 20
31.606306922
 30
0.0
 10
55.1436216566
 20
31.6534465746
 30
0.0
 10
55.1655540613
 20
31.6988955689
 30
0.0
 10
55.1730301398
 20
31.7307229948
 30
0.0
  0
SPLINE
  5
44C
100
AcDbEntity
  8
0
100
AcDbSpline
 62
7
  6
BYLAYER
 70
0
 71
3
 72
9
 73
5
 74
0
 42
0.0000001
 43
0.0000001
 44
0.0000000001
 40
0.0
 40
0.0
 40
0.0
 40
0.0
 40
0.2674124557
 40
1.0
 40
1.0
 40
1.0
 40
1.0
 10
55.1730301398
 20
31.7307229948
 30
0.0
 10
55.1741178476
 20
31.7353536231
 30
0.0
 10
55.1775683995
 20
31.7527939504
 30
0.0
 10
55.1785648689
 20
31.7708333796
 30
0.0
 10
55.1771922967
 20
31.7837919623
 30
0.0
  0
SPLINE
  5
44D
100
AcDbEntity
  8
0
100
AcDbSpline
 62
7
  6
BYLAYER
 70
0
 71
3
 72
10
 73
6
 74
0
 42
0.0000001
 43
0.0000001
 44
0.0000000001
 40
0.0
 40
0.0
 40
0.0
 40
0.0
 40
0.2333958502
 40
0.4908399237
 40
1.0
 40
1.0
 40
1.0
 40
1.0
 10
55.060022264
 20
31.2406467321
 30
0.0
 10
55.0727409997
 20
31.2482346627
 30
0.0
 10
55.0971374606
 20
31.268252029
 30
0.0
 10
55.1368058488
 20
31.3179624607
 30
0.0
 10
55.1565988787
 20
31.3643860004
 30
0.0
 10
55.1619528563
 20
31.3962482676
 30
0.0
  0
SPLINE
  5
44E
100
AcDbEntity
  8
0
100
AcDbSpline
 62
7
  6
BYLAYER
 70
0
 71
3
 72
9
 73
5
 74
0
 42
0.0000001
 43
0.0000001
 44
0.0000000001
 40
0.0
 40
0.0
 40
0.0
 40
0.0
 40
0.2607327097
 40
1.0
 40
1.0
 40
1.0
 40
1.0
 10
55.1619528563
 20
31.3962482676
 30
0.0
 10
55.1624174438
 20
31.3990130931
 30
0.0
 10
55.1639561093
 20
31.4096547757
 30
0.0
 10
55.1645078903
 20
31.4204530097
 30
0.0
 10
55.1642149805
 20
31.4283967497
 30
0.0
  0
SPLINE
  5
44F
100
AcDbEntity
  8
0
100
AcDbSpline
 62
7
  6
BYLAYER
 70
0
 71
3
 72
9
 73
5
 74
0
 42
0.0000001
 43
0.0000001
 44
0.0000000001
 40
0.0
 40
0.0
 40
0.0
 40
0.0
 40
0.2356300718
 40
1.0
 40
1.0
 40
1.0
 40
1.0
 10
55.0833735718
 20
30.9158212411
 30
0.0
 10
55.0874454921
 20
30.9186870179
 30
0.0
 10
55.1041521692
 20
30.9316574544
 30
0.0
 10
55.1187037514
 20
30.9473028537
 30
0.0
 10
55.1285231459
 20
30.9601279141
 30
0.0
  0
SPLINE
  5
450
100
AcDbEntity
  8
0
100
AcDbSpline
 62
7
  6
BYLAYER
 70
0
 71
3
 72
9
 73
5
 74
0
 42
0.0000001
 43
0.0000001
 44
0.0000000001
 40
0.0
 40
0.0
 40
0.0
 40
0.0
 40
0.2380781533
 40
1.0
 40
1.0
 40
1.0
 40
1.0
 10
55.1336579953
 20
30.6104765891
 30
0.0
 10
55.1376582211
 20
30.6137295045
 30
0.0
 10
55.1538642906
 20
30.628117784
 30
0.0
 10
55.1678550246
 20
30.6449349988
 30
0.0
 10
55.17715751
 20
30.658563193
 30
0.0
  0
SPLINE
  5
451
100
AcDbEntity
  8
0
100
AcDbSpline
 62
7
  6
BYLAYER
 70
0
 71
3
 72
9
 73
5
 74
0
 42
0.0000001
 43
0.0000001
 44
0.0000000001
 40
0.0
 40
0.0
 40
0.0
 40
0.0
 40
0.2606856654
 40
1.0
 40
1.0
 40
1.0
 40
1.0
 10
55.17715751
 20
30.658563193
 30
0.0
 10
55.1826418625
 20
30.6665978007
 30
0.0
 10
55.201845248
 20
30.6985719942
 30
0.0
 10
55.2144708492
 20
30.7349489533
 30
0.0
 10
55.2175167459
 20
30.7623691357
 30
0.0
  0
SPLINE
  5
452
100
AcDbEntity
  8
0
100
AcDbSpline
 62
7
  6
BYLAYER
 70
0
 71
3
 72
9
 73
5
 74
0
 42
0.0000001
 43
0.0000001
 44
0.0000000001
 40
0.0
 40
0.0
 40
0.0
 40
0.0
 40
0.2405834385
 40
1.0
 40
1.0
 40
1.0
 40
1.0
 10
55.2104465257
 20
30.3272178687
 30
0.0
 10
55.2143409295
 20
30.3308271883
 30
0.0
 10
55.2299170904
 20
30.3464806837
 30
0.0
 10
55.2432312351
 20
30.3643445131
 30
0.0
 10
55.2519248583
 20
30.3786741457
 30
0.0
  0
SPLINE
  5
453
100
AcDbEntity
  8
0
100
AcDbSpline
 62
7
  6
BYLAYER
 70
0
 71
3
 72
9
 73
5
 74
0
 42
0.0000001
 43
0.0000001
 44
0.0000000001
 40
0.0
 40
0.0
 40
0.0
 40
0.0
 40
0.2593372564
 40
1.0
 40
1.0
 40
1.0
 40
1.0
 10
55.2519248583
 20
30.3786741457
 30
0.0
 10
55.2559115882
 20
30.385245442
 30
0.0
 10
55.270116832
 20
30.41125122
 30
0.0
 10
55.2799565452
 20
30.4398182246
 30
0.0
 10
55.2835114535
 20
30.4614797979
 30
0.0
  0
SPLINE
  5
454
100
AcDbEntity
  8
0
100
AcDbSpline
 62
7
  6
BYLAYER
 70
0
 71
3
 72
9
 73
5
 74
0
 42
0.0000001
 43
0.0000001
 44
0.0000000001
 40
0.0
 40
0.0
 40
0.0
 40
0.0
 40
0.5031066229
 40
1.0
 40
1.0
 40
1.0
 40
1.0
 10
55.3130840302
 20
30.0684617437
 30
0.0
 10
55.3280273304
 20
30.0841068674
 30
0.0
 10
55.3533576083
 20
30.1195002406
 30
0.0
 10
55.3694978521
 20
30.1599651756
 30
0.0
 10
55.3743629692
 20
30.1807717368
 30
0.0
  0
SPLINE
  5
455
100
AcDbEntity
  8
0
100
AcDbSpline
 62
7
  6
BYLAYER
 70
0
 71
3
 72
9
 73
5
 74
0
 42
0.0000001
 43
0.0000001
 44
0.0000000001
 40
0.0
 40
0.0
 40
0.0
 40
0.0
 40
0.2485720058
 40
1.0
 40
1.0
 40
1.0
 40
1.0
 10
55.4406948418
 20
29.8364158299
 30
0.0
 10
55.4460443064
 20
29.8427097278
 30
0.0
 10
55.4661794916
 20
29.86916452
 30
0.0
 10
55.4813407847
 20
29.8994918486
 30
0.0
 10
55.4888184522
 20
29.9233161434
 30
0.0
  0
SPLINE
  5
456
100
AcDbEntity
  8
0
100
AcDbSpline
 62
7
  6
BYLAYER
 70
0
 71
3
 72
9
 73
5
 74
0
 42
0.0000001
 43
0.0000001
 44
0.0000000001
 40
0.0
 40
0.0
 40
0.0
 40
0.0
 40
0.2483802859
 40
1.0
 40
1.0
 40
1.0
 40
1.0
 10
55.59219023
 20
29.6330598614
 30
0.0
 10
55.5956380765
 20
29.6376083293
 30
0.0
 10
55.6088576772
 20
29.6564113403
 30
0.0
 10
55.6196259208
 20
29.6769520189
 30
0.0
 10
55.6260086345
 20
29.6930009244
 30
0.0
  0
SPLINE
  5
457
100
AcDbEntity
  8
0
100
AcDbSpline
 62
7
  6
BYLAYER
 70
0
 71
3
 72
11
 73
7
 74
0
 42
0.0000001
 43
0.0000001
 44
0.0000000001
 40
0.0
 40
0.0
 40
0.0
 40
0.0
 40
0.2069459361
 40
0.4359960832
 40
0.6998883251
 40
1.0
 40
1.0
 40
1.0
 40
1.0
 10
64.1756148713
 20
42.6631687215
 30
0.0
 10
64.169311695
 20
42.6668364371
 30
0.0
 10
64.1577240015
 20
42.6777186818
 30
0.0
 10
64.1473129737
 20
42.7005748278
 30
0.0
 10
64.1435257183
 20
42.7285546821
 30
0.0
 10
64.1451770699
 20
42.7485033612
 30
0.0
 10
64.1469295881
 20
42.7589328414
 30
0.0
  0
SPLINE
  5
458
100
AcDbEntity
  8
0
100
AcDbSpline
 62
7
  6
BYLAYER
 70
0
 71
3
 72
10
 73
6
 74
0
 42
0.0000001
 43
0.0000001
 44
0.0000000001
 40
0.0
 40
0.0
 40
0.0
 40
0.0
 40
0.5091600763
 40
0.7666041498
 40
1.0
 40
1.0
 40
1.0
 40
1.0
 10
64.1469295881
 20
42.7589328414
 30
0.0
 10
64.1522835656
 20
42.7907951085
 30
0.0
 10
64.1720765956
 20
42.8372186482
 30
0.0
 10
64.2117449838
 20
42.88692908
 30
0.0
 10
64.2361414447
 20
42.9069464463
 30
0.0
 10
64.2488601804
 20
42.9145343769
 30
0.0
  0
SPLINE
  5
459
100
AcDbEntity
  8
0
100
AcDbSpline
 62
7
  6
BYLAYER
 70
0
 71
3
 72
13
 73
9
 74
0
 42
0.0000001
 43
0.0000001
 44
0.0000000001
 40
0.0
 40
0.0
 40
0.0
 40
0.0
 40
0.0885584178
 40
0.184927382
 40
0.2942491464
 40
0.417778971
 40
0.6990239823
 40
1.0
 40
1.0
 40
1.0
 40
1.0
 10
64.1620547759
 20
42.9943722947
 30
0.0
 10
64.156403398
 20
42.9976587897
 30
0.0
 10
64.1459262568
 20
43.0070004863
 30
0.0
 10
64.1356157039
 20
43.0265174003
 30
0.0
 10
64.1306584325
 20
43.0505638149
 30
0.0
 10
64.1310246045
 20
43.0887265594
 30
0.0
 10
64.1451874629
 20
43.1397261637
 30
0.0
 10
64.1668522558
 20
43.1774117163
 30
0.0
 10
64.1803592985
 20
43.1950531949
 30
0.0
  0
SPLINE
  5
45A
100
AcDbEntity
  8
0
100
AcDbSpline
 62
7
  6
BYLAYER
 70
0
 71
3
 72
9
 73
5
 74
0
 42
0.0000001
 43
0.0000001
 44
0.0000000001
 40
0.0
 40
0.0
 40
0.0
 40
0.0
 40
0.2626548524
 40
1.0
 40
1.0
 40
1.0
 40
1.0
 10
64.1803592985
 20
43.1950531949
 30
0.0
 10
64.1837329896
 20
43.1994595554
 30
0.0
 10
64.1971480261
 20
43.2157765929
 30
0.0
 10
64.2127686168
 20
43.2303934032
 30
0.0
 10
64.2255088726
 20
43.2393598678
 30
0.0
  0
SPLINE
  5
45B
100
AcDbEntity
  8
0
100
AcDbSpline
 62
7
  6
BYLAYER
 70
0
 71
3
 72
13
 73
9
 74
0
 42
0.0000001
 43
0.0000001
 44
0.0000000001
 40
0.0
 40
0.0
 40
0.0
 40
0.0
 40
0.0893675144
 40
0.1859248574
 40
0.2946362291
 40
0.4169547833
 40
0.6962475081
 40
1.0
 40
1.0
 40
1.0
 40
1.0
 10
64.1214617735
 20
43.3070756286
 30
0.0
 10
64.1161083206
 20
43.3101856116
 30
0.0
 10
64.1061251407
 20
43.3188359059
 30
0.0
 10
64.0959680033
 20
43.3369018018
 30
0.0
 10
64.0905849478
 20
43.3591773397
 30
0.0
 10
64.0896487403
 20
43.394716247
 30
0.0
 10
64.1010995752
 20
43.4430046274
 30
0.0
 10
64.1198611905
 20
43.4792374634
 30
0.0
 10
64.1317249344
 20
43.496617916
 30
0.0
  0
SPLINE
  5
45C
100
AcDbEntity
  8
0
100
AcDbSpline
 62
7
  6
BYLAYER
 70
0
 71
3
 72
9
 73
5
 74
0
 42
0.0000001
 43
0.0000001
 44
0.0000000001
 40
0.0
 40
0.0
 40
0.0
 40
0.0
 40
0.2599985753
 40
1.0
 40
1.0
 40
1.0
 40
1.0
 10
64.1317249344
 20
43.496617916
 30
0.0
 10
64.1348989969
 20
43.5012679356
 30
0.0
 10
64.1477064952
 20
43.518725371
 30
0.0
 10
64.162792093
 20
43.5345947398
 30
0.0
 10
64.175224449
 20
43.5447045199
 30
0.0
  0
SPLINE
  5
45D
100
AcDbEntity
  8
0
100
AcDbSpline
 62
7
  6
BYLAYER
 70
0
 71
3
 72
13
 73
9
 74
0
 42
0.0000001
 43
0.0000001
 44
0.0000000001
 40
0.0
 40
0.0
 40
0.0
 40
0.0
 40
0.0903618293
 40
0.1873649354
 40
0.2956475214
 40
0.4169271306
 40
0.6941990839
 40
1.0
 40
1.0
 40
1.0
 40
1.0
 10
64.0541787109
 20
43.5986038252
 30
0.0
 10
64.0491181777
 20
43.6015309671
 30
0.0
 10
64.0396333135
 20
43.6095248743
 30
0.0
 10
64.0297004578
 20
43.6261915879
 30
0.0
 10
64.0239492082
 20
43.6467244112
 30
0.0
 10
64.0218625611
 20
43.6796317914
 30
0.0
 10
64.0307206992
 20
43.7250343024
 30
0.0
 10
64.0466955584
 20
43.7595921417
 30
0.0
 10
64.056957586
 20
43.7765069633
 30
0.0
  0
SPLINE
  5
45E
100
AcDbEntity
  8
0
100
AcDbSpline
 62
7
  6
BYLAYER
 70
0
 71
3
 72
9
 73
5
 74
0
 42
0.0000001
 43
0.0000001
 44
0.0000000001
 40
0.0
 40
0.0
 40
0.0
 40
0.0
 40
0.2573438846
 40
1.0
 40
1.0
 40
1.0
 40
1.0
 10
64.056957586
 20
43.7765069633
 30
0.0
 10
64.059903394
 20
43.781362516
 30
0.0
 10
64.0719801354
 20
43.7998335205
 30
0.0
 10
64.0864151331
 20
43.8168224193
 30
0.0
 10
64.0984359187
 20
43.8279632403
 30
0.0
  0
SPLINE
  5
45F
100
AcDbEntity
  8
0
100
AcDbSpline
 62
7
  6
BYLAYER
 70
0
 71
3
 72
12
 73
8
 74
0
 42
0.0000001
 43
0.0000001
 44
0.0000000001
 40
0.0
 40
0.0
 40
0.0
 40
0.0
 40
0.0916754361
 40
0.1894771915
 40
0.4169836845
 40
0.6925201565
 40
1.0
 40
1.0
 40
1.0
 40
1.0
 10
63.960775834
 20
43.866463921
 30
0.0
 10
63.9560065056
 20
43.8692093827
 30
0.0
 10
63.9470410129
 20
43.8765924075
 30
0.0
 10
63.9334947935
 20
43.8980366115
 30
0.0
 10
63.9272298017
 20
43.9347748507
 30
0.0
 10
63.9346661373
 20
43.9833048625
 30
0.0
 10
63.947976903
 20
44.0160637972
 30
0.0
 10
63.956695142
 20
44.0323324221
 30
0.0
  0
SPLINE
  5
460
100
AcDbEntity
  8
0
100
AcDbSpline
 62
7
  6
BYLAYER
 70
0
 71
3
 72
9
 73
5
 74
0
 42
0.0000001
 43
0.0000001
 44
0.0000000001
 40
0.0
 40
0.0
 40
0.0
 40
0.0
 40
0.254701118
 40
1.0
 40
1.0
 40
1.0
 40
1.0
 10
63.956695142
 20
44.0323324221
 30
0.0
 10
63.9593858144
 20
44.0373533373
 30
0.0
 10
63.9706119656
 20
44.0566991192
 30
0.0
 10
63.984285309
 20
44.0746655383
 30
0.0
 10
63.9957984142
 20
44.0867193653
 30
0.0
  0
SPLINE
  5
461
100
AcDbEntity
  8
0
100
AcDbSpline
 62
7
  6
BYLAYER
 70
0
 71
3
 72
13
 73
9
 74
0
 42
0.0000001
 43
0.0000001
 44
0.0000000001
 40
0.0
 40
0.0
 40
0.0
 40
0.0
 40
0.0878197431
 40
0.1842655699
 40
0.2943852679
 40
0.4191333439
 40
0.7021016395
 40
1.0
 40
1.0
 40
1.0
 40
1.0
 10
63.8420523403
 20
44.1083735497
 30
0.0
 10
63.8361156909
 20
44.111783501
 30
0.0
 10
63.8251367734
 20
44.1217395238
 30
0.0
 10
63.8147879122
 20
44.1426638293
 30
0.0
 10
63.8102746196
 20
44.1683646651
 30
0.0
 10
63.8119558136
 20
44.2089314172
 30
0.0
 10
63.8286963446
 20
44.2622691174
 30
0.0
 10
63.853147403
 20
44.3010697737
 30
0.0
 10
63.8681876026
 20
44.3187652791
 30
0.0
  0
SPLINE
  5
462
100
AcDbEntity
  8
0
100
AcDbSpline
 62
7
  6
BYLAYER
 70
0
 71
3
 72
13
 73
9
 74
0
 42
0.0000001
 43
0.0000001
 44
0.0000000001
 40
0.0
 40
0.0
 40
0.0
 40
0.0
 40
0.0885319859
 40
0.184965462
 40
0.2942691515
 40
0.4176252585
 40
0.6987432242
 40
1.0
 40
1.0
 40
1.0
 40
1.0
 10
63.6990283449
 20
44.3222810193
 30
0.0
 10
63.6933923983
 20
44.3255291957
 30
0.0
 10
63.6829416254
 20
44.3348138645
 30
0.0
 10
63.6726635492
 20
44.3542309428
 30
0.0
 10
63.6676761344
 20
44.3781406658
 30
0.0
 10
63.667914703
 20
44.4161017353
 30
0.0
 10
63.6818700845
 20
44.4669043561
 30
0.0
 10
63.7033207455
 20
44.5044813386
 30
0.0
 10
63.7166922143
 20
44.5221212476
 30
0.0
  0
SPLINE
  5
463
100
AcDbEntity
  8
0
100
AcDbSpline
 62
7
  6
BYLAYER
 70
0
 71
3
 72
13
 73
9
 74
0
 42
0.0000001
 43
0.0000001
 44
0.0000000001
 40
0.0
 40
0.0
 40
0.0
 40
0.0
 40
0.0894161457
 40
0.1860674645
 40
0.2947373469
 40
0.4168703903
 40
0.6960949281
 40
1.0
 40
1.0
 40
1.0
 40
1.0
 10
63.5329314574
 20
44.5063747345
 30
0.0
 10
63.5275968037
 20
44.5094615587
 30
0.0
 10
63.5176488575
 20
44.5180696828
 30
0.0
 10
63.5075319307
 20
44.5360430017
 30
0.0
 10
63.5021154774
 20
44.5581781826
 30
0.0
 10
63.50106423
 20
44.5935149181
 30
0.0
 10
63.5123284681
 20
44.641586071
 30
0.0
 10
63.530876702
 20
44.6776953095
 30
0.0
 10
63.5426047546
 20
44.6950523095
 30
0.0
  0
SPLINE
  5
464
100
AcDbEntity
  8
0
100
AcDbSpline
 62
7
  6
BYLAYER
 70
0
 71
3
 72
13
 73
9
 74
0
 42
0.0000001
 43
0.0000001
 44
0.0000000001
 40
0.0
 40
0.0
 40
0.0
 40
0.0
 40
0.0904688629
 40
0.1875712385
 40
0.2957954492
 40
0.4168835819
 40
0.6941794875
 40
1.0
 40
1.0
 40
1.0
 40
1.0
 10
63.3451724716
 20
44.6590734512
 30
0.0
 10
63.3401327346
 20
44.6619867451
 30
0.0
 10
63.3306911945
 20
44.6699485563
 30
0.0
 10
63.3207962385
 20
44.6865215545
 30
0.0
 10
63.3150148685
 20
44.7069121087
 30
0.0
 10
63.3128213343
 20
44.7396192852
 30
0.0
 10
63.3215194705
 20
44.7847899441
 30
0.0
 10
63.3372823776
 20
44.819211741
 30
0.0
 10
63.3474104763
 20
44.8360830779
 30
0.0
  0
SPLINE
  5
465
100
AcDbEntity
  8
0
100
AcDbSpline
 62
7
  6
BYLAYER
 70
0
 71
3
 72
12
 73
8
 74
0
 42
0.0000001
 43
0.0000001
 44
0.0000000001
 40
0.0
 40
0.0
 40
0.0
 40
0.0
 40
0.0918215064
 40
0.189707875
 40
0.4169628249
 40
0.6926424437
 40
1.0
 40
1.0
 40
1.0
 40
1.0
 10
63.1373474177
 20
44.7790645172
 30
0.0
 10
63.1326003887
 20
44.7818014645
 30
0.0
 10
63.1236859949
 20
44.7891588278
 30
0.0
 10
63.110187365
 20
44.810446874
 30
0.0
 10
63.1037997415
 20
44.8469355766
 30
0.0
 10
63.1110854293
 20
44.8951920822
 30
0.0
 10
63.1241868247
 20
44.9278032232
 30
0.0
 10
63.132774708
 20
44.944010328
 30
0.0
  0
SPLINE
  5
466
100
AcDbEntity
  8
0
100
AcDbSpline
 62
7
  6
BYLAYER
 70
0
 71
3
 72
11
 73
7
 74
0
 42
0.0000001
 43
0.0000001
 44
0.0000000001
 40
0.0
 40
0.0
 40
0.0
 40
0.0
 40
0.190399872
 40
0.4174459846
 40
0.6916732558
 40
1.0
 40
1.0
 40
1.0
 40
1.0
 10
62.911230153
 20
44.8653242081
 30
0.0
 10
62.9021569355
 20
44.8705514045
 30
0.0
 10
62.8861813193
 20
44.8890735809
 30
0.0
 10
62.878156847
 20
44.9272354396
 30
0.0
 10
62.8827776971
 20
44.9719885025
 30
0.0
 10
62.8934064292
 20
45.0025247791
 30
0.0
 10
62.9005286467
 20
45.0179132625
 30
0.0
  0
SPLINE
  5
467
100
AcDbEntity
  8
0
100
AcDbSpline
 62
7
  6
BYLAYER
 70
0
 71
3
 72
11
 73
7
 74
0
 42
0.0000001
 43
0.0000001
 44
0.0000000001
 40
0.0
 40
0.0
 40
0.0
 40
0.0
 40
0.1932821158
 40
0.4200431658
 40
0.6921930673
 40
1.0
 40
1.0
 40
1.0
 40
1.0
 10
62.6687555953
 20
44.9171272346
 30
0.0
 10
62.6603086622
 20
44.9220133821
 30
0.0
 10
62.6452214291
 20
44.9386213012
 30
0.0
 10
62.6362905492
 20
44.9732892387
 30
0.0
 10
62.6386207443
 20
45.0143760819
 30
0.0
 10
62.6469092172
 20
45.0427216695
 30
0.0
 10
62.6526537336
 20
45.0571613678
 30
0.0
  0
SPLINE
  5
468
100
AcDbEntity
  8
0
100
AcDbSpline
 62
7
  6
BYLAYER
 70
0
 71
3
 72
9
 73
5
 74
0
 42
0.0000001
 43
0.0000001
 44
0.0000000001
 40
0.0
 40
0.0
 40
0.0
 40
0.0
 40
0.7517511515
 40
1.0
 40
1.0
 40
1.0
 40
1.0
 10
59.9717866859
 20
46.6089259268
 30
0.0
 10
59.9816720502
 20
46.6219319206
 30
0.0
 10
59.9930744644
 20
46.6406425551
 30
0.0
 10
60.0021288492
 20
46.660399588
 30
0.0
 10
60.004222574
 20
46.6653714305
 30
0.0
  0
SPLINE
  5
469
100
AcDbEntity
  8
0
100
AcDbSpline
 62
7
  6
BYLAYER
 70
0
 71
3
 72
11
 73
7
 74
0
 42
0.0000001
 43
0.0000001
 44
0.0000000001
 40
0.0
 40
0.0
 40
0.0
 40
0.0
 40
0.1965393265
 40
0.4234502416
 40
0.6935247835
 40
1.0
 40
1.0
 40
1.0
 40
1.0
 10
62.41199625
 20
44.9340381821
 30
0.0
 10
62.4041662286
 20
44.9385745844
 30
0.0
 10
62.3899984785
 20
44.9533799461
 30
0.0
 10
62.380385738
 20
44.9846131023
 30
0.0
 10
62.3806609355
 20
45.0219861454
 30
0.0
 10
62.3867978603
 20
45.0480345008
 30
0.0
 10
62.3912647503
 20
45.0614197928
 30
0.0
  0
SPLINE
  5
46A
100
AcDbEntity
  8
0
100
AcDbSpline
 62
7
  6
BYLAYER
 70
0
 71
3
 72
9
 73
5
 74
0
 42
0.0000001
 43
0.0000001
 44
0.0000000001
 40
0.0
 40
0.0
 40
0.0
 40
0.0
 40
0.2521491657
 40
1.0
 40
1.0
 40
1.0
 40
1.0
 10
59.7230644069
 20
46.6369300864
 30
0.0
 10
59.7261287747
 20
46.6414528555
 30
0.0
 10
59.7376589068
 20
46.6598042208
 30
0.0
 10
59.746902736
 20
46.6795897836
 30
0.0
 10
59.752347981
 20
46.6948505442
 30
0.0
  0
SPLINE
  5
46B
100
AcDbEntity
  8
0
100
AcDbSpline
 62
7
  6
BYLAYER
 70
0
 71
3
 72
11
 73
7
 74
0
 42
0.0000001
 43
0.0000001
 44
0.0000000001
 40
0.0
 40
0.0
 40
0.0
 40
0.0
 40
0.200187844
 40
0.4276675533
 40
0.6956750748
 40
1.0
 40
1.0
 40
1.0
 40
1.0
 10
62.1431345288
 20
44.9158994783
 30
0.0
 10
62.1359089851
 20
44.9200745808
 30
0.0
 10
62.1227146688
 20
44.9332171688
 30
0.0
 10
62.1126253742
 20
44.9610802403
 30
0.0
 10
62.1111057311
 20
44.994728912
 30
0.0
 10
62.1152919383
 20
45.0184027605
 30
0.0
 10
62.1185917753
 20
45.030652206
 30
0.0
  0
SPLINE
  5
46C
100
AcDbEntity
  8
0
100
AcDbSpline
 62
7
  6
BYLAYER
 70
0
 71
3
 72
9
 73
5
 74
0
 42
0.0000001
 43
0.0000001
 44
0.0000000001
 40
0.0
 40
0.0
 40
0.0
 40
0.0
 40
0.2421188941
 40
1.0
 40
1.0
 40
1.0
 40
1.0
 10
59.4212891713
 20
46.5800858856
 30
0.0
 10
59.4250988167
 20
46.5836499889
 30
0.0
 10
59.440267734
 20
46.5989663729
 30
0.0
 10
59.4532685252
 20
46.6164080312
 30
0.0
 10
59.4616910373
 20
46.6303984007
 30
0.0
  0
SPLINE
  5
46D
100
AcDbEntity
  8
0
100
AcDbSpline
 62
7
  6
BYLAYER
 70
0
 71
3
 72
9
 73
5
 74
0
 42
0.0000001
 43
0.0000001
 44
0.0000000001
 40
0.0
 40
0.0
 40
0.0
 40
0.0
 40
0.2546729253
 40
1.0
 40
1.0
 40
1.0
 40
1.0
 10
59.4616910373
 20
46.6303984007
 30
0.0
 10
59.4645122713
 20
46.6350846637
 30
0.0
 10
59.4749590198
 20
46.6538572002
 30
0.0
 10
59.4830756301
 20
46.6739358196
 30
0.0
 10
59.4875724604
 20
46.6892996556
 30
0.0
  0
SPLINE
  5
46E
100
AcDbEntity
  8
0
100
AcDbSpline
 62
7
  6
BYLAYER
 70
0
 71
3
 72
11
 73
7
 74
0
 42
0.0000001
 43
0.0000001
 44
0.0000000001
 40
0.0
 40
0.0
 40
0.0
 40
0.0
 40
0.2042450657
 40
0.432707098
 40
0.6986504937
 40
1.0
 40
1.0
 40
1.0
 40
1.0
 10
61.8644601334
 20
44.862858004
 30
0.0
 10
61.8578330295
 20
44.8666737508
 30
0.0
 10
61.8456548656
 20
44.8782815423
 30
0.0
 10
61.8353011874
 20
44.9028684368
 30
0.0
 10
61.8322593605
 20
44.9328126412
 30
0.0
 10
61.8347089109
 20
44.9540653886
 30
0.0
 10
61.8369611583
 20
44.9651211058
 30
0.0
  0
SPLINE
  5
46F
100
AcDbEntity
  8
0
100
AcDbSpline
 62
7
  6
BYLAYER
 70
0
 71
3
 72
9
 73
5
 74
0
 42
0.0000001
 43
0.0000001
 44
0.0000000001
 40
0.0
 40
0.0
 40
0.0
 40
0.0
 40
0.2383179551
 40
1.0
 40
1.0
 40
1.0
 40
1.0
 10
59.1329742283
 20
46.5185993083
 30
0.0
 10
59.1385694708
 20
46.5231966491
 30
0.0
 10
59.1609258076
 20
46.5438269748
 30
0.0
 10
59.1790340051
 20
46.5689489317
 30
0.0
 10
59.1898965226
 20
46.5893865957
 30
0.0
  0
SPLINE
  5
470
100
AcDbEntity
  8
0
100
AcDbSpline
 62
7
  6
BYLAYER
 70
0
 71
3
 72
9
 73
5
 74
0
 42
0.0000001
 43
0.0000001
 44
0.0000000001
 40
0.0
 40
0.0
 40
0.0
 40
0.0
 40
0.2572112527
 40
1.0
 40
1.0
 40
1.0
 40
1.0
 10
59.1898965226
 20
46.5893865957
 30
0.0
 10
59.1924523235
 20
46.594195297
 30
0.0
 10
59.2017483132
 20
46.6132215453
 30
0.0
 10
59.2086643662
 20
46.6334319908
 30
0.0
 10
59.2121549835
 20
46.648766123
 30
0.0
  0
SPLINE
  5
471
100
AcDbEntity
  8
0
100
AcDbSpline
 62
7
  6
BYLAYER
 70
0
 71
3
 72
11
 73
7
 74
0
 42
0.0000001
 43
0.0000001
 44
0.0000000001
 40
0.0
 40
0.0
 40
0.0
 40
0.0
 40
0.2087037424
 40
0.4385724316
 40
0.7024423528
 40
1.0
 40
1.0
 40
1.0
 40
1.0
 10
61.5783523782
 20
44.7753685485
 30
0.0
 10
61.5723230508
 20
44.778836539
 30
0.0
 10
61.5611785946
 20
44.789011909
 30
0.0
 10
61.5507897469
 20
44.8104541562
 30
0.0
 10
61.5465040863
 20
44.8367426217
 30
0.0
 10
61.5474441694
 20
44.8555585498
 30
0.0
 10
61.5487756725
 20
44.8653855804
 30
0.0
  0
SPLINE
  5
472
100
AcDbEntity
  8
0
100
AcDbSpline
 62
7
  6
BYLAYER
 70
0
 71
3
 72
9
 73
5
 74
0
 42
0.0000001
 43
0.0000001
 44
0.0000000001
 40
0.0
 40
0.0
 40
0.0
 40
0.0
 40
0.4834792673
 40
1.0
 40
1.0
 40
1.0
 40
1.0
 10
58.8395914615
 20
46.4254258389
 30
0.0
 10
58.8543795176
 20
46.436373448
 30
0.0
 10
58.8814976039
 20
46.4637578619
 30
0.0
 10
58.9017206995
 20
46.496416288
 30
0.0
 10
58.9099997177
 20
46.5142445697
 30
0.0
  0
SPLINE
  5
473
100
AcDbEntity
  8
0
100
AcDbSpline
 62
7
  6
BYLAYER
 70
0
 71
3
 72
9
 73
5
 74
0
 42
0.0000001
 43
0.0000001
 44
0.0000000001
 40
0.0
 40
0.0
 40
0.0
 40
0.0
 40
0.2597590633
 40
1.0
 40
1.0
 40
1.0
 40
1.0
 10
58.9099997177
 20
46.5142445697
 30
0.0
 10
58.9122702056
 20
46.5191339051
 30
0.0
 10
58.9203592967
 20
46.5382477867
 30
0.0
 10
58.9260110511
 20
46.5584275787
 30
0.0
 10
58.9284453151
 20
46.5735957642
 30
0.0
  0
SPLINE
  5
474
100
AcDbEntity
  8
0
100
AcDbSpline
 62
7
  6
BYLAYER
 70
0
 71
3
 72
11
 73
7
 74
0
 42
0.0000001
 43
0.0000001
 44
0.0000000001
 40
0.0
 40
0.0
 40
0.0
 40
0.0
 40
0.213517646
 40
0.4452290053
 40
0.7070055557
 40
1.0
 40
1.0
 40
1.0
 40
1.0
 10
61.2872587245
 20
44.654189677
 30
0.0
 10
61.2818290208
 20
44.6573236842
 30
0.0
 10
61.2717119301
 20
44.6661420483
 30
0.0
 10
61.2615276652
 20
44.6846057346
 30
0.0
 10
61.2562809843
 20
44.7073170543
 30
0.0
 10
61.2559504633
 20
44.7237108789
 30
0.0
 10
61.2564940148
 20
44.732296538
 30
0.0
  0
SPLINE
  5
475
100
AcDbEntity
  8
0
100
AcDbSpline
 62
7
  6
BYLAYER
 70
0
 71
3
 72
10
 73
6
 74
0
 42
0.0000001
 43
0.0000001
 44
0.0000000001
 40
0.0
 40
0.0
 40
0.0
 40
0.0
 40
0.2427605377
 40
0.5033340942
 40
1.0
 40
1.0
 40
1.0
 40
1.0
 10
58.5481689474
 20
46.303996811
 30
0.0
 10
58.5604548614
 20
46.3130331143
 30
0.0
 10
58.5835015528
 20
46.3351839199
 30
0.0
 10
58.6196544701
 20
46.3866987927
 30
0.0
 10
58.6360698865
 20
46.4333527378
 30
0.0
 10
58.6388639661
 20
46.4644299063
 30
0.0
  0
SPLINE
  5
476
100
AcDbEntity
  8
0
100
AcDbSpline
 62
7
  6
BYLAYER
 70
0
 71
3
 72
12
 73
8
 74
0
 42
0.0000001
 43
0.0000001
 44
0.0000000001
 40
0.0
 40
0.0
 40
0.0
 40
0.0
 40
0.1081668378
 40
0.2183765485
 40
0.4513518201
 40
0.710453619
 40
1.0
 40
1.0
 40
1.0
 40
1.0
 10
61.9400253209
 20
28.1764468092
 30
0.0
 10
61.9810121856
 20
28.1527792789
 30
0.0
 10
62.0680388028
 20
28.1120032069
 30
0.0
 10
62.2591495676
 20
28.0591596054
 30
0.0
 10
62.5268191803
 20
28.0519874201
 30
0.0
 10
62.8620160293
 20
28.1330841153
 30
0.0
 10
63.0802696522
 20
28.2368952342
 30
0.0
 10
63.1899898479
 20
28.3002418406
 30
0.0
  0
SPLINE
  5
477
100
AcDbEntity
  8
0
100
AcDbSpline
 62
7
  6
BYLAYER
 70
0
 71
3
 72
11
 73
7
 74
0
 42
0.0000001
 43
0.0000001
 44
0.0000000001
 40
0.0
 40
0.0
 40
0.0
 40
0.0
 40
0.2186116406
 40
0.452575031
 40
0.7122545754
 40
1.0
 40
1.0
 40
1.0
 40
1.0
 10
60.9936647283
 20
35.1105808305
 30
0.0
 10
60.9888266802
 20
35.1133755295
 30
0.0
 10
60.979741605
 20
35.1209298096
 30
0.0
 10
60.9699831325
 20
35.1365891674
 30
0.0
 10
60.9640718284
 20
35.1558425168
 30
0.0
 10
60.9627168713
 20
35.1698583033
 30
0.0
 10
60.9626098293
 20
35.1772116506
 30
0.0
  0
SPLINE
  5
478
100
AcDbEntity
  8
0
100
AcDbSpline
 62
7
  6
BYLAYER
 70
0
 71
3
 72
9
 73
5
 74
0
 42
0.0000001
 43
0.0000001
 44
0.0000000001
 40
0.0
 40
0.0
 40
0.0
 40
0.0
 40
0.23875291
 40
1.0
 40
1.0
 40
1.0
 40
1.0
 10
58.23585537
 20
36.748565073
 30
0.0
 10
58.2382749453
 20
36.7498477394
 30
0.0
 10
58.24824322
 20
36.7555312768
 30
0.0
 10
58.2575424756
 20
36.7623569162
 30
0.0
 10
58.2642088858
 20
36.7679960963
 30
0.0
  0
SPLINE
  5
479
100
AcDbEntity
  8
0
100
AcDbSpline
 62
7
  6
BYLAYER
 70
0
 71
3
 72
10
 73
6
 74
0
 42
0.0000001
 43
0.0000001
 44
0.0000000001
 40
0.0
 40
0.0
 40
0.0
 40
0.0
 40
0.2502700445
 40
0.5135389034
 40
1.0
 40
1.0
 40
1.0
 40
1.0
 10
58.2642088858
 20
36.7679960963
 30
0.0
 10
58.2761695901
 20
36.7781137704
 30
0.0
 10
58.2982349518
 20
36.801934852
 30
0.0
 10
58.3315242253
 20
36.8550146002
 30
0.0
 10
58.3454456443
 20
36.9019743933
 30
0.0
 10
58.3458815425
 20
36.9324221167
 30
0.0
  0
SPLINE
  5
47A
100
AcDbEntity
  8
0
100
AcDbSpline
 62
7
  6
BYLAYER
 70
0
 71
3
 72
9
 73
5
 74
0
 42
0.0000001
 43
0.0000001
 44
0.0000000001
 40
0.0
 40
0.0
 40
0.0
 40
0.0
 40
0.2321418481
 40
1.0
 40
1.0
 40
1.0
 40
1.0
 10
57.9348529836
 20
36.559753327
 30
0.0
 10
57.9387565717
 20
36.5615032705
 30
0.0
 10
57.9551557501
 20
36.5699651976
 30
0.0
 10
57.9698425635
 20
36.5815197218
 30
0.0
 10
57.9800441747
 20
36.5913253251
 30
0.0
  0
SPLINE
  5
47B
100
AcDbEntity
  8
0
100
AcDbSpline
 62
7
  6
BYLAYER
 70
0
 71
3
 72
10
 73
6
 74
0
 42
0.0000001
 43
0.0000001
 44
0.0000000001
 40
0.0
 40
0.0
 40
0.0
 40
0.0
 40
0.2578896802
 40
0.5237372562
 40
1.0
 40
1.0
 40
1.0
 40
1.0
 10
57.9800441747
 20
36.5913253251
 30
0.0
 10
57.9915810242
 20
36.602414335
 30
0.0
 10
58.0125080202
 20
36.6276867317
 30
0.0
 10
58.0427324231
 20
36.6818744212
 30
0.0
 10
58.0540114496
 20
36.7288580769
 30
0.0
 10
58.051997667
 20
36.7583414458
 30
0.0
  0
SPLINE
  5
47C
100
AcDbEntity
  8
0
100
AcDbSpline
 62
7
  6
BYLAYER
 70
0
 71
3
 72
9
 73
5
 74
0
 42
0.0000001
 43
0.0000001
 44
0.0000000001
 40
0.0
 40
0.0
 40
0.0
 40
0.0
 40
0.4566405579
 40
1.0
 40
1.0
 40
1.0
 40
1.0
 10
57.6218169198
 20
36.3377475906
 30
0.0
 10
57.6354504948
 20
36.3403510945
 30
0.0
 10
57.6638600926
 20
36.3533056486
 30
0.0
 10
57.6868993533
 20
36.3735758042
 30
0.0
 10
57.6980992072
 20
36.385713993
 30
0.0
  0
SPLINE
  5
47D
100
AcDbEntity
  8
0
100
AcDbSpline
 62
7
  6
BYLAYER
 70
0
 71
3
 72
10
 73
6
 74
0
 42
0.0000001
 43
0.0000001
 44
0.0000000001
 40
0.0
 40
0.0
 40
0.0
 40
0.0
 40
0.2655885195
 40
0.5338793991
 40
1.0
 40
1.0
 40
1.0
 40
1.0
 10
57.6980992072
 20
36.385713993
 30
0.0
 10
57.7091207077
 20
36.3976588859
 30
0.0
 10
57.7287624343
 20
36.4241566276
 30
0.0
 10
57.7557535103
 20
36.4789943295
 30
0.0
 10
57.7642433896
 20
36.5257318209
 30
0.0
 10
57.7597196531
 20
36.5538952913
 30
0.0
  0
SPLINE
  5
47E
100
AcDbEntity
  8
0
100
AcDbSpline
 62
7
  6
BYLAYER
 70
0
 71
3
 72
10
 73
6
 74
0
 42
0.0000001
 43
0.0000001
 44
0.0000000001
 40
0.0
 40
0.0
 40
0.0
 40
0.0
 40
0.4360220749
 40
0.7052012045
 40
1.0
 40
1.0
 40
1.0
 40
1.0
 10
57.3164040183
 20
36.0937554628
 30
0.0
 10
57.3342733803
 20
36.0921564223
 30
0.0
 10
57.3638868201
 20
36.1023443375
 30
0.0
 10
57.3968694115
 20
36.1266618396
 30
0.0
 10
57.4130777385
 20
36.1435451272
 30
0.0
 10
57.4207794381
 20
36.1529163033
 30
0.0
  0
SPLINE
  5
47F
100
AcDbEntity
  8
0
100
AcDbSpline
 62
7
  6
BYLAYER
 70
0
 71
3
 72
9
 73
5
 74
0
 42
0.0000001
 43
0.0000001
 44
0.0000000001
 40
0.0
 40
0.0
 40
0.0
 40
0.0
 40
0.5120589766
 40
1.0
 40
1.0
 40
1.0
 40
1.0
 10
57.4207794381
 20
36.1529163033
 30
0.0
 10
57.4347384479
 20
36.1699011698
 30
0.0
 10
57.4575830579
 20
36.2067946986
 30
0.0
 10
57.4709826293
 20
36.2483036345
 30
0.0
 10
57.4738289411
 20
36.269058871
 30
0.0
  0
SPLINE
  5
480
100
AcDbEntity
  8
0
100
AcDbSpline
 62
7
  6
BYLAYER
 70
0
 71
3
 72
9
 73
5
 74
0
 42
0.0000001
 43
0.0000001
 44
0.0000000001
 40
0.0
 40
0.0
 40
0.0
 40
0.0
 40
0.2717376324
 40
1.0
 40
1.0
 40
1.0
 40
1.0
 10
57.4738289411
 20
36.269058871
 30
0.0
 10
57.4744688859
 20
36.2737253331
 30
0.0
 10
57.4760886252
 20
36.2909721832
 30
0.0
 10
57.4747903771
 20
36.308630002
 30
0.0
 10
57.4715411139
 20
36.3208279157
 30
0.0
  0
SPLINE
  5
481
100
AcDbEntity
  8
0
100
AcDbSpline
 62
7
  6
BYLAYER
 70
0
 71
3
 72
10
 73
6
 74
0
 42
0.0000001
 43
0.0000001
 44
0.0000000001
 40
0.0
 40
0.0
 40
0.0
 40
0.0
 40
0.4289834528
 40
0.7011908768
 40
1.0
 40
1.0
 40
1.0
 40
1.0
 10
57.0330912594
 20
35.8256098131
 30
0.0
 10
57.053004388
 20
35.8222213806
 30
0.0
 10
57.0875455174
 20
35.8341294218
 30
0.0
 10
57.1242394321
 20
35.8631117348
 30
0.0
 10
57.1421324317
 20
35.8835709052
 30
0.0
 10
57.1504508622
 20
35.894918404
 30
0.0
  0
SPLINE
  5
482
100
AcDbEntity
  8
0
100
AcDbSpline
 62
7
  6
BYLAYER
 70
0
 71
3
 72
9
 73
5
 74
0
 42
0.0000001
 43
0.0000001
 44
0.0000000001
 40
0.0
 40
0.0
 40
0.0
 40
0.0
 40
0.5188647015
 40
1.0
 40
1.0
 40
1.0
 40
1.0
 10
57.1504508622
 20
35.894918404
 30
0.0
 10
57.1634584627
 20
35.9126625845
 30
0.0
 10
57.1841574408
 20
35.9501595035
 30
0.0
 10
57.1951163606
 20
35.9919141838
 30
0.0
 10
57.1964409489
 20
36.0122725313
 30
0.0
  0
SPLINE
  5
483
100
AcDbEntity
  8
0
100
AcDbSpline
 62
7
  6
BYLAYER
 70
0
 71
3
 72
9
 73
5
 74
0
 42
0.0000001
 43
0.0000001
 44
0.0000000001
 40
0.0
 40
0.0
 40
0.0
 40
0.0
 40
0.2734832509
 40
1.0
 40
1.0
 40
1.0
 40
1.0
 10
57.1964409489
 20
36.0122725313
 30
0.0
 10
57.1967339126
 20
36.0167752555
 30
0.0
 10
57.1970490843
 20
36.0332574098
 30
0.0
 10
57.1942859164
 20
36.0499639429
 30
0.0
 10
57.1899206871
 20
36.0611277679
 30
0.0
  0
SPLINE
  5
484
100
AcDbEntity
  8
0
100
AcDbSpline
 62
7
  6
BYLAYER
 70
0
 71
3
 72
10
 73
6
 74
0
 42
0.0000001
 43
0.0000001
 44
0.0000000001
 40
0.0
 40
0.0
 40
0.0
 40
0.0
 40
0.4268872514
 40
0.7010213493
 40
1.0
 40
1.0
 40
1.0
 40
1.0
 10
56.7639569855
 20
35.5333412797
 30
0.0
 10
56.7856789898
 20
35.5295227969
 30
0.0
 10
56.8235485549
 20
35.544100021
 30
0.0
 10
56.8623500034
 20
35.5775020177
 30
0.0
 10
56.8809742324
 20
35.6009880651
 30
0.0
 10
56.8894198274
 20
35.6139214422
 30
0.0
  0
SPLINE
  5
485
100
AcDbEntity
  8
0
100
AcDbSpline
 62
7
  6
BYLAYER
 70
0
 71
3
 72
10
 73
6
 74
0
 42
0.0000001
 43
0.0000001
 44
0.0000000001
 40
0.0
 40
0.0
 40
0.0
 40
0.0
 40
0.2886179785
 40
0.5629800303
 40
1.0
 40
1.0
 40
1.0
 40
1.0
 10
56.8894198274
 20
35.6139214422
 30
0.0
 10
56.8984181202
 20
35.6277012071
 30
0.0
 10
56.9134312438
 20
35.656476066
 30
0.0
 10
56.9301166709
 20
35.7106275959
 30
0.0
 10
56.9291512622
 20
35.7551103841
 30
0.0
 10
56.9172610588
 20
35.7770105177
 30
0.0
  0
SPLINE
  5
486
100
AcDbEntity
  8
0
100
AcDbSpline
 62
7
  6
BYLAYER
 70
0
 71
3
 72
10
 73
6
 74
0
 42
0.0000001
 43
0.0000001
 44
0.0000000001
 40
0.0
 40
0.0
 40
0.0
 40
0.0
 40
0.4240084022
 40
0.7005256991
 40
1.0
 40
1.0
 40
1.0
 40
1.0
 10
56.505491999
 20
35.2202954434
 30
0.0
 10
56.529019327
 20
35.215338662
 30
0.0
 10
56.570951411
 20
35.23265503
 30
0.0
 10
56.6120037953
 20
35.2707678329
 30
0.0
 10
56.6314013318
 20
35.2976281208
 30
0.0
 10
56.6399133585
 20
35.3123227847
 30
0.0
  0
SPLINE
  5
487
100
AcDbEntity
  8
0
100
AcDbSpline
 62
7
  6
BYLAYER
 70
0
 71
3
 72
11
 73
7
 74
0
 42
0.0000001
 43
0.0000001
 44
0.0000000001
 40
0.0
 40
0.0
 40
0.0
 40
0.0
 40
0.2937763238
 40
0.5674672962
 40
0.8040680788
 40
1.0
 40
1.0
 40
1.0
 40
1.0
 10
56.6399133585
 20
35.3123227847
 30
0.0
 10
56.6481032584
 20
35.3264613477
 30
0.0
 10
56.6613954126
 20
35.3553352133
 30
0.0
 10
56.6719131818
 20
35.3991358566
 30
0.0
 10
56.6715510617
 20
35.438956538
 30
0.0
 10
56.662347193
 20
35.4621230299
 30
0.0
 10
56.6558884648
 20
35.4709001535
 30
0.0
  0
SPLINE
  5
488
100
AcDbEntity
  8
0
100
AcDbSpline
 62
7
  6
BYLAYER
 70
0
 71
3
 72
10
 73
6
 74
0
 42
0.0000001
 43
0.0000001
 44
0.0000000001
 40
0.0
 40
0.0
 40
0.0
 40
0.0
 40
0.4642166529
 40
0.7318897833
 40
1.0
 40
1.0
 40
1.0
 40
1.0
 10
61.5491627913
 20
28.2115080207
 30
0.0
 10
61.5449062128
 20
28.2380082431
 30
0.0
 10
61.5520797693
 20
28.2819440639
 30
0.0
 10
61.5762603888
 20
28.3344069042
 30
0.0
 10
61.5939912272
 20
28.3601212623
 30
0.0
 10
61.6039816329
 20
28.3719740299
 30
0.0
  0
SPLINE
  5
489
100
AcDbEntity
  8
0
100
AcDbSpline
 62
7
  6
BYLAYER
 70
0
 71
3
 72
10
 73
6
 74
0
 42
0.0000001
 43
0.0000001
 44
0.0000000001
 40
0.0
 40
0.0
 40
0.0
 40
0.0
 40
0.4762635064
 40
0.7421108874
 40
1.0
 40
1.0
 40
1.0
 40
1.0
 10
61.2568851742
 20
28.0070654661
 30
0.0
 10
61.2548714276
 20
28.0365483056
 30
0.0
 10
61.2661509346
 20
28.083531007
 30
0.0
 10
61.2963750712
 20
28.1377173952
 30
0.0
 10
61.3173016725
 20
28.1629892169
 30
0.0
 10
61.3288382696
 20
28.1740779869
 30
0.0
  0
SPLINE
  5
48A
100
AcDbEntity
  8
0
100
AcDbSpline
 62
7
  6
BYLAYER
 70
0
 71
3
 72
9
 73
5
 74
0
 42
0.0000001
 43
0.0000001
 44
0.0000000001
 40
0.0
 40
0.0
 40
0.0
 40
0.0
 40
0.267597844
 40
1.0
 40
1.0
 40
1.0
 40
1.0
 10
61.3288382696
 20
28.1740779869
 30
0.0
 10
61.3323926129
 20
28.1774943579
 30
0.0
 10
61.3461206139
 20
28.1897651051
 30
0.0
 10
61.3617168769
 20
28.2001303647
 30
0.0
 10
61.3740294608
 20
28.205649985
 30
0.0
  0
SPLINE
  5
48B
100
AcDbEntity
  8
0
100
AcDbSpline
 62
7
  6
BYLAYER
 70
0
 71
3
 72
9
 73
5
 74
0
 42
0.0000001
 43
0.0000001
 44
0.0000000001
 40
0.0
 40
0.0
 40
0.0
 40
0.0
 40
0.5412117977
 40
1.0
 40
1.0
 40
1.0
 40
1.0
 10
61.3740294608
 20
28.205649985
 30
0.0
 10
61.3847407995
 20
28.2104517815
 30
0.0
 10
61.4061548674
 20
28.2167502606
 30
0.0
 10
61.4286326112
 20
28.2120116207
 30
0.0
 10
61.4372519263
 20
28.2070393025
 30
0.0
  0
SPLINE
  5
48C
100
AcDbEntity
  8
0
100
AcDbSpline
 62
7
  6
BYLAYER
 70
0
 71
3
 72
10
 73
6
 74
0
 42
0.0000001
 43
0.0000001
 44
0.0000000001
 40
0.0
 40
0.0
 40
0.0
 40
0.0
 40
0.4864610932
 40
0.7497299533
 40
1.0
 40
1.0
 40
1.0
 40
1.0
 10
60.9630008987
 20
27.8329811777
 30
0.0
 10
60.963436797
 20
27.8634289039
 30
0.0
 10
60.9773582142
 20
27.9103887018
 30
0.0
 10
61.0106474893
 20
27.9634684563
 30
0.0
 10
61.0327128531
 20
27.9872895406
 30
0.0
 10
61.0446735585
 20
27.9974072157
 30
0.0
  0
SPLINE
  5
48D
100
AcDbEntity
  8
0
100
AcDbSpline
 62
7
  6
BYLAYER
 70
0
 71
3
 72
11
 73
7
 74
0
 42
0.0000001
 43
0.0000001
 44
0.0000000001
 40
0.0
 40
0.0
 40
0.0
 40
0.0
 40
0.3007378812
 40
0.5651663432
 40
0.7941173484
 40
1.0
 40
1.0
 40
1.0
 40
1.0
 10
61.0446735585
 20
27.9974072157
 30
0.0
 10
61.0529351461
 20
28.0043957715
 30
0.0
 10
61.0696327224
 20
28.0162600973
 30
0.0
 10
61.0962236209
 20
28.0274918163
 30
0.0
 10
61.1217118162
 20
28.0302231006
 30
0.0
 10
61.1372419707
 20
28.0255648845
 30
0.0
 10
61.1436566167
 20
28.0218594635
 30
0.0
  0
SPLINE
  5
48E
100
AcDbEntity
  8
0
100
AcDbSpline
 62
7
  6
BYLAYER
 70
0
 71
3
 72
10
 73
6
 74
0
 42
0.0000001
 43
0.0000001
 44
0.0000000001
 40
0.0
 40
0.0
 40
0.0
 40
0.0
 40
0.4966659067
 40
0.7572394603
 40
1.0
 40
1.0
 40
1.0
 40
1.0
 10
60.6700184783
 20
27.6907512027
 30
0.0
 10
60.6728125579
 20
27.7218283713
 30
0.0
 10
60.6892279744
 20
27.7684823161
 30
0.0
 10
60.7253808915
 20
27.8199971891
 30
0.0
 10
60.748427583
 20
27.8421479945
 30
0.0
 10
60.760713497
 20
27.851184298
 30
0.0
  0
SPLINE
  5
48F
100
AcDbEntity
  8
0
100
AcDbSpline
 62
7
  6
BYLAYER
 70
0
 71
3
 72
11
 73
7
 74
0
 42
0.0000001
 43
0.0000001
 44
0.0000000001
 40
0.0
 40
0.0
 40
0.0
 40
0.0
 40
0.2967954839
 40
0.5591267309
 40
0.7894876495
 40
1.0
 40
1.0
 40
1.0
 40
1.0
 10
60.760713497
 20
27.851184298
 30
0.0
 10
60.7683446676
 20
27.8567970325
 30
0.0
 10
60.7836525104
 20
27.8662075023
 30
0.0
 10
60.8076629072
 20
27.8746452682
 30
0.0
 10
60.8304514278
 20
27.8758527203
 30
0.0
 10
60.8442433682
 20
27.871387259
 30
0.0
 10
60.8500626236
 20
27.8680284195
 30
0.0
  0
SPLINE
  5
490
100
AcDbEntity
  8
0
100
AcDbSpline
 62
7
  6
BYLAYER
 70
0
 71
3
 72
9
 73
5
 74
0
 42
0.0000001
 43
0.0000001
 44
0.0000000001
 40
0.0
 40
0.0
 40
0.0
 40
0.0
 40
0.238676118
 40
1.0
 40
1.0
 40
1.0
 40
1.0
 10
60.3804371293
 20
27.5815853448
 30
0.0
 10
60.3812220184
 20
27.5864760814
 30
0.0
 10
60.3852933507
 20
27.6068357928
 30
0.0
 10
60.3922281153
 20
27.6266063033
 30
0.0
 10
60.3988827266
 20
27.6409365392
 30
0.0
  0
SPLINE
  5
491
100
AcDbEntity
  8
0
100
AcDbSpline
 62
7
  6
BYLAYER
 70
0
 71
3
 72
13
 73
9
 74
0
 42
0.0000001
 43
0.0000001
 44
0.0000000001
 40
0.0
 40
0.0
 40
0.0
 40
0.0
 40
0.3032788429
 40
0.5829368223
 40
0.7054143673
 40
0.8142406688
 40
0.9108098163
 40
1.0
 40
1.0
 40
1.0
 40
1.0
 10
60.3988827266
 20
27.6409365392
 30
0.0
 10
60.4078371449
 20
27.6602192472
 30
0.0
 10
60.4299180466
 20
27.6951238802
 30
0.0
 10
60.4661721558
 20
27.7298609296
 30
0.0
 10
60.4977164299
 20
27.7472539045
 30
0.0
 10
60.5199403661
 20
27.753949606
 30
0.0
 10
60.5409070156
 20
27.7542982439
 30
0.0
 10
60.5535491654
 20
27.7499669413
 30
0.0
 10
60.5589689667
 20
27.7468495424
 30
0.0
  0
SPLINE
  5
492
100
AcDbEntity
  8
0
100
AcDbSpline
 62
7
  6
BYLAYER
 70
0
 71
3
 72
9
 73
5
 74
0
 42
0.0000001
 43
0.0000001
 44
0.0000000001
 40
0.0
 40
0.0
 40
0.0
 40
0.0
 40
0.2410265301
 40
1.0
 40
1.0
 40
1.0
 40
1.0
 10
60.0967274609
 20
27.506414986
 30
0.0
 10
60.0978601142
 20
27.5113906833
 30
0.0
 10
60.1032955154
 20
27.5318604708
 30
0.0
 10
60.111444402
 20
27.5516052566
 30
0.0
 10
60.1189859218
 20
27.5657945133
 30
0.0
  0
SPLINE
  5
493
100
AcDbEntity
  8
0
100
AcDbSpline
 62
7
  6
BYLAYER
 70
0
 71
3
 72
13
 73
9
 74
0
 42
0.0000001
 43
0.0000001
 44
0.0000000001
 40
0.0
 40
0.0
 40
0.0
 40
0.0
 40
0.3054364978
 40
0.5831093493
 40
0.7045056311
 40
0.812847639
 40
0.9098068103
 40
1.0
 40
1.0
 40
1.0
 40
1.0
 10
60.1189859218
 20
27.5657945133
 30
0.0
 10
60.1283788567
 20
27.5834671795
 30
0.0
 10
60.1504303326
 20
27.6151247938
 30
0.0
 10
60.1855296398
 20
27.6461588767
 30
0.0
 10
60.2153802632
 20
27.6612210743
 30
0.0
 10
60.2362773739
 20
27.6667135052
 30
0.0
 10
60.2559189465
 20
27.6665380724
 30
0.0
 10
60.2677395921
 20
27.6623090074
 30
0.0
 10
60.2728612116
 20
27.6593600869
 30
0.0
  0
SPLINE
  5
494
100
AcDbEntity
  8
0
100
AcDbSpline
 62
7
  6
BYLAYER
 70
0
 71
3
 72
9
 73
5
 74
0
 42
0.0000001
 43
0.0000001
 44
0.0000000001
 40
0.0
 40
0.0
 40
0.0
 40
0.0
 40
0.2434120245
 40
1.0
 40
1.0
 40
1.0
 40
1.0
 10
59.821309984
 20
27.4658814534
 30
0.0
 10
59.8227785328
 20
27.4708988861
 30
0.0
 10
59.8295052858
 20
27.4913015971
 30
0.0
 10
59.8388102777
 20
27.5108610783
 30
0.0
 10
59.8471914071
 20
27.5247827083
 30
0.0
  0
SPLINE
  5
495
100
AcDbEntity
  8
0
100
AcDbSpline
 62
7
  6
BYLAYER
 70
0
 71
3
 72
13
 73
9
 74
0
 42
0.0000001
 43
0.0000001
 44
0.0000000001
 40
0.0
 40
0.0
 40
0.0
 40
0.0
 40
0.306858291
 40
0.5824915898
 40
0.7029878882
 40
0.8110448877
 40
0.9086220388
 40
1.0
 40
1.0
 40
1.0
 40
1.0
 10
59.8471914071
 20
27.5247827083
 30
0.0
 10
59.8568348428
 20
27.5408011154
 30
0.0
 10
59.8786191867
 20
27.5692264368
 30
0.0
 10
59.9123596645
 20
27.5966087498
 30
0.0
 10
59.9404496298
 20
27.6094649799
 30
0.0
 10
59.9600140598
 20
27.6138411234
 30
0.0
 10
59.9783403048
 20
27.6131977586
 30
0.0
 10
59.9893659909
 20
27.6091042079
 30
0.0
 10
59.9941868162
 20
27.6063186127
 30
0.0
  0
SPLINE
  5
496
100
AcDbEntity
  8
0
100
AcDbSpline
 62
7
  6
BYLAYER
 70
0
 71
3
 72
13
 73
9
 74
0
 42
0.0000001
 43
0.0000001
 44
0.0000000001
 40
0.0
 40
0.0
 40
0.0
 40
0.0
 40
0.2976698161
 40
0.580737805
 40
0.7055366638
 40
0.8156328152
 40
0.9121062034
 40
1.0
 40
1.0
 40
1.0
 40
1.0
 10
59.5565344634
 20
27.4603305648
 30
0.0
 10
59.5643282458
 20
27.4821733006
 30
0.0
 10
59.585261135
 20
27.5229406581
 30
0.0
 10
59.6232380277
 20
27.5639665993
 30
0.0
 10
59.6574987693
 20
27.5857063859
 30
0.0
 10
59.68200362
 20
27.5946443735
 30
0.0
 10
59.7052914367
 20
27.5961454048
 30
0.0
 10
59.7193998597
 20
27.5916127541
 30
0.0
 10
59.725325095
 20
27.5881799089
 30
0.0
  0
SPLINE
  5
497
100
AcDbEntity
  8
0
100
AcDbSpline
 62
7
  6
BYLAYER
 70
0
 71
3
 72
13
 73
9
 74
0
 42
0.0000001
 43
0.0000001
 44
0.0000000001
 40
0.0
 40
0.0
 40
0.0
 40
0.0
 40
0.3011593878
 40
0.5823012527
 40
0.7057139562
 40
0.814990793
 40
0.9114220373
 40
1.0
 40
1.0
 40
1.0
 40
1.0
 10
59.3046598704
 20
27.4898096784
 30
0.0
 10
59.31324353
 20
27.5101927791
 30
0.0
 10
59.3346525972
 20
27.5477637325
 30
0.0
 10
59.3717997325
 20
27.5851442622
 30
0.0
 10
59.4045382824
 20
27.6043108446
 30
0.0
 10
59.4277271661
 20
27.6119528988
 30
0.0
 10
59.4496723554
 20
27.6127545393
 30
0.0
 10
59.4629349042
 20
27.6083480316
 30
0.0
 10
59.4685657497
 20
27.6050908563
 30
0.0
  0
SPLINE
  5
498
100
AcDbEntity
  8
0
100
AcDbSpline
 62
7
  6
BYLAYER
 70
0
 71
3
 72
13
 73
9
 74
0
 42
0.0000001
 43
0.0000001
 44
0.0000000001
 40
0.0
 40
0.0
 40
0.0
 40
0.0
 40
0.3039392575
 40
0.5831134824
 40
0.7052992835
 40
0.8139489646
 40
0.9105658655
 40
1.0
 40
1.0
 40
1.0
 40
1.0
 10
59.0678351103
 20
27.5540672889
 30
0.0
 10
59.077000173
 20
27.5728976385
 30
0.0
 10
59.0986287183
 20
27.6072286921
 30
0.0
 10
59.1347235677
 20
27.6409573231
 30
0.0
 10
59.16584892
 20
27.6576702727
 30
0.0
 10
59.1877143558
 20
27.6640613996
 30
0.0
 10
59.208328547
 20
27.6642771803
 30
0.0
 10
59.2207516455
 20
27.6599700637
 30
0.0
 10
59.2260911919
 20
27.6568938828
 30
0.0
  0
SPLINE
  5
499
100
AcDbEntity
  8
0
100
AcDbSpline
 62
7
  6
BYLAYER
 70
0
 71
3
 72
9
 73
5
 74
0
 42
0.0000001
 43
0.0000001
 44
0.0000000001
 40
0.0
 40
0.0
 40
0.0
 40
0.0
 40
0.253152662
 40
1.0
 40
1.0
 40
1.0
 40
1.0
 10
58.8480806884
 20
27.6525551729
 30
0.0
 10
58.8507207166
 20
27.6573134542
 30
0.0
 10
58.8617097116
 20
27.6757858736
 30
0.0
 10
58.8748619657
 20
27.6930291262
 30
0.0
 10
58.8859664761
 20
27.7046227415
 30
0.0
  0
SPLINE
  5
49A
100
AcDbEntity
  8
0
100
AcDbSpline
 62
7
  6
BYLAYER
 70
0
 71
3
 72
11
 73
7
 74
0
 42
0.0000001
 43
0.0000001
 44
0.0000000001
 40
0.0
 40
0.0
 40
0.0
 40
0.0
 40
0.305534001
 40
0.5733392997
 40
0.8007440416
 40
1.0
 40
1.0
 40
1.0
 40
1.0
 10
58.8859664761
 20
27.7046227415
 30
0.0
 10
58.8950113834
 20
27.7140660371
 30
0.0
 10
58.9137096794
 20
27.7302791753
 30
0.0
 10
58.9442820829
 20
27.7465016046
 30
0.0
 10
58.9741028286
 20
27.752275164
 30
0.0
 10
58.9925861897
 20
27.747413048
 30
0.0
 10
58.9999739273
 20
27.7431535737
 30
0.0
  0
SPLINE
  5
49B
100
AcDbEntity
  8
0
100
AcDbSpline
 62
7
  6
BYLAYER
 70
0
 71
3
 72
13
 73
9
 74
0
 42
0.0000001
 43
0.0000001
 44
0.0000000001
 40
0.0
 40
0.0
 40
0.0
 40
0.0
 40
0.3072555474
 40
0.5824389985
 40
0.7026715557
 40
0.8106459178
 40
0.9083418643
 40
1.0
 40
1.0
 40
1.0
 40
1.0
 10
58.647271472
 20
27.7844330665
 30
0.0
 10
58.6570213949
 20
27.7999870308
 30
0.0
 10
58.6783633928
 20
27.8278251844
 30
0.0
 10
58.7117319771
 20
27.8543795139
 30
0.0
 10
58.7394039416
 20
27.8665723439
 30
0.0
 10
58.7586091016
 20
27.8706710693
 30
0.0
 10
58.7765874705
 20
27.8699280474
 30
0.0
 10
58.7874078295
 20
27.8658852696
 30
0.0
 10
58.7921488734
 20
27.8631446397
 30
0.0
  0
SPLINE
  5
49C
100
AcDbEntity
  8
0
100
AcDbSpline
 62
7
  6
BYLAYER
 70
0
 71
3
 72
11
 73
7
 74
0
 42
0.0000001
 43
0.0000001
 44
0.0000000001
 40
0.0
 40
0.0
 40
0.0
 40
0.0
 40
0.3087019647
 40
0.5827555173
 40
0.8097657392
 40
1.0
 40
1.0
 40
1.0
 40
1.0
 10
58.4671206945
 20
27.9485758341
 30
0.0
 10
58.4768995273
 20
27.9624568609
 30
0.0
 10
58.4977884477
 20
27.987141221
 30
0.0
 10
58.5342443248
 20
28.0136112112
 30
0.0
 10
58.5713153366
 20
28.0256248862
 30
0.0
 10
58.595333256
 20
28.0210838522
 30
0.0
 10
58.6043898876
 20
28.0158433564
 30
0.0
  0
SPLINE
  5
49D
100
AcDbEntity
  8
0
100
AcDbSpline
 62
7
  6
BYLAYER
 70
0
 71
3
 72
11
 73
7
 74
0
 42
0.0000001
 43
0.0000001
 44
0.0000000001
 40
0.0
 40
0.0
 40
0.0
 40
0.0
 40
0.3082584671
 40
0.5802525251
 40
0.8069009568
 40
1.0
 40
1.0
 40
1.0
 40
1.0
 10
58.3091653388
 20
28.1435830674
 30
0.0
 10
58.3188156441
 20
28.1557999692
 30
0.0
 10
58.3390211292
 20
28.17735009
 30
0.0
 10
58.373417108
 20
28.200072276
 30
0.0
 10
58.4079265703
 20
28.2095254085
 30
0.0
 10
58.4298433932
 20
28.2048068505
 30
0.0
 10
58.4382930001
 20
28.1999370716
 30
0.0
  0
SPLINE
  5
49E
100
AcDbEntity
  8
0
100
AcDbSpline
 62
7
  6
BYLAYER
 70
0
 71
3
 72
11
 73
7
 74
0
 42
0.0000001
 43
0.0000001
 44
0.0000000001
 40
0.0
 40
0.0
 40
0.0
 40
0.0
 40
0.3069732782
 40
0.5769437689
 40
0.8036446134
 40
1.0
 40
1.0
 40
1.0
 40
1.0
 10
58.1747530243
 20
28.3677910335
 30
0.0
 10
58.1841322456
 20
28.3783755154
 30
0.0
 10
58.2034663558
 20
28.3968992001
 30
0.0
 10
58.2356486015
 20
28.4160463891
 30
0.0
 10
58.2675356595
 20
28.4231901992
 30
0.0
 10
58.2874248704
 20
28.4183501325
 30
0.0
 10
58.2952690047
 20
28.4138445412
 30
0.0
  0
SPLINE
  5
49F
100
AcDbEntity
  8
0
100
AcDbSpline
 62
7
  6
BYLAYER
 70
0
 71
3
 72
11
 73
7
 74
0
 42
0.0000001
 43
0.0000001
 44
0.0000000001
 40
0.0
 40
0.0
 40
0.0
 40
0.0
 40
0.3048402005
 40
0.5728307215
 40
0.7999940408
 40
1.0
 40
1.0
 40
1.0
 40
1.0
 10
58.0650305095
 20
28.619286869
 30
0.0
 10
58.0740117664
 20
28.6282922913
 30
0.0
 10
58.0923045653
 20
28.6439234771
 30
0.0
 10
58.1221431712
 20
28.6597047036
 30
0.0
 10
58.151357872
 20
28.6647773829
 30
0.0
 10
58.1693135295
 20
28.6599172568
 30
0.0
 10
58.176545511
 20
28.6557541699
 30
0.0
  0
SPLINE
  5
4A0
100
AcDbEntity
  8
0
100
AcDbSpline
 62
7
  6
BYLAYER
 70
0
 71
3
 72
11
 73
7
 74
0
 42
0.0000001
 43
0.0000001
 44
0.0000000001
 40
0.0
 40
0.0
 40
0.0
 40
0.0
 40
0.3018573945
 40
0.5679055088
 40
0.7959459024
 40
1.0
 40
1.0
 40
1.0
 40
1.0
 10
57.9809339082
 20
28.8959249002
 30
0.0
 10
57.9894063167
 20
28.9034245345
 30
0.0
 10
58.0065068928
 20
28.9163242728
 30
0.0
 10
58.03389338
 20
28.9289727399
 30
0.0
 10
58.0604084848
 20
28.9322263064
 30
0.0
 10
58.0765216693
 20
28.9274440012
 30
0.0
 10
58.0831426341
 20
28.9236142657
 30
0.0
  0
SPLINE
  5
4A1
100
AcDbEntity
  8
0
100
AcDbSpline
 62
7
  6
BYLAYER
 70
0
 71
3
 72
11
 73
7
 74
0
 42
0.0000001
 43
0.0000001
 44
0.0000000001
 40
0.0
 40
0.0
 40
0.0
 40
0.0
 40
0.2980400539
 40
0.5621652522
 40
0.7915278573
 40
1.0
 40
1.0
 40
1.0
 40
1.0
 10
57.923180703
 20
29.1953449489
 30
0.0
 10
57.9310496149
 20
29.2014303058
 30
0.0
 10
57.9468261999
 20
29.2117866521
 30
0.0
 10
57.971674902
 20
29.2215531703
 30
0.0
 10
57.9954874042
 20
29.2232635604
 30
0.0
 10
58.0098431176
 20
29.2186376026
 30
0.0
 10
58.0158595715
 20
29.2151424623
 30
0.0
  0
SPLINE
  5
4A2
100
AcDbEntity
  8
0
100
AcDbSpline
 62
7
  6
BYLAYER
 70
0
 71
3
 72
11
 73
7
 74
0
 42
0.0000001
 43
0.0000001
 44
0.0000000001
 40
0.0
 40
0.0
 40
0.0
 40
0.0
 40
0.2934405736
 40
0.5556371635
 40
0.7868004876
 40
1.0
 40
1.0
 40
1.0
 40
1.0
 10
57.8922636238
 20
29.5149924689
 30
0.0
 10
57.8994507512
 20
29.5197716467
 30
0.0
 10
57.9137909573
 20
29.5277985202
 30
0.0
 10
57.9360390247
 20
29.5349494365
 30
0.0
 10
57.95717058
 20
29.535410526
 30
0.0
 10
57.9698456597
 20
29.5309982649
 30
0.0
 10
57.9752665691
 20
29.5278457962
 30
0.0
  0
SPLINE
  5
4A3
100
AcDbEntity
  8
0
100
AcDbSpline
 62
7
  6
BYLAYER
 70
0
 71
3
 72
11
 73
7
 74
0
 42
0.0000001
 43
0.0000001
 44
0.0000000001
 40
0.0
 40
0.0
 40
0.0
 40
0.0
 40
0.2881508776
 40
0.548392707
 40
0.7818410833
 40
1.0
 40
1.0
 40
1.0
 40
1.0
 10
57.8884464443
 20
29.8521403402
 30
0.0
 10
57.8948899244
 20
29.8557364395
 30
0.0
 10
57.9077018605
 20
29.8616703686
 30
0.0
 10
57.9273104814
 20
29.8664966534
 30
0.0
 10
57.9458024667
 20
29.8659925882
 30
0.0
 10
57.9568777777
 20
29.8618591089
 30
0.0
 10
57.9617064736
 20
29.8590493695
 30
0.0
  0
SPLINE
  5
4A4
100
AcDbEntity
  8
0
100
AcDbSpline
 62
7
  6
BYLAYER
 70
0
 71
3
 72
12
 73
8
 74
0
 42
0.0000001
 43
0.0000001
 44
0.0000000001
 40
0.0
 40
0.0
 40
0.0
 40
0.0
 40
0.2887489824
 40
0.5698855357
 40
0.6974802663
 40
0.8119273745
 40
1.0
 40
1.0
 40
1.0
 40
1.0
 10
56.3673849233
 20
34.9389827438
 30
0.0
 10
56.3819187843
 20
34.955175223
 30
0.0
 10
56.4062407406
 20
34.9911976922
 30
0.0
 10
56.4245781406
 20
35.0411421878
 30
0.0
 10
56.4294799322
 20
35.0804825326
 30
0.0
 10
56.4277885386
 20
35.1128686451
 30
0.0
 10
56.4180242941
 20
35.1353575287
 30
0.0
 10
56.408032844
 20
35.145408301
 30
0.0
  0
SPLINE
  5
4A5
100
AcDbEntity
  8
0
100
AcDbSpline
 62
7
  6
BYLAYER
 70
0
 71
3
 72
15
 73
11
 74
0
 42
0.0000001
 43
0.0000001
 44
0.0000000001
 40
0.0
 40
0.0
 40
0.0
 40
0.0
 40
0.1120962207
 40
0.2322595862
 40
0.3585672018
 40
0.4888737838
 40
0.6206869172
 40
0.7514210133
 40
0.8786629155
 40
1.0
 40
1.0
 40
1.0
 40
1.0
 10
63.1899898479
 20
28.3002418406
 30
0.0
 10
63.2949152665
 20
28.3608201977
 30
0.0
 10
63.5028623307
 20
28.5031102385
 30
0.0
 10
63.7934534198
 20
28.7607698762
 30
0.0
 10
64.0666890801
 20
29.0638016182
 30
0.0
 10
64.3147683515
 20
29.4033570784
 30
0.0
 10
64.5305594077
 20
29.7698330691
 30
0.0
 10
64.7079947455
 20
30.1527286849
 30
0.0
 10
64.8418196541
 20
30.5409886079
 30
0.0
 10
64.9012627816
 20
30.8037467255
 30
0.0
 10
64.9220334443
 20
30.9332365423
 30
0.0
  0
SPLINE
  5
4A6
100
AcDbEntity
  8
0
100
AcDbSpline
 62
7
  6
BYLAYER
 70
0
 71
3
 72
11
 73
7
 74
0
 42
0.0000001
 43
0.0000001
 44
0.0000000001
 40
0.0
 40
0.0
 40
0.0
 40
0.0
 40
0.2770047589
 40
0.5324792699
 40
0.7708875734
 40
1.0
 40
1.0
 40
1.0
 40
1.0
 10
64.9220334443
 20
31.7497389594
 30
0.0
 10
64.9055561089
 20
31.8334367612
 30
0.0
 10
64.8616725772
 20
31.992377176
 30
0.0
 10
64.7568073253
 20
32.2071148307
 30
0.0
 10
64.6169413004
 20
32.3828309493
 30
0.0
 10
64.5010550178
 20
32.4712668902
 30
0.0
 10
64.4399543749
 20
32.5065489576
 30
0.0
  0
SPLINE
  5
4A7
100
AcDbEntity
  8
0
100
AcDbSpline
 62
7
  6
BYLAYER
 70
0
 71
3
 72
17
 73
13
 74
0
 42
0.0000001
 43
0.0000001
 44
0.0000000001
 40
0.0
 40
0.0
 40
0.0
 40
0.0
 40
0.1433767533
 40
0.2915169259
 40
0.4381773761
 40
0.5773993453
 40
0.7042060617
 40
0.7620382827
 40
0.8159203642
 40
0.9125332725
 40
0.9569317802
 40
1.0
 40
1.0
 40
1.0
 40
1.0
 10
62.1899940113
 20
30.1724046728
 30
0.0
 10
62.2205831037
 20
30.2899698755
 30
0.0
 10
62.3031064661
 20
30.5240306749
 30
0.0
 10
62.4768674821
 20
30.8534492704
 30
0.0
 10
62.6939568932
 20
31.1519625898
 30
0.0
 10
62.9410617509
 20
31.401345923
 30
0.0
 10
63.1668524861
 20
31.5607600338
 30
0.0
 10
63.3498469469
 20
31.6478076394
 30
0.0
 10
63.5178015923
 20
31.7027606515
 30
0.0
 10
63.6859941359
 20
31.7198221445
 30
0.0
 10
63.8398518849
 20
31.6888123048
 30
0.0
 10
63.9083730528
 20
31.6587848544
 30
0.0
 10
63.939974749
 20
31.6405393678
 30
0.0
  0
SPLINE
  5
4A8
100
AcDbEntity
  8
0
100
AcDbSpline
 62
7
  6
BYLAYER
 70
0
 71
3
 72
10
 73
6
 74
0
 42
0.0000001
 43
0.0000001
 44
0.0000000001
 40
0.0
 40
0.0
 40
0.0
 40
0.0
 40
0.5318456435
 40
0.781455071
 40
1.0
 40
1.0
 40
1.0
 40
1.0
 10
64.1025245597
 20
32.6995411974
 30
0.0
 10
64.1129920673
 20
32.7285833474
 30
0.0
 10
64.1365140811
 20
32.7689816143
 30
0.0
 10
64.1786161572
 20
32.8092679738
 30
0.0
 10
64.2023452338
 20
32.8233707388
 30
0.0
 10
64.2141980317
 20
32.8278908277
 30
0.0
  0
SPLINE
  5
4A9
100
AcDbEntity
  8
0
100
AcDbSpline
 62
7
  6
BYLAYER
 70
0
 71
3
 72
18
 73
14
 74
0
 42
0.0000001
 43
0.0000001
 44
0.0000000001
 40
0.0
 40
0.0
 40
0.0
 40
0.0
 40
0.0450032962
 40
0.0929539341
 40
0.1459516848
 40
0.2051012893
 40
0.3409213553
 40
0.4928317388
 40
0.6465139389
 40
0.7873851085
 40
0.8496425612
 40
0.9053222694
 40
1.0
 40
1.0
 40
1.0
 40
1.0
 10
56.0193626987
 20
43.9380584204
 30
0.0
 10
56.0240691952
 20
43.9350101808
 30
0.0
 10
56.0349823475
 20
43.9304202667
 30
0.0
 10
56.053364127
 20
43.928978333
 30
0.0
 10
56.0731367507
 20
43.9328619793
 30
0.0
 10
56.1016408527
 20
43.9452389359
 30
0.0
 10
56.1359869656
 20
43.9726060648
 30
0.0
 10
56.1698558251
 20
44.0164612331
 30
0.0
 10
56.1938089305
 20
44.0671339022
 30
0.0
 10
56.20330281
 20
44.1111708727
 30
0.0
 10
56.2024346736
 20
44.1435951934
 30
0.0
 10
56.1966515347
 20
44.1695388442
 30
0.0
 10
56.1853255454
 20
44.186118615
 30
0.0
 10
56.1758088131
 20
44.1930897388
 30
0.0
  0
SPLINE
  5
4AA
100
AcDbEntity
  8
0
100
AcDbSpline
 62
7
  6
BYLAYER
 70
0
 71
3
 72
18
 73
14
 74
0
 42
0.0000001
 43
0.0000001
 44
0.0000000001
 40
0.0
 40
0.0
 40
0.0
 40
0.0
 40
0.0950355881
 40
0.1509224546
 40
0.2130879046
 40
0.3537948796
 40
0.5075228612
 40
0.6593645329
 40
0.7953272252
 40
0.8545571824
 40
0.90735054
 40
0.9550168161
 40
1.0
 40
1.0
 40
1.0
 40
1.0
 10
55.818579986
 20
43.5742943186
 30
0.0
 10
55.8294171703
 20
43.5695194839
 30
0.0
 10
55.8495916713
 20
43.568504045
 30
0.0
 10
55.8749403617
 20
43.5765173908
 30
0.0
 10
55.9035021294
 20
43.5919089704
 30
0.0
 10
55.9368799784
 20
43.6221334282
 30
0.0
 10
55.9687851011
 20
43.6681904906
 30
0.0
 10
55.9898491565
 20
43.7194670834
 30
0.0
 10
55.9963827063
 20
43.7629086153
 30
0.0
 10
55.992936679
 20
43.7937943974
 30
0.0
 10
55.986378938
 20
43.8128206665
 30
0.0
 10
55.9756741258
 20
43.8277802406
 30
0.0
 10
55.9661888747
 20
43.8347564839
 30
0.0
 10
55.9611976257
 20
43.8373075185
 30
0.0
  0
SPLINE
  5
4AB
100
AcDbEntity
  8
0
100
AcDbSpline
 62
7
  6
BYLAYER
 70
0
 71
3
 72
10
 73
6
 74
0
 42
0.0000001
 43
0.0000001
 44
0.0000000001
 40
0.0
 40
0.0
 40
0.0
 40
0.0
 40
0.4219018191
 40
0.6977618004
 40
1.0
 40
1.0
 40
1.0
 40
1.0
 10
55.6384578671
 20
43.2021237
 30
0.0
 10
55.6605629534
 20
43.1962701922
 30
0.0
 10
55.7013876388
 20
43.2106443617
 30
0.0
 10
55.7419398742
 20
43.2456682812
 30
0.0
 10
55.7615121286
 20
43.270690407
 30
0.0
 10
55.7702943549
 20
43.2845185423
 30
0.0
  0
SPLINE
  5
4AC
100
AcDbEntity
  8
0
100
AcDbSpline
 62
7
  6
BYLAYER
 70
0
 71
3
 72
13
 73
9
 74
0
 42
0.0000001
 43
0.0000001
 44
0.0000000001
 40
0.0
 40
0.0
 40
0.0
 40
0.0
 40
0.3049987011
 40
0.5830674472
 40
0.7049913456
 40
0.8135294857
 40
0.9101109242
 40
1.0
 40
1.0
 40
1.0
 40
1.0
 10
55.7702943549
 20
43.2845185423
 30
0.0
 10
55.7811617426
 20
43.3016298876
 30
0.0
 10
55.7982302352
 20
43.3368341343
 30
0.0
 10
55.8080528203
 20
43.3833776733
 30
0.0
 10
55.8064758084
 20
43.4173166169
 30
0.0
 10
55.800952
 20
43.438561606
 30
0.0
 10
55.7907514126
 20
43.4556864961
 30
0.0
 10
55.7809188229
 20
43.4637083414
 30
0.0
 10
55.7757114648
 20
43.4666364607
 30
0.0
  0
SPLINE
  5
4AD
100
AcDbEntity
  8
0
100
AcDbSpline
 62
7
  6
BYLAYER
 70
0
 71
3
 72
10
 73
6
 74
0
 42
0.0000001
 43
0.0000001
 44
0.0000000001
 40
0.0
 40
0.0
 40
0.0
 40
0.0
 40
0.4295926301
 40
0.7046827834
 40
1.0
 40
1.0
 40
1.0
 40
1.0
 10
55.4805330805
 20
42.8247217932
 30
0.0
 10
55.5045021794
 20
42.8220548356
 30
0.0
 10
55.5446765829
 20
42.8408008735
 30
0.0
 10
55.5846092617
 20
42.8794759773
 30
0.0
 10
55.6031768391
 20
42.906072358
 30
0.0
 10
55.6113054111
 20
42.9205217853
 30
0.0
  0
SPLINE
  5
4AE
100
AcDbEntity
  8
0
100
AcDbSpline
 62
7
  6
BYLAYER
 70
0
 71
3
 72
10
 73
6
 74
0
 42
0.0000001
 43
0.0000001
 44
0.0000000001
 40
0.0
 40
0.0
 40
0.0
 40
0.0
 40
0.2987252485
 40
0.5743389515
 40
1.0
 40
1.0
 40
1.0
 40
1.0
 10
55.6113054111
 20
42.9205217853
 30
0.0
 10
55.6194277585
 20
42.9349601475
 30
0.0
 10
55.6324613907
 20
42.9645199572
 30
0.0
 10
55.644340973
 20
43.0179756051
 30
0.0
 10
55.6389919395
 20
43.061917647
 30
0.0
 10
55.6234725156
 20
43.0797044708
 30
0.0
  0
SPLINE
  5
4AF
100
AcDbEntity
  8
0
100
AcDbSpline
 62
7
  6
BYLAYER
 70
0
 71
3
 72
11
 73
7
 74
0
 42
0.0000001
 43
0.0000001
 44
0.0000000001
 40
0.0
 40
0.0
 40
0.0
 40
0.0
 40
0.2007191437
 40
0.4416416375
 40
0.7137851121
 40
1.0
 40
1.0
 40
1.0
 40
1.0
 10
55.3461529848
 20
42.445308458
 30
0.0
 10
55.3578490794
 20
42.445614783
 30
0.0
 10
55.3833580043
 20
42.4529748552
 30
0.0
 10
55.4181482305
 20
42.4764911392
 30
0.0
 10
55.4500891425
 20
42.5108782906
 30
0.0
 10
55.4673551292
 20
42.5387386618
 30
0.0
 10
55.4747454549
 20
42.5536962683
 30
0.0
  0
SPLINE
  5
4B0
100
AcDbEntity
  8
0
100
AcDbSpline
 62
7
  6
BYLAYER
 70
0
 71
3
 72
10
 73
6
 74
0
 42
0.0000001
 43
0.0000001
 44
0.0000000001
 40
0.0
 40
0.0
 40
0.0
 40
0.0
 40
0.2997355483
 40
0.5735985793
 40
1.0
 40
1.0
 40
1.0
 40
1.0
 10
55.4747454549
 20
42.5536962683
 30
0.0
 10
55.4815399402
 20
42.5674479272
 30
0.0
 10
55.4922240037
 20
42.5951871174
 30
0.0
 10
55.5011112995
 20
42.6450712929
 30
0.0
 10
55.4944598198
 20
42.6848198391
 30
0.0
 10
55.4800604311
 20
42.7012148367
 30
0.0
  0
SPLINE
  5
4B1
100
AcDbEntity
  8
0
100
AcDbSpline
 62
7
  6
BYLAYER
 70
0
 71
3
 72
11
 73
7
 74
0
 42
0.0000001
 43
0.0000001
 44
0.0000000001
 40
0.0
 40
0.0
 40
0.0
 40
0.0
 40
0.2060984468
 40
0.4504866981
 40
0.7211489474
 40
1.0
 40
1.0
 40
1.0
 40
1.0
 10
55.2364640635
 20
42.0671207154
 30
0.0
 10
55.248662422
 20
42.0689749024
 30
0.0
 10
55.2743449592
 20
42.0792297506
 30
0.0
 10
55.3086549822
 20
42.1059922656
 30
0.0
 10
55.3392235129
 20
42.1428053666
 30
0.0
 10
55.3552074236
 20
42.171825777
 30
0.0
 10
55.3617795675
 20
42.1871716172
 30
0.0
  0
SPLINE
  5
4B2
100
AcDbEntity
  8
0
100
AcDbSpline
 62
7
  6
BYLAYER
 70
0
 71
3
 72
10
 73
6
 74
0
 42
0.0000001
 43
0.0000001
 44
0.0000000001
 40
0.0
 40
0.0
 40
0.0
 40
0.0
 40
0.2992884875
 40
0.5711200643
 40
1.0
 40
1.0
 40
1.0
 40
1.0
 10
55.3617795675
 20
42.1871716172
 30
0.0
 10
55.3672666757
 20
42.1999839183
 30
0.0
 10
55.3757047679
 20
42.2255151104
 30
0.0
 10
55.3818926027
 20
42.271338249
 30
0.0
 10
55.3745971629
 20
42.3067514963
 30
0.0
 10
55.3616124497
 20
42.3219276005
 30
0.0
  0
SPLINE
  5
4B3
100
AcDbEntity
  8
0
100
AcDbSpline
 62
7
  6
BYLAYER
 70
0
 71
3
 72
10
 73
6
 74
0
 42
0.0000001
 43
0.0000001
 44
0.0000000001
 40
0.0
 40
0.0
 40
0.0
 40
0.0
 40
0.2127181476
 40
0.461053277
 40
1.0
 40
1.0
 40
1.0
 40
1.0
 10
55.152402144
 20
41.6933851297
 30
0.0
 10
55.1649440545
 20
41.6967653046
 30
0.0
 10
55.1906045905
 20
41.709742921
 30
0.0
 10
55.2364755404
 20
41.7504860417
 30
0.0
 10
55.2621180738
 20
41.7931484625
 30
0.0
 10
55.2733715341
 20
41.8240748912
 30
0.0
  0
SPLINE
  5
4B4
100
AcDbEntity
  8
0
100
AcDbSpline
 62
7
  6
BYLAYER
 70
0
 71
3
 72
10
 73
6
 74
0
 42
0.0000001
 43
0.0000001
 44
0.0000000001
 40
0.0
 40
0.0
 40
0.0
 40
0.0
 40
0.2949219552
 40
0.5636981546
 40
1.0
 40
1.0
 40
1.0
 40
1.0
 10
55.2733715341
 20
41.8240748912
 30
0.0
 10
55.277458054
 20
41.835305345
 30
0.0
 10
55.2836574618
 20
41.8574896276
 30
0.0
 10
55.2877726341
 20
41.8976491238
 30
0.0
 10
55.2815475696
 20
41.9278146312
 30
0.0
 10
55.2712993584
 20
41.9422212733
 30
0.0
  0
SPLINE
  5
4B5
100
AcDbEntity
  8
0
100
AcDbSpline
 62
7
  6
BYLAYER
 70
0
 71
3
 72
10
 73
6
 74
0
 42
0.0000001
 43
0.0000001
 44
0.0000000001
 40
0.0
 40
0.0
 40
0.0
 40
0.0
 40
0.2192879237
 40
0.4707826033
 40
1.0
 40
1.0
 40
1.0
 40
1.0
 10
55.0946844127
 20
41.3272902813
 30
0.0
 10
55.1074203192
 20
41.3321471454
 30
0.0
 10
55.1328464937
 20
41.347659073
 30
0.0
 10
55.1769433639
 20
41.3918028224
 30
0.0
 10
55.2008293522
 20
41.4359941173
 30
0.0
 10
55.2102756208
 20
41.4675039034
 30
0.0
  0
SPLINE
  5
4B6
100
AcDbEntity
  8
0
100
AcDbSpline
 62
7
  6
BYLAYER
 70
0
 71
3
 72
9
 73
5
 74
0
 42
0.0000001
 43
0.0000001
 44
0.0000000001
 40
0.0
 40
0.0
 40
0.0
 40
0.0
 40
0.5422269565
 40
1.0
 40
1.0
 40
1.0
 40
1.0
 10
55.2102756208
 20
41.4675039034
 30
0.0
 10
55.2148373121
 20
41.4827202732
 30
0.0
 10
55.2204189727
 20
41.5117565597
 30
0.0
 10
55.2175444113
 20
41.541653598
 30
0.0
 10
55.2132756435
 20
41.5543673038
 30
0.0
  0
SPLINE
  5
4B7
100
AcDbEntity
  8
0
100
AcDbSpline
 62
7
  6
BYLAYER
 70
0
 71
3
 72
10
 73
6
 74
0
 42
0.0000001
 43
0.0000001
 44
0.0000000001
 40
0.0
 40
0.0
 40
0.0
 40
0.0
 40
0.2262128366
 40
0.4807408384
 40
1.0
 40
1.0
 40
1.0
 40
1.0
 10
55.0638032971
 20
40.9719595623
 30
0.0
 10
55.0765946022
 20
40.9782238492
 30
0.0
 10
55.1015973896
 20
40.996084719
 30
0.0
 10
55.1436216566
 20
41.0432243716
 30
0.0
 10
55.1655540613
 20
41.0886733659
 30
0.0
 10
55.1730301398
 20
41.1205007918
 30
0.0
  0
SPLINE
  5
4B8
100
AcDbEntity
  8
0
100
AcDbSpline
 62
7
  6
BYLAYER
 70
0
 71
3
 72
9
 73
5
 74
0
 42
0.0000001
 43
0.0000001
 44
0.0000000001
 40
0.0
 40
0.0
 40
0.0
 40
0.0
 40
0.2674124557
 40
1.0
 40
1.0
 40
1.0
 40
1.0
 10
55.1730301398
 20
41.1205007918
 30
0.0
 10
55.1741178476
 20
41.12513142
 30
0.0
 10
55.1775683995
 20
41.1425717474
 30
0.0
 10
55.1785648689
 20
41.1606111766
 30
0.0
 10
55.1771922967
 20
41.1735697593
 30
0.0
  0
SPLINE
  5
4B9
100
AcDbEntity
  8
0
100
AcDbSpline
 62
7
  6
BYLAYER
 70
0
 71
3
 72
10
 73
6
 74
0
 42
0.0000001
 43
0.0000001
 44
0.0000000001
 40
0.0
 40
0.0
 40
0.0
 40
0.0
 40
0.2333958502
 40
0.4908399237
 40
1.0
 40
1.0
 40
1.0
 40
1.0
 10
55.060022264
 20
40.6304245291
 30
0.0
 10
55.0727409997
 20
40.6380124596
 30
0.0
 10
55.0971374606
 20
40.658029826
 30
0.0
 10
55.1368058488
 20
40.7077402577
 30
0.0
 10
55.1565988787
 20
40.7541637974
 30
0.0
 10
55.1619528563
 20
40.7860260646
 30
0.0
  0
SPLINE
  5
4BA
100
AcDbEntity
  8
0
100
AcDbSpline
 62
7
  6
BYLAYER
 70
0
 71
3
 72
9
 73
5
 74
0
 42
0.0000001
 43
0.0000001
 44
0.0000000001
 40
0.0
 40
0.0
 40
0.0
 40
0.0
 40
0.2607327097
 40
1.0
 40
1.0
 40
1.0
 40
1.0
 10
55.1619528563
 20
40.7860260646
 30
0.0
 10
55.1624174438
 20
40.7887908901
 30
0.0
 10
55.1639561093
 20
40.7994325727
 30
0.0
 10
55.1645078903
 20
40.8102308067
 30
0.0
 10
55.1642149805
 20
40.8181745467
 30
0.0
  0
SPLINE
  5
4BB
100
AcDbEntity
  8
0
100
AcDbSpline
 62
7
  6
BYLAYER
 70
0
 71
3
 72
9
 73
5
 74
0
 42
0.0000001
 43
0.0000001
 44
0.0000000001
 40
0.0
 40
0.0
 40
0.0
 40
0.0
 40
0.2356300718
 40
1.0
 40
1.0
 40
1.0
 40
1.0
 10
55.0833735718
 20
40.3055990381
 30
0.0
 10
55.0874454921
 20
40.3084648149
 30
0.0
 10
55.1041521692
 20
40.3214352514
 30
0.0
 10
55.1187037514
 20
40.3370806507
 30
0.0
 10
55.1285231459
 20
40.3499057111
 30
0.0
  0
SPLINE
  5
4BC
100
AcDbEntity
  8
0
100
AcDbSpline
 62
7
  6
BYLAYER
 70
0
 71
3
 72
9
 73
5
 74
0
 42
0.0000001
 43
0.0000001
 44
0.0000000001
 40
0.0
 40
0.0
 40
0.0
 40
0.0
 40
0.2380781533
 40
1.0
 40
1.0
 40
1.0
 40
1.0
 10
55.1336579953
 20
40.000254386
 30
0.0
 10
55.1376582211
 20
40.0035073015
 30
0.0
 10
55.1538642906
 20
40.017895581
 30
0.0
 10
55.1678550246
 20
40.0347127958
 30
0.0
 10
55.17715751
 20
40.04834099
 30
0.0
  0
SPLINE
  5
4BD
100
AcDbEntity
  8
0
100
AcDbSpline
 62
7
  6
BYLAYER
 70
0
 71
3
 72
9
 73
5
 74
0
 42
0.0000001
 43
0.0000001
 44
0.0000000001
 40
0.0
 40
0.0
 40
0.0
 40
0.0
 40
0.2606856654
 40
1.0
 40
1.0
 40
1.0
 40
1.0
 10
55.17715751
 20
40.04834099
 30
0.0
 10
55.1826418625
 20
40.0563755977
 30
0.0
 10
55.201845248
 20
40.0883497912
 30
0.0
 10
55.2144708492
 20
40.1247267503
 30
0.0
 10
55.2175167459
 20
40.1521469326
 30
0.0
  0
SPLINE
  5
4BE
100
AcDbEntity
  8
0
100
AcDbSpline
 62
7
  6
BYLAYER
 70
0
 71
3
 72
9
 73
5
 74
0
 42
0.0000001
 43
0.0000001
 44
0.0000000001
 40
0.0
 40
0.0
 40
0.0
 40
0.0
 40
0.2405834385
 40
1.0
 40
1.0
 40
1.0
 40
1.0
 10
55.2104465257
 20
39.7169956657
 30
0.0
 10
55.2143409295
 20
39.7206049853
 30
0.0
 10
55.2299170904
 20
39.7362584807
 30
0.0
 10
55.2432312351
 20
39.7541223101
 30
0.0
 10
55.2519248583
 20
39.7684519427
 30
0.0
  0
SPLINE
  5
4BF
100
AcDbEntity
  8
0
100
AcDbSpline
 62
7
  6
BYLAYER
 70
0
 71
3
 72
9
 73
5
 74
0
 42
0.0000001
 43
0.0000001
 44
0.0000000001
 40
0.0
 40
0.0
 40
0.0
 40
0.0
 40
0.2593372564
 40
1.0
 40
1.0
 40
1.0
 40
1.0
 10
55.2519248583
 20
39.7684519427
 30
0.0
 10
55.2559115882
 20
39.775023239
 30
0.0
 10
55.270116832
 20
39.801029017
 30
0.0
 10
55.2799565452
 20
39.8295960216
 30
0.0
 10
55.2835114535
 20
39.8512575949
 30
0.0
  0
SPLINE
  5
4C0
100
AcDbEntity
  8
0
100
AcDbSpline
 62
7
  6
BYLAYER
 70
0
 71
3
 72
9
 73
5
 74
0
 42
0.0000001
 43
0.0000001
 44
0.0000000001
 40
0.0
 40
0.0
 40
0.0
 40
0.0
 40
0.5031066229
 40
1.0
 40
1.0
 40
1.0
 40
1.0
 10
55.3130840302
 20
39.4582395407
 30
0.0
 10
55.3280273304
 20
39.4738846644
 30
0.0
 10
55.3533576083
 20
39.5092780376
 30
0.0
 10
55.3694978521
 20
39.5497429726
 30
0.0
 10
55.3743629692
 20
39.5705495338
 30
0.0
  0
SPLINE
  5
4C1
100
AcDbEntity
  8
0
100
AcDbSpline
 62
7
  6
BYLAYER
 70
0
 71
3
 72
9
 73
5
 74
0
 42
0.0000001
 43
0.0000001
 44
0.0000000001
 40
0.0
 40
0.0
 40
0.0
 40
0.0
 40
0.2485720058
 40
1.0
 40
1.0
 40
1.0
 40
1.0
 10
55.4406948418
 20
39.2261936269
 30
0.0
 10
55.4460443064
 20
39.2324875248
 30
0.0
 10
55.4661794916
 20
39.258942317
 30
0.0
 10
55.4813407847
 20
39.2892696456
 30
0.0
 10
55.4888184522
 20
39.3130939404
 30
0.0
  0
SPLINE
  5
4C2
100
AcDbEntity
  8
0
100
AcDbSpline
 62
7
  6
BYLAYER
 70
0
 71
3
 72
9
 73
5
 74
0
 42
0.0000001
 43
0.0000001
 44
0.0000000001
 40
0.0
 40
0.0
 40
0.0
 40
0.0
 40
0.2483802859
 40
1.0
 40
1.0
 40
1.0
 40
1.0
 10
55.59219023
 20
39.0228376584
 30
0.0
 10
55.5956380765
 20
39.0273861263
 30
0.0
 10
55.6088576772
 20
39.0461891373
 30
0.0
 10
55.6196259208
 20
39.0667298159
 30
0.0
 10
55.6260086345
 20
39.0827787214
 30
0.0
  0
SPLINE
  5
4C3
100
AcDbEntity
  8
0
100
AcDbSpline
 62
7
  6
BYLAYER
 70
0
 71
3
 72
9
 73
5
 74
0
 42
0.0000001
 43
0.0000001
 44
0.0000000001
 40
0.0
 40
0.0
 40
0.0
 40
0.0
 40
0.4596147681
 40
1.0
 40
1.0
 40
1.0
 40
1.0
 10
64.1620285112
 20
32.9265134143
 30
0.0
 10
64.1534603676
 20
32.9314927666
 30
0.0
 10
64.138252738
 20
32.9485012736
 30
0.0
 10
64.1329174057
 20
32.9700246919
 30
0.0
 10
64.1316901477
 20
32.9816113497
 30
0.0
  0
SPLINE
  5
4C4
100
AcDbEntity
  8
0
100
AcDbSpline
 62
7
  6
BYLAYER
 70
0
 71
3
 72
9
 73
5
 74
0
 42
0.0000001
 43
0.0000001
 44
0.0000000001
 40
0.0
 40
0.0
 40
0.0
 40
0.0
 40
0.2323904614
 40
1.0
 40
1.0
 40
1.0
 40
1.0
 10
64.1316901477
 20
32.9816113497
 30
0.0
 10
64.1312546376
 20
32.9857230413
 30
0.0
 10
64.130325954
 20
33.0035143355
 30
0.0
 10
64.1327292812
 20
33.0213848713
 30
0.0
 10
64.1358523046
 20
33.0346803172
 30
0.0
  0
SPLINE
  5
4C5
100
AcDbEntity
  8
0
100
AcDbSpline
 62
7
  6
BYLAYER
 70
0
 71
3
 72
10
 73
6
 74
0
 42
0.0000001
 43
0.0000001
 44
0.0000000001
 40
0.0
 40
0.0
 40
0.0
 40
0.0
 40
0.5192591616
 40
0.7737871634
 40
1.0
 40
1.0
 40
1.0
 40
1.0
 10
64.1358523046
 20
33.0346803172
 30
0.0
 10
64.143328383
 20
33.0665077431
 30
0.0
 10
64.1652607878
 20
33.1119567374
 30
0.0
 10
64.2072850548
 20
33.15909639
 30
0.0
 10
64.2322878421
 20
33.1769572598
 30
0.0
 10
64.2450791472
 20
33.1832215467
 30
0.0
  0
SPLINE
  5
4C6
100
AcDbEntity
  8
0
100
AcDbSpline
 62
7
  6
BYLAYER
 70
0
 71
3
 72
11
 73
7
 74
0
 42
0.0000001
 43
0.0000001
 44
0.0000000001
 40
0.0
 40
0.0
 40
0.0
 40
0.0
 40
0.2069459361
 40
0.4359960832
 40
0.6998883251
 40
1.0
 40
1.0
 40
1.0
 40
1.0
 10
64.1756148713
 20
33.2733909245
 30
0.0
 10
64.169311695
 20
33.2770586401
 30
0.0
 10
64.1577240015
 20
33.2879408848
 30
0.0
 10
64.1473129737
 20
33.3107970308
 30
0.0
 10
64.1435257183
 20
33.3387768851
 30
0.0
 10
64.1451770699
 20
33.3587255642
 30
0.0
 10
64.1469295881
 20
33.3691550444
 30
0.0
  0
SPLINE
  5
4C7
100
AcDbEntity
  8
0
100
AcDbSpline
 62
7
  6
BYLAYER
 70
0
 71
3
 72
10
 73
6
 74
0
 42
0.0000001
 43
0.0000001
 44
0.0000000001
 40
0.0
 40
0.0
 40
0.0
 40
0.0
 40
0.5091600763
 40
0.7666041498
 40
1.0
 40
1.0
 40
1.0
 40
1.0
 10
64.1469295881
 20
33.3691550444
 30
0.0
 10
64.1522835656
 20
33.4010173116
 30
0.0
 10
64.1720765956
 20
33.4474408513
 30
0.0
 10
64.2117449838
 20
33.497151283
 30
0.0
 10
64.2361414447
 20
33.5171686493
 30
0.0
 10
64.2488601804
 20
33.5247565799
 30
0.0
  0
SPLINE
  5
4C8
100
AcDbEntity
  8
0
100
AcDbSpline
 62
7
  6
BYLAYER
 70
0
 71
3
 72
13
 73
9
 74
0
 42
0.0000001
 43
0.0000001
 44
0.0000000001
 40
0.0
 40
0.0
 40
0.0
 40
0.0
 40
0.0885584178
 40
0.184927382
 40
0.2942491464
 40
0.417778971
 40
0.6990239823
 40
1.0
 40
1.0
 40
1.0
 40
1.0
 10
64.1620547759
 20
33.6045944977
 30
0.0
 10
64.156403398
 20
33.6078809927
 30
0.0
 10
64.1459262568
 20
33.6172226893
 30
0.0
 10
64.1356157039
 20
33.6367396033
 30
0.0
 10
64.1306584325
 20
33.6607860179
 30
0.0
 10
64.1310246045
 20
33.6989487624
 30
0.0
 10
64.1451874629
 20
33.7499483667
 30
0.0
 10
64.1668522558
 20
33.7876339193
 30
0.0
 10
64.1803592985
 20
33.8052753979
 30
0.0
  0
SPLINE
  5
4C9
100
AcDbEntity
  8
0
100
AcDbSpline
 62
7
  6
BYLAYER
 70
0
 71
3
 72
9
 73
5
 74
0
 42
0.0000001
 43
0.0000001
 44
0.0000000001
 40
0.0
 40
0.0
 40
0.0
 40
0.0
 40
0.2626548524
 40
1.0
 40
1.0
 40
1.0
 40
1.0
 10
64.1803592985
 20
33.8052753979
 30
0.0
 10
64.1837329896
 20
33.8096817584
 30
0.0
 10
64.1971480261
 20
33.8259987959
 30
0.0
 10
64.2127686168
 20
33.8406156062
 30
0.0
 10
64.2255088726
 20
33.8495820708
 30
0.0
  0
SPLINE
  5
4CA
100
AcDbEntity
  8
0
100
AcDbSpline
 62
7
  6
BYLAYER
 70
0
 71
3
 72
13
 73
9
 74
0
 42
0.0000001
 43
0.0000001
 44
0.0000000001
 40
0.0
 40
0.0
 40
0.0
 40
0.0
 40
0.0893675144
 40
0.1859248574
 40
0.2946362291
 40
0.4169547833
 40
0.6962475081
 40
1.0
 40
1.0
 40
1.0
 40
1.0
 10
64.1214617735
 20
33.9172978316
 30
0.0
 10
64.1161083206
 20
33.9204078146
 30
0.0
 10
64.1061251407
 20
33.9290581089
 30
0.0
 10
64.0959680033
 20
33.9471240048
 30
0.0
 10
64.0905849478
 20
33.9693995427
 30
0.0
 10
64.0896487403
 20
34.00493845
 30
0.0
 10
64.1010995752
 20
34.0532268304
 30
0.0
 10
64.1198611905
 20
34.0894596664
 30
0.0
 10
64.1317249344
 20
34.106840119
 30
0.0
  0
SPLINE
  5
4CB
100
AcDbEntity
  8
0
100
AcDbSpline
 62
7
  6
BYLAYER
 70
0
 71
3
 72
9
 73
5
 74
0
 42
0.0000001
 43
0.0000001
 44
0.0000000001
 40
0.0
 40
0.0
 40
0.0
 40
0.0
 40
0.2599985753
 40
1.0
 40
1.0
 40
1.0
 40
1.0
 10
64.1317249344
 20
34.106840119
 30
0.0
 10
64.1348989969
 20
34.1114901386
 30
0.0
 10
64.1477064952
 20
34.1289475741
 30
0.0
 10
64.162792093
 20
34.1448169428
 30
0.0
 10
64.175224449
 20
34.1549267229
 30
0.0
  0
SPLINE
  5
4CC
100
AcDbEntity
  8
0
100
AcDbSpline
 62
7
  6
BYLAYER
 70
0
 71
3
 72
13
 73
9
 74
0
 42
0.0000001
 43
0.0000001
 44
0.0000000001
 40
0.0
 40
0.0
 40
0.0
 40
0.0
 40
0.0903618293
 40
0.1873649354
 40
0.2956475214
 40
0.4169271306
 40
0.6941990839
 40
1.0
 40
1.0
 40
1.0
 40
1.0
 10
64.0541787109
 20
34.2088260282
 30
0.0
 10
64.0491181777
 20
34.2117531701
 30
0.0
 10
64.0396333135
 20
34.2197470773
 30
0.0
 10
64.0297004578
 20
34.2364137909
 30
0.0
 10
64.0239492082
 20
34.2569466142
 30
0.0
 10
64.0218625611
 20
34.2898539944
 30
0.0
 10
64.0307206992
 20
34.3352565054
 30
0.0
 10
64.0466955584
 20
34.3698143447
 30
0.0
 10
64.056957586
 20
34.3867291663
 30
0.0
  0
SPLINE
  5
4CD
100
AcDbEntity
  8
0
100
AcDbSpline
 62
7
  6
BYLAYER
 70
0
 71
3
 72
9
 73
5
 74
0
 42
0.0000001
 43
0.0000001
 44
0.0000000001
 40
0.0
 40
0.0
 40
0.0
 40
0.0
 40
0.2573438846
 40
1.0
 40
1.0
 40
1.0
 40
1.0
 10
64.056957586
 20
34.3867291663
 30
0.0
 10
64.059903394
 20
34.391584719
 30
0.0
 10
64.0719801354
 20
34.4100557235
 30
0.0
 10
64.0864151331
 20
34.4270446223
 30
0.0
 10
64.0984359187
 20
34.4381854433
 30
0.0
  0
SPLINE
  5
4CE
100
AcDbEntity
  8
0
100
AcDbSpline
 62
7
  6
BYLAYER
 70
0
 71
3
 72
12
 73
8
 74
0
 42
0.0000001
 43
0.0000001
 44
0.0000000001
 40
0.0
 40
0.0
 40
0.0
 40
0.0
 40
0.0916754361
 40
0.1894771915
 40
0.4169836845
 40
0.6925201565
 40
1.0
 40
1.0
 40
1.0
 40
1.0
 10
63.960775834
 20
34.476686124
 30
0.0
 10
63.9560065056
 20
34.4794315858
 30
0.0
 10
63.9470410129
 20
34.4868146106
 30
0.0
 10
63.9334947935
 20
34.5082588145
 30
0.0
 10
63.9272298017
 20
34.5449970537
 30
0.0
 10
63.9346661373
 20
34.5935270655
 30
0.0
 10
63.947976903
 20
34.6262860002
 30
0.0
 10
63.956695142
 20
34.6425546251
 30
0.0
  0
SPLINE
  5
4CF
100
AcDbEntity
  8
0
100
AcDbSpline
 62
7
  6
BYLAYER
 70
0
 71
3
 72
9
 73
5
 74
0
 42
0.0000001
 43
0.0000001
 44
0.0000000001
 40
0.0
 40
0.0
 40
0.0
 40
0.0
 40
0.254701118
 40
1.0
 40
1.0
 40
1.0
 40
1.0
 10
63.956695142
 20
34.6425546251
 30
0.0
 10
63.9593858144
 20
34.6475755404
 30
0.0
 10
63.9706119656
 20
34.6669213222
 30
0.0
 10
63.984285309
 20
34.6848877413
 30
0.0
 10
63.9957984142
 20
34.6969415683
 30
0.0
  0
SPLINE
  5
4D0
100
AcDbEntity
  8
0
100
AcDbSpline
 62
7
  6
BYLAYER
 70
0
 71
3
 72
13
 73
9
 74
0
 42
0.0000001
 43
0.0000001
 44
0.0000000001
 40
0.0
 40
0.0
 40
0.0
 40
0.0
 40
0.0878197431
 40
0.1842655699
 40
0.2943852679
 40
0.4191333439
 40
0.7021016395
 40
1.0
 40
1.0
 40
1.0
 40
1.0
 10
63.8420523403
 20
34.7185957527
 30
0.0
 10
63.8361156909
 20
34.722005704
 30
0.0
 10
63.8251367734
 20
34.7319617268
 30
0.0
 10
63.8147879122
 20
34.7528860323
 30
0.0
 10
63.8102746196
 20
34.7785868681
 30
0.0
 10
63.8119558136
 20
34.8191536202
 30
0.0
 10
63.8286963446
 20
34.8724913204
 30
0.0
 10
63.853147403
 20
34.9112919767
 30
0.0
 10
63.8681876026
 20
34.9289874821
 30
0.0
  0
SPLINE
  5
4D1
100
AcDbEntity
  8
0
100
AcDbSpline
 62
7
  6
BYLAYER
 70
0
 71
3
 72
13
 73
9
 74
0
 42
0.0000001
 43
0.0000001
 44
0.0000000001
 40
0.0
 40
0.0
 40
0.0
 40
0.0
 40
0.0885319859
 40
0.184965462
 40
0.2942691515
 40
0.4176252585
 40
0.6987432242
 40
1.0
 40
1.0
 40
1.0
 40
1.0
 10
63.6990283449
 20
34.9325032223
 30
0.0
 10
63.6933923983
 20
34.9357513987
 30
0.0
 10
63.6829416254
 20
34.9450360675
 30
0.0
 10
63.6726635492
 20
34.9644531458
 30
0.0
 10
63.6676761344
 20
34.9883628688
 30
0.0
 10
63.667914703
 20
35.0263239383
 30
0.0
 10
63.6818700845
 20
35.0771265591
 30
0.0
 10
63.7033207455
 20
35.1147035416
 30
0.0
 10
63.7166922143
 20
35.1323434506
 30
0.0
  0
SPLINE
  5
4D2
100
AcDbEntity
  8
0
100
AcDbSpline
 62
7
  6
BYLAYER
 70
0
 71
3
 72
13
 73
9
 74
0
 42
0.0000001
 43
0.0000001
 44
0.0000000001
 40
0.0
 40
0.0
 40
0.0
 40
0.0
 40
0.0894161457
 40
0.1860674645
 40
0.2947373469
 40
0.4168703903
 40
0.6960949281
 40
1.0
 40
1.0
 40
1.0
 40
1.0
 10
63.5329314574
 20
35.1165969375
 30
0.0
 10
63.5275968037
 20
35.1196837617
 30
0.0
 10
63.5176488575
 20
35.1282918858
 30
0.0
 10
63.5075319307
 20
35.1462652047
 30
0.0
 10
63.5021154774
 20
35.1684003856
 30
0.0
 10
63.50106423
 20
35.2037371211
 30
0.0
 10
63.5123284682
 20
35.2518082741
 30
0.0
 10
63.530876702
 20
35.2879175125
 30
0.0
 10
63.5426047546
 20
35.3052745125
 30
0.0
  0
SPLINE
  5
4D3
100
AcDbEntity
  8
0
100
AcDbSpline
 62
7
  6
BYLAYER
 70
0
 71
3
 72
13
 73
9
 74
0
 42
0.0000001
 43
0.0000001
 44
0.0000000001
 40
0.0
 40
0.0
 40
0.0
 40
0.0
 40
0.0904688629
 40
0.1875712385
 40
0.2957954492
 40
0.4168835819
 40
0.6941794875
 40
1.0
 40
1.0
 40
1.0
 40
1.0
 10
63.3451724716
 20
35.2692956542
 30
0.0
 10
63.3401327346
 20
35.2722089481
 30
0.0
 10
63.3306911945
 20
35.2801707593
 30
0.0
 10
63.3207962385
 20
35.2967437575
 30
0.0
 10
63.3150148685
 20
35.3171343117
 30
0.0
 10
63.3128213343
 20
35.3498414882
 30
0.0
 10
63.3215194705
 20
35.3950121471
 30
0.0
 10
63.3372823776
 20
35.429433944
 30
0.0
 10
63.3474104763
 20
35.4463052809
 30
0.0
  0
SPLINE
  5
4D4
100
AcDbEntity
  8
0
100
AcDbSpline
 62
7
  6
BYLAYER
 70
0
 71
3
 72
12
 73
8
 74
0
 42
0.0000001
 43
0.0000001
 44
0.0000000001
 40
0.0
 40
0.0
 40
0.0
 40
0.0
 40
0.0918215064
 40
0.189707875
 40
0.4169628249
 40
0.6926424437
 40
1.0
 40
1.0
 40
1.0
 40
1.0
 10
63.1373474177
 20
35.3892867202
 30
0.0
 10
63.1326003887
 20
35.3920236675
 30
0.0
 10
63.1236859949
 20
35.3993810308
 30
0.0
 10
63.110187365
 20
35.420669077
 30
0.0
 10
63.1037997415
 20
35.4571577797
 30
0.0
 10
63.1110854293
 20
35.5054142852
 30
0.0
 10
63.1241868247
 20
35.5380254262
 30
0.0
 10
63.132774708
 20
35.554232531
 30
0.0
  0
SPLINE
  5
4D5
100
AcDbEntity
  8
0
100
AcDbSpline
 62
7
  6
BYLAYER
 70
0
 71
3
 72
11
 73
7
 74
0
 42
0.0000001
 43
0.0000001
 44
0.0000000001
 40
0.0
 40
0.0
 40
0.0
 40
0.0
 40
0.190399872
 40
0.4174459846
 40
0.6916732558
 40
1.0
 40
1.0
 40
1.0
 40
1.0
 10
62.911230153
 20
35.4755464111
 30
0.0
 10
62.9021569355
 20
35.4807736075
 30
0.0
 10
62.8861813193
 20
35.4992957839
 30
0.0
 10
62.878156847
 20
35.5374576426
 30
0.0
 10
62.8827776971
 20
35.5822107055
 30
0.0
 10
62.8934064292
 20
35.6127469821
 30
0.0
 10
62.9005286467
 20
35.6281354655
 30
0.0
  0
SPLINE
  5
4D6
100
AcDbEntity
  8
0
100
AcDbSpline
 62
7
  6
BYLAYER
 70
0
 71
3
 72
11
 73
7
 74
0
 42
0.0000001
 43
0.0000001
 44
0.0000000001
 40
0.0
 40
0.0
 40
0.0
 40
0.0
 40
0.1932821158
 40
0.4200431658
 40
0.6921930673
 40
1.0
 40
1.0
 40
1.0
 40
1.0
 10
62.6687555953
 20
35.5273494376
 30
0.0
 10
62.6603086622
 20
35.5322355851
 30
0.0
 10
62.6452214291
 20
35.5488435043
 30
0.0
 10
62.6362905492
 20
35.5835114417
 30
0.0
 10
62.6386207443
 20
35.6245982849
 30
0.0
 10
62.6469092172
 20
35.6529438725
 30
0.0
 10
62.6526537336
 20
35.6673835708
 30
0.0
  0
SPLINE
  5
4D7
100
AcDbEntity
  8
0
100
AcDbSpline
 62
7
  6
BYLAYER
 70
0
 71
3
 72
11
 73
7
 74
0
 42
0.0000001
 43
0.0000001
 44
0.0000000001
 40
0.0
 40
0.0
 40
0.0
 40
0.0
 40
0.1965393265
 40
0.4234502416
 40
0.6935247835
 40
1.0
 40
1.0
 40
1.0
 40
1.0
 10
62.41199625
 20
35.5442603851
 30
0.0
 10
62.4041662286
 20
35.5487967875
 30
0.0
 10
62.3899984785
 20
35.5636021491
 30
0.0
 10
62.380385738
 20
35.5948353053
 30
0.0
 10
62.3806609355
 20
35.6322083484
 30
0.0
 10
62.3867978603
 20
35.6582567038
 30
0.0
 10
62.3912647503
 20
35.6716419958
 30
0.0
  0
SPLINE
  5
4D8
100
AcDbEntity
  8
0
100
AcDbSpline
 62
7
  6
BYLAYER
 70
0
 71
3
 72
11
 73
7
 74
0
 42
0.0000001
 43
0.0000001
 44
0.0000000001
 40
0.0
 40
0.0
 40
0.0
 40
0.0
 40
0.200187844
 40
0.4276675533
 40
0.6956750748
 40
1.0
 40
1.0
 40
1.0
 40
1.0
 10
62.1431345288
 20
35.5261216813
 30
0.0
 10
62.1359089851
 20
35.5302967838
 30
0.0
 10
62.1227146688
 20
35.5434393718
 30
0.0
 10
62.1126253742
 20
35.5713024434
 30
0.0
 10
62.1111057311
 20
35.604951115
 30
0.0
 10
62.1152919383
 20
35.6286249635
 30
0.0
 10
62.1185917753
 20
35.640874409
 30
0.0
  0
SPLINE
  5
4D9
100
AcDbEntity
  8
0
100
AcDbSpline
 62
7
  6
BYLAYER
 70
0
 71
3
 72
11
 73
7
 74
0
 42
0.0000001
 43
0.0000001
 44
0.0000000001
 40
0.0
 40
0.0
 40
0.0
 40
0.0
 40
0.2042450657
 40
0.432707098
 40
0.6986504937
 40
1.0
 40
1.0
 40
1.0
 40
1.0
 10
61.8644601334
 20
35.473080207
 30
0.0
 10
61.8578330295
 20
35.4768959538
 30
0.0
 10
61.8456548656
 20
35.4885037454
 30
0.0
 10
61.8353011874
 20
35.5130906398
 30
0.0
 10
61.8322593605
 20
35.5430348442
 30
0.0
 10
61.8347089109
 20
35.5642875916
 30
0.0
 10
61.8369611583
 20
35.5753433088
 30
0.0
  0
SPLINE
  5
4DA
100
AcDbEntity
  8
0
100
AcDbSpline
 62
7
  6
BYLAYER
 70
0
 71
3
 72
11
 73
7
 74
0
 42
0.0000001
 43
0.0000001
 44
0.0000000001
 40
0.0
 40
0.0
 40
0.0
 40
0.0
 40
0.2087037424
 40
0.4385724316
 40
0.7024423528
 40
1.0
 40
1.0
 40
1.0
 40
1.0
 10
61.5783523782
 20
35.3855907516
 30
0.0
 10
61.5723230508
 20
35.389058742
 30
0.0
 10
61.5611785946
 20
35.399234112
 30
0.0
 10
61.5507897469
 20
35.4206763593
 30
0.0
 10
61.5465040863
 20
35.4469648247
 30
0.0
 10
61.5474441694
 20
35.4657807528
 30
0.0
 10
61.5487756725
 20
35.4756077834
 30
0.0
  0
SPLINE
  5
4DB
100
AcDbEntity
  8
0
100
AcDbSpline
 62
7
  6
BYLAYER
 70
0
 71
3
 72
11
 73
7
 74
0
 42
0.0000001
 43
0.0000001
 44
0.0000000001
 40
0.0
 40
0.0
 40
0.0
 40
0.0
 40
0.213517646
 40
0.4452290053
 40
0.7070055557
 40
1.0
 40
1.0
 40
1.0
 40
1.0
 10
61.2872587245
 20
35.26441188
 30
0.0
 10
61.2818290208
 20
35.2675458873
 30
0.0
 10
61.2717119301
 20
35.2763642513
 30
0.0
 10
61.2615276652
 20
35.2948279376
 30
0.0
 10
61.2562809843
 20
35.3175392573
 30
0.0
 10
61.2559504633
 20
35.3339330819
 30
0.0
 10
61.2564940148
 20
35.3425187411
 30
0.0
  0
SPLINE
  5
4DC
100
AcDbEntity
  8
0
100
AcDbSpline
 62
7
  6
BYLAYER
 70
0
 71
3
 72
10
 73
6
 74
0
 42
0.0000001
 43
0.0000001
 44
0.0000000001
 40
0.0
 40
0.0
 40
0.0
 40
0.0
 40
0.2427605377
 40
0.5033340942
 40
1.0
 40
1.0
 40
1.0
 40
1.0
 10
58.5481689474
 20
36.914219014
 30
0.0
 10
58.5604548614
 20
36.9232553173
 30
0.0
 10
58.5835015528
 20
36.9454061229
 30
0.0
 10
58.6196544701
 20
36.9969209957
 30
0.0
 10
58.6360698865
 20
37.0435749408
 30
0.0
 10
58.6388639661
 20
37.0746521093
 30
0.0
  0
SPLINE
  5
4DD
100
AcDbEntity
  8
0
100
AcDbSpline
 62
7
  6
BYLAYER
 70
0
 71
3
 72
15
 73
11
 74
0
 42
0.0000001
 43
0.0000001
 44
0.0000000001
 40
0.0
 40
0.0
 40
0.0
 40
0.0
 40
0.1125076041
 40
0.2332521699
 40
0.3602761699
 40
0.4911669837
 40
0.6232584184
 40
0.753811908
 40
0.8801558129
 40
1.0
 40
1.0
 40
1.0
 40
1.0
 10
8.5138181619
 20
66.9512690142
 30
0.0
 10
8.5138183861
 20
67.1180770444
 30
0.0
 10
8.5412256633
 20
67.4641952112
 30
0.0
 10
8.6518659837
 20
67.9879861553
 30
0.0
 10
8.8301931845
 20
68.5215409694
 30
0.0
 10
9.0707530695
 20
69.0484862723
 30
0.0
 10
9.3662042245
 20
69.552780804
 30
0.0
 10
9.7075544495
 20
70.0189555185
 30
0.0
 10
10.0842456825
 20
70.4328174457
 30
0.0
 10
10.3604097623
 20
70.6732088496
 30
0.0
 10
10.5020736809
 20
70.7804631278
 30
0.0
  0
SPLINE
  5
4DE
100
AcDbEntity
  8
0
100
AcDbSpline
 62
7
  6
BYLAYER
 70
0
 71
3
 72
14
 73
10
 74
0
 42
0.0000001
 43
0.0000001
 44
0.0000000001
 40
0.0
 40
0.0
 40
0.0
 40
0.0
 40
0.1080463954
 40
0.2181320332
 40
0.3321059488
 40
0.4515025155
 40
0.57746516
 40
0.7107274916
 40
1.0
 40
1.0
 40
1.0
 40
1.0
 10
9.3422752083
 20
64.5678102766
 30
0.0
 10
9.2766945909
 20
64.605673044
 30
0.0
 10
9.1505787494
 20
64.6936218063
 30
0.0
 10
8.9840164958
 20
64.8576284993
 30
0.0
 10
8.8406982082
 20
65.0522056079
 30
0.0
 10
8.7220703852
 20
65.2752662947
 30
0.0
 10
8.6289987107
 20
65.5245239774
 30
0.0
 10
8.5374821617
 20
65.8985698955
 30
0.0
 10
8.5138160356
 20
66.1961672165
 30
0.0
 10
8.5138145674
 20
66.3989079989
 30
0.0
  0
SPLINE
  5
4DF
100
AcDbEntity
  8
0
100
AcDbSpline
 62
7
  6
BYLAYER
 70
0
 71
3
 72
19
 73
15
 74
0
 42
0.0000001
 43
0.0000001
 44
0.0000000001
 40
0.0
 40
0.0
 40
0.0
 40
0.0
 40
0.0428394104
 40
0.0874448899
 40
0.1352571039
 40
0.1871950253
 40
0.2436735499
 40
0.3046656819
 40
0.4382689093
 40
0.5825434307
 40
0.7296392143
 40
0.871166535
 40
0.9376088396
 40
1.0
 40
1.0
 40
1.0
 40
1.0
 10
19.8091636691
 20
46.7725525582
 30
0.0
 10
19.8597006681
 20
46.8017350259
 30
0.0
 10
19.9711179992
 20
46.8479989121
 30
0.0
 10
20.1550057663
 20
46.8749932483
 30
0.0
 10
20.3524827146
 20
46.8604284165
 30
0.0
 10
20.5591521861
 20
46.8055335074
 30
0.0
 10
20.7709792771
 20
46.7119401852
 30
0.0
 10
21.0633772798
 20
46.5329505651
 30
0.0
 10
21.4117161798
 20
46.2244716844
 30
0.0
 10
21.7697411379
 20
45.7661002131
 30
0.0
 10
22.0516586329
 20
45.2451458794
 30
0.0
 10
22.2076546458
 20
44.7840929181
 30
0.0
 10
22.2721500708
 20
44.4209251766
 30
0.0
 10
22.2837305197
 20
44.2453020686
 30
0.0
 10
22.2837305197
 20
44.1603103336
 30
0.0
  0
SPLINE
  5
4E0
100
AcDbEntity
  8
0
100
AcDbSpline
 62
7
  6
BYLAYER
 70
0
 71
3
 72
17
 73
13
 74
0
 42
0.0000001
 43
0.0000001
 44
0.0000000001
 40
0.0
 40
0.0
 40
0.0
 40
0.0
 40
0.0428570455
 40
0.087485165
 40
0.1353123244
 40
0.1872781392
 40
0.3045378316
 40
0.4381995438
 40
0.5825378192
 40
0.7296849502
 40
0.8713141218
 40
1.0
 40
1.0
 40
1.0
 40
1.0
 10
11.7355426133
 20
58.517231999
 30
0.0
 10
11.7541707426
 20
58.5279873457
 30
0.0
 10
11.7952205033
 20
58.5450944859
 30
0.0
 10
11.8630112243
 20
58.5549821395
 30
0.0
 10
11.9358058069
 20
58.5496699198
 30
0.0
 10
12.041567032
 20
58.5214894405
 30
0.0
 10
12.1767853142
 20
58.4475898312
 30
0.0
 10
12.3261752062
 20
58.3152896392
 30
0.0
 10
12.458216723
 20
58.1462748076
 30
0.0
 10
12.562174576
 20
57.9541851756
 30
0.0
 10
12.6296041752
 20
57.7547596897
 30
0.0
 10
12.6476885961
 20
57.6189353004
 30
0.0
 10
12.6476885961
 20
57.5543473916
 30
0.0
  0
SPLINE
  5
4E1
100
AcDbEntity
  8
0
100
AcDbSpline
 62
7
  6
BYLAYER
 70
0
 71
3
 72
19
 73
15
 74
0
 42
0.0000001
 43
0.0000001
 44
0.0000000001
 40
0.0
 40
0.0
 40
0.0
 40
0.0
 40
0.0428394104
 40
0.0874448899
 40
0.1352571039
 40
0.1871950253
 40
0.2436735499
 40
0.3046656819
 40
0.4382689093
 40
0.5825434307
 40
0.7296392143
 40
0.871166535
 40
0.9376088396
 40
1.0
 40
1.0
 40
1.0
 40
1.0
 10
37.7697506878
 20
36.4032373934
 30
0.0
 10
37.8202876868
 20
36.432419861
 30
0.0
 10
37.9317050179
 20
36.4786837473
 30
0.0
 10
38.1155927851
 20
36.5056780835
 30
0.0
 10
38.3130697333
 20
36.4911132517
 30
0.0
 10
38.5197392048
 20
36.4362183426
 30
0.0
 10
38.7315662958
 20
36.3426250203
 30
0.0
 10
39.0239642985
 20
36.1636354003
 30
0.0
 10
39.3723031985
 20
35.8551565196
 30
0.0
 10
39.7303281566
 20
35.3967850483
 30
0.0
 10
40.0122456516
 20
34.8758307145
 30
0.0
 10
40.1682416646
 20
34.4147777533
 30
0.0
 10
40.2327370895
 20
34.0516100118
 30
0.0
 10
40.2443175385
 20
33.8759869038
 30
0.0
 10
40.2443175385
 20
33.7909951688
 30
0.0
  0
SPLINE
  5
4E2
100
AcDbEntity
  8
0
100
AcDbSpline
 62
7
  6
BYLAYER
 70
0
 71
3
 72
10
 73
6
 74
0
 42
0.0000001
 43
0.0000001
 44
0.0000000001
 40
0.0
 40
0.0
 40
0.0
 40
0.0
 40
0.4642166529
 40
0.7318897833
 40
1.0
 40
1.0
 40
1.0
 40
1.0
 10
61.5491627913
 20
37.6012858177
 30
0.0
 10
61.5449062128
 20
37.6277860401
 30
0.0
 10
61.5520797693
 20
37.6717218609
 30
0.0
 10
61.5762603888
 20
37.7241847012
 30
0.0
 10
61.5939912272
 20
37.7498990593
 30
0.0
 10
61.6039816329
 20
37.7617518269
 30
0.0
  0
SPLINE
  5
4E3
100
AcDbEntity
  8
0
100
AcDbSpline
 62
7
  6
BYLAYER
 70
0
 71
3
 72
10
 73
6
 74
0
 42
0.0000001
 43
0.0000001
 44
0.0000000001
 40
0.0
 40
0.0
 40
0.0
 40
0.0
 40
0.4762635064
 40
0.7421108874
 40
1.0
 40
1.0
 40
1.0
 40
1.0
 10
61.2568851742
 20
37.3968432631
 30
0.0
 10
61.2548714276
 20
37.4263261026
 30
0.0
 10
61.2661509346
 20
37.4733088039
 30
0.0
 10
61.2963750712
 20
37.5274951922
 30
0.0
 10
61.3173016725
 20
37.5527670138
 30
0.0
 10
61.3288382696
 20
37.5638557839
 30
0.0
  0
SPLINE
  5
4E4
100
AcDbEntity
  8
0
100
AcDbSpline
 62
7
  6
BYLAYER
 70
0
 71
3
 72
9
 73
5
 74
0
 42
0.0000001
 43
0.0000001
 44
0.0000000001
 40
0.0
 40
0.0
 40
0.0
 40
0.0
 40
0.267597844
 40
1.0
 40
1.0
 40
1.0
 40
1.0
 10
61.3288382696
 20
37.5638557839
 30
0.0
 10
61.3323926129
 20
37.5672721549
 30
0.0
 10
61.3461206139
 20
37.5795429021
 30
0.0
 10
61.3617168769
 20
37.5899081617
 30
0.0
 10
61.3740294608
 20
37.595427782
 30
0.0
  0
SPLINE
  5
4E5
100
AcDbEntity
  8
0
100
AcDbSpline
 62
7
  6
BYLAYER
 70
0
 71
3
 72
9
 73
5
 74
0
 42
0.0000001
 43
0.0000001
 44
0.0000000001
 40
0.0
 40
0.0
 40
0.0
 40
0.0
 40
0.5412117977
 40
1.0
 40
1.0
 40
1.0
 40
1.0
 10
61.3740294608
 20
37.595427782
 30
0.0
 10
61.3847407995
 20
37.6002295785
 30
0.0
 10
61.4061548674
 20
37.6065280576
 30
0.0
 10
61.4286326112
 20
37.6017894177
 30
0.0
 10
61.4372519263
 20
37.5968170995
 30
0.0
  0
SPLINE
  5
4E6
100
AcDbEntity
  8
0
100
AcDbSpline
 62
7
  6
BYLAYER
 70
0
 71
3
 72
10
 73
6
 74
0
 42
0.0000001
 43
0.0000001
 44
0.0000000001
 40
0.0
 40
0.0
 40
0.0
 40
0.0
 40
0.4864610932
 40
0.7497299533
 40
1.0
 40
1.0
 40
1.0
 40
1.0
 10
60.9630008987
 20
37.2227589747
 30
0.0
 10
60.963436797
 20
37.2532067009
 30
0.0
 10
60.9773582142
 20
37.3001664987
 30
0.0
 10
61.0106474893
 20
37.3532462533
 30
0.0
 10
61.0327128531
 20
37.3770673376
 30
0.0
 10
61.0446735585
 20
37.3871850126
 30
0.0
  0
SPLINE
  5
4E7
100
AcDbEntity
  8
0
100
AcDbSpline
 62
7
  6
BYLAYER
 70
0
 71
3
 72
11
 73
7
 74
0
 42
0.0000001
 43
0.0000001
 44
0.0000000001
 40
0.0
 40
0.0
 40
0.0
 40
0.0
 40
0.3007378812
 40
0.5651663432
 40
0.7941173484
 40
1.0
 40
1.0
 40
1.0
 40
1.0
 10
61.0446735585
 20
37.3871850126
 30
0.0
 10
61.0529351461
 20
37.3941735685
 30
0.0
 10
61.0696327224
 20
37.4060378943
 30
0.0
 10
61.0962236209
 20
37.4172696133
 30
0.0
 10
61.1217118162
 20
37.4200008976
 30
0.0
 10
61.1372419707
 20
37.4153426815
 30
0.0
 10
61.1436566167
 20
37.4116372604
 30
0.0
  0
SPLINE
  5
4E8
100
AcDbEntity
  8
0
100
AcDbSpline
 62
7
  6
BYLAYER
 70
0
 71
3
 72
10
 73
6
 74
0
 42
0.0000001
 43
0.0000001
 44
0.0000000001
 40
0.0
 40
0.0
 40
0.0
 40
0.0
 40
0.4966659067
 40
0.7572394603
 40
1.0
 40
1.0
 40
1.0
 40
1.0
 10
60.6700184783
 20
37.0805289997
 30
0.0
 10
60.6728125579
 20
37.1116061683
 30
0.0
 10
60.6892279744
 20
37.1582601131
 30
0.0
 10
60.7253808915
 20
37.2097749861
 30
0.0
 10
60.748427583
 20
37.2319257915
 30
0.0
 10
60.760713497
 20
37.240962095
 30
0.0
  0
SPLINE
  5
4E9
100
AcDbEntity
  8
0
100
AcDbSpline
 62
7
  6
BYLAYER
 70
0
 71
3
 72
11
 73
7
 74
0
 42
0.0000001
 43
0.0000001
 44
0.0000000001
 40
0.0
 40
0.0
 40
0.0
 40
0.0
 40
0.2967954839
 40
0.5591267309
 40
0.7894876495
 40
1.0
 40
1.0
 40
1.0
 40
1.0
 10
60.760713497
 20
37.240962095
 30
0.0
 10
60.7683446676
 20
37.2465748295
 30
0.0
 10
60.7836525104
 20
37.2559852993
 30
0.0
 10
60.8076629072
 20
37.2644230652
 30
0.0
 10
60.8304514278
 20
37.2656305173
 30
0.0
 10
60.8442433682
 20
37.261165056
 30
0.0
 10
60.8500626236
 20
37.2578062164
 30
0.0
  0
SPLINE
  5
4EA
100
AcDbEntity
  8
0
100
AcDbSpline
 62
7
  6
BYLAYER
 70
0
 71
3
 72
9
 73
5
 74
0
 42
0.0000001
 43
0.0000001
 44
0.0000000001
 40
0.0
 40
0.0
 40
0.0
 40
0.0
 40
0.238676118
 40
1.0
 40
1.0
 40
1.0
 40
1.0
 10
60.3804371293
 20
36.9713631417
 30
0.0
 10
60.3812220184
 20
36.9762538783
 30
0.0
 10
60.3852933507
 20
36.9966135898
 30
0.0
 10
60.3922281153
 20
37.0163841003
 30
0.0
 10
60.3988827266
 20
37.0307143362
 30
0.0
  0
SPLINE
  5
4EB
100
AcDbEntity
  8
0
100
AcDbSpline
 62
7
  6
BYLAYER
 70
0
 71
3
 72
13
 73
9
 74
0
 42
0.0000001
 43
0.0000001
 44
0.0000000001
 40
0.0
 40
0.0
 40
0.0
 40
0.0
 40
0.3032788429
 40
0.5829368223
 40
0.7054143673
 40
0.8142406688
 40
0.9108098163
 40
1.0
 40
1.0
 40
1.0
 40
1.0
 10
60.3988827266
 20
37.0307143362
 30
0.0
 10
60.4078371449
 20
37.0499970442
 30
0.0
 10
60.4299180466
 20
37.0849016772
 30
0.0
 10
60.4661721558
 20
37.1196387266
 30
0.0
 10
60.4977164299
 20
37.1370317015
 30
0.0
 10
60.5199403661
 20
37.143727403
 30
0.0
 10
60.5409070156
 20
37.1440760409
 30
0.0
 10
60.5535491654
 20
37.1397447383
 30
0.0
 10
60.5589689667
 20
37.1366273394
 30
0.0
  0
SPLINE
  5
4EC
100
AcDbEntity
  8
0
100
AcDbSpline
 62
7
  6
BYLAYER
 70
0
 71
3
 72
9
 73
5
 74
0
 42
0.0000001
 43
0.0000001
 44
0.0000000001
 40
0.0
 40
0.0
 40
0.0
 40
0.0
 40
0.2410265301
 40
1.0
 40
1.0
 40
1.0
 40
1.0
 10
60.0967274609
 20
36.896192783
 30
0.0
 10
60.0978601142
 20
36.9011684803
 30
0.0
 10
60.1032955154
 20
36.9216382678
 30
0.0
 10
60.111444402
 20
36.9413830536
 30
0.0
 10
60.1189859218
 20
36.9555723103
 30
0.0
  0
SPLINE
  5
4ED
100
AcDbEntity
  8
0
100
AcDbSpline
 62
7
  6
BYLAYER
 70
0
 71
3
 72
13
 73
9
 74
0
 42
0.0000001
 43
0.0000001
 44
0.0000000001
 40
0.0
 40
0.0
 40
0.0
 40
0.0
 40
0.3054364978
 40
0.5831093493
 40
0.7045056311
 40
0.812847639
 40
0.9098068103
 40
1.0
 40
1.0
 40
1.0
 40
1.0
 10
60.1189859218
 20
36.9555723103
 30
0.0
 10
60.1283788567
 20
36.9732449765
 30
0.0
 10
60.1504303326
 20
37.0049025908
 30
0.0
 10
60.1855296398
 20
37.0359366736
 30
0.0
 10
60.2153802632
 20
37.0509988713
 30
0.0
 10
60.2362773739
 20
37.0564913022
 30
0.0
 10
60.2559189465
 20
37.0563158694
 30
0.0
 10
60.2677395921
 20
37.0520868044
 30
0.0
 10
60.2728612116
 20
37.0491378839
 30
0.0
  0
SPLINE
  5
4EE
100
AcDbEntity
  8
0
100
AcDbSpline
 62
7
  6
BYLAYER
 70
0
 71
3
 72
9
 73
5
 74
0
 42
0.0000001
 43
0.0000001
 44
0.0000000001
 40
0.0
 40
0.0
 40
0.0
 40
0.0
 40
0.2434120245
 40
1.0
 40
1.0
 40
1.0
 40
1.0
 10
59.821309984
 20
36.8556592504
 30
0.0
 10
59.8227785328
 20
36.8606766831
 30
0.0
 10
59.8295052858
 20
36.8810793941
 30
0.0
 10
59.8388102777
 20
36.9006388753
 30
0.0
 10
59.8471914071
 20
36.9145605053
 30
0.0
  0
SPLINE
  5
4EF
100
AcDbEntity
  8
0
100
AcDbSpline
 62
7
  6
BYLAYER
 70
0
 71
3
 72
13
 73
9
 74
0
 42
0.0000001
 43
0.0000001
 44
0.0000000001
 40
0.0
 40
0.0
 40
0.0
 40
0.0
 40
0.306858291
 40
0.5824915898
 40
0.7029878882
 40
0.8110448877
 40
0.9086220388
 40
1.0
 40
1.0
 40
1.0
 40
1.0
 10
59.8471914071
 20
36.9145605053
 30
0.0
 10
59.8568348428
 20
36.9305789124
 30
0.0
 10
59.8786191867
 20
36.9590042338
 30
0.0
 10
59.9123596645
 20
36.9863865468
 30
0.0
 10
59.9404496298
 20
36.9992427769
 30
0.0
 10
59.9600140598
 20
37.0036189204
 30
0.0
 10
59.9783403048
 20
37.0029755556
 30
0.0
 10
59.9893659909
 20
36.9988820049
 30
0.0
 10
59.9941868162
 20
36.9960964096
 30
0.0
  0
SPLINE
  5
4F0
100
AcDbEntity
  8
0
100
AcDbSpline
 62
7
  6
BYLAYER
 70
0
 71
3
 72
13
 73
9
 74
0
 42
0.0000001
 43
0.0000001
 44
0.0000000001
 40
0.0
 40
0.0
 40
0.0
 40
0.0
 40
0.2976698161
 40
0.580737805
 40
0.7055366638
 40
0.8156328152
 40
0.9121062034
 40
1.0
 40
1.0
 40
1.0
 40
1.0
 10
59.5565344634
 20
36.8501083618
 30
0.0
 10
59.5643282458
 20
36.8719510976
 30
0.0
 10
59.585261135
 20
36.9127184551
 30
0.0
 10
59.6232380277
 20
36.9537443963
 30
0.0
 10
59.6574987693
 20
36.9754841828
 30
0.0
 10
59.68200362
 20
36.9844221705
 30
0.0
 10
59.7052914367
 20
36.9859232018
 30
0.0
 10
59.7193998597
 20
36.9813905511
 30
0.0
 10
59.725325095
 20
36.9779577058
 30
0.0
  0
SPLINE
  5
4F1
100
AcDbEntity
  8
0
100
AcDbSpline
 62
7
  6
BYLAYER
 70
0
 71
3
 72
13
 73
9
 74
0
 42
0.0000001
 43
0.0000001
 44
0.0000000001
 40
0.0
 40
0.0
 40
0.0
 40
0.0
 40
0.3011593878
 40
0.5823012527
 40
0.7057139562
 40
0.814990793
 40
0.9114220373
 40
1.0
 40
1.0
 40
1.0
 40
1.0
 10
59.3046598704
 20
36.8795874754
 30
0.0
 10
59.31324353
 20
36.899970576
 30
0.0
 10
59.3346525972
 20
36.9375415295
 30
0.0
 10
59.3717997325
 20
36.9749220592
 30
0.0
 10
59.4045382824
 20
36.9940886416
 30
0.0
 10
59.4277271661
 20
37.0017306958
 30
0.0
 10
59.4496723554
 20
37.0025323363
 30
0.0
 10
59.4629349042
 20
36.9981258286
 30
0.0
 10
59.4685657497
 20
36.9948686533
 30
0.0
  0
SPLINE
  5
4F2
100
AcDbEntity
  8
0
100
AcDbSpline
 62
7
  6
BYLAYER
 70
0
 71
3
 72
13
 73
9
 74
0
 42
0.0000001
 43
0.0000001
 44
0.0000000001
 40
0.0
 40
0.0
 40
0.0
 40
0.0
 40
0.3039392575
 40
0.5831134824
 40
0.7052992835
 40
0.8139489646
 40
0.9105658655
 40
1.0
 40
1.0
 40
1.0
 40
1.0
 10
59.0678351103
 20
36.9438450859
 30
0.0
 10
59.077000173
 20
36.9626754355
 30
0.0
 10
59.0986287183
 20
36.9970064891
 30
0.0
 10
59.1347235677
 20
37.0307351201
 30
0.0
 10
59.16584892
 20
37.0474480696
 30
0.0
 10
59.1877143558
 20
37.0538391966
 30
0.0
 10
59.208328547
 20
37.0540549773
 30
0.0
 10
59.2207516455
 20
37.0497478606
 30
0.0
 10
59.2260911919
 20
37.0466716798
 30
0.0
  0
SPLINE
  5
4F3
100
AcDbEntity
  8
0
100
AcDbSpline
 62
7
  6
BYLAYER
 70
0
 71
3
 72
9
 73
5
 74
0
 42
0.0000001
 43
0.0000001
 44
0.0000000001
 40
0.0
 40
0.0
 40
0.0
 40
0.0
 40
0.253152662
 40
1.0
 40
1.0
 40
1.0
 40
1.0
 10
58.8480806884
 20
37.0423329699
 30
0.0
 10
58.8507207166
 20
37.0470912512
 30
0.0
 10
58.8617097116
 20
37.0655636706
 30
0.0
 10
58.8748619657
 20
37.0828069232
 30
0.0
 10
58.8859664761
 20
37.0944005384
 30
0.0
  0
SPLINE
  5
4F4
100
AcDbEntity
  8
0
100
AcDbSpline
 62
7
  6
BYLAYER
 70
0
 71
3
 72
11
 73
7
 74
0
 42
0.0000001
 43
0.0000001
 44
0.0000000001
 40
0.0
 40
0.0
 40
0.0
 40
0.0
 40
0.305534001
 40
0.5733392997
 40
0.8007440416
 40
1.0
 40
1.0
 40
1.0
 40
1.0
 10
58.8859664761
 20
37.0944005384
 30
0.0
 10
58.8950113834
 20
37.103843834
 30
0.0
 10
58.9137096794
 20
37.1200569723
 30
0.0
 10
58.9442820829
 20
37.1362794016
 30
0.0
 10
58.9741028286
 20
37.1420529609
 30
0.0
 10
58.9925861897
 20
37.137190845
 30
0.0
 10
58.9999739273
 20
37.1329313707
 30
0.0
  0
SPLINE
  5
4F5
100
AcDbEntity
  8
0
100
AcDbSpline
 62
7
  6
BYLAYER
 70
0
 71
3
 72
13
 73
9
 74
0
 42
0.0000001
 43
0.0000001
 44
0.0000000001
 40
0.0
 40
0.0
 40
0.0
 40
0.0
 40
0.3072555474
 40
0.5824389985
 40
0.7026715557
 40
0.8106459178
 40
0.9083418643
 40
1.0
 40
1.0
 40
1.0
 40
1.0
 10
58.647271472
 20
37.1742108635
 30
0.0
 10
58.6570213949
 20
37.1897648278
 30
0.0
 10
58.6783633928
 20
37.2176029814
 30
0.0
 10
58.7117319771
 20
37.2441573109
 30
0.0
 10
58.7394039416
 20
37.2563501409
 30
0.0
 10
58.7586091016
 20
37.2604488663
 30
0.0
 10
58.7765874705
 20
37.2597058443
 30
0.0
 10
58.7874078295
 20
37.2556630666
 30
0.0
 10
58.7921488734
 20
37.2529224367
 30
0.0
  0
SPLINE
  5
4F6
100
AcDbEntity
  8
0
100
AcDbSpline
 62
7
  6
BYLAYER
 70
0
 71
3
 72
11
 73
7
 74
0
 42
0.0000001
 43
0.0000001
 44
0.0000000001
 40
0.0
 40
0.0
 40
0.0
 40
0.0
 40
0.3087019647
 40
0.5827555173
 40
0.8097657392
 40
1.0
 40
1.0
 40
1.0
 40
1.0
 10
58.4671206945
 20
37.3383536311
 30
0.0
 10
58.4768995273
 20
37.3522346579
 30
0.0
 10
58.4977884477
 20
37.376919018
 30
0.0
 10
58.5342443248
 20
37.4033890081
 30
0.0
 10
58.5713153366
 20
37.4154026832
 30
0.0
 10
58.595333256
 20
37.4108616491
 30
0.0
 10
58.6043898876
 20
37.4056211534
 30
0.0
  0
SPLINE
  5
4F7
100
AcDbEntity
  8
0
100
AcDbSpline
 62
7
  6
BYLAYER
 70
0
 71
3
 72
11
 73
7
 74
0
 42
0.0000001
 43
0.0000001
 44
0.0000000001
 40
0.0
 40
0.0
 40
0.0
 40
0.0
 40
0.3082584671
 40
0.5802525251
 40
0.8069009568
 40
1.0
 40
1.0
 40
1.0
 40
1.0
 10
58.3091653388
 20
37.5333608644
 30
0.0
 10
58.3188156441
 20
37.5455777662
 30
0.0
 10
58.3390211292
 20
37.567127887
 30
0.0
 10
58.373417108
 20
37.589850073
 30
0.0
 10
58.4079265703
 20
37.5993032055
 30
0.0
 10
58.4298433932
 20
37.5945846475
 30
0.0
 10
58.4382930001
 20
37.5897148686
 30
0.0
  0
SPLINE
  5
4F8
100
AcDbEntity
  8
0
100
AcDbSpline
 62
7
  6
BYLAYER
 70
0
 71
3
 72
11
 73
7
 74
0
 42
0.0000001
 43
0.0000001
 44
0.0000000001
 40
0.0
 40
0.0
 40
0.0
 40
0.0
 40
0.3069732782
 40
0.5769437689
 40
0.8036446134
 40
1.0
 40
1.0
 40
1.0
 40
1.0
 10
58.1747530243
 20
37.7575688304
 30
0.0
 10
58.1841322456
 20
37.7681533124
 30
0.0
 10
58.2034663558
 20
37.7866769971
 30
0.0
 10
58.2356486015
 20
37.8058241861
 30
0.0
 10
58.2675356595
 20
37.8129679962
 30
0.0
 10
58.2874248704
 20
37.8081279295
 30
0.0
 10
58.2952690047
 20
37.8036223382
 30
0.0
  0
SPLINE
  5
4F9
100
AcDbEntity
  8
0
100
AcDbSpline
 62
7
  6
BYLAYER
 70
0
 71
3
 72
11
 73
7
 74
0
 42
0.0000001
 43
0.0000001
 44
0.0000000001
 40
0.0
 40
0.0
 40
0.0
 40
0.0
 40
0.3048402005
 40
0.5728307215
 40
0.7999940408
 40
1.0
 40
1.0
 40
1.0
 40
1.0
 10
58.0650305095
 20
38.009064666
 30
0.0
 10
58.0740117664
 20
38.0180700883
 30
0.0
 10
58.0923045653
 20
38.0337012741
 30
0.0
 10
58.1221431712
 20
38.0494825005
 30
0.0
 10
58.151357872
 20
38.0545551799
 30
0.0
 10
58.1693135295
 20
38.0496950538
 30
0.0
 10
58.176545511
 20
38.0455319669
 30
0.0
  0
SPLINE
  5
4FA
100
AcDbEntity
  8
0
100
AcDbSpline
 62
7
  6
BYLAYER
 70
0
 71
3
 72
11
 73
7
 74
0
 42
0.0000001
 43
0.0000001
 44
0.0000000001
 40
0.0
 40
0.0
 40
0.0
 40
0.0
 40
0.3018573945
 40
0.5679055088
 40
0.7959459024
 40
1.0
 40
1.0
 40
1.0
 40
1.0
 10
57.9809339082
 20
38.2857026972
 30
0.0
 10
57.9894063167
 20
38.2932023315
 30
0.0
 10
58.0065068928
 20
38.3061020698
 30
0.0
 10
58.03389338
 20
38.3187505368
 30
0.0
 10
58.0604084848
 20
38.3220041034
 30
0.0
 10
58.0765216693
 20
38.3172217982
 30
0.0
 10
58.0831426341
 20
38.3133920627
 30
0.0
  0
SPLINE
  5
4FB
100
AcDbEntity
  8
0
100
AcDbSpline
 62
7
  6
BYLAYER
 70
0
 71
3
 72
11
 73
7
 74
0
 42
0.0000001
 43
0.0000001
 44
0.0000000001
 40
0.0
 40
0.0
 40
0.0
 40
0.0
 40
0.2980400539
 40
0.5621652522
 40
0.7915278573
 40
1.0
 40
1.0
 40
1.0
 40
1.0
 10
57.923180703
 20
38.5851227459
 30
0.0
 10
57.9310496149
 20
38.5912081028
 30
0.0
 10
57.9468261999
 20
38.6015644491
 30
0.0
 10
57.971674902
 20
38.6113309673
 30
0.0
 10
57.9954874042
 20
38.6130413574
 30
0.0
 10
58.0098431176
 20
38.6084153996
 30
0.0
 10
58.0158595715
 20
38.6049202593
 30
0.0
  0
SPLINE
  5
4FC
100
AcDbEntity
  8
0
100
AcDbSpline
 62
7
  6
BYLAYER
 70
0
 71
3
 72
11
 73
7
 74
0
 42
0.0000001
 43
0.0000001
 44
0.0000000001
 40
0.0
 40
0.0
 40
0.0
 40
0.0
 40
0.2934405736
 40
0.5556371635
 40
0.7868004876
 40
1.0
 40
1.0
 40
1.0
 40
1.0
 10
57.8922636238
 20
38.9047702659
 30
0.0
 10
57.8994507512
 20
38.9095494437
 30
0.0
 10
57.9137909573
 20
38.9175763172
 30
0.0
 10
57.9360390247
 20
38.9247272335
 30
0.0
 10
57.95717058
 20
38.925188323
 30
0.0
 10
57.9698456597
 20
38.9207760619
 30
0.0
 10
57.9752665691
 20
38.9176235932
 30
0.0
  0
SPLINE
  5
4FD
100
AcDbEntity
  8
0
100
AcDbSpline
 62
7
  6
BYLAYER
 70
0
 71
3
 72
11
 73
7
 74
0
 42
0.0000001
 43
0.0000001
 44
0.0000000001
 40
0.0
 40
0.0
 40
0.0
 40
0.0
 40
0.2881508776
 40
0.548392707
 40
0.7818410833
 40
1.0
 40
1.0
 40
1.0
 40
1.0
 10
57.8884464443
 20
39.2419181372
 30
0.0
 10
57.8948899244
 20
39.2455142365
 30
0.0
 10
57.9077018605
 20
39.2514481656
 30
0.0
 10
57.9273104814
 20
39.2562744504
 30
0.0
 10
57.9458024667
 20
39.2557703852
 30
0.0
 10
57.9568777777
 20
39.2516369059
 30
0.0
 10
57.9617064736
 20
39.2488271664
 30
0.0
  0
SPLINE
  5
4FE
100
AcDbEntity
  8
0
100
AcDbSpline
 62
7
  6
BYLAYER
 70
0
 71
3
 72
17
 73
13
 74
0
 42
0.0000001
 43
0.0000001
 44
0.0000000001
 40
0.0
 40
0.0
 40
0.0
 40
0.0
 40
0.1433767533
 40
0.2915169259
 40
0.4381773761
 40
0.5773993453
 40
0.7042060617
 40
0.7620382827
 40
0.8159203642
 40
0.9125332725
 40
0.9569317802
 40
1.0
 40
1.0
 40
1.0
 40
1.0
 10
62.1899940113
 20
39.5621824698
 30
0.0
 10
62.2205831037
 20
39.6797476725
 30
0.0
 10
62.3031064661
 20
39.9138084719
 30
0.0
 10
62.4768674821
 20
40.2432270674
 30
0.0
 10
62.6939568932
 20
40.5417403868
 30
0.0
 10
62.9410617509
 20
40.7911237199
 30
0.0
 10
63.1668524861
 20
40.9505378308
 30
0.0
 10
63.3498469469
 20
41.0375854364
 30
0.0
 10
63.5178015923
 20
41.0925384485
 30
0.0
 10
63.6859941359
 20
41.1095999415
 30
0.0
 10
63.8398518849
 20
41.0785901017
 30
0.0
 10
63.9083730528
 20
41.0485626514
 30
0.0
 10
63.939974749
 20
41.0303171648
 30
0.0
  0
SPLINE
  5
4FF
100
AcDbEntity
  8
0
100
AcDbSpline
 62
7
  6
BYLAYER
 70
0
 71
3
 72
11
 73
7
 74
0
 42
0.0000001
 43
0.0000001
 44
0.0000000001
 40
0.0
 40
0.0
 40
0.0
 40
0.0
 40
0.2770047589
 40
0.5324792699
 40
0.7708875734
 40
1.0
 40
1.0
 40
1.0
 40
1.0
 10
64.9220334443
 20
41.1395167564
 30
0.0
 10
64.9055561089
 20
41.2232145582
 30
0.0
 10
64.8616725772
 20
41.382154973
 30
0.0
 10
64.7568073253
 20
41.5968926277
 30
0.0
 10
64.6169413004
 20
41.7726087463
 30
0.0
 10
64.5010550178
 20
41.8610446872
 30
0.0
 10
64.4399543749
 20
41.8963267546
 30
0.0
  0
SPLINE
  5
500
100
AcDbEntity
  8
0
100
AcDbSpline
 62
7
  6
BYLAYER
 70
0
 71
3
 72
15
 73
11
 74
0
 42
0.0000001
 43
0.0000001
 44
0.0000000001
 40
0.0
 40
0.0
 40
0.0
 40
0.0
 40
0.1120962207
 40
0.2322595862
 40
0.3585672018
 40
0.4888737838
 40
0.6206869172
 40
0.7514210133
 40
0.8786629155
 40
1.0
 40
1.0
 40
1.0
 40
1.0
 10
63.1899898479
 20
37.6900196376
 30
0.0
 10
63.2949152665
 20
37.7505979946
 30
0.0
 10
63.5028623307
 20
37.8928880355
 30
0.0
 10
63.7934534198
 20
38.1505476732
 30
0.0
 10
64.0666890801
 20
38.4535794152
 30
0.0
 10
64.3147683515
 20
38.7931348754
 30
0.0
 10
64.5305594077
 20
39.1596108661
 30
0.0
 10
64.7079947455
 20
39.5425064819
 30
0.0
 10
64.8418196541
 20
39.9307664049
 30
0.0
 10
64.9012627816
 20
40.1935245225
 30
0.0
 10
64.9220334443
 20
40.3230143393
 30
0.0
  0
SPLINE
  5
501
100
AcDbEntity
  8
0
100
AcDbSpline
 62
7
  6
BYLAYER
 70
0
 71
3
 72
12
 73
8
 74
0
 42
0.0000001
 43
0.0000001
 44
0.0000000001
 40
0.0
 40
0.0
 40
0.0
 40
0.0
 40
0.2894832083
 40
0.5486755374
 40
0.7816290778
 40
0.8918324007
 40
1.0
 40
1.0
 40
1.0
 40
1.0
 10
37.3451676654
 20
35.4647822624
 30
0.0
 10
37.3451676654
 20
35.5686515925
 30
0.0
 10
37.3609655906
 20
35.7662170732
 30
0.0
 10
37.440763662
 20
36.0375191749
 30
0.0
 10
37.5556082123
 20
36.2247107996
 30
0.0
 10
37.6715433453
 20
36.3386907363
 30
0.0
 10
37.7361403037
 20
36.3838291584
 30
0.0
 10
37.7697506878
 20
36.4032373934
 30
0.0
  0
SPLINE
  5
502
100
AcDbEntity
  8
0
100
AcDbSpline
 62
7
  6
BYLAYER
 70
0
 71
3
 72
14
 73
10
 74
0
 42
0.0000001
 43
0.0000001
 44
0.0000000001
 40
0.0
 40
0.0
 40
0.0
 40
0.0
 40
0.0976941963
 40
0.215745074
 40
0.3521866824
 40
0.4996149981
 40
0.6474380455
 40
0.7850187666
 40
1.0
 40
1.0
 40
1.0
 40
1.0
 10
58.4530757654
 20
41.4453598626
 30
0.0
 10
58.4599495579
 20
41.4369150021
 30
0.0
 10
58.4693296473
 20
41.4136656038
 30
0.0
 10
58.4702851163
 20
41.3739949917
 30
0.0
 10
58.4604010769
 20
41.3298958576
 30
0.0
 10
58.440553118
 20
41.2858000648
 30
0.0
 10
58.412526577
 20
41.2459190466
 30
0.0
 10
58.3727005999
 20
41.2075965012
 30
0.0
 10
58.3327862716
 20
41.1891090425
 30
0.0
 10
58.3089719811
 20
41.1917587751
 30
0.0
  0
SPLINE
  5
503
100
AcDbEntity
  8
0
100
AcDbSpline
 62
7
  6
BYLAYER
 70
0
 71
3
 72
14
 73
10
 74
0
 42
0.0000001
 43
0.0000001
 44
0.0000000001
 40
0.0
 40
0.0
 40
0.0
 40
0.0
 40
0.2014265989
 40
0.3335688992
 40
0.4792691878
 40
0.6283963497
 40
0.7700538981
 40
0.8954505885
 40
1.0
 40
1.0
 40
1.0
 40
1.0
 10
58.3044647355
 20
41.0723567585
 30
0.0
 10
58.3210635578
 20
41.0573096491
 30
0.0
 10
58.3299309754
 20
41.0153877161
 30
0.0
 10
58.3211423716
 20
40.9634823358
 30
0.0
 10
58.3039123803
 20
40.9186173711
 30
0.0
 10
58.2780161912
 20
40.8772965845
 30
0.0
 10
58.2461788859
 20
40.8431921546
 30
0.0
 10
58.2115627687
 20
40.8199255056
 30
0.0
 10
58.1862165444
 20
40.812649894
 30
0.0
 10
58.1745918854
 20
40.8123454399
 30
0.0
  0
SPLINE
  5
504
100
AcDbEntity
  8
0
100
AcDbSpline
 62
7
  6
BYLAYER
 70
0
 71
3
 72
14
 73
10
 74
0
 42
0.0000001
 43
0.0000001
 44
0.0000000001
 40
0.0
 40
0.0
 40
0.0
 40
0.0
 40
0.0897408907
 40
0.1964565743
 40
0.3235169932
 40
0.4664152356
 40
0.7590565233
 40
0.8897319421
 40
1.0
 40
1.0
 40
1.0
 40
1.0
 10
58.1794368508
 20
40.698360922
 30
0.0
 10
58.1877932812
 20
40.692904096
 30
0.0
 10
58.2020165629
 20
40.6746480689
 30
0.0
 10
58.2093299012
 20
40.6386900278
 30
0.0
 10
58.205509562
 20
40.5965091327
 30
0.0
 10
58.1859381821
 20
40.5367783614
 30
0.0
 10
58.149703563
 20
40.4828238677
 30
0.0
 10
58.1025650822
 20
40.4461563653
 30
0.0
 10
58.0770269084
 20
40.4360005731
 30
0.0
 10
58.0649029641
 20
40.4341576973
 30
0.0
  0
SPLINE
  5
505
100
AcDbEntity
  8
0
100
AcDbSpline
 62
7
  6
BYLAYER
 70
0
 71
3
 72
11
 73
7
 74
0
 42
0.0000001
 43
0.0000001
 44
0.0000000001
 40
0.0
 40
0.0
 40
0.0
 40
0.0
 40
0.2150417498
 40
0.4474548096
 40
0.7078720843
 40
1.0
 40
1.0
 40
1.0
 40
1.0
 10
58.0831824718
 20
40.3244797291
 30
0.0
 10
58.0884650307
 20
40.3214774958
 30
0.0
 10
58.0982788289
 20
40.3129857672
 30
0.0
 10
58.1082930641
 20
40.295336897
 30
0.0
 10
58.1137985161
 20
40.2736443816
 30
0.0
 10
58.1144360561
 20
40.2579397909
 30
0.0
 10
58.1140963567
 20
40.2496925979
 30
0.0
  0
SPLINE
  5
506
100
AcDbEntity
  8
0
100
AcDbSpline
 62
7
  6
BYLAYER
 70
0
 71
3
 72
11
 73
7
 74
0
 42
0.0000001
 43
0.0000001
 44
0.0000000001
 40
0.0
 40
0.0
 40
0.0
 40
0.0
 40
0.249603144
 40
0.5216844991
 40
0.7816230244
 40
1.0
 40
1.0
 40
1.0
 40
1.0
 10
58.1140963567
 20
40.2496925979
 30
0.0
 10
58.1132636389
 20
40.2294759457
 30
0.0
 10
58.103415612
 20
40.1875326808
 30
0.0
 10
58.0734547553
 20
40.1310331629
 30
0.0
 10
58.0324250294
 20
40.0853772577
 30
0.0
 10
57.9979336388
 20
40.0650287429
 30
0.0
 10
57.9808410446
 20
40.0604221117
 30
0.0
  0
SPLINE
  5
507
100
AcDbEntity
  8
0
100
AcDbSpline
 62
7
  6
BYLAYER
 70
0
 71
3
 72
15
 73
11
 74
0
 42
0.0000001
 43
0.0000001
 44
0.0000000001
 40
0.0
 40
0.0
 40
0.0
 40
0.0
 40
0.0877257752
 40
0.1895335277
 40
0.3106509102
 40
0.4484554399
 40
0.5954975034
 40
0.7422745915
 40
0.8797086086
 40
1.0
 40
1.0
 40
1.0
 40
1.0
 10
58.0159039851
 20
39.9552855392
 30
0.0
 10
58.0239595072
 20
39.9506357013
 30
0.0
 10
58.0383713561
 20
39.935111912
 30
0.0
 10
58.0477690137
 20
39.902766278
 30
0.0
 10
58.0468702592
 20
39.8641119355
 30
0.0
 10
58.0361141284
 20
39.8221233113
 30
0.0
 10
58.0165698215
 20
39.7804761262
 30
0.0
 10
57.990007143
 20
39.7429326392
 30
0.0
 10
57.9588796158
 20
39.713065888
 30
0.0
 10
57.9350401895
 20
39.6988717885
 30
0.0
 10
57.9231233133
 20
39.6943272632
 30
0.0
  0
SPLINE
  5
508
100
AcDbEntity
  8
0
100
AcDbSpline
 62
7
  6
BYLAYER
 70
0
 71
3
 72
15
 73
11
 74
0
 42
0.0000001
 43
0.0000001
 44
0.0000000001
 40
0.0
 40
0.0
 40
0.0
 40
0.0
 40
0.0872900241
 40
0.1876832016
 40
0.3066771478
 40
0.4422338336
 40
0.5878634005
 40
0.7349738787
 40
0.8750201273
 40
1.0
 40
1.0
 40
1.0
 40
1.0
 10
57.9752928337
 20
39.5957046766
 30
0.0
 10
57.9830304238
 20
39.5912079981
 30
0.0
 10
57.9969623824
 20
39.5765770061
 30
0.0
 10
58.0067043468
 20
39.5459491892
 30
0.0
 10
58.0067584077
 20
39.5091587507
 30
0.0
 10
57.9975917209
 20
39.4688838835
 30
0.0
 10
57.9800532423
 20
39.4283848216
 30
0.0
 10
57.9556076052
 20
39.3910750002
 30
0.0
 10
57.9263650091
 20
39.360274405
 30
0.0
 10
57.9037497697
 20
39.3446321484
 30
0.0
 10
57.8922421977
 20
39.3389965442
 30
0.0
  0
SPLINE
  5
509
100
AcDbEntity
  8
0
100
AcDbSpline
 62
7
  6
BYLAYER
 70
0
 71
3
 72
15
 73
11
 74
0
 42
0.0000001
 43
0.0000001
 44
0.0000000001
 40
0.0
 40
0.0
 40
0.0
 40
0.0
 40
0.0869667952
 40
0.1861472706
 40
0.3031806075
 40
0.4366037436
 40
0.5807967814
 40
0.7280831794
 40
0.8704911096
 40
1.0
 40
1.0
 40
1.0
 40
1.0
 10
57.9617064736
 20
39.2488271664
 30
0.0
 10
57.9691359543
 20
39.2445040727
 30
0.0
 10
57.9825920677
 20
39.2307348779
 30
0.0
 10
57.9925931986
 20
39.2018010518
 30
0.0
 10
57.9935596985
 20
39.1668768967
 30
0.0
 10
57.9859061793
 20
39.1283673527
 30
0.0
 10
57.9703300991
 20
39.0891457398
 30
0.0
 10
57.9480127686
 20
39.0522830244
 30
0.0
 10
57.9207469343
 20
39.0208347051
 30
0.0
 10
57.8994540137
 20
39.0040197867
 30
0.0
 10
57.8884611646
 20
38.997461511
 30
0.0
  0
SPLINE
  5
50A
100
AcDbEntity
  8
0
100
AcDbSpline
 62
7
  6
BYLAYER
 70
0
 71
3
 72
14
 73
10
 74
0
 42
0.0000001
 43
0.0000001
 44
0.0000000001
 40
0.0
 40
0.0
 40
0.0
 40
0.0
 40
0.0868734496
 40
0.1851773509
 40
0.3005357677
 40
0.4320945256
 40
0.5750054729
 40
0.7224864174
 40
1.0
 40
1.0
 40
1.0
 40
1.0
 10
57.9752665691
 20
38.9176235932
 30
0.0
 10
57.9823913388
 20
38.9134802638
 30
0.0
 10
57.9953815004
 20
38.9005517728
 30
0.0
 10
58.0055487171
 20
38.8732732001
 30
0.0
 10
58.0073860078
 20
38.8402164979
 30
0.0
 10
58.0011701343
 20
38.8035231389
 30
0.0
 10
57.987491052
 20
38.7656674715
 30
0.0
 10
57.9611872488
 20
38.7185628562
 30
0.0
 10
57.933343231
 20
38.6877891527
 30
0.0
 10
57.9118124724
 20
38.6726360201
 30
0.0
  0
SPLINE
  5
50B
100
AcDbEntity
  8
0
100
AcDbSpline
 62
7
  6
BYLAYER
 70
0
 71
3
 72
13
 73
9
 74
0
 42
0.0000001
 43
0.0000001
 44
0.0000000001
 40
0.0
 40
0.0
 40
0.0
 40
0.0
 40
0.0868992624
 40
0.1845191141
 40
0.2983378008
 40
0.4281062006
 40
0.7162396035
 40
1.0
 40
1.0
 40
1.0
 40
1.0
 10
58.0158595715
 20
38.6049202593
 30
0.0
 10
58.0226809893
 20
38.6009574909
 30
0.0
 10
58.035210852
 20
38.588849733
 30
0.0
 10
58.0454682068
 20
38.5631858809
 30
0.0
 10
58.0481165871
 20
38.53199467
 30
0.0
 10
58.041385787
 20
38.4838929912
 30
0.0
 10
58.01589266
 20
38.4243463997
 30
0.0
 10
57.9820832851
 20
38.3835439591
 30
0.0
 10
57.9620968959
 20
38.367291368
 30
0.0
  0
SPLINE
  5
50C
100
AcDbEntity
  8
0
100
AcDbSpline
 62
7
  6
BYLAYER
 70
0
 71
3
 72
18
 73
14
 74
0
 42
0.0000001
 43
0.0000001
 44
0.0000000001
 40
0.0
 40
0.0
 40
0.0
 40
0.0
 40
0.0449831839
 40
0.09264946
 40
0.1454428176
 40
0.2046727748
 40
0.3406354671
 40
0.4924771388
 40
0.6462051204
 40
0.7869120954
 40
0.8490775454
 40
0.9049644119
 40
1.0
 40
1.0
 40
1.0
 40
1.0
 10
58.7896365263
 20
32.8145667034
 30
0.0
 10
58.7946277753
 20
32.8120156689
 30
0.0
 10
58.8041130264
 20
32.8050394256
 30
0.0
 10
58.8148178386
 20
32.7900798514
 30
0.0
 10
58.8213755796
 20
32.7710535823
 30
0.0
 10
58.8248216069
 20
32.7401678002
 30
0.0
 10
58.8182880571
 20
32.6967262683
 30
0.0
 10
58.7972240017
 20
32.6454496756
 30
0.0
 10
58.765318879
 20
32.5993926131
 30
0.0
 10
58.73194103
 20
32.5691681554
 30
0.0
 10
58.7033792623
 20
32.5537765758
 30
0.0
 10
58.6780305719
 20
32.5457632299
 30
0.0
 10
58.6578560709
 20
32.5467786688
 30
0.0
 10
58.6470188865
 20
32.5515535035
 30
0.0
  0
SPLINE
  5
50D
100
AcDbEntity
  8
0
100
AcDbSpline
 62
7
  6
BYLAYER
 70
0
 71
3
 72
18
 73
14
 74
0
 42
0.0000001
 43
0.0000001
 44
0.0000000001
 40
0.0
 40
0.0
 40
0.0
 40
0.0
 40
0.0946777306
 40
0.1503574388
 40
0.2126148915
 40
0.3534860611
 40
0.5071682612
 40
0.6590786447
 40
0.7948987107
 40
0.8540483152
 40
0.9070460659
 40
0.9549967038
 40
1.0
 40
1.0
 40
1.0
 40
1.0
 10
59.0042477137
 20
33.1703489237
 30
0.0
 10
59.013764446
 20
33.1633777999
 30
0.0
 10
59.0250904353
 20
33.1467980291
 30
0.0
 10
59.0308735741
 20
33.1208543783
 30
0.0
 10
59.0317417106
 20
33.0884300576
 30
0.0
 10
59.0222478311
 20
33.0443930871
 30
0.0
 10
58.9982947257
 20
32.993720418
 30
0.0
 10
58.9644258662
 20
32.9498652497
 30
0.0
 10
58.9300797533
 20
32.9224981208
 30
0.0
 10
58.9015756513
 20
32.9101211642
 30
0.0
 10
58.8818030276
 20
32.9062375179
 30
0.0
 10
58.8634212481
 20
32.9076794516
 30
0.0
 10
58.8525080958
 20
32.9122693657
 30
0.0
 10
58.8478015993
 20
32.9153176053
 30
0.0
  0
SPLINE
  5
50E
100
AcDbEntity
  8
0
100
AcDbSpline
 62
7
  6
BYLAYER
 70
0
 71
3
 72
17
 73
13
 74
0
 42
0.0000001
 43
0.0000001
 44
0.0000000001
 40
0.0
 40
0.0
 40
0.0
 40
0.0
 40
0.0974684355
 40
0.217976871
 40
0.3599169378
 40
0.512438689
 40
0.6621251786
 40
0.7960453278
 40
0.8546119064
 40
0.907317684
 40
0.9551196815
 40
1.0
 40
1.0
 40
1.0
 40
1.0
 10
59.2364717446
 20
33.5124452829
 30
0.0
 10
59.244789915
 20
33.504077725
 30
0.0
 10
59.257358404
 20
33.4792812254
 30
0.0
 10
59.2582969507
 20
33.4349051072
 30
0.0
 10
59.2460596202
 20
33.3857501817
 30
0.0
 10
59.2218505354
 20
33.3372666838
 30
0.0
 10
59.1887813285
 20
33.2956569108
 30
0.0
 10
59.1557019055
 20
33.269695054
 30
0.0
 10
59.1283537691
 20
33.2577690995
 30
0.0
 10
59.1093438104
 20
33.2537512305
 30
0.0
 10
59.0915420246
 20
33.2546609819
 30
0.0
 10
59.0808216819
 20
33.2586563415
 30
0.0
 10
59.0761090742
 20
33.2613594292
 30
0.0
  0
SPLINE
  5
50F
100
AcDbEntity
  8
0
100
AcDbSpline
 62
7
  6
BYLAYER
 70
0
 71
3
 72
16
 73
12
 74
0
 42
0.0000001
 43
0.0000001
 44
0.0000000001
 40
0.0
 40
0.0
 40
0.0
 40
0.0
 40
0.1013172437
 40
0.2255784778
 40
0.3691249943
 40
0.5208997823
 40
0.6682961058
 40
0.7995514872
 40
0.9082488398
 40
0.9554512726
 40
1.0
 40
1.0
 40
1.0
 40
1.0
 10
59.4843273654
 20
33.8379371355
 30
0.0
 10
59.4914291253
 20
33.8282861605
 30
0.0
 10
59.5010448257
 20
33.8022030829
 30
0.0
 10
59.4994225562
 20
33.757947934
 30
0.0
 10
59.4854109952
 20
33.7099323278
 30
0.0
 10
59.4605397416
 20
33.6634513443
 30
0.0
 10
59.4276389968
 20
33.6240680683
 30
0.0
 10
59.3906561696
 20
33.596304474
 30
0.0
 10
59.3574407611
 20
33.585098993
 30
0.0
 10
59.3334820214
 20
33.5865733104
 30
0.0
 10
59.3231572319
 20
33.5905302164
 30
0.0
 10
59.3185921042
 20
33.5931603329
 30
0.0
  0
SPLINE
  5
510
100
AcDbEntity
  8
0
100
AcDbSpline
 62
7
  6
BYLAYER
 70
0
 71
3
 72
17
 73
13
 74
0
 42
0.0000001
 43
0.0000001
 44
0.0000000001
 40
0.0
 40
0.0
 40
0.0
 40
0.0
 40
0.1055998512
 40
0.2333519906
 40
0.3781076592
 40
0.4535645871
 40
0.529039326
 40
0.6739839246
 40
0.802515481
 40
0.9092488393
 40
0.9558511602
 40
1.0
 40
1.0
 40
1.0
 40
1.0
 10
59.7456999594
 20
34.1440474996
 30
0.0
 10
59.7515173915
 20
34.1333325828
 30
0.0
 10
59.7584044404
 20
34.1063817442
 30
0.0
 10
59.7543883728
 20
34.0624113367
 30
0.0
 10
59.7415449466
 20
34.0240074484
 30
0.0
 10
59.7260654077
 20
33.9935277986
 30
0.0
 10
59.7075860717
 20
33.9647432995
 30
0.0
 10
59.6807822622
 20
33.9342066744
 30
0.0
 10
59.6447398744
 20
33.9084254219
 30
0.0
 10
59.6127141055
 20
33.8984007108
 30
0.0
 10
59.5897054256
 20
33.9001121672
 30
0.0
 10
59.5797648315
 20
33.9039867511
 30
0.0
 10
59.5753550024
 20
33.9065433127
 30
0.0
  0
SPLINE
  5
511
100
AcDbEntity
  8
0
100
AcDbSpline
 62
7
  6
BYLAYER
 70
0
 71
3
 72
14
 73
10
 74
0
 42
0.0000001
 43
0.0000001
 44
0.0000000001
 40
0.0
 40
0.0
 40
0.0
 40
0.0
 40
0.239418129
 40
0.385709725
 40
0.5358850784
 40
0.6789452013
 40
0.8053621816
 40
0.9106955916
 40
1.0
 40
1.0
 40
1.0
 40
1.0
 10
60.0183595877
 20
34.4281647498
 30
0.0
 10
60.0281287704
 20
34.4031806224
 30
0.0
 10
60.0252410171
 20
34.3564790929
 30
0.0
 10
60.0039782181
 20
34.3005913391
 30
0.0
 10
59.9781173066
 20
34.2581816744
 30
0.0
 10
59.9460088125
 20
34.2233847962
 30
0.0
 10
59.910851294
 20
34.1995967302
 30
0.0
 10
59.8755285689
 20
34.1891082816
 30
0.0
 10
59.8528614431
 20
34.1938095873
 30
0.0
 10
59.8442099401
 20
34.1988373132
 30
0.0
  0
SPLINE
  5
512
100
AcDbEntity
  8
0
100
AcDbSpline
 62
7
  6
BYLAYER
 70
0
 71
3
 72
14
 73
10
 74
0
 42
0.0000001
 43
0.0000001
 44
0.0000000001
 40
0.0
 40
0.0
 40
0.0
 40
0.0
 40
0.249218457
 40
0.3970539658
 40
0.546373092
 40
0.6867223763
 40
0.8096141189
 40
0.9119205274
 40
1.0
 40
1.0
 40
1.0
 40
1.0
 10
60.2999800145
 20
34.6878648977
 30
0.0
 10
60.3070365931
 20
34.6613741114
 30
0.0
 10
60.3014793433
 20
34.6151057498
 30
0.0
 10
60.2777999139
 20
34.5600064325
 30
0.0
 10
60.250972024
 20
34.519598231
 30
0.0
 10
60.2187094163
 20
34.4872138255
 30
0.0
 10
60.1840702944
 20
34.4659073909
 30
0.0
 10
60.1496237196
 20
34.4577809286
 30
0.0
 10
60.1282363505
 20
34.4638639118
 30
0.0
 10
60.1201784767
 20
34.4692440502
 30
0.0
  0
SPLINE
  5
513
100
AcDbEntity
  8
0
100
AcDbSpline
 62
7
  6
BYLAYER
 70
0
 71
3
 72
14
 73
10
 74
0
 42
0.0000001
 43
0.0000001
 44
0.0000000001
 40
0.0
 40
0.0
 40
0.0
 40
0.0
 40
0.2556335871
 40
0.4030140748
 40
0.5504528583
 40
0.6885887473
 40
0.8100843613
 40
0.9121462235
 40
1.0
 40
1.0
 40
1.0
 40
1.0
 10
60.5881585537
 20
34.9209322732
 30
0.0
 10
60.5924444797
 20
34.894249342
 30
0.0
 10
60.5851358771
 20
34.8500110946
 30
0.0
 10
60.5606338697
 20
34.7972607818
 30
0.0
 10
60.5343392973
 20
34.7594176983
 30
0.0
 10
60.503349789
 20
34.7291378442
 30
0.0
 10
60.4703342711
 20
34.709054116
 30
0.0
 10
60.4376206742
 20
34.7009817254
 30
0.0
 10
60.4170233586
 20
34.7058109454
 30
0.0
 10
60.4089770513
 20
34.7104496968
 30
0.0
  0
SPLINE
  5
514
100
AcDbEntity
  8
0
100
AcDbSpline
 62
7
  6
BYLAYER
 70
0
 71
3
 72
14
 73
10
 74
0
 42
0.0000001
 43
0.0000001
 44
0.0000000001
 40
0.0
 40
0.0
 40
0.0
 40
0.0
 40
0.2632035974
 40
0.4108453815
 40
0.5568473787
 40
0.6926693246
 40
0.8119739073
 40
0.9126396129
 40
1.0
 40
1.0
 40
1.0
 40
1.0
 10
60.8804365675
 20
35.1253784277
 30
0.0
 10
60.8822706728
 20
35.0985256779
 30
0.0
 10
60.8731099483
 20
35.0556980204
 30
0.0
 10
60.8472915769
 20
35.0049065997
 30
0.0
 10
60.8209848348
 20
34.9694032281
 30
0.0
 10
60.7906891126
 20
34.9413477103
 30
0.0
 10
60.7588026312
 20
34.9230258872
 30
0.0
 10
60.7274161472
 20
34.9161078276
 30
0.0
 10
60.7078076383
 20
34.9209369602
 30
0.0
 10
60.7000694186
 20
34.9254009914
 30
0.0
  0
SPLINE
  5
515
100
AcDbEntity
  8
0
100
AcDbSpline
 62
7
  6
BYLAYER
 70
0
 71
3
 72
14
 73
10
 74
0
 42
0.0000001
 43
0.0000001
 44
0.0000000001
 40
0.0
 40
0.0
 40
0.0
 40
0.0
 40
0.2703143136
 40
0.4180515096
 40
0.5625956042
 40
0.696228859
 40
0.813515574
 40
0.9129618546
 40
1.0
 40
1.0
 40
1.0
 40
1.0
 10
61.1743204431
 20
35.2994590987
 30
0.0
 10
61.173938858
 20
35.272805176
 30
0.0
 10
61.163129473
 20
35.2315332386
 30
0.0
 10
61.1362209094
 20
35.1829310452
 30
0.0
 10
61.1100345991
 20
35.1497900058
 30
0.0
 10
61.0805165389
 20
35.1239215047
 30
0.0
 10
61.0497885213
 20
35.1073152349
 30
0.0
 10
61.0197434926
 20
35.1014877737
 30
0.0
 10
61.0010969808
 20
35.1062875889
 30
0.0
 10
60.9936647283
 20
35.1105808305
 30
0.0
  0
SPLINE
  5
516
100
AcDbEntity
  8
0
100
AcDbSpline
 62
7
  6
BYLAYER
 70
0
 71
3
 72
9
 73
5
 74
0
 42
0.0000001
 43
0.0000001
 44
0.0000000001
 40
0.0
 40
0.0
 40
0.0
 40
0.0
 40
0.2456443889
 40
1.0
 40
1.0
 40
1.0
 40
1.0
 10
54.9411066863
 20
40.1936098528
 30
0.0
 10
54.9330266022
 20
40.2103144218
 30
0.0
 10
54.9011305319
 20
40.278797142
 30
0.0
 10
54.8731817835
 20
40.3491042237
 30
0.0
 10
54.854206556
 20
40.4028366824
 30
0.0
  0
SPLINE
  5
517
100
AcDbEntity
  8
0
100
AcDbSpline
 62
7
  6
BYLAYER
 70
0
 71
3
 72
17
 73
13
 74
0
 42
0.0000001
 43
0.0000001
 44
0.0000000001
 40
0.0
 40
0.0
 40
0.0
 40
0.0
 40
0.1007638196
 40
0.1564055277
 40
0.2153401709
 40
0.3416522006
 40
0.4761935046
 40
0.614250501
 40
0.7507107191
 40
0.8806268634
 40
0.9418856033
 40
1.0
 40
1.0
 40
1.0
 40
1.0
 10
54.854206556
 20
40.4028366824
 30
0.0
 10
54.7775841844
 20
40.6198094926
 30
0.0
 10
54.7110431937
 20
40.9759728067
 30
0.0
 10
54.6996086817
 20
41.4678469133
 30
0.0
 10
54.7414744332
 20
42.0172729933
 30
0.0
 10
54.8956455912
 20
42.7347191734
 30
0.0
 10
55.2185048994
 20
43.5896442932
 30
0.0
 10
55.6663040116
 20
44.4127903666
 30
0.0
 10
56.2147159651
 20
45.1593393504
 30
0.0
 10
56.7415875126
 20
45.6952821281
 30
0.0
 10
57.1891855003
 20
46.0480074883
 30
0.0
 10
57.4181813754
 20
46.1968565271
 30
0.0
 10
57.5331120467
 20
46.2632113851
 30
0.0
  0
SPLINE
  5
518
100
AcDbEntity
  8
0
100
AcDbSpline
 62
7
  6
BYLAYER
 70
0
 71
3
 72
13
 73
9
 74
0
 42
0.0000001
 43
0.0000001
 44
0.0000000001
 40
0.0
 40
0.0
 40
0.0
 40
0.0
 40
0.2893473921
 40
0.5483231349
 40
0.6677488587
 40
0.7817632276
 40
0.8919048406
 40
1.0
 40
1.0
 40
1.0
 40
1.0
 10
61.0686606725
 20
33.6074761898
 30
0.0
 10
61.1783730119
 20
33.6708182604
 30
0.0
 10
61.3964602849
 20
33.7746606491
 30
0.0
 10
61.6835936394
 20
33.8438590878
 30
0.0
 10
61.8997179901
 20
33.851395171
 30
0.0
 10
62.0498066604
 20
33.8345957625
 30
0.0
 10
62.1906192548
 20
33.7957038142
 30
0.0
 10
62.2776494859
 20
33.7549535853
 30
0.0
 10
62.3186322812
 20
33.7312834575
 30
0.0
  0
SPLINE
  5
519
100
AcDbEntity
  8
0
100
AcDbSpline
 62
7
  6
BYLAYER
 70
0
 71
3
 72
13
 73
9
 74
0
 42
0.0000001
 43
0.0000001
 44
0.0000000001
 40
0.0
 40
0.0
 40
0.0
 40
0.0
 40
0.0903618293
 40
0.1873649354
 40
0.2956475214
 40
0.4169271306
 40
0.6941990839
 40
1.0
 40
1.0
 40
1.0
 40
1.0
 10
58.0831426341
 20
38.3133920627
 30
0.0
 10
58.0882031673
 20
38.3104649208
 30
0.0
 10
58.0976880314
 20
38.3024710136
 30
0.0
 10
58.1076208871
 20
38.2858043
 30
0.0
 10
58.1133721368
 20
38.2652714767
 30
0.0
 10
58.1154587839
 20
38.2323640965
 30
0.0
 10
58.1066006457
 20
38.1869615855
 30
0.0
 10
58.0906257866
 20
38.1524037462
 30
0.0
 10
58.0803637589
 20
38.1354889246
 30
0.0
  0
SPLINE
  5
51A
100
AcDbEntity
  8
0
100
AcDbSpline
 62
7
  6
BYLAYER
 70
0
 71
3
 72
9
 73
5
 74
0
 42
0.0000001
 43
0.0000001
 44
0.0000000001
 40
0.0
 40
0.0
 40
0.0
 40
0.0
 40
0.2573438846
 40
1.0
 40
1.0
 40
1.0
 40
1.0
 10
58.0803637589
 20
38.1354889246
 30
0.0
 10
58.077417951
 20
38.1306333719
 30
0.0
 10
58.0653412096
 20
38.1121623674
 30
0.0
 10
58.0509062118
 20
38.0951734686
 30
0.0
 10
58.0388854263
 20
38.0840326476
 30
0.0
  0
SPLINE
  5
51B
100
AcDbEntity
  8
0
100
AcDbSpline
 62
7
  6
BYLAYER
 70
0
 71
3
 72
12
 73
8
 74
0
 42
0.0000001
 43
0.0000001
 44
0.0000000001
 40
0.0
 40
0.0
 40
0.0
 40
0.0
 40
0.1081668378
 40
0.2183765485
 40
0.4513518201
 40
0.710453619
 40
1.0
 40
1.0
 40
1.0
 40
1.0
 10
64.4399543749
 20
32.5065489576
 30
0.0
 10
64.3989675103
 20
32.5302164879
 30
0.0
 10
64.311940893
 20
32.5709925599
 30
0.0
 10
64.1208301282
 20
32.6238361614
 30
0.0
 10
63.8531605155
 20
32.6310083467
 30
0.0
 10
63.5179636665
 20
32.5499116515
 30
0.0
 10
63.2997100436
 20
32.4461005326
 30
0.0
 10
63.1899898479
 20
32.3827539262
 30
0.0
  0
SPLINE
  5
51C
100
AcDbEntity
  8
0
100
AcDbSpline
 62
7
  6
BYLAYER
 70
0
 71
3
 72
12
 73
8
 74
0
 42
0.0000001
 43
0.0000001
 44
0.0000000001
 40
0.0
 40
0.0
 40
0.0
 40
0.0
 40
0.0916754361
 40
0.1894771915
 40
0.4169836845
 40
0.6925201565
 40
1.0
 40
1.0
 40
1.0
 40
1.0
 10
58.176545511
 20
38.0455319669
 30
0.0
 10
58.1813148394
 20
38.0427865052
 30
0.0
 10
58.1902803321
 20
38.0354034804
 30
0.0
 10
58.2038265515
 20
38.0139592764
 30
0.0
 10
58.2100915432
 20
37.9772210372
 30
0.0
 10
58.2026552076
 20
37.9286910254
 30
0.0
 10
58.1893444419
 20
37.8959320907
 30
0.0
 10
58.1806262029
 20
37.8796634658
 30
0.0
  0
SPLINE
  5
51D
100
AcDbEntity
  8
0
100
AcDbSpline
 62
7
  6
BYLAYER
 70
0
 71
3
 72
9
 73
5
 74
0
 42
0.0000001
 43
0.0000001
 44
0.0000000001
 40
0.0
 40
0.0
 40
0.0
 40
0.0
 40
0.254701118
 40
1.0
 40
1.0
 40
1.0
 40
1.0
 10
58.1806262029
 20
37.8796634658
 30
0.0
 10
58.1779355306
 20
37.8746425506
 30
0.0
 10
58.1667093794
 20
37.8552967687
 30
0.0
 10
58.1530360359
 20
37.8373303496
 30
0.0
 10
58.1415229307
 20
37.8252765226
 30
0.0
  0
SPLINE
  5
51E
100
AcDbEntity
  8
0
100
AcDbSpline
 62
7
  6
BYLAYER
 70
0
 71
3
 72
20
 73
16
 74
0
 42
0.0000001
 43
0.0000001
 44
0.0000000001
 40
0.0
 40
0.0
 40
0.0
 40
0.0
 40
0.0428304399
 40
0.0874304703
 40
0.1352313682
 40
0.1871634127
 40
0.2436322716
 40
0.3046132809
 40
0.3697386741
 40
0.4383735668
 40
0.5826247914
 40
0.7296910166
 40
0.8711893068
 40
0.9376087821
 40
1.0
 40
1.0
 40
1.0
 40
1.0
 10
59.8186890638
 20
29.4011568364
 30
0.0
 10
59.7570629493
 20
29.4367497723
 30
0.0
 10
59.6402095001
 20
29.5261459653
 30
0.0
 10
59.4996503562
 20
29.7039631418
 30
0.0
 10
59.3945403701
 20
29.9213650384
 30
0.0
 10
59.3265378655
 20
30.1731347021
 30
0.0
 10
59.2962414936
 20
30.453912669
 30
0.0
 10
59.3039547139
 20
30.7579422979
 30
0.0
 10
59.3494129012
 20
31.0789658843
 30
0.0
 10
59.4607243453
 20
31.5279540699
 30
0.0
 10
59.6862403315
 20
32.0856581613
 30
0.0
 10
60.0644232093
 20
32.7008559196
 30
0.0
 10
60.456254986
 20
33.1467514425
 30
0.0
 10
60.8004462704
 20
33.4363409928
 30
0.0
 10
60.9788813576
 20
33.5556423876
 30
0.0
 10
61.0686606725
 20
33.6074761898
 30
0.0
  0
SPLINE
  5
51F
100
AcDbEntity
  8
0
100
AcDbSpline
 62
7
  6
BYLAYER
 70
0
 71
3
 72
11
 73
7
 74
0
 42
0.0000001
 43
0.0000001
 44
0.0000000001
 40
0.0
 40
0.0
 40
0.0
 40
0.0
 40
0.2895453772
 40
0.5491366158
 40
0.7822776227
 40
1.0
 40
1.0
 40
1.0
 40
1.0
 10
11.5790210961
 20
58.1713289024
 30
0.0
 10
11.5790210961
 20
58.2095953373
 30
0.0
 10
11.5848641513
 20
58.2824106456
 30
0.0
 10
11.6143002235
 20
58.3824729575
 30
0.0
 10
11.6639584454
 20
58.4636857511
 30
0.0
 10
11.7106235842
 20
58.5028444674
 30
0.0
 10
11.7355426133
 20
58.517231999
 30
0.0
  0
SPLINE
  5
520
100
AcDbEntity
  8
0
100
AcDbSpline
 62
7
  6
BYLAYER
 70
0
 71
3
 72
9
 73
5
 74
0
 42
0.0000001
 43
0.0000001
 44
0.0000000001
 40
0.0
 40
0.0
 40
0.0
 40
0.0
 40
0.2441873903
 40
1.0
 40
1.0
 40
1.0
 40
1.0
 10
58.6041503654
 20
32.4438956456
 30
0.0
 10
58.6061365228
 20
32.4427788209
 30
0.0
 10
58.6139746307
 20
32.437686862
 30
0.0
 10
58.6203623135
 20
32.430451193
 30
0.0
 10
58.6240020434
 20
32.4244101063
 30
0.0
  0
SPLINE
  5
521
100
AcDbEntity
  8
0
100
AcDbSpline
 62
7
  6
BYLAYER
 70
0
 71
3
 72
14
 73
10
 74
0
 42
0.0000001
 43
0.0000001
 44
0.0000000001
 40
0.0
 40
0.0
 40
0.0
 40
0.0
 40
0.1030492978
 40
0.2269193353
 40
0.3675108379
 40
0.5163495523
 40
0.6625475673
 40
0.7958889066
 40
1.0
 40
1.0
 40
1.0
 40
1.0
 10
58.6240020434
 20
32.4244101063
 30
0.0
 10
58.6299214253
 20
32.414585339
 30
0.0
 10
58.6368417078
 20
32.3893788032
 30
0.0
 10
58.6347191498
 20
32.3481734462
 30
0.0
 10
58.6219098766
 20
32.3035996099
 30
0.0
 10
58.5996521507
 20
32.2602636226
 30
0.0
 10
58.5698369971
 20
32.2223721095
 30
0.0
 10
58.5293998594
 20
32.1876987582
 30
0.0
 10
58.4888589524
 20
32.173567218
 30
0.0
 10
58.4668967677
 20
32.179382885
 30
0.0
  0
SPLINE
  5
522
100
AcDbEntity
  8
0
100
AcDbSpline
 62
7
  6
BYLAYER
 70
0
 71
3
 72
14
 73
10
 74
0
 42
0.0000001
 43
0.0000001
 44
0.0000000001
 40
0.0
 40
0.0
 40
0.0
 40
0.0
 40
0.0976941963
 40
0.215745074
 40
0.3521866824
 40
0.4996149981
 40
0.6474380455
 40
0.7850187666
 40
1.0
 40
1.0
 40
1.0
 40
1.0
 10
58.4530757654
 20
32.0555820656
 30
0.0
 10
58.4599495579
 20
32.0471372051
 30
0.0
 10
58.4693296473
 20
32.0238878068
 30
0.0
 10
58.4702851163
 20
31.9842171947
 30
0.0
 10
58.4604010769
 20
31.9401180606
 30
0.0
 10
58.440553118
 20
31.8960222678
 30
0.0
 10
58.412526577
 20
31.8561412497
 30
0.0
 10
58.3727005999
 20
31.8178187042
 30
0.0
 10
58.3327862716
 20
31.7993312455
 30
0.0
 10
58.3089719811
 20
31.8019809781
 30
0.0
  0
SPLINE
  5
523
100
AcDbEntity
  8
0
100
AcDbSpline
 62
7
  6
BYLAYER
 70
0
 71
3
 72
11
 73
7
 74
0
 42
0.0000001
 43
0.0000001
 44
0.0000000001
 40
0.0
 40
0.0
 40
0.0
 40
0.0
 40
0.1901419794
 40
0.4174405248
 40
0.6913905976
 40
1.0
 40
1.0
 40
1.0
 40
1.0
 10
58.2952690047
 20
37.8036223382
 30
0.0
 10
58.3043941228
 20
37.7983809627
 30
0.0
 10
58.3204631164
 20
37.7797056766
 30
0.0
 10
58.3283466356
 20
37.7412751663
 30
0.0
 10
58.3236096388
 20
37.696242299
 30
0.0
 10
58.3127756471
 20
37.6655501834
 30
0.0
 10
58.3055283387
 20
37.6500842081
 30
0.0
  0
SPLINE
  5
524
100
AcDbEntity
  8
0
100
AcDbSpline
 62
7
  6
BYLAYER
 70
0
 71
3
 72
9
 73
5
 74
0
 42
0.0000001
 43
0.0000001
 44
0.0000000001
 40
0.0
 40
0.0
 40
0.0
 40
0.0
 40
0.2520747087
 40
1.0
 40
1.0
 40
1.0
 40
1.0
 10
58.3055283387
 20
37.6500842081
 30
0.0
 10
58.303117688
 20
37.6449398066
 30
0.0
 10
58.2928571712
 20
37.6248687209
 30
0.0
 10
58.2800504675
 20
37.6060746516
 30
0.0
 10
58.2691337423
 20
37.5932306088
 30
0.0
  0
SPLINE
  5
525
100
AcDbEntity
  8
0
100
AcDbSpline
 62
7
  6
BYLAYER
 70
0
 71
3
 72
14
 73
10
 74
0
 42
0.0000001
 43
0.0000001
 44
0.0000000001
 40
0.0
 40
0.0
 40
0.0
 40
0.0
 40
0.2014265989
 40
0.3335688992
 40
0.4792691878
 40
0.6283963497
 40
0.7700538981
 40
0.8954505885
 40
1.0
 40
1.0
 40
1.0
 40
1.0
 10
58.3044647355
 20
31.6825789615
 30
0.0
 10
58.3210635578
 20
31.6675318521
 30
0.0
 10
58.3299309754
 20
31.6256099191
 30
0.0
 10
58.3211423716
 20
31.5737045388
 30
0.0
 10
58.3039123803
 20
31.5288395741
 30
0.0
 10
58.2780161912
 20
31.4875187875
 30
0.0
 10
58.2461788859
 20
31.4534143576
 30
0.0
 10
58.2115627687
 20
31.4301477086
 30
0.0
 10
58.1862165444
 20
31.422872097
 30
0.0
 10
58.1745918854
 20
31.4225676429
 30
0.0
  0
SPLINE
  5
526
100
AcDbEntity
  8
0
100
AcDbSpline
 62
7
  6
BYLAYER
 70
0
 71
3
 72
11
 73
7
 74
0
 42
0.0000001
 43
0.0000001
 44
0.0000000001
 40
0.0
 40
0.0
 40
0.0
 40
0.0
 40
0.1930430361
 40
0.420029574
 40
0.6917473201
 40
1.0
 40
1.0
 40
1.0
 40
1.0
 10
58.4382930001
 20
37.5897148686
 30
0.0
 10
58.4467949566
 20
37.584814919
 30
0.0
 10
58.461961694
 20
37.5680419238
 30
0.0
 10
58.4707726939
 20
37.5331190902
 30
0.0
 10
58.4683536451
 20
37.4917488584
 30
0.0
 10
58.4598673609
 20
37.4632409908
 30
0.0
 10
58.4540045453
 20
37.4487098407
 30
0.0
  0
SPLINE
  5
527
100
AcDbEntity
  8
0
100
AcDbSpline
 62
7
  6
BYLAYER
 70
0
 71
3
 72
9
 73
5
 74
0
 42
0.0000001
 43
0.0000001
 44
0.0000000001
 40
0.0
 40
0.0
 40
0.0
 40
0.0
 40
0.7517197252
 40
1.0
 40
1.0
 40
1.0
 40
1.0
 10
58.4540045453
 20
37.4487098407
 30
0.0
 10
58.4476526131
 20
37.4329664016
 30
0.0
 10
58.4370200289
 20
37.4128141487
 30
0.0
 10
58.4240162705
 20
37.3943430229
 30
0.0
 10
58.4206291306
 20
37.3898746403
 30
0.0
  0
SPLINE
  5
528
100
AcDbEntity
  8
0
100
AcDbSpline
 62
7
  6
BYLAYER
 70
0
 71
3
 72
9
 73
5
 74
0
 42
0.0000001
 43
0.0000001
 44
0.0000000001
 40
0.0
 40
0.0
 40
0.0
 40
0.0
 40
0.2456443889
 40
1.0
 40
1.0
 40
1.0
 40
1.0
 10
54.9411066863
 20
30.8038320558
 30
0.0
 10
54.9330266022
 20
30.8205366248
 30
0.0
 10
54.9011305319
 20
30.889019345
 30
0.0
 10
54.8731817835
 20
30.9593264267
 30
0.0
 10
54.854206556
 20
31.0130588854
 30
0.0
  0
SPLINE
  5
529
100
AcDbEntity
  8
0
100
AcDbSpline
 62
7
  6
BYLAYER
 70
0
 71
3
 72
17
 73
13
 74
0
 42
0.0000001
 43
0.0000001
 44
0.0000000001
 40
0.0
 40
0.0
 40
0.0
 40
0.0
 40
0.1007638196
 40
0.1564055277
 40
0.2153401709
 40
0.3416522006
 40
0.4761935046
 40
0.614250501
 40
0.7507107191
 40
0.8806268634
 40
0.9418856033
 40
1.0
 40
1.0
 40
1.0
 40
1.0
 10
54.854206556
 20
31.0130588854
 30
0.0
 10
54.7775841844
 20
31.2300316956
 30
0.0
 10
54.7110431937
 20
31.5861950097
 30
0.0
 10
54.6996086817
 20
32.0780691163
 30
0.0
 10
54.7414744332
 20
32.6274951964
 30
0.0
 10
54.8956455912
 20
33.3449413764
 30
0.0
 10
55.2185048994
 20
34.1998664962
 30
0.0
 10
55.6663040116
 20
35.0230125696
 30
0.0
 10
56.2147159651
 20
35.7695615535
 30
0.0
 10
56.7415875126
 20
36.3055043312
 30
0.0
 10
57.1891855003
 20
36.6582296914
 30
0.0
 10
57.4181813754
 20
36.8070787301
 30
0.0
 10
57.5331120467
 20
36.8734335881
 30
0.0
  0
SPLINE
  5
52A
100
AcDbEntity
  8
0
100
AcDbSpline
 62
7
  6
BYLAYER
 70
0
 71
3
 72
14
 73
10
 74
0
 42
0.0000001
 43
0.0000001
 44
0.0000000001
 40
0.0
 40
0.0
 40
0.0
 40
0.0
 40
0.0897408907
 40
0.1964565743
 40
0.3235169932
 40
0.4664152356
 40
0.7590565233
 40
0.8897319421
 40
1.0
 40
1.0
 40
1.0
 40
1.0
 10
58.1794368508
 20
31.308583125
 30
0.0
 10
58.1877932812
 20
31.303126299
 30
0.0
 10
58.2020165629
 20
31.284870272
 30
0.0
 10
58.2093299012
 20
31.2489122308
 30
0.0
 10
58.205509562
 20
31.2067313357
 30
0.0
 10
58.1859381821
 20
31.1470005645
 30
0.0
 10
58.149703563
 20
31.0930460707
 30
0.0
 10
58.1025650822
 20
31.0563785683
 30
0.0
 10
58.0770269084
 20
31.0462227761
 30
0.0
 10
58.0649029641
 20
31.0443799003
 30
0.0
  0
SPLINE
  5
52B
100
AcDbEntity
  8
0
100
AcDbSpline
 62
7
  6
BYLAYER
 70
0
 71
3
 72
11
 73
7
 74
0
 42
0.0000001
 43
0.0000001
 44
0.0000000001
 40
0.0
 40
0.0
 40
0.0
 40
0.0
 40
0.1963246562
 40
0.4234109269
 40
0.6928990383
 40
1.0
 40
1.0
 40
1.0
 40
1.0
 10
58.6043898876
 20
37.4056211534
 30
0.0
 10
58.6122715118
 20
37.4010605597
 30
0.0
 10
58.6265164682
 20
37.386098648
 30
0.0
 10
58.6360283977
 20
37.3546177099
 30
0.0
 10
58.6356907108
 20
37.3169644271
 30
0.0
 10
58.6293650563
 20
37.2907470855
 30
0.0
 10
58.6247880761
 20
37.2772584188
 30
0.0
  0
SPLINE
  5
52C
100
AcDbEntity
  8
0
100
AcDbSpline
 62
7
  6
BYLAYER
 70
0
 71
3
 72
9
 73
5
 74
0
 42
0.0000001
 43
0.0000001
 44
0.0000000001
 40
0.0
 40
0.0
 40
0.0
 40
0.0
 40
0.2468763173
 40
1.0
 40
1.0
 40
1.0
 40
1.0
 10
58.6247880761
 20
37.2772584188
 30
0.0
 10
58.6230030361
 20
37.2719977864
 30
0.0
 10
58.6149938004
 20
37.250960896
 30
0.0
 10
58.6042046091
 20
37.2309854272
 30
0.0
 10
58.5947165904
 20
37.2169435784
 30
0.0
  0
SPLINE
  5
52D
100
AcDbEntity
  8
0
100
AcDbSpline
 62
7
  6
BYLAYER
 70
0
 71
3
 72
9
 73
5
 74
0
 42
0.0000001
 43
0.0000001
 44
0.0000000001
 40
0.0
 40
0.0
 40
0.0
 40
0.0
 40
0.2431324384
 40
1.0
 40
1.0
 40
1.0
 40
1.0
 10
8.5138145674
 20
66.3989079989
 30
0.0
 10
8.5138142484
 20
66.4429562417
 30
0.0
 10
8.5170018029
 20
66.6241194172
 30
0.0
 10
8.5324618611
 20
66.8050053142
 30
0.0
 10
8.5500648924
 20
66.9409922278
 30
0.0
  0
SPLINE
  5
52E
100
AcDbEntity
  8
0
100
AcDbSpline
 62
7
  6
BYLAYER
 70
0
 71
3
 72
12
 73
8
 74
0
 42
0.0000001
 43
0.0000001
 44
0.0000000001
 40
0.0
 40
0.0
 40
0.0
 40
0.0
 40
0.116839012
 40
0.2390046833
 40
0.4935574534
 40
0.7515383077
 40
1.0
 40
1.0
 40
1.0
 40
1.0
 10
8.5500648924
 20
66.9409922278
 30
0.0
 10
8.5713847058
 20
67.1056920206
 30
0.0
 10
8.6328552908
 20
67.440483576
 30
0.0
 10
8.8231185201
 20
68.1164977971
 30
0.0
 10
9.1795232907
 20
68.9502341484
 30
0.0
 10
9.7566478697
 20
69.8696996876
 30
0.0
 10
10.2346191523
 20
70.4136805724
 30
0.0
 10
10.4917562716
 20
70.6557619356
 30
0.0
  0
SPLINE
  5
52F
100
AcDbEntity
  8
0
100
AcDbSpline
 62
7
  6
BYLAYER
 70
0
 71
3
 72
11
 73
7
 74
0
 42
0.0000001
 43
0.0000001
 44
0.0000000001
 40
0.0
 40
0.0
 40
0.0
 40
0.0
 40
0.2150417498
 40
0.4474548096
 40
0.7078720843
 40
1.0
 40
1.0
 40
1.0
 40
1.0
 10
58.0831824718
 20
30.9347019321
 30
0.0
 10
58.0884650307
 20
30.9316996988
 30
0.0
 10
58.0982788289
 20
30.9232079702
 30
0.0
 10
58.1082930641
 20
30.9055591
 30
0.0
 10
58.1137985161
 20
30.8838665847
 30
0.0
 10
58.1144360561
 20
30.8681619939
 30
0.0
 10
58.1140963567
 20
30.8599148009
 30
0.0
  0
SPLINE
  5
530
100
AcDbEntity
  8
0
100
AcDbSpline
 62
7
  6
BYLAYER
 70
0
 71
3
 72
11
 73
7
 74
0
 42
0.0000001
 43
0.0000001
 44
0.0000000001
 40
0.0
 40
0.0
 40
0.0
 40
0.0
 40
0.249603144
 40
0.5216844991
 40
0.7816230244
 40
1.0
 40
1.0
 40
1.0
 40
1.0
 10
58.1140963567
 20
30.8599148009
 30
0.0
 10
58.1132636389
 20
30.8396981487
 30
0.0
 10
58.103415612
 20
30.7977548839
 30
0.0
 10
58.0734547553
 20
30.7412553659
 30
0.0
 10
58.0324250294
 20
30.6955994607
 30
0.0
 10
57.9979336388
 20
30.675250946
 30
0.0
 10
57.9808410446
 20
30.6706443147
 30
0.0
  0
SPLINE
  5
531
100
AcDbEntity
  8
0
100
AcDbSpline
 62
7
  6
BYLAYER
 70
0
 71
3
 72
15
 73
11
 74
0
 42
0.0000001
 43
0.0000001
 44
0.0000000001
 40
0.0
 40
0.0
 40
0.0
 40
0.0
 40
0.0877257752
 40
0.1895335277
 40
0.3106509102
 40
0.4484554399
 40
0.5954975034
 40
0.7422745915
 40
0.8797086086
 40
1.0
 40
1.0
 40
1.0
 40
1.0
 10
58.0159039851
 20
30.5655077423
 30
0.0
 10
58.0239595072
 20
30.5608579043
 30
0.0
 10
58.0383713561
 20
30.545334115
 30
0.0
 10
58.0477690137
 20
30.512988481
 30
0.0
 10
58.0468702592
 20
30.4743341385
 30
0.0
 10
58.0361141284
 20
30.4323455143
 30
0.0
 10
58.0165698215
 20
30.3906983293
 30
0.0
 10
57.990007143
 20
30.3531548422
 30
0.0
 10
57.9588796158
 20
30.323288091
 30
0.0
 10
57.9350401895
 20
30.3090939915
 30
0.0
 10
57.9231233133
 20
30.3045494662
 30
0.0
  0
SPLINE
  5
532
100
AcDbEntity
  8
0
100
AcDbSpline
 62
7
  6
BYLAYER
 70
0
 71
3
 72
15
 73
11
 74
0
 42
0.0000001
 43
0.0000001
 44
0.0000000001
 40
0.0
 40
0.0
 40
0.0
 40
0.0
 40
0.0872900241
 40
0.1876832016
 40
0.3066771478
 40
0.4422338336
 40
0.5878634005
 40
0.7349738787
 40
0.8750201273
 40
1.0
 40
1.0
 40
1.0
 40
1.0
 10
57.9752928337
 20
30.2059268796
 30
0.0
 10
57.9830304238
 20
30.2014302011
 30
0.0
 10
57.9969623824
 20
30.1867992091
 30
0.0
 10
58.0067043468
 20
30.1561713922
 30
0.0
 10
58.0067584077
 20
30.1193809537
 30
0.0
 10
57.9975917209
 20
30.0791060865
 30
0.0
 10
57.9800532423
 20
30.0386070246
 30
0.0
 10
57.9556076052
 20
30.0012972032
 30
0.0
 10
57.9263650091
 20
29.970496608
 30
0.0
 10
57.9037497697
 20
29.9548543514
 30
0.0
 10
57.8922421977
 20
29.9492187472
 30
0.0
  0
SPLINE
  5
533
100
AcDbEntity
  8
0
100
AcDbSpline
 62
7
  6
BYLAYER
 70
0
 71
3
 72
15
 73
11
 74
0
 42
0.0000001
 43
0.0000001
 44
0.0000000001
 40
0.0
 40
0.0
 40
0.0
 40
0.0
 40
0.0869667952
 40
0.1861472706
 40
0.3031806075
 40
0.4366037436
 40
0.5807967814
 40
0.7280831794
 40
0.8704911096
 40
1.0
 40
1.0
 40
1.0
 40
1.0
 10
57.9617064736
 20
29.8590493695
 30
0.0
 10
57.9691359543
 20
29.8547262757
 30
0.0
 10
57.9825920677
 20
29.8409570809
 30
0.0
 10
57.9925931986
 20
29.8120232548
 30
0.0
 10
57.9935596985
 20
29.7770990997
 30
0.0
 10
57.9859061793
 20
29.7385895557
 30
0.0
 10
57.9703300991
 20
29.6993679429
 30
0.0
 10
57.9480127686
 20
29.6625052274
 30
0.0
 10
57.9207469343
 20
29.6310569081
 30
0.0
 10
57.8994540137
 20
29.6142419897
 30
0.0
 10
57.8884611646
 20
29.607683714
 30
0.0
  0
SPLINE
  5
534
100
AcDbEntity
  8
0
100
AcDbSpline
 62
7
  6
BYLAYER
 70
0
 71
3
 72
19
 73
15
 74
0
 42
0.0000001
 43
0.0000001
 44
0.0000000001
 40
0.0
 40
0.0
 40
0.0
 40
0.0
 40
0.0428394104
 40
0.0874448899
 40
0.1352571039
 40
0.1871950253
 40
0.2436735499
 40
0.3046656819
 40
0.4382689093
 40
0.5825434307
 40
0.7296392143
 40
0.871166535
 40
0.9376088396
 40
1.0
 40
1.0
 40
1.0
 40
1.0
 10
21.8591474973
 20
43.2218552026
 30
0.0
 10
21.8086104983
 20
43.192672735
 30
0.0
 10
21.6971931672
 20
43.1464088487
 30
0.0
 10
21.5133054
 20
43.1194145125
 30
0.0
 10
21.3158284518
 20
43.1339793443
 30
0.0
 10
21.1091589803
 20
43.1888742534
 30
0.0
 10
20.8973318893
 20
43.2824675757
 30
0.0
 10
20.6049338866
 20
43.4614571957
 30
0.0
 10
20.2565949866
 20
43.7699360764
 30
0.0
 10
19.8985700285
 20
44.2283075477
 30
0.0
 10
19.6166525335
 20
44.7492618814
 30
0.0
 10
19.4606565205
 20
45.2103148427
 30
0.0
 10
19.3961610956
 20
45.5734825842
 30
0.0
 10
19.3845806466
 20
45.7491056922
 30
0.0
 10
19.3845806466
 20
45.8340974272
 30
0.0
  0
SPLINE
  5
535
100
AcDbEntity
  8
0
100
AcDbSpline
 62
7
  6
BYLAYER
 70
0
 71
3
 72
14
 73
10
 74
0
 42
0.0000001
 43
0.0000001
 44
0.0000000001
 40
0.0
 40
0.0
 40
0.0
 40
0.0
 40
0.0868734496
 40
0.1851773509
 40
0.3005357677
 40
0.4320945256
 40
0.5750054729
 40
0.7224864174
 40
1.0
 40
1.0
 40
1.0
 40
1.0
 10
57.9752665691
 20
29.5278457962
 30
0.0
 10
57.9823913388
 20
29.5237024668
 30
0.0
 10
57.9953815004
 20
29.5107739758
 30
0.0
 10
58.0055487171
 20
29.4834954031
 30
0.0
 10
58.0073860078
 20
29.4504387009
 30
0.0
 10
58.0011701343
 20
29.4137453419
 30
0.0
 10
57.987491052
 20
29.3758896745
 30
0.0
 10
57.9611872488
 20
29.3287850592
 30
0.0
 10
57.933343231
 20
29.2980113557
 30
0.0
 10
57.9118124724
 20
29.2828582231
 30
0.0
  0
SPLINE
  5
536
100
AcDbEntity
  8
0
100
AcDbSpline
 62
7
  6
BYLAYER
 70
0
 71
3
 72
13
 73
9
 74
0
 42
0.0000001
 43
0.0000001
 44
0.0000000001
 40
0.0
 40
0.0
 40
0.0
 40
0.0
 40
0.0904688629
 40
0.1875712385
 40
0.2957954492
 40
0.4168835819
 40
0.6941794875
 40
1.0
 40
1.0
 40
1.0
 40
1.0
 10
58.7921488734
 20
37.2529224367
 30
0.0
 10
58.7971886104
 20
37.2500091428
 30
0.0
 10
58.8066301505
 20
37.2420473316
 30
0.0
 10
58.8165251065
 20
37.2254743334
 30
0.0
 10
58.8223064764
 20
37.2050837792
 30
0.0
 10
58.8245000107
 20
37.1723766027
 30
0.0
 10
58.8158018744
 20
37.1272059438
 30
0.0
 10
58.8000389673
 20
37.0927841469
 30
0.0
 10
58.7899108687
 20
37.07591281
 30
0.0
  0
SPLINE
  5
537
100
AcDbEntity
  8
0
100
AcDbSpline
 62
7
  6
BYLAYER
 70
0
 71
3
 72
13
 73
9
 74
0
 42
0.0000001
 43
0.0000001
 44
0.0000000001
 40
0.0
 40
0.0
 40
0.0
 40
0.0
 40
0.0868992624
 40
0.1845191141
 40
0.2983378008
 40
0.4281062006
 40
0.7162396035
 40
1.0
 40
1.0
 40
1.0
 40
1.0
 10
58.0158595715
 20
29.2151424623
 30
0.0
 10
58.0226809893
 20
29.211179694
 30
0.0
 10
58.035210852
 20
29.199071936
 30
0.0
 10
58.0454682068
 20
29.1734080839
 30
0.0
 10
58.0481165871
 20
29.142216873
 30
0.0
 10
58.041385787
 20
29.0941151942
 30
0.0
 10
58.01589266
 20
29.0345686027
 30
0.0
 10
57.9820832851
 20
28.9937661621
 30
0.0
 10
57.9620968959
 20
28.977513571
 30
0.0
  0
SPLINE
  5
538
100
AcDbEntity
  8
0
100
AcDbSpline
 62
7
  6
BYLAYER
 70
0
 71
3
 72
19
 73
15
 74
0
 42
0.0000001
 43
0.0000001
 44
0.0000000001
 40
0.0
 40
0.0
 40
0.0
 40
0.0
 40
0.0428394104
 40
0.0874448899
 40
0.1352571039
 40
0.1871950253
 40
0.2436735499
 40
0.3046656819
 40
0.4382689093
 40
0.5825434307
 40
0.7296392143
 40
0.871166535
 40
0.9376088396
 40
1.0
 40
1.0
 40
1.0
 40
1.0
 10
39.819734516
 20
32.8525400378
 30
0.0
 10
39.769197517
 20
32.8233575701
 30
0.0
 10
39.6577801859
 20
32.7770936839
 30
0.0
 10
39.4738924188
 20
32.7500993477
 30
0.0
 10
39.2764154705
 20
32.7646641795
 30
0.0
 10
39.069745999
 20
32.8195590886
 30
0.0
 10
38.857918908
 20
32.9131524108
 30
0.0
 10
38.5655209053
 20
33.0921420308
 30
0.0
 10
38.2171820053
 20
33.4006209116
 30
0.0
 10
37.8591570472
 20
33.8589923829
 30
0.0
 10
37.5772395522
 20
34.3799467166
 30
0.0
 10
37.4212435393
 20
34.8409996779
 30
0.0
 10
37.3567481143
 20
35.2041674193
 30
0.0
 10
37.3451676654
 20
35.3797905274
 30
0.0
 10
37.3451676654
 20
35.4647822624
 30
0.0
  0
SPLINE
  5
539
100
AcDbEntity
  8
0
100
AcDbSpline
 62
7
  6
BYLAYER
 70
0
 71
3
 72
13
 73
9
 74
0
 42
0.0000001
 43
0.0000001
 44
0.0000000001
 40
0.0
 40
0.0
 40
0.0
 40
0.0
 40
0.0903618293
 40
0.1873649354
 40
0.2956475214
 40
0.4169271306
 40
0.6941990839
 40
1.0
 40
1.0
 40
1.0
 40
1.0
 10
58.0831426341
 20
28.9236142657
 30
0.0
 10
58.0882031673
 20
28.9206871238
 30
0.0
 10
58.0976880314
 20
28.9126932166
 30
0.0
 10
58.1076208871
 20
28.896026503
 30
0.0
 10
58.1133721368
 20
28.8754936797
 30
0.0
 10
58.1154587839
 20
28.8425862995
 30
0.0
 10
58.1066006457
 20
28.7971837885
 30
0.0
 10
58.0906257866
 20
28.7626259492
 30
0.0
 10
58.0803637589
 20
28.7457111276
 30
0.0
  0
SPLINE
  5
53A
100
AcDbEntity
  8
0
100
AcDbSpline
 62
7
  6
BYLAYER
 70
0
 71
3
 72
9
 73
5
 74
0
 42
0.0000001
 43
0.0000001
 44
0.0000000001
 40
0.0
 40
0.0
 40
0.0
 40
0.0
 40
0.2573438846
 40
1.0
 40
1.0
 40
1.0
 40
1.0
 10
58.0803637589
 20
28.7457111276
 30
0.0
 10
58.077417951
 20
28.7408555749
 30
0.0
 10
58.0653412096
 20
28.7223845704
 30
0.0
 10
58.0509062118
 20
28.7053956716
 30
0.0
 10
58.0388854263
 20
28.6942548506
 30
0.0
  0
SPLINE
  5
53B
100
AcDbEntity
  8
0
100
AcDbSpline
 62
7
  6
BYLAYER
 70
0
 71
3
 72
12
 73
8
 74
0
 42
0.0000001
 43
0.0000001
 44
0.0000000001
 40
0.0
 40
0.0
 40
0.0
 40
0.0
 40
0.1081668378
 40
0.2183765485
 40
0.4513518201
 40
0.710453619
 40
1.0
 40
1.0
 40
1.0
 40
1.0
 10
64.4399543749
 20
41.8963267546
 30
0.0
 10
64.3989675103
 20
41.9199942849
 30
0.0
 10
64.311940893
 20
41.9607703569
 30
0.0
 10
64.1208301282
 20
42.0136139584
 30
0.0
 10
63.8531605155
 20
42.0207861437
 30
0.0
 10
63.5179636665
 20
41.9396894485
 30
0.0
 10
63.2997100436
 20
41.8358783296
 30
0.0
 10
63.1899898479
 20
41.7725317232
 30
0.0
  0
SPLINE
  5
53C
100
AcDbEntity
  8
0
100
AcDbSpline
 62
7
  6
BYLAYER
 70
0
 71
3
 72
12
 73
8
 74
0
 42
0.0000001
 43
0.0000001
 44
0.0000000001
 40
0.0
 40
0.0
 40
0.0
 40
0.0
 40
0.0916754361
 40
0.1894771915
 40
0.4169836845
 40
0.6925201565
 40
1.0
 40
1.0
 40
1.0
 40
1.0
 10
58.176545511
 20
28.6557541699
 30
0.0
 10
58.1813148394
 20
28.6530087082
 30
0.0
 10
58.1902803321
 20
28.6456256834
 30
0.0
 10
58.2038265515
 20
28.6241814794
 30
0.0
 10
58.2100915432
 20
28.5874432402
 30
0.0
 10
58.2026552076
 20
28.5389132284
 30
0.0
 10
58.1893444419
 20
28.5061542937
 30
0.0
 10
58.1806262029
 20
28.4898856688
 30
0.0
  0
SPLINE
  5
53D
100
AcDbEntity
  8
0
100
AcDbSpline
 62
7
  6
BYLAYER
 70
0
 71
3
 72
9
 73
5
 74
0
 42
0.0000001
 43
0.0000001
 44
0.0000000001
 40
0.0
 40
0.0
 40
0.0
 40
0.0
 40
0.254701118
 40
1.0
 40
1.0
 40
1.0
 40
1.0
 10
58.1806262029
 20
28.4898856688
 30
0.0
 10
58.1779355306
 20
28.4848647536
 30
0.0
 10
58.1667093794
 20
28.4655189717
 30
0.0
 10
58.1530360359
 20
28.4475525526
 30
0.0
 10
58.1415229307
 20
28.4354987256
 30
0.0
  0
SPLINE
  5
53E
100
AcDbEntity
  8
0
100
AcDbSpline
 62
7
  6
BYLAYER
 70
0
 71
3
 72
11
 73
7
 74
0
 42
0.0000001
 43
0.0000001
 44
0.0000000001
 40
0.0
 40
0.0
 40
0.0
 40
0.0
 40
0.1901419794
 40
0.4174405248
 40
0.6913905976
 40
1.0
 40
1.0
 40
1.0
 40
1.0
 10
58.2952690047
 20
28.4138445412
 30
0.0
 10
58.3043941228
 20
28.4086031657
 30
0.0
 10
58.3204631164
 20
28.3899278796
 30
0.0
 10
58.3283466356
 20
28.3514973693
 30
0.0
 10
58.3236096388
 20
28.306464502
 30
0.0
 10
58.3127756471
 20
28.2757723864
 30
0.0
 10
58.3055283387
 20
28.2603064111
 30
0.0
  0
SPLINE
  5
53F
100
AcDbEntity
  8
0
100
AcDbSpline
 62
7
  6
BYLAYER
 70
0
 71
3
 72
9
 73
5
 74
0
 42
0.0000001
 43
0.0000001
 44
0.0000000001
 40
0.0
 40
0.0
 40
0.0
 40
0.0
 40
0.2520747087
 40
1.0
 40
1.0
 40
1.0
 40
1.0
 10
58.3055283387
 20
28.2603064111
 30
0.0
 10
58.303117688
 20
28.2551620097
 30
0.0
 10
58.2928571712
 20
28.2350909239
 30
0.0
 10
58.2800504675
 20
28.2162968547
 30
0.0
 10
58.2691337423
 20
28.2034528118
 30
0.0
  0
SPLINE
  5
540
100
AcDbEntity
  8
0
100
AcDbSpline
 62
7
  6
BYLAYER
 70
0
 71
3
 72
11
 73
7
 74
0
 42
0.0000001
 43
0.0000001
 44
0.0000000001
 40
0.0
 40
0.0
 40
0.0
 40
0.0
 40
0.1930430361
 40
0.420029574
 40
0.6917473201
 40
1.0
 40
1.0
 40
1.0
 40
1.0
 10
58.4382930001
 20
28.1999370716
 30
0.0
 10
58.4467949566
 20
28.195037122
 30
0.0
 10
58.461961694
 20
28.1782641268
 30
0.0
 10
58.4707726939
 20
28.1433412932
 30
0.0
 10
58.4683536451
 20
28.1019710614
 30
0.0
 10
58.4598673609
 20
28.0734631938
 30
0.0
 10
58.4540045453
 20
28.0589320438
 30
0.0
  0
SPLINE
  5
541
100
AcDbEntity
  8
0
100
AcDbSpline
 62
7
  6
BYLAYER
 70
0
 71
3
 72
9
 73
5
 74
0
 42
0.0000001
 43
0.0000001
 44
0.0000000001
 40
0.0
 40
0.0
 40
0.0
 40
0.0
 40
0.7517197252
 40
1.0
 40
1.0
 40
1.0
 40
1.0
 10
58.4540045453
 20
28.0589320438
 30
0.0
 10
58.4476526131
 20
28.0431886046
 30
0.0
 10
58.4370200289
 20
28.0230363517
 30
0.0
 10
58.4240162705
 20
28.0045652259
 30
0.0
 10
58.4206291306
 20
28.0000968433
 30
0.0
  0
SPLINE
  5
542
100
AcDbEntity
  8
0
100
AcDbSpline
 62
7
  6
BYLAYER
 70
0
 71
3
 72
11
 73
7
 74
0
 42
0.0000001
 43
0.0000001
 44
0.0000000001
 40
0.0
 40
0.0
 40
0.0
 40
0.0
 40
0.1963246562
 40
0.4234109269
 40
0.6928990383
 40
1.0
 40
1.0
 40
1.0
 40
1.0
 10
58.6043898876
 20
28.0158433564
 30
0.0
 10
58.6122715118
 20
28.0112827627
 30
0.0
 10
58.6265164682
 20
27.996320851
 30
0.0
 10
58.6360283977
 20
27.9648399129
 30
0.0
 10
58.6356907108
 20
27.9271866301
 30
0.0
 10
58.6293650563
 20
27.9009692885
 30
0.0
 10
58.6247880761
 20
27.8874806219
 30
0.0
  0
SPLINE
  5
543
100
AcDbEntity
  8
0
100
AcDbSpline
 62
7
  6
BYLAYER
 70
0
 71
3
 72
9
 73
5
 74
0
 42
0.0000001
 43
0.0000001
 44
0.0000000001
 40
0.0
 40
0.0
 40
0.0
 40
0.0
 40
0.2468763173
 40
1.0
 40
1.0
 40
1.0
 40
1.0
 10
58.6247880761
 20
27.8874806219
 30
0.0
 10
58.6230030361
 20
27.8822199895
 30
0.0
 10
58.6149938004
 20
27.861183099
 30
0.0
 10
58.6042046091
 20
27.8412076302
 30
0.0
 10
58.5947165904
 20
27.8271657814
 30
0.0
  0
SPLINE
  5
544
100
AcDbEntity
  8
0
100
AcDbSpline
 62
7
  6
BYLAYER
 70
0
 71
3
 72
13
 73
9
 74
0
 42
0.0000001
 43
0.0000001
 44
0.0000000001
 40
0.0
 40
0.0
 40
0.0
 40
0.0
 40
0.2771873881
 40
0.5672408717
 40
0.69895197
 40
0.8144994825
 40
0.9130299759
 40
1.0
 40
1.0
 40
1.0
 40
1.0
 10
61.4673028667
 20
44.8314668882
 30
0.0
 10
61.464952505
 20
44.8053249747
 30
0.0
 10
61.4486039594
 20
44.7527723365
 30
0.0
 10
61.4097193087
 20
44.6977418116
 30
0.0
 10
61.3703382452
 20
44.6650535379
 30
0.0
 10
61.3407853605
 20
44.6501333417
 30
0.0
 10
61.3120921612
 20
44.6452968283
 30
0.0
 10
61.2943912155
 20
44.6500728264
 30
0.0
 10
61.2872587245
 20
44.654189677
 30
0.0
  0
SPLINE
  5
545
100
AcDbEntity
  8
0
100
AcDbSpline
 62
7
  6
BYLAYER
 70
0
 71
3
 72
13
 73
9
 74
0
 42
0.0000001
 43
0.0000001
 44
0.0000000001
 40
0.0
 40
0.0
 40
0.0
 40
0.0
 40
0.2832196472
 40
0.5716645975
 40
0.7014505632
 40
0.8153148785
 40
0.9130397291
 40
1.0
 40
1.0
 40
1.0
 40
1.0
 10
61.7568842157
 20
44.9406327461
 30
0.0
 10
61.7528135112
 20
44.9152677075
 30
0.0
 10
61.7349109955
 20
44.865465631
 30
0.0
 10
61.6958817198
 20
44.8137917901
 30
0.0
 10
61.6576310178
 20
44.7838956572
 30
0.0
 10
61.6292959241
 20
44.7706021437
 30
0.0
 10
61.6019515892
 20
44.7666615275
 30
0.0
 10
61.5851897944
 20
44.771435756
 30
0.0
 10
61.5783523782
 20
44.7753685485
 30
0.0
  0
SPLINE
  5
546
100
AcDbEntity
  8
0
100
AcDbSpline
 62
7
  6
BYLAYER
 70
0
 71
3
 72
9
 73
5
 74
0
 42
0.0000001
 43
0.0000001
 44
0.0000000001
 40
0.0
 40
0.0
 40
0.0
 40
0.0
 40
0.2410265301
 40
1.0
 40
1.0
 40
1.0
 40
1.0
 10
62.0405938841
 20
45.0158031049
 30
0.0
 10
62.0394612308
 20
45.0108274076
 30
0.0
 10
62.0340258295
 20
44.9903576201
 30
0.0
 10
62.025876943
 20
44.9706128343
 30
0.0
 10
62.0183354231
 20
44.9564235776
 30
0.0
  0
SPLINE
  5
547
100
AcDbEntity
  8
0
100
AcDbSpline
 62
7
  6
BYLAYER
 70
0
 71
3
 72
13
 73
9
 74
0
 42
0.0000001
 43
0.0000001
 44
0.0000000001
 40
0.0
 40
0.0
 40
0.0
 40
0.0
 40
0.3054364978
 40
0.5831093493
 40
0.7045056311
 40
0.812847639
 40
0.9098068103
 40
1.0
 40
1.0
 40
1.0
 40
1.0
 10
62.0183354231
 20
44.9564235776
 30
0.0
 10
62.0089424883
 20
44.9387509114
 30
0.0
 10
61.9868910123
 20
44.9070932971
 30
0.0
 10
61.9517917052
 20
44.8760592143
 30
0.0
 10
61.9219410818
 20
44.8609970166
 30
0.0
 10
61.901043971
 20
44.8555045857
 30
0.0
 10
61.8814023984
 20
44.8556800185
 30
0.0
 10
61.8695817529
 20
44.8599090835
 30
0.0
 10
61.8644601334
 20
44.862858004
 30
0.0
  0
SPLINE
  5
548
100
AcDbEntity
  8
0
100
AcDbSpline
 62
7
  6
BYLAYER
 70
0
 71
3
 72
9
 73
5
 74
0
 42
0.0000001
 43
0.0000001
 44
0.0000000001
 40
0.0
 40
0.0
 40
0.0
 40
0.0
 40
0.2434120245
 40
1.0
 40
1.0
 40
1.0
 40
1.0
 10
62.316011361
 20
45.0563366375
 30
0.0
 10
62.3145428121
 20
45.0513192048
 30
0.0
 10
62.3078160591
 20
45.0309164938
 30
0.0
 10
62.2985110672
 20
45.0113570126
 30
0.0
 10
62.2901299378
 20
44.9974353826
 30
0.0
  0
SPLINE
  5
549
100
AcDbEntity
  8
0
100
AcDbSpline
 62
7
  6
BYLAYER
 70
0
 71
3
 72
13
 73
9
 74
0
 42
0.0000001
 43
0.0000001
 44
0.0000000001
 40
0.0
 40
0.0
 40
0.0
 40
0.0
 40
0.306858291
 40
0.5824915898
 40
0.7029878882
 40
0.8110448877
 40
0.9086220388
 40
1.0
 40
1.0
 40
1.0
 40
1.0
 10
62.2901299378
 20
44.9974353826
 30
0.0
 10
62.2804865022
 20
44.9814169755
 30
0.0
 10
62.2587021583
 20
44.9529916541
 30
0.0
 10
62.2249616805
 20
44.9256093411
 30
0.0
 10
62.1968717152
 20
44.912753111
 30
0.0
 10
62.1773072852
 20
44.9083769675
 30
0.0
 10
62.1589810402
 20
44.9090203323
 30
0.0
 10
62.1479553541
 20
44.913113883
 30
0.0
 10
62.1431345288
 20
44.9158994783
 30
0.0
  0
SPLINE
  5
54A
100
AcDbEntity
  8
0
100
AcDbSpline
 62
7
  6
BYLAYER
 70
0
 71
3
 72
9
 73
5
 74
0
 42
0.0000001
 43
0.0000001
 44
0.0000000001
 40
0.0
 40
0.0
 40
0.0
 40
0.0
 40
0.2458212406
 40
1.0
 40
1.0
 40
1.0
 40
1.0
 10
62.5807868816
 20
45.0618875261
 30
0.0
 10
62.5789970975
 20
45.0568715046
 30
0.0
 10
62.5710611508
 20
45.0367082669
 30
0.0
 10
62.5606683913
 20
45.0174940208
 30
0.0
 10
62.5515033074
 20
45.0039670683
 30
0.0
  0
SPLINE
  5
54B
100
AcDbEntity
  8
0
100
AcDbSpline
 62
7
  6
BYLAYER
 70
0
 71
3
 72
11
 73
7
 74
0
 42
0.0000001
 43
0.0000001
 44
0.0000000001
 40
0.0
 40
0.0
 40
0.0
 40
0.0
 40
0.3085247105
 40
0.5829649023
 40
0.8102675715
 40
1.0
 40
1.0
 40
1.0
 40
1.0
 10
62.5515033074
 20
45.0039670683
 30
0.0
 10
62.541783946
 20
44.9896220451
 30
0.0
 10
62.5204576197
 20
44.9643486674
 30
0.0
 10
62.4834867534
 20
44.937042166
 30
0.0
 10
62.4458047377
 20
44.9241505972
 30
0.0
 10
62.4212164922
 20
44.9286963411
 30
0.0
 10
62.41199625
 20
44.9340381821
 30
0.0
  0
SPLINE
  5
54C
100
AcDbEntity
  8
0
100
AcDbSpline
 62
7
  6
BYLAYER
 70
0
 71
3
 72
9
 73
5
 74
0
 42
0.0000001
 43
0.0000001
 44
0.0000000001
 40
0.0
 40
0.0
 40
0.0
 40
0.0
 40
0.2482488485
 40
1.0
 40
1.0
 40
1.0
 40
1.0
 10
62.8326614746
 20
45.0324084125
 30
0.0
 10
62.8305677498
 20
45.02743657
 30
0.0
 10
62.821513365
 20
45.007679537
 30
0.0
 10
62.8101109508
 20
44.9889689025
 30
0.0
 10
62.8002255865
 20
44.9759629088
 30
0.0
  0
SPLINE
  5
54D
100
AcDbEntity
  8
0
100
AcDbSpline
 62
7
  6
BYLAYER
 70
0
 71
3
 72
11
 73
7
 74
0
 42
0.0000001
 43
0.0000001
 44
0.0000000001
 40
0.0
 40
0.0
 40
0.0
 40
0.0
 40
0.308320282
 40
0.5805556294
 40
0.8074752757
 40
1.0
 40
1.0
 40
1.0
 40
1.0
 10
62.8002255865
 20
44.9759629088
 30
0.0
 10
62.7905907297
 20
44.9632865031
 30
0.0
 10
62.7699588594
 20
44.9411457183
 30
0.0
 10
62.7349567061
 20
44.9177197085
 30
0.0
 10
62.6998412002
 20
44.907421406
 30
0.0
 10
62.677361872
 20
44.9121489144
 30
0.0
 10
62.6687555953
 20
44.9171272346
 30
0.0
  0
SPLINE
  5
54E
100
AcDbEntity
  8
0
100
AcDbSpline
 62
7
  6
BYLAYER
 70
0
 71
3
 72
10
 73
6
 74
0
 42
0.0000001
 43
0.0000001
 44
0.0000000001
 40
0.0
 40
0.0
 40
0.0
 40
0.0
 40
0.5550935267
 40
0.7970955845
 40
1.0
 40
1.0
 40
1.0
 40
1.0
 10
63.0694862347
 20
44.968150802
 30
0.0
 10
63.0554554111
 20
44.9393233601
 30
0.0
 10
63.0277940442
 20
44.9003717148
 30
0.0
 10
62.9800002462
 20
44.8671941207
 30
0.0
 10
62.954801767
 20
44.8591831589
 30
0.0
 10
62.9431065479
 20
44.8584339441
 30
0.0
  0
SPLINE
  5
54F
100
AcDbEntity
  8
0
100
AcDbSpline
 62
7
  6
BYLAYER
 70
0
 71
3
 72
9
 73
5
 74
0
 42
0.0000001
 43
0.0000001
 44
0.0000000001
 40
0.0
 40
0.0
 40
0.0
 40
0.0
 40
0.2642116578
 40
1.0
 40
1.0
 40
1.0
 40
1.0
 10
62.9431065479
 20
44.8584339441
 30
0.0
 10
62.9402171915
 20
44.8582488472
 30
0.0
 10
62.9292589323
 20
44.8582117413
 30
0.0
 10
62.9182165715
 20
44.8612992433
 30
0.0
 10
62.911230153
 20
44.8653242081
 30
0.0
  0
SPLINE
  5
550
100
AcDbEntity
  8
0
100
AcDbSpline
 62
7
  6
BYLAYER
 70
0
 71
3
 72
11
 73
7
 74
0
 42
0.0000001
 43
0.0000001
 44
0.0000000001
 40
0.0
 40
0.0
 40
0.0
 40
0.0
 40
0.2915301221
 40
0.5645673191
 40
0.8023126913
 40
1.0
 40
1.0
 40
1.0
 40
1.0
 10
63.2892406566
 20
44.869662918
 30
0.0
 10
63.281289068
 20
44.8553312926
 30
0.0
 10
63.2634729692
 20
44.8288102134
 30
0.0
 10
63.2310367525
 20
44.7969208809
 30
0.0
 10
63.196389188
 20
44.7764304954
 30
0.0
 10
63.1715504948
 20
44.771412036
 30
0.0
 10
63.1604633881
 20
44.7721835391
 30
0.0
  0
SPLINE
  5
551
100
AcDbEntity
  8
0
100
AcDbSpline
 62
7
  6
BYLAYER
 70
0
 71
3
 72
9
 73
5
 74
0
 42
0.0000001
 43
0.0000001
 44
0.0000000001
 40
0.0
 40
0.0
 40
0.0
 40
0.0
 40
0.2583737391
 40
1.0
 40
1.0
 40
1.0
 40
1.0
 10
63.1604633881
 20
44.7721835391
 30
0.0
 10
63.1583811965
 20
44.7723284297
 30
0.0
 10
63.1503582514
 20
44.7732997484
 30
0.0
 10
63.1425376347
 20
44.7760720454
 30
0.0
 10
63.1373474177
 20
44.7790645172
 30
0.0
  0
SPLINE
  5
552
100
AcDbEntity
  8
0
100
AcDbSpline
 62
7
  6
BYLAYER
 70
0
 71
3
 72
13
 73
9
 74
0
 42
0.0000001
 43
0.0000001
 44
0.0000000001
 40
0.0
 40
0.0
 40
0.0
 40
0.0
 40
0.3072555474
 40
0.5824389985
 40
0.7026715557
 40
0.8106459178
 40
0.9083418643
 40
1.0
 40
1.0
 40
1.0
 40
1.0
 10
63.490049873
 20
44.7377850244
 30
0.0
 10
63.48029995
 20
44.7222310601
 30
0.0
 10
63.4589579521
 20
44.6943929065
 30
0.0
 10
63.4255893678
 20
44.667838577
 30
0.0
 10
63.3979174034
 20
44.655645747
 30
0.0
 10
63.3787122433
 20
44.6515470216
 30
0.0
 10
63.3607338745
 20
44.6522900435
 30
0.0
 10
63.3499135155
 20
44.6563328213
 30
0.0
 10
63.3451724716
 20
44.6590734512
 30
0.0
  0
SPLINE
  5
553
100
AcDbEntity
  8
0
100
AcDbSpline
 62
7
  6
BYLAYER
 70
0
 71
3
 72
13
 73
9
 74
0
 42
0.0000001
 43
0.0000001
 44
0.0000000001
 40
0.0
 40
0.0
 40
0.0
 40
0.0
 40
0.0904688629
 40
0.1875712385
 40
0.2957954492
 40
0.4168835819
 40
0.6941794875
 40
1.0
 40
1.0
 40
1.0
 40
1.0
 10
58.7921488734
 20
27.8631446397
 30
0.0
 10
58.7971886104
 20
27.8602313458
 30
0.0
 10
58.8066301505
 20
27.8522695346
 30
0.0
 10
58.8165251065
 20
27.8356965364
 30
0.0
 10
58.8223064764
 20
27.8153059822
 30
0.0
 10
58.8245000107
 20
27.7825988057
 30
0.0
 10
58.8158018744
 20
27.7374281468
 30
0.0
 10
58.8000389673
 20
27.7030063499
 30
0.0
 10
58.7899108687
 20
27.6861350131
 30
0.0
  0
SPLINE
  5
554
100
AcDbEntity
  8
0
100
AcDbSpline
 62
7
  6
BYLAYER
 70
0
 71
3
 72
11
 73
7
 74
0
 42
0.0000001
 43
0.0000001
 44
0.0000000001
 40
0.0
 40
0.0
 40
0.0
 40
0.0
 40
0.3087019647
 40
0.5827555173
 40
0.8097657392
 40
1.0
 40
1.0
 40
1.0
 40
1.0
 10
63.6702006505
 20
44.5736422568
 30
0.0
 10
63.6604218177
 20
44.55976123
 30
0.0
 10
63.6395328973
 20
44.5350768699
 30
0.0
 10
63.6030770202
 20
44.5086068798
 30
0.0
 10
63.5660060084
 20
44.4965932047
 30
0.0
 10
63.541988089
 20
44.5011342387
 30
0.0
 10
63.5329314574
 20
44.5063747345
 30
0.0
  0
SPLINE
  5
555
100
AcDbEntity
  8
0
100
AcDbSpline
 62
7
  6
BYLAYER
 70
0
 71
3
 72
11
 73
7
 74
0
 42
0.0000001
 43
0.0000001
 44
0.0000000001
 40
0.0
 40
0.0
 40
0.0
 40
0.0
 40
0.3082584671
 40
0.5802525251
 40
0.8069009568
 40
1.0
 40
1.0
 40
1.0
 40
1.0
 10
63.8281560062
 20
44.3786350235
 30
0.0
 10
63.8185057009
 20
44.3664181217
 30
0.0
 10
63.7983002158
 20
44.3448680009
 30
0.0
 10
63.763904237
 20
44.3221458149
 30
0.0
 10
63.7293947747
 20
44.3126926824
 30
0.0
 10
63.7074779518
 20
44.3174112404
 30
0.0
 10
63.6990283449
 20
44.3222810193
 30
0.0
  0
SPLINE
  5
556
100
AcDbEntity
  8
0
100
AcDbSpline
 62
7
  6
BYLAYER
 70
0
 71
3
 72
12
 73
8
 74
0
 42
0.0000001
 43
0.0000001
 44
0.0000000001
 40
0.0
 40
0.0
 40
0.0
 40
0.0
 40
0.0918215064
 40
0.189707875
 40
0.4169628249
 40
0.6926424437
 40
1.0
 40
1.0
 40
1.0
 40
1.0
 10
58.9999739273
 20
37.1329313707
 30
0.0
 10
59.0047209563
 20
37.1301944234
 30
0.0
 10
59.0136353501
 20
37.1228370601
 30
0.0
 10
59.02713398
 20
37.1015490139
 30
0.0
 10
59.0335216034
 20
37.0650603113
 30
0.0
 10
59.0262359157
 20
37.0168038057
 30
0.0
 10
59.0131345202
 20
36.9841926647
 30
0.0
 10
59.0045466369
 20
36.9679855599
 30
0.0
  0
SPLINE
  5
557
100
AcDbEntity
  8
0
100
AcDbSpline
 62
7
  6
BYLAYER
 70
0
 71
3
 72
11
 73
7
 74
0
 42
0.0000001
 43
0.0000001
 44
0.0000000001
 40
0.0
 40
0.0
 40
0.0
 40
0.0
 40
0.3069732782
 40
0.5769437689
 40
0.8036446134
 40
1.0
 40
1.0
 40
1.0
 40
1.0
 10
63.9625683207
 20
44.1544270575
 30
0.0
 10
63.9531890994
 20
44.1438425755
 30
0.0
 10
63.9338549892
 20
44.1253188908
 30
0.0
 10
63.9016727435
 20
44.1061717018
 30
0.0
 10
63.8697856855
 20
44.0990278917
 30
0.0
 10
63.8498964746
 20
44.1038679584
 30
0.0
 10
63.8420523403
 20
44.1083735497
 30
0.0
  0
SPLINE
  5
558
100
AcDbEntity
  8
0
100
AcDbSpline
 62
7
  6
BYLAYER
 70
0
 71
3
 72
11
 73
7
 74
0
 42
0.0000001
 43
0.0000001
 44
0.0000000001
 40
0.0
 40
0.0
 40
0.0
 40
0.0
 40
0.190399872
 40
0.4174459846
 40
0.6916732558
 40
1.0
 40
1.0
 40
1.0
 40
1.0
 10
59.2260911919
 20
37.0466716798
 30
0.0
 10
59.2351644094
 20
37.0414444834
 30
0.0
 10
59.2511400257
 20
37.022922307
 30
0.0
 10
59.2591644979
 20
36.9847604483
 30
0.0
 10
59.2545436478
 20
36.9400073854
 30
0.0
 10
59.2439149157
 20
36.9094711088
 30
0.0
 10
59.2367926983
 20
36.8940826254
 30
0.0
  0
SPLINE
  5
559
100
AcDbEntity
  8
0
100
AcDbSpline
 62
7
  6
BYLAYER
 70
0
 71
3
 72
11
 73
7
 74
0
 42
0.0000001
 43
0.0000001
 44
0.0000000001
 40
0.0
 40
0.0
 40
0.0
 40
0.0
 40
0.3048402005
 40
0.5728307215
 40
0.7999940408
 40
1.0
 40
1.0
 40
1.0
 40
1.0
 10
64.0722908354
 20
43.9029312219
 30
0.0
 10
64.0633095786
 20
43.8939257996
 30
0.0
 10
64.0450167797
 20
43.8782946138
 30
0.0
 10
64.0151781737
 20
43.8625133874
 30
0.0
 10
63.985963473
 20
43.857440708
 30
0.0
 10
63.9680078154
 20
43.8623008341
 30
0.0
 10
63.960775834
 20
43.866463921
 30
0.0
  0
SPLINE
  5
55A
100
AcDbEntity
  8
0
100
AcDbSpline
 62
7
  6
BYLAYER
 70
0
 71
3
 72
11
 73
7
 74
0
 42
0.0000001
 43
0.0000001
 44
0.0000000001
 40
0.0
 40
0.0
 40
0.0
 40
0.0
 40
0.3018573945
 40
0.5679055088
 40
0.7959459024
 40
1.0
 40
1.0
 40
1.0
 40
1.0
 10
64.1563874367
 20
43.6262931907
 30
0.0
 10
64.1479150283
 20
43.6187935564
 30
0.0
 10
64.1308144522
 20
43.6058938181
 30
0.0
 10
64.103427965
 20
43.5932453511
 30
0.0
 10
64.0769128602
 20
43.5899917845
 30
0.0
 10
64.0607996757
 20
43.5947740897
 30
0.0
 10
64.0541787109
 20
43.5986038252
 30
0.0
  0
SPLINE
  5
55B
100
AcDbEntity
  8
0
100
AcDbSpline
 62
7
  6
BYLAYER
 70
0
 71
3
 72
11
 73
7
 74
0
 42
0.0000001
 43
0.0000001
 44
0.0000000001
 40
0.0
 40
0.0
 40
0.0
 40
0.0
 40
0.1932821158
 40
0.4200431658
 40
0.6921930673
 40
1.0
 40
1.0
 40
1.0
 40
1.0
 10
59.4685657497
 20
36.9948686533
 30
0.0
 10
59.4770126828
 20
36.9899825058
 30
0.0
 10
59.4920999159
 20
36.9733745867
 30
0.0
 10
59.5010307958
 20
36.9387066492
 30
0.0
 10
59.4987006007
 20
36.897619806
 30
0.0
 10
59.4904121278
 20
36.8692742184
 30
0.0
 10
59.4846676113
 20
36.8548345201
 30
0.0
  0
SPLINE
  5
55C
100
AcDbEntity
  8
0
100
AcDbSpline
 62
7
  6
BYLAYER
 70
0
 71
3
 72
11
 73
7
 74
0
 42
0.0000001
 43
0.0000001
 44
0.0000000001
 40
0.0
 40
0.0
 40
0.0
 40
0.0
 40
0.2980400539
 40
0.5621652522
 40
0.7915278573
 40
1.0
 40
1.0
 40
1.0
 40
1.0
 10
64.214140642
 20
43.326873142
 30
0.0
 10
64.2062717301
 20
43.3207877851
 30
0.0
 10
64.1904951451
 20
43.3104314388
 30
0.0
 10
64.165646443
 20
43.3006649206
 30
0.0
 10
64.1418339408
 20
43.2989545305
 30
0.0
 10
64.1274782274
 20
43.3035804883
 30
0.0
 10
64.1214617735
 20
43.3070756286
 30
0.0
  0
SPLINE
  5
55D
100
AcDbEntity
  8
0
100
AcDbSpline
 62
7
  6
BYLAYER
 70
0
 71
3
 72
11
 73
7
 74
0
 42
0.0000001
 43
0.0000001
 44
0.0000000001
 40
0.0
 40
0.0
 40
0.0
 40
0.0
 40
0.2934405736
 40
0.5556371635
 40
0.7868004876
 40
1.0
 40
1.0
 40
1.0
 40
1.0
 10
64.2450577212
 20
43.007225622
 30
0.0
 10
64.2378705938
 20
43.0024464442
 30
0.0
 10
64.2235303876
 20
42.9944195707
 30
0.0
 10
64.2012823203
 20
42.9872686544
 30
0.0
 10
64.180150765
 20
42.9868075649
 30
0.0
 10
64.1674756853
 20
42.991219826
 30
0.0
 10
64.1620547759
 20
42.9943722947
 30
0.0
  0
SPLINE
  5
55E
100
AcDbEntity
  8
0
100
AcDbSpline
 62
7
  6
BYLAYER
 70
0
 71
3
 72
11
 73
7
 74
0
 42
0.0000001
 43
0.0000001
 44
0.0000000001
 40
0.0
 40
0.0
 40
0.0
 40
0.0
 40
0.2881508776
 40
0.548392707
 40
0.7818410833
 40
1.0
 40
1.0
 40
1.0
 40
1.0
 10
64.2488749007
 20
42.6700777507
 30
0.0
 10
64.2424314206
 20
42.6664816514
 30
0.0
 10
64.2296194845
 20
42.6605477223
 30
0.0
 10
64.2100108635
 20
42.6557214375
 30
0.0
 10
64.1915188782
 20
42.6562255027
 30
0.0
 10
64.1804435672
 20
42.660358982
 30
0.0
 10
64.1756148713
 20
42.6631687215
 30
0.0
  0
SPLINE
  5
55F
100
AcDbEntity
  8
0
100
AcDbSpline
 62
7
  6
BYLAYER
 70
0
 71
3
 72
12
 73
8
 74
0
 42
0.0000001
 43
0.0000001
 44
0.0000000001
 40
0.0
 40
0.0
 40
0.0
 40
0.0
 40
0.0918215064
 40
0.189707875
 40
0.4169628249
 40
0.6926424437
 40
1.0
 40
1.0
 40
1.0
 40
1.0
 10
58.9999739273
 20
27.7431535737
 30
0.0
 10
59.0047209563
 20
27.7404166264
 30
0.0
 10
59.0136353501
 20
27.7330592631
 30
0.0
 10
59.02713398
 20
27.7117712169
 30
0.0
 10
59.0335216034
 20
27.6752825143
 30
0.0
 10
59.0262359157
 20
27.6270260087
 30
0.0
 10
59.0131345202
 20
27.5944148677
 30
0.0
 10
59.0045466369
 20
27.578207763
 30
0.0
  0
SPLINE
  5
560
100
AcDbEntity
  8
0
100
AcDbSpline
 62
7
  6
BYLAYER
 70
0
 71
3
 72
11
 73
7
 74
0
 42
0.0000001
 43
0.0000001
 44
0.0000000001
 40
0.0
 40
0.0
 40
0.0
 40
0.0
 40
0.190399872
 40
0.4174459846
 40
0.6916732558
 40
1.0
 40
1.0
 40
1.0
 40
1.0
 10
59.2260911919
 20
27.6568938828
 30
0.0
 10
59.2351644094
 20
27.6516666864
 30
0.0
 10
59.2511400257
 20
27.63314451
 30
0.0
 10
59.2591644979
 20
27.5949826514
 30
0.0
 10
59.2545436478
 20
27.5502295884
 30
0.0
 10
59.2439149157
 20
27.5196933118
 30
0.0
 10
59.2367926983
 20
27.5043048284
 30
0.0
  0
SPLINE
  5
561
100
AcDbEntity
  8
0
100
AcDbSpline
 62
7
  6
BYLAYER
 70
0
 71
3
 72
13
 73
9
 74
0
 42
0.0000001
 43
0.0000001
 44
0.0000000001
 40
0.0
 40
0.0
 40
0.0
 40
0.0
 40
0.2771873881
 40
0.5672408717
 40
0.69895197
 40
0.8144994825
 40
0.9130299759
 40
1.0
 40
1.0
 40
1.0
 40
1.0
 10
61.4673028667
 20
35.4416890912
 30
0.0
 10
61.464952505
 20
35.4155471777
 30
0.0
 10
61.4486039594
 20
35.3629945395
 30
0.0
 10
61.4097193087
 20
35.3079640146
 30
0.0
 10
61.3703382452
 20
35.2752757409
 30
0.0
 10
61.3407853605
 20
35.2603555447
 30
0.0
 10
61.3120921612
 20
35.2555190313
 30
0.0
 10
61.2943912155
 20
35.2602950294
 30
0.0
 10
61.2872587245
 20
35.26441188
 30
0.0
  0
SPLINE
  5
562
100
AcDbEntity
  8
0
100
AcDbSpline
 62
7
  6
BYLAYER
 70
0
 71
3
 72
11
 73
7
 74
0
 42
0.0000001
 43
0.0000001
 44
0.0000000001
 40
0.0
 40
0.0
 40
0.0
 40
0.0
 40
0.1932821158
 40
0.4200431658
 40
0.6921930673
 40
1.0
 40
1.0
 40
1.0
 40
1.0
 10
59.4685657497
 20
27.6050908563
 30
0.0
 10
59.4770126828
 20
27.6002047088
 30
0.0
 10
59.4920999159
 20
27.5835967897
 30
0.0
 10
59.5010307958
 20
27.5489288522
 30
0.0
 10
59.4987006007
 20
27.507842009
 30
0.0
 10
59.4904121278
 20
27.4794964214
 30
0.0
 10
59.4846676113
 20
27.4650567231
 30
0.0
  0
SPLINE
  5
563
100
AcDbEntity
  8
0
100
AcDbSpline
 62
7
  6
BYLAYER
 70
0
 71
3
 72
11
 73
7
 74
0
 42
0.0000001
 43
0.0000001
 44
0.0000000001
 40
0.0
 40
0.0
 40
0.0
 40
0.0
 40
0.1965393265
 40
0.4234502416
 40
0.6935247835
 40
1.0
 40
1.0
 40
1.0
 40
1.0
 10
59.725325095
 20
27.5881799089
 30
0.0
 10
59.7331551164
 20
27.5836435065
 30
0.0
 10
59.7473228665
 20
27.5688381449
 30
0.0
 10
59.7569356069
 20
27.5376049886
 30
0.0
 10
59.7566604094
 20
27.5002319455
 30
0.0
 10
59.7505234847
 20
27.4741835901
 30
0.0
 10
59.7460565947
 20
27.4607982982
 30
0.0
  0
SPLINE
  5
564
100
AcDbEntity
  8
0
100
AcDbSpline
 62
7
  6
BYLAYER
 70
0
 71
3
 72
13
 73
9
 74
0
 42
0.0000001
 43
0.0000001
 44
0.0000000001
 40
0.0
 40
0.0
 40
0.0
 40
0.0
 40
0.2832196472
 40
0.5716645975
 40
0.7014505632
 40
0.8153148785
 40
0.9130397291
 40
1.0
 40
1.0
 40
1.0
 40
1.0
 10
61.7568842157
 20
35.5508549492
 30
0.0
 10
61.7528135112
 20
35.5254899105
 30
0.0
 10
61.7349109955
 20
35.475687834
 30
0.0
 10
61.6958817198
 20
35.4240139931
 30
0.0
 10
61.6576310178
 20
35.3941178602
 30
0.0
 10
61.6292959241
 20
35.3808243467
 30
0.0
 10
61.6019515892
 20
35.3768837305
 30
0.0
 10
61.5851897944
 20
35.3816579591
 30
0.0
 10
61.5783523782
 20
35.3855907516
 30
0.0
  0
SPLINE
  5
565
100
AcDbEntity
  8
0
100
AcDbSpline
 62
7
  6
BYLAYER
 70
0
 71
3
 72
11
 73
7
 74
0
 42
0.0000001
 43
0.0000001
 44
0.0000000001
 40
0.0
 40
0.0
 40
0.0
 40
0.0
 40
0.200187844
 40
0.4276675533
 40
0.6956750748
 40
1.0
 40
1.0
 40
1.0
 40
1.0
 10
59.9941868162
 20
27.6063186127
 30
0.0
 10
60.0014123598
 20
27.6021435101
 30
0.0
 10
60.0146066762
 20
27.5890009221
 30
0.0
 10
60.0246959708
 20
27.5611378506
 30
0.0
 10
60.0262156139
 20
27.5274891789
 30
0.0
 10
60.0220294066
 20
27.5038153304
 30
0.0
 10
60.0187295697
 20
27.4915658849
 30
0.0
  0
SPLINE
  5
566
100
AcDbEntity
  8
0
100
AcDbSpline
 62
7
  6
BYLAYER
 70
0
 71
3
 72
11
 73
7
 74
0
 42
0.0000001
 43
0.0000001
 44
0.0000000001
 40
0.0
 40
0.0
 40
0.0
 40
0.0
 40
0.2042450657
 40
0.432707098
 40
0.6986504937
 40
1.0
 40
1.0
 40
1.0
 40
1.0
 10
60.2728612116
 20
27.6593600869
 30
0.0
 10
60.2794883155
 20
27.6555443401
 30
0.0
 10
60.2916664794
 20
27.6439365486
 30
0.0
 10
60.3020201576
 20
27.6193496541
 30
0.0
 10
60.3050619845
 20
27.5894054497
 30
0.0
 10
60.3026124341
 20
27.5681527023
 30
0.0
 10
60.3003601866
 20
27.5570969851
 30
0.0
  0
SPLINE
  5
567
100
AcDbEntity
  8
0
100
AcDbSpline
 62
7
  6
BYLAYER
 70
0
 71
3
 72
9
 73
5
 74
0
 42
0.0000001
 43
0.0000001
 44
0.0000000001
 40
0.0
 40
0.0
 40
0.0
 40
0.0
 40
0.2410265301
 40
1.0
 40
1.0
 40
1.0
 40
1.0
 10
62.0405938841
 20
35.6260253079
 30
0.0
 10
62.0394612308
 20
35.6210496106
 30
0.0
 10
62.0340258295
 20
35.6005798231
 30
0.0
 10
62.025876943
 20
35.5808350373
 30
0.0
 10
62.0183354231
 20
35.5666457806
 30
0.0
  0
SPLINE
  5
568
100
AcDbEntity
  8
0
100
AcDbSpline
 62
7
  6
BYLAYER
 70
0
 71
3
 72
13
 73
9
 74
0
 42
0.0000001
 43
0.0000001
 44
0.0000000001
 40
0.0
 40
0.0
 40
0.0
 40
0.0
 40
0.3054364978
 40
0.5831093493
 40
0.7045056311
 40
0.812847639
 40
0.9098068103
 40
1.0
 40
1.0
 40
1.0
 40
1.0
 10
62.0183354231
 20
35.5666457806
 30
0.0
 10
62.0089424883
 20
35.5489731144
 30
0.0
 10
61.9868910123
 20
35.5173155001
 30
0.0
 10
61.9517917052
 20
35.4862814173
 30
0.0
 10
61.9219410818
 20
35.4712192196
 30
0.0
 10
61.901043971
 20
35.4657267887
 30
0.0
 10
61.8814023984
 20
35.4659022215
 30
0.0
 10
61.8695817529
 20
35.4701312865
 30
0.0
 10
61.8644601334
 20
35.473080207
 30
0.0
  0
SPLINE
  5
569
100
AcDbEntity
  8
0
100
AcDbSpline
 62
7
  6
BYLAYER
 70
0
 71
3
 72
11
 73
7
 74
0
 42
0.0000001
 43
0.0000001
 44
0.0000000001
 40
0.0
 40
0.0
 40
0.0
 40
0.0
 40
0.2087037424
 40
0.4385724316
 40
0.7024423528
 40
1.0
 40
1.0
 40
1.0
 40
1.0
 10
60.5589689667
 20
27.7468495424
 30
0.0
 10
60.5649982942
 20
27.7433815519
 30
0.0
 10
60.5761427504
 20
27.7332061819
 30
0.0
 10
60.586531598
 20
27.7117639347
 30
0.0
 10
60.5908172587
 20
27.6854754692
 30
0.0
 10
60.5898771756
 20
27.6666595411
 30
0.0
 10
60.5885456724
 20
27.6568325105
 30
0.0
  0
SPLINE
  5
56A
100
AcDbEntity
  8
0
100
AcDbSpline
 62
7
  6
BYLAYER
 70
0
 71
3
 72
11
 73
7
 74
0
 42
0.0000001
 43
0.0000001
 44
0.0000000001
 40
0.0
 40
0.0
 40
0.0
 40
0.0
 40
0.2135182033
 40
0.4452292588
 40
0.707005324
 40
1.0
 40
1.0
 40
1.0
 40
1.0
 10
60.8500626236
 20
27.8680284195
 30
0.0
 10
60.8554921579
 20
27.8648945246
 30
0.0
 10
60.8656089696
 20
27.8560765712
 30
0.0
 10
60.8757931362
 20
27.8376136788
 30
0.0
 10
60.8810398609
 20
27.8149032118
 30
0.0
 10
60.8813704269
 20
27.7985099606
 30
0.0
 10
60.8808268939
 20
27.789924595
 30
0.0
  0
SPLINE
  5
56B
100
AcDbEntity
  8
0
100
AcDbSpline
 62
7
  6
BYLAYER
 70
0
 71
3
 72
9
 73
5
 74
0
 42
0.0000001
 43
0.0000001
 44
0.0000000001
 40
0.0
 40
0.0
 40
0.0
 40
0.0
 40
0.2434120245
 40
1.0
 40
1.0
 40
1.0
 40
1.0
 10
62.316011361
 20
35.6665588405
 30
0.0
 10
62.3145428121
 20
35.6615414078
 30
0.0
 10
62.3078160591
 20
35.6411386968
 30
0.0
 10
62.2985110672
 20
35.6215792156
 30
0.0
 10
62.2901299378
 20
35.6076575856
 30
0.0
  0
SPLINE
  5
56C
100
AcDbEntity
  8
0
100
AcDbSpline
 62
7
  6
BYLAYER
 70
0
 71
3
 72
13
 73
9
 74
0
 42
0.0000001
 43
0.0000001
 44
0.0000000001
 40
0.0
 40
0.0
 40
0.0
 40
0.0
 40
0.306858291
 40
0.5824915898
 40
0.7029878882
 40
0.8110448877
 40
0.9086220388
 40
1.0
 40
1.0
 40
1.0
 40
1.0
 10
62.2901299378
 20
35.6076575856
 30
0.0
 10
62.2804865022
 20
35.5916391785
 30
0.0
 10
62.2587021583
 20
35.5632138571
 30
0.0
 10
62.2249616805
 20
35.5358315441
 30
0.0
 10
62.1968717152
 20
35.522975314
 30
0.0
 10
62.1773072852
 20
35.5185991705
 30
0.0
 10
62.1589810402
 20
35.5192425353
 30
0.0
 10
62.1479553541
 20
35.523336086
 30
0.0
 10
62.1431345288
 20
35.5261216813
 30
0.0
  0
SPLINE
  5
56D
100
AcDbEntity
  8
0
100
AcDbSpline
 62
7
  6
BYLAYER
 70
0
 71
3
 72
11
 73
7
 74
0
 42
0.0000001
 43
0.0000001
 44
0.0000000001
 40
0.0
 40
0.0
 40
0.0
 40
0.0
 40
0.2186116406
 40
0.452575031
 40
0.7122545754
 40
1.0
 40
1.0
 40
1.0
 40
1.0
 10
61.1436566167
 20
28.0218594635
 30
0.0
 10
61.1484946648
 20
28.0190647644
 30
0.0
 10
61.15757974
 20
28.0115104844
 30
0.0
 10
61.1673382125
 20
27.9958511265
 30
0.0
 10
61.1732495165
 20
27.9765977772
 30
0.0
 10
61.1746044736
 20
27.9625819906
 30
0.0
 10
61.1747115157
 20
27.9552286433
 30
0.0
  0
SPLINE
  5
56E
100
AcDbEntity
  8
0
100
AcDbSpline
 62
7
  6
BYLAYER
 70
0
 71
3
 72
9
 73
5
 74
0
 42
0.0000001
 43
0.0000001
 44
0.0000000001
 40
0.0
 40
0.0
 40
0.0
 40
0.0
 40
0.2458212406
 40
1.0
 40
1.0
 40
1.0
 40
1.0
 10
62.5807868816
 20
35.6721097291
 30
0.0
 10
62.5789970975
 20
35.6670937076
 30
0.0
 10
62.5710611508
 20
35.6469304699
 30
0.0
 10
62.5606683913
 20
35.6277162238
 30
0.0
 10
62.5515033074
 20
35.6141892713
 30
0.0
  0
SPLINE
  5
56F
100
AcDbEntity
  8
0
100
AcDbSpline
 62
7
  6
BYLAYER
 70
0
 71
3
 72
11
 73
7
 74
0
 42
0.0000001
 43
0.0000001
 44
0.0000000001
 40
0.0
 40
0.0
 40
0.0
 40
0.0
 40
0.3085247105
 40
0.5829649023
 40
0.8102675715
 40
1.0
 40
1.0
 40
1.0
 40
1.0
 10
62.5515033074
 20
35.6141892713
 30
0.0
 10
62.541783946
 20
35.5998442481
 30
0.0
 10
62.5204576197
 20
35.5745708704
 30
0.0
 10
62.4834867534
 20
35.547264369
 30
0.0
 10
62.4458047377
 20
35.5343728002
 30
0.0
 10
62.4212164922
 20
35.5389185441
 30
0.0
 10
62.41199625
 20
35.5442603851
 30
0.0
  0
SPLINE
  5
570
100
AcDbEntity
  8
0
100
AcDbSpline
 62
7
  6
BYLAYER
 70
0
 71
3
 72
9
 73
5
 74
0
 42
0.0000001
 43
0.0000001
 44
0.0000000001
 40
0.0
 40
0.0
 40
0.0
 40
0.0
 40
0.2482488485
 40
1.0
 40
1.0
 40
1.0
 40
1.0
 10
62.8326614746
 20
35.6426306155
 30
0.0
 10
62.8305677498
 20
35.637658773
 30
0.0
 10
62.821513365
 20
35.61790174
 30
0.0
 10
62.8101109508
 20
35.5991911055
 30
0.0
 10
62.8002255865
 20
35.5861851118
 30
0.0
  0
SPLINE
  5
571
100
AcDbEntity
  8
0
100
AcDbSpline
 62
7
  6
BYLAYER
 70
0
 71
3
 72
11
 73
7
 74
0
 42
0.0000001
 43
0.0000001
 44
0.0000000001
 40
0.0
 40
0.0
 40
0.0
 40
0.0
 40
0.308320282
 40
0.5805556294
 40
0.8074752757
 40
1.0
 40
1.0
 40
1.0
 40
1.0
 10
62.8002255865
 20
35.5861851118
 30
0.0
 10
62.7905907297
 20
35.5735087061
 30
0.0
 10
62.7699588594
 20
35.5513679213
 30
0.0
 10
62.7349567061
 20
35.5279419115
 30
0.0
 10
62.6998412002
 20
35.517643609
 30
0.0
 10
62.677361872
 20
35.5223711174
 30
0.0
 10
62.6687555953
 20
35.5273494376
 30
0.0
  0
SPLINE
  5
572
100
AcDbEntity
  8
0
100
AcDbSpline
 62
7
  6
BYLAYER
 70
0
 71
3
 72
10
 73
6
 74
0
 42
0.0000001
 43
0.0000001
 44
0.0000000001
 40
0.0
 40
0.0
 40
0.0
 40
0.0
 40
0.5550935267
 40
0.7970955845
 40
1.0
 40
1.0
 40
1.0
 40
1.0
 10
63.0694862347
 20
35.578373005
 30
0.0
 10
63.0554554111
 20
35.5495455632
 30
0.0
 10
63.0277940442
 20
35.5105939178
 30
0.0
 10
62.9800002462
 20
35.4774163237
 30
0.0
 10
62.954801767
 20
35.4694053619
 30
0.0
 10
62.9431065479
 20
35.4686561471
 30
0.0
  0
SPLINE
  5
573
100
AcDbEntity
  8
0
100
AcDbSpline
 62
7
  6
BYLAYER
 70
0
 71
3
 72
9
 73
5
 74
0
 42
0.0000001
 43
0.0000001
 44
0.0000000001
 40
0.0
 40
0.0
 40
0.0
 40
0.0
 40
0.2642116578
 40
1.0
 40
1.0
 40
1.0
 40
1.0
 10
62.9431065479
 20
35.4686561471
 30
0.0
 10
62.9402171915
 20
35.4684710502
 30
0.0
 10
62.9292589323
 20
35.4684339443
 30
0.0
 10
62.9182165715
 20
35.4715214463
 30
0.0
 10
62.911230153
 20
35.4755464111
 30
0.0
  0
SPLINE
  5
574
100
AcDbEntity
  8
0
100
AcDbSpline
 62
7
  6
BYLAYER
 70
0
 71
3
 72
11
 73
7
 74
0
 42
0.0000001
 43
0.0000001
 44
0.0000000001
 40
0.0
 40
0.0
 40
0.0
 40
0.0
 40
0.2915301221
 40
0.5645673191
 40
0.8023126913
 40
1.0
 40
1.0
 40
1.0
 40
1.0
 10
63.2892406566
 20
35.479885121
 30
0.0
 10
63.281289068
 20
35.4655534956
 30
0.0
 10
63.2634729692
 20
35.4390324164
 30
0.0
 10
63.2310367525
 20
35.4071430839
 30
0.0
 10
63.196389188
 20
35.3866526984
 30
0.0
 10
63.1715504948
 20
35.381634239
 30
0.0
 10
63.1604633881
 20
35.3824057421
 30
0.0
  0
SPLINE
  5
575
100
AcDbEntity
  8
0
100
AcDbSpline
 62
7
  6
BYLAYER
 70
0
 71
3
 72
9
 73
5
 74
0
 42
0.0000001
 43
0.0000001
 44
0.0000000001
 40
0.0
 40
0.0
 40
0.0
 40
0.0
 40
0.2583737391
 40
1.0
 40
1.0
 40
1.0
 40
1.0
 10
63.1604633881
 20
35.3824057421
 30
0.0
 10
63.1583811965
 20
35.3825506327
 30
0.0
 10
63.1503582514
 20
35.3835219514
 30
0.0
 10
63.1425376347
 20
35.3862942484
 30
0.0
 10
63.1373474177
 20
35.3892867202
 30
0.0
  0
SPLINE
  5
576
100
AcDbEntity
  8
0
100
AcDbSpline
 62
7
  6
BYLAYER
 70
0
 71
3
 72
11
 73
7
 74
0
 42
0.0000001
 43
0.0000001
 44
0.0000000001
 40
0.0
 40
0.0
 40
0.0
 40
0.0
 40
0.1965393265
 40
0.4234502416
 40
0.6935247835
 40
1.0
 40
1.0
 40
1.0
 40
1.0
 10
59.725325095
 20
36.9779577058
 30
0.0
 10
59.7331551164
 20
36.9734213034
 30
0.0
 10
59.7473228665
 20
36.9586159418
 30
0.0
 10
59.7569356069
 20
36.9273827856
 30
0.0
 10
59.7566604094
 20
36.8900097425
 30
0.0
 10
59.7505234847
 20
36.8639613871
 30
0.0
 10
59.7460565947
 20
36.8505760951
 30
0.0
  0
SPLINE
  5
577
100
AcDbEntity
  8
0
100
AcDbSpline
 62
7
  6
BYLAYER
 70
0
 71
3
 72
13
 73
9
 74
0
 42
0.0000001
 43
0.0000001
 44
0.0000000001
 40
0.0
 40
0.0
 40
0.0
 40
0.0
 40
0.3072555474
 40
0.5824389985
 40
0.7026715557
 40
0.8106459178
 40
0.9083418643
 40
1.0
 40
1.0
 40
1.0
 40
1.0
 10
63.490049873
 20
35.3480072274
 30
0.0
 10
63.48029995
 20
35.3324532631
 30
0.0
 10
63.4589579521
 20
35.3046151095
 30
0.0
 10
63.4255893678
 20
35.27806078
 30
0.0
 10
63.3979174034
 20
35.26586795
 30
0.0
 10
63.3787122433
 20
35.2617692246
 30
0.0
 10
63.3607338745
 20
35.2625122466
 30
0.0
 10
63.3499135155
 20
35.2665550243
 30
0.0
 10
63.3451724716
 20
35.2692956542
 30
0.0
  0
SPLINE
  5
578
100
AcDbEntity
  8
0
100
AcDbSpline
 62
7
  6
BYLAYER
 70
0
 71
3
 72
11
 73
7
 74
0
 42
0.0000001
 43
0.0000001
 44
0.0000000001
 40
0.0
 40
0.0
 40
0.0
 40
0.0
 40
0.3087019647
 40
0.5827555173
 40
0.8097657392
 40
1.0
 40
1.0
 40
1.0
 40
1.0
 10
63.6702006505
 20
35.1838644599
 30
0.0
 10
63.6604218177
 20
35.169983433
 30
0.0
 10
63.6395328973
 20
35.1452990729
 30
0.0
 10
63.6030770202
 20
35.1188290828
 30
0.0
 10
63.5660060084
 20
35.1068154077
 30
0.0
 10
63.541988089
 20
35.1113564418
 30
0.0
 10
63.5329314574
 20
35.1165969375
 30
0.0
  0
SPLINE
  5
579
100
AcDbEntity
  8
0
100
AcDbSpline
 62
7
  6
BYLAYER
 70
0
 71
3
 72
11
 73
7
 74
0
 42
0.0000001
 43
0.0000001
 44
0.0000000001
 40
0.0
 40
0.0
 40
0.0
 40
0.0
 40
0.200187844
 40
0.4276675533
 40
0.6956750748
 40
1.0
 40
1.0
 40
1.0
 40
1.0
 10
59.9941868162
 20
36.9960964096
 30
0.0
 10
60.0014123598
 20
36.9919213071
 30
0.0
 10
60.0146066762
 20
36.9787787191
 30
0.0
 10
60.0246959708
 20
36.9509156476
 30
0.0
 10
60.0262156139
 20
36.9172669759
 30
0.0
 10
60.0220294066
 20
36.8935931274
 30
0.0
 10
60.0187295697
 20
36.8813436819
 30
0.0
  0
SPLINE
  5
57A
100
AcDbEntity
  8
0
100
AcDbSpline
 62
7
  6
BYLAYER
 70
0
 71
3
 72
11
 73
7
 74
0
 42
0.0000001
 43
0.0000001
 44
0.0000000001
 40
0.0
 40
0.0
 40
0.0
 40
0.0
 40
0.3082584671
 40
0.5802525251
 40
0.8069009568
 40
1.0
 40
1.0
 40
1.0
 40
1.0
 10
63.8281560062
 20
34.9888572265
 30
0.0
 10
63.8185057009
 20
34.9766403247
 30
0.0
 10
63.7983002158
 20
34.9550902039
 30
0.0
 10
63.763904237
 20
34.9323680179
 30
0.0
 10
63.7293947747
 20
34.9229148854
 30
0.0
 10
63.7074779518
 20
34.9276334434
 30
0.0
 10
63.6990283449
 20
34.9325032223
 30
0.0
  0
SPLINE
  5
57B
100
AcDbEntity
  8
0
100
AcDbSpline
 62
7
  6
BYLAYER
 70
0
 71
3
 72
11
 73
7
 74
0
 42
0.0000001
 43
0.0000001
 44
0.0000000001
 40
0.0
 40
0.0
 40
0.0
 40
0.0
 40
0.2042450657
 40
0.432707098
 40
0.6986504937
 40
1.0
 40
1.0
 40
1.0
 40
1.0
 10
60.2728612116
 20
37.0491378839
 30
0.0
 10
60.2794883155
 20
37.0453221371
 30
0.0
 10
60.2916664794
 20
37.0337143456
 30
0.0
 10
60.3020201576
 20
37.0091274511
 30
0.0
 10
60.3050619845
 20
36.9791832467
 30
0.0
 10
60.3026124341
 20
36.9579304993
 30
0.0
 10
60.3003601866
 20
36.9468747821
 30
0.0
  0
SPLINE
  5
57C
100
AcDbEntity
  8
0
100
AcDbSpline
 62
7
  6
BYLAYER
 70
0
 71
3
 72
11
 73
7
 74
0
 42
0.0000001
 43
0.0000001
 44
0.0000000001
 40
0.0
 40
0.0
 40
0.0
 40
0.0
 40
0.3069732782
 40
0.5769437689
 40
0.8036446134
 40
1.0
 40
1.0
 40
1.0
 40
1.0
 10
63.9625683207
 20
34.7646492605
 30
0.0
 10
63.9531890994
 20
34.7540647785
 30
0.0
 10
63.9338549892
 20
34.7355410938
 30
0.0
 10
63.9016727435
 20
34.7163939048
 30
0.0
 10
63.8697856855
 20
34.7092500948
 30
0.0
 10
63.8498964746
 20
34.7140901614
 30
0.0
 10
63.8420523403
 20
34.7185957527
 30
0.0
  0
SPLINE
  5
57D
100
AcDbEntity
  8
0
100
AcDbSpline
 62
7
  6
BYLAYER
 70
0
 71
3
 72
11
 73
7
 74
0
 42
0.0000001
 43
0.0000001
 44
0.0000000001
 40
0.0
 40
0.0
 40
0.0
 40
0.0
 40
0.2087037424
 40
0.4385724316
 40
0.7024423528
 40
1.0
 40
1.0
 40
1.0
 40
1.0
 10
60.5589689667
 20
37.1366273394
 30
0.0
 10
60.5649982942
 20
37.1331593489
 30
0.0
 10
60.5761427504
 20
37.1229839789
 30
0.0
 10
60.586531598
 20
37.1015417317
 30
0.0
 10
60.5908172587
 20
37.0752532662
 30
0.0
 10
60.5898771756
 20
37.0564373381
 30
0.0
 10
60.5885456724
 20
37.0466103075
 30
0.0
  0
SPLINE
  5
57E
100
AcDbEntity
  8
0
100
AcDbSpline
 62
7
  6
BYLAYER
 70
0
 71
3
 72
11
 73
7
 74
0
 42
0.0000001
 43
0.0000001
 44
0.0000000001
 40
0.0
 40
0.0
 40
0.0
 40
0.0
 40
0.3048402005
 40
0.5728307215
 40
0.7999940408
 40
1.0
 40
1.0
 40
1.0
 40
1.0
 10
64.0722908354
 20
34.5131534249
 30
0.0
 10
64.0633095786
 20
34.5041480026
 30
0.0
 10
64.0450167797
 20
34.4885168168
 30
0.0
 10
64.0151781737
 20
34.4727355904
 30
0.0
 10
63.985963473
 20
34.467662911
 30
0.0
 10
63.9680078154
 20
34.4725230371
 30
0.0
 10
63.960775834
 20
34.476686124
 30
0.0
  0
SPLINE
  5
57F
100
AcDbEntity
  8
0
100
AcDbSpline
 62
7
  6
BYLAYER
 70
0
 71
3
 72
11
 73
7
 74
0
 42
0.0000001
 43
0.0000001
 44
0.0000000001
 40
0.0
 40
0.0
 40
0.0
 40
0.0
 40
0.3018573945
 40
0.5679055088
 40
0.7959459024
 40
1.0
 40
1.0
 40
1.0
 40
1.0
 10
64.1563874367
 20
34.2365153937
 30
0.0
 10
64.1479150283
 20
34.2290157594
 30
0.0
 10
64.1308144522
 20
34.2161160212
 30
0.0
 10
64.103427965
 20
34.2034675541
 30
0.0
 10
64.0769128602
 20
34.2002139875
 30
0.0
 10
64.0607996757
 20
34.2049962927
 30
0.0
 10
64.0541787109
 20
34.2088260282
 30
0.0
  0
SPLINE
  5
580
100
AcDbEntity
  8
0
100
AcDbSpline
 62
7
  6
BYLAYER
 70
0
 71
3
 72
18
 73
14
 74
0
 42
0.0000001
 43
0.0000001
 44
0.0000000001
 40
0.0
 40
0.0
 40
0.0
 40
0.0
 40
0.0449831839
 40
0.09264946
 40
0.1454428176
 40
0.2046727748
 40
0.3406354671
 40
0.4924771388
 40
0.6462051204
 40
0.7869120954
 40
0.8490775454
 40
0.9049644119
 40
1.0
 40
1.0
 40
1.0
 40
1.0
 10
58.7896365263
 20
42.2043445004
 30
0.0
 10
58.7946277753
 20
42.2017934658
 30
0.0
 10
58.8041130264
 20
42.1948172226
 30
0.0
 10
58.8148178386
 20
42.1798576484
 30
0.0
 10
58.8213755796
 20
42.1608313793
 30
0.0
 10
58.8248216069
 20
42.1299455972
 30
0.0
 10
58.8182880571
 20
42.0865040653
 30
0.0
 10
58.7972240017
 20
42.0352274726
 30
0.0
 10
58.765318879
 20
41.9891704101
 30
0.0
 10
58.73194103
 20
41.9589459524
 30
0.0
 10
58.7033792623
 20
41.9435543728
 30
0.0
 10
58.6780305719
 20
41.9355410269
 30
0.0
 10
58.6578560709
 20
41.9365564658
 30
0.0
 10
58.6470188865
 20
41.9413313005
 30
0.0
  0
SPLINE
  5
581
100
AcDbEntity
  8
0
100
AcDbSpline
 62
7
  6
BYLAYER
 70
0
 71
3
 72
18
 73
14
 74
0
 42
0.0000001
 43
0.0000001
 44
0.0000000001
 40
0.0
 40
0.0
 40
0.0
 40
0.0
 40
0.0946777306
 40
0.1503574388
 40
0.2126148915
 40
0.3534860611
 40
0.5071682612
 40
0.6590786447
 40
0.7948987107
 40
0.8540483152
 40
0.9070460659
 40
0.9549967038
 40
1.0
 40
1.0
 40
1.0
 40
1.0
 10
59.0042477137
 20
42.5601267207
 30
0.0
 10
59.013764446
 20
42.5531555969
 30
0.0
 10
59.0250904353
 20
42.5365758261
 30
0.0
 10
59.0308735741
 20
42.5106321753
 30
0.0
 10
59.0317417106
 20
42.4782078546
 30
0.0
 10
59.0222478311
 20
42.4341708841
 30
0.0
 10
58.9982947257
 20
42.383498215
 30
0.0
 10
58.9644258662
 20
42.3396430467
 30
0.0
 10
58.9300797533
 20
42.3122759178
 30
0.0
 10
58.9015756513
 20
42.2998989612
 30
0.0
 10
58.8818030276
 20
42.2960153149
 30
0.0
 10
58.8634212481
 20
42.2974572486
 30
0.0
 10
58.8525080958
 20
42.3020471627
 30
0.0
 10
58.8478015993
 20
42.3050954023
 30
0.0
  0
SPLINE
  5
582
100
AcDbEntity
  8
0
100
AcDbSpline
 62
7
  6
BYLAYER
 70
0
 71
3
 72
17
 73
13
 74
0
 42
0.0000001
 43
0.0000001
 44
0.0000000001
 40
0.0
 40
0.0
 40
0.0
 40
0.0
 40
0.0974684355
 40
0.217976871
 40
0.3599169378
 40
0.512438689
 40
0.6621251786
 40
0.7960453278
 40
0.8546119064
 40
0.907317684
 40
0.9551196815
 40
1.0
 40
1.0
 40
1.0
 40
1.0
 10
59.2364717446
 20
42.9022230799
 30
0.0
 10
59.244789915
 20
42.893855522
 30
0.0
 10
59.257358404
 20
42.8690590224
 30
0.0
 10
59.2582969507
 20
42.8246829042
 30
0.0
 10
59.2460596202
 20
42.7755279786
 30
0.0
 10
59.2218505354
 20
42.7270444808
 30
0.0
 10
59.1887813285
 20
42.6854347077
 30
0.0
 10
59.1557019055
 20
42.659472851
 30
0.0
 10
59.1283537691
 20
42.6475468965
 30
0.0
 10
59.1093438104
 20
42.6435290275
 30
0.0
 10
59.0915420246
 20
42.6444387789
 30
0.0
 10
59.0808216819
 20
42.6484341385
 30
0.0
 10
59.0761090742
 20
42.6511372262
 30
0.0
  0
SPLINE
  5
583
100
AcDbEntity
  8
0
100
AcDbSpline
 62
7
  6
BYLAYER
 70
0
 71
3
 72
16
 73
12
 74
0
 42
0.0000001
 43
0.0000001
 44
0.0000000001
 40
0.0
 40
0.0
 40
0.0
 40
0.0
 40
0.1013172437
 40
0.2255784778
 40
0.3691249943
 40
0.5208997823
 40
0.6682961058
 40
0.7995514872
 40
0.9082488398
 40
0.9554512726
 40
1.0
 40
1.0
 40
1.0
 40
1.0
 10
59.4843273654
 20
43.2277149324
 30
0.0
 10
59.4914291253
 20
43.2180639575
 30
0.0
 10
59.5010448257
 20
43.1919808798
 30
0.0
 10
59.4994225562
 20
43.147725731
 30
0.0
 10
59.4854109952
 20
43.0997101248
 30
0.0
 10
59.4605397416
 20
43.0532291413
 30
0.0
 10
59.4276389968
 20
43.0138458653
 30
0.0
 10
59.3906561696
 20
42.986082271
 30
0.0
 10
59.3574407611
 20
42.97487679
 30
0.0
 10
59.3334820214
 20
42.9763511074
 30
0.0
 10
59.3231572319
 20
42.9803080134
 30
0.0
 10
59.3185921042
 20
42.9829381299
 30
0.0
  0
SPLINE
  5
584
100
AcDbEntity
  8
0
100
AcDbSpline
 62
7
  6
BYLAYER
 70
0
 71
3
 72
17
 73
13
 74
0
 42
0.0000001
 43
0.0000001
 44
0.0000000001
 40
0.0
 40
0.0
 40
0.0
 40
0.0
 40
0.1055998512
 40
0.2333519906
 40
0.3781076592
 40
0.4535645871
 40
0.529039326
 40
0.6739839246
 40
0.802515481
 40
0.9092488393
 40
0.9558511602
 40
1.0
 40
1.0
 40
1.0
 40
1.0
 10
59.7456999594
 20
43.5338252966
 30
0.0
 10
59.7515173915
 20
43.5231103798
 30
0.0
 10
59.7584044404
 20
43.4961595412
 30
0.0
 10
59.7543883728
 20
43.4521891337
 30
0.0
 10
59.7415449466
 20
43.4137852454
 30
0.0
 10
59.7260654077
 20
43.3833055955
 30
0.0
 10
59.7075860717
 20
43.3545210965
 30
0.0
 10
59.6807822622
 20
43.3239844714
 30
0.0
 10
59.6447398744
 20
43.2982032189
 30
0.0
 10
59.6127141055
 20
43.2881785078
 30
0.0
 10
59.5897054256
 20
43.2898899642
 30
0.0
 10
59.5797648315
 20
43.2937645481
 30
0.0
 10
59.5753550024
 20
43.2963211096
 30
0.0
  0
SPLINE
  5
585
100
AcDbEntity
  8
0
100
AcDbSpline
 62
7
  6
BYLAYER
 70
0
 71
3
 72
14
 73
10
 74
0
 42
0.0000001
 43
0.0000001
 44
0.0000000001
 40
0.0
 40
0.0
 40
0.0
 40
0.0
 40
0.239418129
 40
0.385709725
 40
0.5358850784
 40
0.6789452013
 40
0.8053621816
 40
0.9106955916
 40
1.0
 40
1.0
 40
1.0
 40
1.0
 10
60.0183595877
 20
43.8179425468
 30
0.0
 10
60.0281287704
 20
43.7929584194
 30
0.0
 10
60.0252410171
 20
43.7462568899
 30
0.0
 10
60.0039782181
 20
43.6903691361
 30
0.0
 10
59.9781173066
 20
43.6479594714
 30
0.0
 10
59.9460088125
 20
43.6131625932
 30
0.0
 10
59.910851294
 20
43.5893745272
 30
0.0
 10
59.8755285689
 20
43.5788860786
 30
0.0
 10
59.8528614431
 20
43.5835873843
 30
0.0
 10
59.8442099401
 20
43.5886151102
 30
0.0
  0
SPLINE
  5
586
100
AcDbEntity
  8
0
100
AcDbSpline
 62
7
  6
BYLAYER
 70
0
 71
3
 72
14
 73
10
 74
0
 42
0.0000001
 43
0.0000001
 44
0.0000000001
 40
0.0
 40
0.0
 40
0.0
 40
0.0
 40
0.249218457
 40
0.3970539658
 40
0.546373092
 40
0.6867223763
 40
0.8096141189
 40
0.9119205274
 40
1.0
 40
1.0
 40
1.0
 40
1.0
 10
60.2999800145
 20
44.0776426946
 30
0.0
 10
60.3070365931
 20
44.0511519084
 30
0.0
 10
60.3014793433
 20
44.0048835468
 30
0.0
 10
60.2777999139
 20
43.9497842295
 30
0.0
 10
60.250972024
 20
43.909376028
 30
0.0
 10
60.2187094163
 20
43.8769916225
 30
0.0
 10
60.1840702944
 20
43.8556851879
 30
0.0
 10
60.1496237196
 20
43.8475587256
 30
0.0
 10
60.1282363505
 20
43.8536417088
 30
0.0
 10
60.1201784767
 20
43.8590218472
 30
0.0
  0
SPLINE
  5
587
100
AcDbEntity
  8
0
100
AcDbSpline
 62
7
  6
BYLAYER
 70
0
 71
3
 72
14
 73
10
 74
0
 42
0.0000001
 43
0.0000001
 44
0.0000000001
 40
0.0
 40
0.0
 40
0.0
 40
0.0
 40
0.2556335871
 40
0.4030140748
 40
0.5504528583
 40
0.6885887473
 40
0.8100843613
 40
0.9121462235
 40
1.0
 40
1.0
 40
1.0
 40
1.0
 10
60.5881585537
 20
44.3107100702
 30
0.0
 10
60.5924444797
 20
44.284027139
 30
0.0
 10
60.5851358771
 20
44.2397888916
 30
0.0
 10
60.5606338697
 20
44.1870385788
 30
0.0
 10
60.5343392973
 20
44.1491954953
 30
0.0
 10
60.503349789
 20
44.1189156412
 30
0.0
 10
60.4703342711
 20
44.098831913
 30
0.0
 10
60.4376206742
 20
44.0907595223
 30
0.0
 10
60.4170233586
 20
44.0955887423
 30
0.0
 10
60.4089770513
 20
44.1002274938
 30
0.0
  0
SPLINE
  5
588
100
AcDbEntity
  8
0
100
AcDbSpline
 62
7
  6
BYLAYER
 70
0
 71
3
 72
14
 73
10
 74
0
 42
0.0000001
 43
0.0000001
 44
0.0000000001
 40
0.0
 40
0.0
 40
0.0
 40
0.0
 40
0.2632035974
 40
0.4108453815
 40
0.5568473787
 40
0.6926693246
 40
0.8119739073
 40
0.9126396129
 40
1.0
 40
1.0
 40
1.0
 40
1.0
 10
60.8804365675
 20
44.5151562247
 30
0.0
 10
60.8822706728
 20
44.4883034749
 30
0.0
 10
60.8731099483
 20
44.4454758174
 30
0.0
 10
60.8472915769
 20
44.3946843967
 30
0.0
 10
60.8209848348
 20
44.3591810251
 30
0.0
 10
60.7906891126
 20
44.3311255073
 30
0.0
 10
60.7588026312
 20
44.3128036842
 30
0.0
 10
60.7274161472
 20
44.3058856246
 30
0.0
 10
60.7078076383
 20
44.3107147572
 30
0.0
 10
60.7000694186
 20
44.3151787884
 30
0.0
  0
SPLINE
  5
589
100
AcDbEntity
  8
0
100
AcDbSpline
 62
7
  6
BYLAYER
 70
0
 71
3
 72
14
 73
10
 74
0
 42
0.0000001
 43
0.0000001
 44
0.0000000001
 40
0.0
 40
0.0
 40
0.0
 40
0.0
 40
0.2703143136
 40
0.4180515096
 40
0.5625956042
 40
0.696228859
 40
0.813515574
 40
0.9129618546
 40
1.0
 40
1.0
 40
1.0
 40
1.0
 10
61.1743204431
 20
44.6892368956
 30
0.0
 10
61.173938858
 20
44.662582973
 30
0.0
 10
61.163129473
 20
44.6213110355
 30
0.0
 10
61.1362209094
 20
44.5727088422
 30
0.0
 10
61.1100345991
 20
44.5395678028
 30
0.0
 10
61.0805165389
 20
44.5136993016
 30
0.0
 10
61.0497885213
 20
44.4970930319
 30
0.0
 10
61.0197434926
 20
44.4912655707
 30
0.0
 10
61.0010969808
 20
44.4960653859
 30
0.0
 10
60.9936647283
 20
44.5003586275
 30
0.0
  0
SPLINE
  5
58A
100
AcDbEntity
  8
0
100
AcDbSpline
 62
7
  6
BYLAYER
 70
0
 71
3
 72
13
 73
9
 74
0
 42
0.0000001
 43
0.0000001
 44
0.0000000001
 40
0.0
 40
0.0
 40
0.0
 40
0.0
 40
0.2893473921
 40
0.5483231349
 40
0.6677488587
 40
0.7817632276
 40
0.8919048406
 40
1.0
 40
1.0
 40
1.0
 40
1.0
 10
61.0686606725
 20
42.9972539868
 30
0.0
 10
61.1783730119
 20
43.0605960574
 30
0.0
 10
61.3964602849
 20
43.1644384461
 30
0.0
 10
61.6835936394
 20
43.2336368848
 30
0.0
 10
61.8997179901
 20
43.241172968
 30
0.0
 10
62.0498066604
 20
43.2243735595
 30
0.0
 10
62.1906192548
 20
43.1854816112
 30
0.0
 10
62.2776494859
 20
43.1447313823
 30
0.0
 10
62.3186322812
 20
43.1210612545
 30
0.0
  0
SPLINE
  5
58B
100
AcDbEntity
  8
0
100
AcDbSpline
 62
7
  6
BYLAYER
 70
0
 71
3
 72
11
 73
7
 74
0
 42
0.0000001
 43
0.0000001
 44
0.0000000001
 40
0.0
 40
0.0
 40
0.0
 40
0.0
 40
0.2980400539
 40
0.5621652522
 40
0.7915278573
 40
1.0
 40
1.0
 40
1.0
 40
1.0
 10
64.214140642
 20
33.937095345
 30
0.0
 10
64.2062717301
 20
33.9310099881
 30
0.0
 10
64.1904951451
 20
33.9206536418
 30
0.0
 10
64.165646443
 20
33.9108871236
 30
0.0
 10
64.1418339408
 20
33.9091767335
 30
0.0
 10
64.1274782274
 20
33.9138026913
 30
0.0
 10
64.1214617735
 20
33.9172978316
 30
0.0
  0
SPLINE
  5
58C
100
AcDbEntity
  8
0
100
AcDbSpline
 62
7
  6
BYLAYER
 70
0
 71
3
 72
11
 73
7
 74
0
 42
0.0000001
 43
0.0000001
 44
0.0000000001
 40
0.0
 40
0.0
 40
0.0
 40
0.0
 40
0.2934405736
 40
0.5556371635
 40
0.7868004876
 40
1.0
 40
1.0
 40
1.0
 40
1.0
 10
64.2450577212
 20
33.617447825
 30
0.0
 10
64.2378705938
 20
33.6126686472
 30
0.0
 10
64.2235303876
 20
33.6046417737
 30
0.0
 10
64.2012823203
 20
33.5974908574
 30
0.0
 10
64.180150765
 20
33.5970297679
 30
0.0
 10
64.1674756853
 20
33.601442029
 30
0.0
 10
64.1620547759
 20
33.6045944977
 30
0.0
  0
SPLINE
  5
58D
100
AcDbEntity
  8
0
100
AcDbSpline
 62
7
  6
BYLAYER
 70
0
 71
3
 72
11
 73
7
 74
0
 42
0.0000001
 43
0.0000001
 44
0.0000000001
 40
0.0
 40
0.0
 40
0.0
 40
0.0
 40
0.2135182033
 40
0.4452292588
 40
0.707005324
 40
1.0
 40
1.0
 40
1.0
 40
1.0
 10
60.8500626236
 20
37.2578062164
 30
0.0
 10
60.8554921579
 20
37.2546723216
 30
0.0
 10
60.8656089696
 20
37.2458543682
 30
0.0
 10
60.8757931362
 20
37.2273914758
 30
0.0
 10
60.8810398609
 20
37.2046810087
 30
0.0
 10
60.8813704269
 20
37.1882877576
 30
0.0
 10
60.8808268939
 20
37.179702392
 30
0.0
  0
SPLINE
  5
58E
100
AcDbEntity
  8
0
100
AcDbSpline
 62
7
  6
BYLAYER
 70
0
 71
3
 72
11
 73
7
 74
0
 42
0.0000001
 43
0.0000001
 44
0.0000000001
 40
0.0
 40
0.0
 40
0.0
 40
0.0
 40
0.2881508776
 40
0.548392707
 40
0.7818410833
 40
1.0
 40
1.0
 40
1.0
 40
1.0
 10
64.2488749007
 20
33.2802999537
 30
0.0
 10
64.2424314206
 20
33.2767038544
 30
0.0
 10
64.2296194845
 20
33.2707699253
 30
0.0
 10
64.2100108635
 20
33.2659436405
 30
0.0
 10
64.1915188782
 20
33.2664477057
 30
0.0
 10
64.1804435672
 20
33.270581185
 30
0.0
 10
64.1756148713
 20
33.2733909245
 30
0.0
  0
SPLINE
  5
58F
100
AcDbEntity
  8
0
100
AcDbSpline
 62
7
  6
BYLAYER
 70
0
 71
3
 72
15
 73
11
 74
0
 42
0.0000001
 43
0.0000001
 44
0.0000000001
 40
0.0
 40
0.0
 40
0.0
 40
0.0
 40
0.1120962207
 40
0.2322595862
 40
0.3585672018
 40
0.4888737838
 40
0.6206869172
 40
0.7514210133
 40
0.8786629155
 40
1.0
 40
1.0
 40
1.0
 40
1.0
 10
63.1899898479
 20
41.7725317232
 30
0.0
 10
63.0850644293
 20
41.7119533661
 30
0.0
 10
62.8771173652
 20
41.5696633253
 30
0.0
 10
62.5865262761
 20
41.3120036875
 30
0.0
 10
62.3132906157
 20
41.0089719456
 30
0.0
 10
62.0652113443
 20
40.6694164854
 30
0.0
 10
61.8494202881
 20
40.3029404947
 30
0.0
 10
61.6719849503
 20
39.9200448789
 30
0.0
 10
61.5381600418
 20
39.5317849559
 30
0.0
 10
61.4787169143
 20
39.2690268383
 30
0.0
 10
61.4579462516
 20
39.1395370215
 30
0.0
  0
SPLINE
  5
590
100
AcDbEntity
  8
0
100
AcDbSpline
 62
7
  6
BYLAYER
 70
0
 71
3
 72
9
 73
5
 74
0
 42
0.0000001
 43
0.0000001
 44
0.0000000001
 40
0.0
 40
0.0
 40
0.0
 40
0.0
 40
0.5250630851
 40
1.0
 40
1.0
 40
1.0
 40
1.0
 10
60.0437268013
 20
39.9560185305
 30
0.0
 10
60.0210069245
 20
39.8143767963
 30
0.0
 10
59.9962428736
 20
39.5411369044
 30
0.0
 10
60.0186629328
 20
39.2668298235
 30
0.0
 10
60.0437268013
 20
39.1395161134
 30
0.0
  0
SPLINE
  5
591
100
AcDbEntity
  8
0
100
AcDbSpline
 62
7
  6
BYLAYER
 70
0
 71
3
 72
20
 73
16
 74
0
 42
0.0000001
 43
0.0000001
 44
0.0000000001
 40
0.0
 40
0.0
 40
0.0
 40
0.0
 40
0.0428304399
 40
0.0874304703
 40
0.1352313682
 40
0.1871634127
 40
0.2436322716
 40
0.3046132809
 40
0.3697386741
 40
0.4383735668
 40
0.5826247914
 40
0.7296910166
 40
0.8711893068
 40
0.9376087821
 40
1.0
 40
1.0
 40
1.0
 40
1.0
 10
59.8186890638
 20
38.7909346334
 30
0.0
 10
59.7570629493
 20
38.8265275693
 30
0.0
 10
59.6402095001
 20
38.9159237623
 30
0.0
 10
59.4996503562
 20
39.0937409388
 30
0.0
 10
59.3945403701
 20
39.3111428353
 30
0.0
 10
59.3265378655
 20
39.5629124991
 30
0.0
 10
59.2962414936
 20
39.843690466
 30
0.0
 10
59.3039547139
 20
40.1477200949
 30
0.0
 10
59.3494129012
 20
40.4687436813
 30
0.0
 10
59.4607243453
 20
40.9177318669
 30
0.0
 10
59.6862403315
 20
41.4754359583
 30
0.0
 10
60.0644232093
 20
42.0906337165
 30
0.0
 10
60.456254986
 20
42.5365292395
 30
0.0
 10
60.8004462704
 20
42.8261187898
 30
0.0
 10
60.9788813576
 20
42.9454201846
 30
0.0
 10
61.0686606725
 20
42.9972539868
 30
0.0
  0
SPLINE
  5
592
100
AcDbEntity
  8
0
100
AcDbSpline
 62
7
  6
BYLAYER
 70
0
 71
3
 72
11
 73
7
 74
0
 42
0.0000001
 43
0.0000001
 44
0.0000000001
 40
0.0
 40
0.0
 40
0.0
 40
0.0
 40
0.2186116406
 40
0.452575031
 40
0.7122545754
 40
1.0
 40
1.0
 40
1.0
 40
1.0
 10
61.1436566167
 20
37.4116372604
 30
0.0
 10
61.1484946648
 20
37.4088425614
 30
0.0
 10
61.15757974
 20
37.4012882813
 30
0.0
 10
61.1673382125
 20
37.3856289235
 30
0.0
 10
61.1732495165
 20
37.3663755742
 30
0.0
 10
61.1746044736
 20
37.3523597876
 30
0.0
 10
61.1747115157
 20
37.3450064403
 30
0.0
  0
SPLINE
  5
593
100
AcDbEntity
  8
0
100
AcDbSpline
 62
7
  6
BYLAYER
 70
0
 71
3
 72
17
 73
13
 74
0
 42
0.0000001
 43
0.0000001
 44
0.0000000001
 40
0.0
 40
0.0
 40
0.0
 40
0.0
 40
0.1433767533
 40
0.2915169259
 40
0.4381773761
 40
0.5773993453
 40
0.7042060617
 40
0.7620382827
 40
0.8159203642
 40
0.9125332725
 40
0.9569317802
 40
1.0
 40
1.0
 40
1.0
 40
1.0
 10
64.1899856845
 20
30.510591094
 30
0.0
 10
64.1593965921
 20
30.3930258913
 30
0.0
 10
64.0768732297
 20
30.1589650919
 30
0.0
 10
63.9031122138
 20
29.8295464964
 30
0.0
 10
63.6860228026
 20
29.531033177
 30
0.0
 10
63.438917945
 20
29.2816498438
 30
0.0
 10
63.2131272098
 20
29.122235733
 30
0.0
 10
63.0301327489
 20
29.0351881274
 30
0.0
 10
62.8621781035
 20
28.9802351153
 30
0.0
 10
62.69398556
 20
28.9631736223
 30
0.0
 10
62.5401278109
 20
28.994183462
 30
0.0
 10
62.471606643
 20
29.0242109124
 30
0.0
 10
62.4400049468
 20
29.042456399
 30
0.0
  0
SPLINE
  5
594
100
AcDbEntity
  8
0
100
AcDbSpline
 62
7
  6
BYLAYER
 70
0
 71
3
 72
11
 73
7
 74
0
 42
0.0000001
 43
0.0000001
 44
0.0000000001
 40
0.0
 40
0.0
 40
0.0
 40
0.0
 40
0.2770047589
 40
0.5324792699
 40
0.7708875734
 40
1.0
 40
1.0
 40
1.0
 40
1.0
 10
61.4579462516
 20
28.9332568074
 30
0.0
 10
61.474423587
 20
28.8495590056
 30
0.0
 10
61.5183071186
 20
28.6906185908
 30
0.0
 10
61.6231723706
 20
28.4758809361
 30
0.0
 10
61.7630383954
 20
28.3001648175
 30
0.0
 10
61.878924678
 20
28.2117288766
 30
0.0
 10
61.9400253209
 20
28.1764468092
 30
0.0
  0
SPLINE
  5
595
100
AcDbEntity
  8
0
100
AcDbSpline
 62
7
  6
BYLAYER
 70
0
 71
3
 72
11
 73
7
 74
0
 42
0.0000001
 43
0.0000001
 44
0.0000000001
 40
0.0
 40
0.0
 40
0.0
 40
0.0
 40
0.2770047589
 40
0.5324792699
 40
0.7708875734
 40
1.0
 40
1.0
 40
1.0
 40
1.0
 10
61.4579462516
 20
38.3230346044
 30
0.0
 10
61.474423587
 20
38.2393368026
 30
0.0
 10
61.5183071186
 20
38.0803963878
 30
0.0
 10
61.6231723706
 20
37.8656587331
 30
0.0
 10
61.7630383954
 20
37.6899426145
 30
0.0
 10
61.878924678
 20
37.6015066736
 30
0.0
 10
61.9400253209
 20
37.5662246062
 30
0.0
  0
SPLINE
  5
596
100
AcDbEntity
  8
0
100
AcDbSpline
 62
7
  6
BYLAYER
 70
0
 71
3
 72
9
 73
5
 74
0
 42
0.0000001
 43
0.0000001
 44
0.0000000001
 40
0.0
 40
0.0
 40
0.0
 40
0.0
 40
0.5269597099
 40
1.0
 40
1.0
 40
1.0
 40
1.0
 10
57.5331120467
 20
36.8734335881
 30
0.0
 10
57.7041988229
 20
36.9722099947
 30
0.0
 10
58.0442435624
 20
37.134981832
 30
0.0
 10
58.4116263401
 20
37.2268330038
 30
0.0
 10
58.5878386214
 20
37.2467976908
 30
0.0
  0
SPLINE
  5
597
100
AcDbEntity
  8
0
100
AcDbSpline
 62
7
  6
BYLAYER
 70
0
 71
3
 72
17
 73
13
 74
0
 42
0.0000001
 43
0.0000001
 44
0.0000000001
 40
0.0
 40
0.0
 40
0.0
 40
0.0
 40
0.1433767533
 40
0.2915169259
 40
0.4381773761
 40
0.5773993453
 40
0.7042060617
 40
0.7620382827
 40
0.8159203642
 40
0.9125332725
 40
0.9569317802
 40
1.0
 40
1.0
 40
1.0
 40
1.0
 10
64.1899856845
 20
39.900368891
 30
0.0
 10
64.1593965921
 20
39.7828036883
 30
0.0
 10
64.0768732297
 20
39.5487428889
 30
0.0
 10
63.9031122138
 20
39.2193242934
 30
0.0
 10
63.6860228026
 20
38.920810974
 30
0.0
 10
63.438917945
 20
38.6714276408
 30
0.0
 10
63.2131272098
 20
38.51201353
 30
0.0
 10
63.0301327489
 20
38.4249659244
 30
0.0
 10
62.8621781035
 20
38.3700129123
 30
0.0
 10
62.69398556
 20
38.3529514193
 30
0.0
 10
62.5401278109
 20
38.383961259
 30
0.0
 10
62.471606643
 20
38.4139887094
 30
0.0
 10
62.4400049468
 20
38.432234196
 30
0.0
  0
SPLINE
  5
598
100
AcDbEntity
  8
0
100
AcDbSpline
 62
7
  6
BYLAYER
 70
0
 71
3
 72
9
 73
5
 74
0
 42
0.0000001
 43
0.0000001
 44
0.0000000001
 40
0.0
 40
0.0
 40
0.0
 40
0.0
 40
0.5250630851
 40
1.0
 40
1.0
 40
1.0
 40
1.0
 10
60.0437268013
 20
30.5662407335
 30
0.0
 10
60.0210069245
 20
30.4245989993
 30
0.0
 10
59.9962428736
 20
30.1513591074
 30
0.0
 10
60.0186629328
 20
29.8770520265
 30
0.0
 10
60.0437268013
 20
29.7497383164
 30
0.0
  0
SPLINE
  5
599
100
AcDbEntity
  8
0
100
AcDbSpline
 62
7
  6
BYLAYER
 70
0
 71
3
 72
15
 73
11
 74
0
 42
0.0000001
 43
0.0000001
 44
0.0000000001
 40
0.0
 40
0.0
 40
0.0
 40
0.0
 40
0.1120962207
 40
0.2322595862
 40
0.3585672018
 40
0.4888737838
 40
0.6206869172
 40
0.7514210133
 40
0.8786629155
 40
1.0
 40
1.0
 40
1.0
 40
1.0
 10
63.1899898479
 20
32.3827539262
 30
0.0
 10
63.0850644293
 20
32.3221755691
 30
0.0
 10
62.8771173652
 20
32.1798855283
 30
0.0
 10
62.5865262761
 20
31.9222258905
 30
0.0
 10
62.3132906157
 20
31.6191941486
 30
0.0
 10
62.0652113443
 20
31.2796386884
 30
0.0
 10
61.8494202881
 20
30.9131626977
 30
0.0
 10
61.6719849503
 20
30.5302670819
 30
0.0
 10
61.5381600418
 20
30.1420071589
 30
0.0
 10
61.4787169143
 20
29.8792490413
 30
0.0
 10
61.4579462516
 20
29.7497592245
 30
0.0
  0
SPLINE
  5
59A
100
AcDbEntity
  8
0
100
AcDbSpline
 62
7
  6
BYLAYER
 70
0
 71
3
 72
9
 73
5
 74
0
 42
0.0000001
 43
0.0000001
 44
0.0000000001
 40
0.0
 40
0.0
 40
0.0
 40
0.0
 40
0.527588389
 40
1.0
 40
1.0
 40
1.0
 40
1.0
 10
57.5331120467
 20
46.2632113851
 30
0.0
 10
57.7077282502
 20
46.3640254953
 30
0.0
 10
58.0547097012
 20
46.5294837651
 30
0.0
 10
58.4300848491
 20
46.620595511
 30
0.0
 10
58.6096937045
 20
46.6389292188
 30
0.0
  0
SPLINE
  5
59B
100
AcDbEntity
  8
0
100
AcDbSpline
 62
7
  6
BYLAYER
 70
0
 71
3
 72
9
 73
5
 74
0
 42
0.0000001
 43
0.0000001
 44
0.0000000001
 40
0.0
 40
0.0
 40
0.0
 40
0.0
 40
0.2534897465
 40
1.0
 40
1.0
 40
1.0
 40
1.0
 10
58.7609531172
 20
46.6483073117
 30
0.0
 10
58.7769587021
 20
46.6486404155
 30
0.0
 10
58.8401135377
 20
46.6491058517
 30
0.0
 10
58.9033010977
 20
46.6461247781
 30
0.0
 10
58.950251356
 20
46.6418377358
 30
0.0
  0
SPLINE
  5
59C
100
AcDbEntity
  8
0
100
AcDbSpline
 62
7
  6
BYLAYER
 70
0
 71
3
 72
12
 73
8
 74
0
 42
0.0000001
 43
0.0000001
 44
0.0000000001
 40
0.0
 40
0.0
 40
0.0
 40
0.0
 40
0.2894832083
 40
0.5486755374
 40
0.7816290778
 40
0.8918324007
 40
1.0
 40
1.0
 40
1.0
 40
1.0
 10
19.3845806466
 20
45.8340974272
 30
0.0
 10
19.3845806466
 20
45.9379667574
 30
0.0
 10
19.4003785719
 20
46.135532238
 30
0.0
 10
19.4801766432
 20
46.4068343398
 30
0.0
 10
19.5950211936
 20
46.5940259644
 30
0.0
 10
19.7109563266
 20
46.7080059011
 30
0.0
 10
19.7755532849
 20
46.7531443232
 30
0.0
 10
19.8091636691
 20
46.7725525582
 30
0.0
  0
SPLINE
  5
59D
100
AcDbEntity
  8
0
100
AcDbSpline
 62
7
  6
BYLAYER
 70
0
 71
3
 72
9
 73
5
 74
0
 42
0.0000001
 43
0.0000001
 44
0.0000000001
 40
0.0
 40
0.0
 40
0.0
 40
0.0
 40
0.2441873903
 40
1.0
 40
1.0
 40
1.0
 40
1.0
 10
58.6041503654
 20
41.8336734426
 30
0.0
 10
58.6061365228
 20
41.8325566179
 30
0.0
 10
58.6139746307
 20
41.827464659
 30
0.0
 10
58.6203623135
 20
41.82022899
 30
0.0
 10
58.6240020434
 20
41.8141879033
 30
0.0
  0
SPLINE
  5
59E
100
AcDbEntity
  8
0
100
AcDbSpline
 62
7
  6
BYLAYER
 70
0
 71
3
 72
14
 73
10
 74
0
 42
0.0000001
 43
0.0000001
 44
0.0000000001
 40
0.0
 40
0.0
 40
0.0
 40
0.0
 40
0.1030492978
 40
0.2269193353
 40
0.3675108379
 40
0.5163495523
 40
0.6625475673
 40
0.7958889066
 40
1.0
 40
1.0
 40
1.0
 40
1.0
 10
58.6240020434
 20
41.8141879033
 30
0.0
 10
58.6299214253
 20
41.804363136
 30
0.0
 10
58.6368417078
 20
41.7791566002
 30
0.0
 10
58.6347191498
 20
41.7379512432
 30
0.0
 10
58.6219098766
 20
41.6933774068
 30
0.0
 10
58.5996521507
 20
41.6500414196
 30
0.0
 10
58.5698369971
 20
41.6121499065
 30
0.0
 10
58.5293998594
 20
41.5774765552
 30
0.0
 10
58.4888589524
 20
41.563345015
 30
0.0
 10
58.4668967677
 20
41.569160682
 30
0.0
  0
ENDSEC
  0
SECTION
  2
OBJECTS
  0
DICTIONARY
  5
C
100
AcDbDictionary
280
0
281
1
  3
ACAD_GROUP
350
D
  3
ACAD_MLINESTYLE
350
17
  3
ACAD_LAYOUT
350
1A
  3
ACAD_PLOTSETTINGS
350
19
  3
ACAD_PLOTSTYLENAME
350
E
  0
DICTIONARY
  5
D
102
{ACAD_REACTORS
330
C
102
}
100
AcDbDictionary
280
0
281
1
  0
ACDBDICTIONARYWDFLT
  5
E
102
{ACAD_REACTORS
330
C
102
}
100
AcDbDictionary
281
1
  3
Normal
350
F
100
AcDbDictionaryWithDefault
340
F
  0
DICTIONARY
  5
17
102
{ACAD_REACTORS
330
C
102
}
100
AcDbDictionary
280
0
281
1
  3
Standard
350
18
  0
DICTIONARY
  5
19
102
{ACAD_REACTORS
330
C
102
}
100
AcDbDictionary
281
1
  0
DICTIONARY
  5
1A
102
{ACAD_REACTORS
330
C
102
}
100
AcDbDictionary
281
1
  3
Model
350
59F
  3
Layout1
350
5A0
  0
ACDBPLACEHOLDER
  5
F
102
{ACAD_REACTORS
330
E
102
}
  0
MLINESTYLE
  5
18
102
{ACAD_REACTORS
330
17
102
}
100
AcDbMlineStyle
  2
STANDARD
 70
0
  3

 62
256
 51
90.0
 52
90.0
 71
2
 49
0.5
 62
256
  6
BYLAYER
 49
-0.5
 62
256
  6
BYLAYER
  0
LAYOUT
  5
59F
102
{ACAD_REACTORS
330
1A
102
}
100
AcDbPlotSettings
  1

  2
none_device
  4

  6

 40
0.0
 41
0.0
 42
0.0
 43
0.0
 44
210.0
 45
297.0
 46
0.0
 47
0.0
 48
0.0
 49
0.0
140
0.0
141
0.0
142
1.0
143
1.0
 70
1024
 72
1
 73
0
 74
0
  7

 75
0
147
1.0
148
0.0
149
0.0
100
AcDbLayout
  1
Model
 70
0
 71
0
 10
0.0
 20
0.0
 11
210.0
 21
297.0
 12
0.0
 22
0.0
 32
0.0
 14
0.0
 24
0.0
 34
0.0
 15
0.0
 25
0.0
 35
0.0
146
0.0
 13
0.0
 23
0.0
 33
0.0
 16
1.0
 26
0.0
 36
0.0
 17
0.0
 27
1.0
 37
0.0
 76
0
330
210
345
0
346
0
  0
LAYOUT
  5
5A0
102
{ACAD_REACTORS
330
1A
102
}
100
AcDbPlotSettings
  1

  2
none_device
  4

  6

 40
0.0
 41
0.0
 42
0.0
 43
0.0
 44
210.0
 45
297.0
 46
0.0
 47
0.0
 48
0.0
 49
0.0
140
0.0
141
0.0
142
1.0
143
1.0
 70
0
 72
1
 73
0
 74
0
  7

 75
0
147
1.0
148
0.0
149
0.0
100
AcDbLayout
  1
Layout1
 70
0
 71
1
 10
0.0
 20
0.0
 11
210.0
 21
297.0
 12
0.0
 22
0.0
 32
0.0
 14
0.0
 24
0.0
 34
0.0
 15
0.0
 25
0.0
 35
0.0
146
0.0
 13
0.0
 23
0.0
 33
0.0
 16
1.0
 26
0.0
 36
0.0
 17
0.0
 27
1.0
 37
0.0
 76
0
330
211
345
0
346
0
  0
ENDSEC
  0
EOF
