999
DXF file: C:\Users\sesa63760\Dev\_Creo\CAD\MCADID0000953_3D-CAD\drw0001_4.dxf
999
Pro/ENGINEER 2019471 by Parametric Technology Corporation
  0
SECTION
  2
HEADER
  9
$ACADVER
  1
AC1024
  9
$DWGCODEPAGE
  3
ANSI_1252
  9
$EXTMAX
 10
320.0079936051
 20
452.5827338129
 30
0.0
  9
$EXTMIN
 10
0.0
 20
0.0
 30
0.0
  9
$LIMMIN
 10
0.0
 20
0.0
  9
$LIMMAX
 10
320.0079936051
 20
452.5827338129
  9
$VIEWCTR
 10
160.0039968026
 20
226.2913669065
  9
$VIEWSIZE
 40
452.5827338129
  9
$CLAYER
  8
0
  9
$LTSCALE
 40
29.5016893152
  9
$CELTYPE
  6
BYLAYER
  9
$DIMSCALE
 40
1.0
  9
$DIMASZ
 40
3.8096189715
  9
$DIMEXO
 40
1.0
  9
$DIMDLI
 40
20.3829853451
  9
$DIMEXE
 40
1.0
  9
$DIMCEN
 40
4.8275491607
  9
$DIMLFAC
 40
1.0
  9
$DIMBLK
  1
_FILLED
  9
$DIMALT
 70
0
  9
$DIMALTF
 40
0.0393700787
  9
$DIMTXT
 40
5.3334665601
  9
$DIMTOL
 70
1
  9
$DIMLIM
 70
0
  9
$DIMTFAC
 40
1.0
  9
$DIMTP
 40
0.01
  9
$DIMTM
 40
0.01
  9
$DIMGAP
 40
0.625
  9
$DIMDSEP
 70
46
  9
$AUNITS
 70
0
  9
$PDMODE
 70
3
  9
$PDSIZE
 40
0.3125
  9
$HANDSEED
  5
2B4
  9
$TILEMODE
 70
1
  9
$MEASUREMENT
 70
1
  9
$INSUNITS
 70
4
  0
ENDSEC
  0
SECTION
  2
CLASSES
  0
CLASS
  1
ACDBDICTIONARYWDFLT
  2
AcDbDictionaryWithDefault
  3
AutoCAD 2000
 90
0
 91
1
280
0
281
0
  0
CLASS
  1
ACDBPLACEHOLDER
  2
AcDbPlaceHolder
  3
AutoCAD 2000
 90
0
 91
1
280
0
281
0
  0
CLASS
  1
LAYOUT
  2
AcDbLayout
  3
AutoCAD 2000
 90
0
 91
0
280
0
281
0
  0
ENDSEC
  0
SECTION
  2
TABLES
  0
TABLE
  2
VPORT
  5
8
100
AcDbSymbolTable
 70
2
  0
VPORT
  5
1F4
100
AcDbSymbolTableRecord
100
AcDbViewportTableRecord
  2
*ACTIVE
 70
0
 10
0.0
 20
0.0
 11
1.0
 21
1.0
 12
160.0039968026
 22
226.2913669065
 13
0.0
 23
0.0
 14
1.0
 24
1.0
 15
0.0
 25
0.0
 16
0.0
 26
0.0
 36
1.0
 17
0.0
 27
0.0
 37
0.0
 40
452.5827338129
 41
0.7070707071
 42
50.0
 43
0.0
 44
0.0
 50
0.0
 51
0.0
 71
0
 72
100
 73
1
 74
1
 75
0
 76
0
 77
0
 78
0
  0
ENDTAB
  0
TABLE
  2
LTYPE
  5
5
100
AcDbSymbolTable
 70
6
  0
LTYPE
  5
14
100
AcDbSymbolTableRecord
100
AcDbLinetypeTableRecord
  2
BYBLOCK
 70
0
  3

 72
65
 73
0
 40
0.0
  0
LTYPE
  5
15
100
AcDbSymbolTableRecord
100
AcDbLinetypeTableRecord
  2
BYLAYER
 70
0
  3

 72
65
 73
0
 40
0.0
  0
LTYPE
  5
16
100
AcDbSymbolTableRecord
100
AcDbLinetypeTableRecord
  2
CONTINUOUS
 70
64
  3
Solid line
 72
65
 73
0
 40
0.0
  0
LTYPE
  5
1F5
100
AcDbSymbolTableRecord
100
AcDbLinetypeTableRecord
  2
CENTER
 70
64
  3
____ _ ____ _ ____ _ ____ _ ____ _ ____ _ ____
 72
65
 73
4
 40
0.6
 49
0.375
 74
0
 49
-0.075
 74
0
 49
0.075
 74
0
 49
-0.075
 74
0
  0
LTYPE
  5
1F6
100
AcDbSymbolTableRecord
100
AcDbLinetypeTableRecord
  2
HIDDEN
 70
64
  3
- - - - - - - - - - - - - - - - - - - -
 72
65
 73
2
 40
0.2
 49
0.1
 74
0
 49
-0.1
 74
0
  0
LTYPE
  5
1F7
100
AcDbSymbolTableRecord
100
AcDbLinetypeTableRecord
  2
PHANTOM
 70
64
  3
_____ _ _ _____ _ _ _____ _ _ _____
 72
65
 73
6
 40
0.8
 49
0.45
 74
0
 49
-0.05
 74
0
 49
0.1
 74
0
 49
-0.05
 74
0
 49
0.1
 74
0
 49
-0.05
 74
0
  0
LTYPE
  5
1F8
100
AcDbSymbolTableRecord
100
AcDbLinetypeTableRecord
  2
DOT
 70
64
  3
. . . . . . . . . . . . . . . . . . . .
 72
65
 73
2
 40
0.2
 49
0.1
 74
0
 49
-0.1
 74
0
  0
LTYPE
  5
1F9
100
AcDbSymbolTableRecord
100
AcDbLinetypeTableRecord
  2
DASHED
 70
64
  3
- - - - - - - - - - - - - - - - - - - -
 72
65
 73
2
 40
0.2
 49
0.1
 74
0
 49
-0.1
 74
0
  0
ENDTAB
  0
TABLE
  2
LAYER
  5
2
100
AcDbSymbolTable
 70
36
  0
LAYER
  5
10
100
AcDbSymbolTableRecord
100
AcDbLayerTableRecord
  2
0
 70
0
 62
7
  6
CONTINUOUS
370
-3
390
F
  0
LAYER
  5
1FA
100
AcDbSymbolTableRecord
100
AcDbLayerTableRecord
  2
DEFAULT_1
 70
0
 62
7
  6
CENTER
370
-3
390
F
  0
LAYER
  5
1FB
100
AcDbSymbolTableRecord
100
AcDbLayerTableRecord
  2
DEFAULT_2
 70
0
 62
8
  6
HIDDEN
370
-3
390
F
  0
LAYER
  5
1FC
100
AcDbSymbolTableRecord
100
AcDbLayerTableRecord
  2
DEFAULT_3
 70
0
 62
7
  6
PHANTOM
370
-3
390
F
  0
LAYER
  5
1FD
100
AcDbSymbolTableRecord
100
AcDbLayerTableRecord
  2
00_COMPONENTS
 70
0
 62
7
  6
CONTINUOUS
370
-3
390
F
  0
LAYER
  5
1FE
100
AcDbSymbolTableRecord
100
AcDbLayerTableRecord
  2
01_1_DEFAULT_DATUMS
 70
0
 62
7
  6
CONTINUOUS
370
-3
390
F
  0
LAYER
  5
1FF
100
AcDbSymbolTableRecord
100
AcDbLayerTableRecord
  2
01_PLANES
 70
0
 62
7
  6
CONTINUOUS
370
-3
390
F
  0
LAYER
  5
200
100
AcDbSymbolTableRecord
100
AcDbLayerTableRecord
  2
02_COORD_SYS
 70
0
 62
7
  6
CONTINUOUS
370
-3
390
F
  0
LAYER
  5
201
100
AcDbSymbolTableRecord
100
AcDbLayerTableRecord
  2
03_AXES
 70
0
 62
7
  6
CONTINUOUS
370
-3
390
F
  0
LAYER
  5
202
100
AcDbSymbolTableRecord
100
AcDbLayerTableRecord
  2
04_POINTS
 70
0
 62
7
  6
CONTINUOUS
370
-3
390
F
  0
LAYER
  5
203
100
AcDbSymbolTableRecord
100
AcDbLayerTableRecord
  2
05_CURVES
 70
0
 62
7
  6
CONTINUOUS
370
-3
390
F
  0
LAYER
  5
204
100
AcDbSymbolTableRecord
100
AcDbLayerTableRecord
  2
06_SURFS
 70
0
 62
7
  6
CONTINUOUS
370
-3
390
F
  0
LAYER
  5
205
100
AcDbSymbolTableRecord
100
AcDbLayerTableRecord
  2
07_COSMETICS
 70
0
 62
7
  6
CONTINUOUS
370
-3
390
F
  0
LAYER
  5
206
100
AcDbSymbolTableRecord
100
AcDbLayerTableRecord
  2
10_NOTES
 70
0
 62
7
  6
CONTINUOUS
370
-3
390
F
  0
LAYER
  5
207
100
AcDbSymbolTableRecord
100
AcDbLayerTableRecord
  2
11_NOTES_PUB
 70
0
 62
7
  6
CONTINUOUS
370
-3
390
F
  0
LAYER
  5
208
100
AcDbSymbolTableRecord
100
AcDbLayerTableRecord
  2
13_REF_GTOL
 70
0
 62
7
  6
CONTINUOUS
370
-3
390
F
  0
LAYER
  5
209
100
AcDbSymbolTableRecord
100
AcDbLayerTableRecord
  2
16_MISC
 70
0
 62
7
  6
CONTINUOUS
370
-3
390
F
  0
LAYER
  5
20A
100
AcDbSymbolTableRecord
100
AcDbLayerTableRecord
  2
17_NO_PRINT
 70
0
 62
7
  6
CONTINUOUS
370
-3
390
F
  0
LAYER
  5
20B
100
AcDbSymbolTableRecord
100
AcDbLayerTableRecord
  2
18_DATUM_CAMS_JOINTS
 70
0
 62
7
  6
CONTINUOUS
370
-3
390
F
  0
LAYER
  5
20C
100
AcDbSymbolTableRecord
100
AcDbLayerTableRecord
  2
19_DATUM_FUNCTIONAL
 70
0
 62
7
  6
CONTINUOUS
370
-3
390
F
  0
LAYER
  5
20D
100
AcDbSymbolTableRecord
100
AcDbLayerTableRecord
  2
20_DATUM_KINEMATIC_SCHEME
 70
0
 62
7
  6
CONTINUOUS
370
-3
390
F
  0
LAYER
  5
20E
100
AcDbSymbolTableRecord
100
AcDbLayerTableRecord
  2
5
 70
0
 62
7
  6
CONTINUOUS
370
-3
390
F
  0
ENDTAB
  0
TABLE
  2
STYLE
  5
3
100
AcDbSymbolTable
 70
1
  0
STYLE
  5
11
100
AcDbSymbolTableRecord
100
AcDbTextStyleTableRecord
  2
STANDARD
 70
0
 40
0.0
 41
0.8
 50
0.0
 71
0
 42
0.2
  3
txt
  4

  0
STYLE
  5
20F
100
AcDbSymbolTableRecord
100
AcDbTextStyleTableRecord
  2
TEXTSTYLE_1
 70
0
 40
0.0
 41
0.8
 50
0.0
 71
0
 42
0.2
  3
gdt
  4

  0
ENDTAB
  0
TABLE
  2
VIEW
  5
6
100
AcDbSymbolTable
 70
0
  0
ENDTAB
  0
TABLE
  2
UCS
  5
7
100
AcDbSymbolTable
 70
0
  0
ENDTAB
  0
TABLE
  2
APPID
  5
9
100
AcDbSymbolTable
 70
1
  0
APPID
  5
210
100
AcDbSymbolTableRecord
100
AcDbRegAppTableRecord
  2
ACAD
 70
0
  0
ENDTAB
  0
TABLE
  2
BLOCK_RECORD
  5
1
100
AcDbSymbolTable
 70
0
  0
BLOCK_RECORD
  5
211
100
AcDbSymbolTableRecord
100
AcDbBlockTableRecord
  2
*Model_Space
  0
BLOCK_RECORD
  5
212
100
AcDbSymbolTableRecord
100
AcDbBlockTableRecord
  2
*Paper_Space
  0
BLOCK_RECORD
  5
213
100
AcDbSymbolTableRecord
100
AcDbBlockTableRecord
  2
_FILLED
  0
ENDTAB
  0
TABLE
  2
DIMSTYLE
  5
A
100
AcDbSymbolTable
 70
1
100
AcDbDimStyleTable
 71
0
  0
DIMSTYLE
105
214
100
AcDbSymbolTableRecord
100
AcDbDimStyleTableRecord
  2
STANDARD
 70
0
  3

  4

 40
1.0
 41
3.8096189715
 42
1.0
 43
0.38
 44
1.0
 45
0.0
 46
0.0
 47
0.01
 48
0.01
140
5.3334665601
141
0.09
142
0.0
143
25.4
144
1.0
145
0.0
146
1.0
147
0.625
 71
1
 72
0
 73
0
 74
0
 75
0
 76
0
 77
1
 78
8
 79
2
170
0
171
1
172
0
173
0
174
0
175
0
176
0
177
0
178
0
270
2
179
2
271
2
272
2
273
2
274
2
275
0
280
0
281
0
282
0
283
1
284
8
285
0
286
0
287
3
288
0
340
11
278
46
341
213
342
213
343
213
344
213
  0
ENDTAB
  0
ENDSEC
  0
SECTION
  2
BLOCKS
  0
BLOCK
  5
20
100
AcDbEntity
  8
0
100
AcDbBlockBegin
  2
*Model_Space
 70
0
 10
0.0
 20
0.0
 30
0.0
  3
*Model_Space
  1

  0
ENDBLK
  5
21
100
AcDbEntity
  8
0
100
AcDbBlockEnd
  0
BLOCK
  5
1C
100
AcDbEntity
  8
0
100
AcDbBlockBegin
  2
*Paper_Space
 70
0
 10
0.0
 20
0.0
 30
0.0
  3
*Paper_Space
  1

  0
ENDBLK
  5
1D
100
AcDbEntity
  8
0
100
AcDbBlockEnd
  0
BLOCK
  5
215
100
AcDbEntity
  8
0
100
AcDbBlockBegin
  2
_FILLED
 70
64
 10
0.0
 20
0.0
  3
_FILLED
  1

  0
SOLID
  5
216
100
AcDbEntity
  8
0
  6
BYBLOCK
 62
0
100
AcDbTrace
 10
0.0
 20
0.0
 11
-1.0
 21
0.25
 12
-1.0
 22
-0.25
 13
-1.0
 23
-0.25
  0
ENDBLK
  5
217
100
AcDbEntity
  8
0
  6
BYBLOCK
 62
0
100
AcDbBlockEnd
  0
ENDSEC
  0
SECTION
  2
ENTITIES
  0
LINE
  5
218
100
AcDbEntity
  8
5
100
AcDbLine
 62
7
  6
CONTINUOUS
 10
244.158673059
 20
32.4064748201
 11
238.658673059
 21
32.4064748201
  0
LINE
  5
219
100
AcDbEntity
  8
5
100
AcDbLine
 62
7
  6
CONTINUOUS
 10
229.658673059
 20
32.4064748201
 11
210.658673059
 21
32.4064748201
  0
LINE
  5
21A
100
AcDbEntity
  8
5
100
AcDbLine
 62
7
  6
CONTINUOUS
 10
117.658673059
 20
32.4064748201
 11
98.658673059
 21
32.4064748201
  0
LINE
  5
21B
100
AcDbEntity
  8
5
100
AcDbLine
 62
7
  6
CONTINUOUS
 10
89.658673059
 20
32.4064748201
 11
84.158673059
 21
32.4064748201
  0
LINE
  5
21C
100
AcDbEntity
  8
5
100
AcDbLine
 62
7
  6
CONTINUOUS
 10
74.158673059
 20
37.4064748201
 11
254.158673059
 21
37.4064748201
  0
LINE
  5
21D
100
AcDbEntity
  8
5
100
AcDbLine
 62
7
  6
CONTINUOUS
 10
97.158673059
 20
33.9064748201
 11
98.658673059
 21
32.4064748201
  0
LINE
  5
21E
100
AcDbEntity
  8
5
100
AcDbLine
 62
7
  6
CONTINUOUS
 10
209.158673059
 20
33.9064748201
 11
210.658673059
 21
32.4064748201
  0
LINE
  5
21F
100
AcDbEntity
  8
5
100
AcDbLine
 62
7
  6
CONTINUOUS
 10
74.158673059
 20
37.4064748201
 11
74.158673059
 21
397.4064748201
  0
LINE
  5
220
100
AcDbEntity
  8
5
100
AcDbLine
 62
7
  6
CONTINUOUS
 10
77.2227629179
 20
167.9564748201
 11
77.2227629179
 21
167.7064748201
  0
LINE
  5
221
100
AcDbEntity
  8
5
100
AcDbLine
 62
7
  6
CONTINUOUS
 10
79.158673059
 20
397.4064748201
 11
79.158673059
 21
417.4064748201
  0
LINE
  5
222
100
AcDbEntity
  8
5
100
AcDbLine
 62
7
  6
CONTINUOUS
 10
80.658673059
 20
397.4064748201
 11
80.658673059
 21
417.4064748201
  0
LINE
  5
223
100
AcDbEntity
  8
5
100
AcDbLine
 62
7
  6
CONTINUOUS
 10
237.158673059
 20
33.9064748201
 11
238.658673059
 21
32.4064748201
  0
LINE
  5
224
100
AcDbEntity
  8
5
100
AcDbLine
 62
7
  6
CONTINUOUS
 10
81.158673059
 20
35.4064748201
 11
81.158673059
 21
37.4064748201
  0
LINE
  5
225
100
AcDbEntity
  8
5
100
AcDbLine
 62
7
  6
CONTINUOUS
 10
91.158673059
 20
37.4064748201
 11
91.158673059
 21
33.9064748201
  0
LINE
  5
226
100
AcDbEntity
  8
5
100
AcDbLine
 62
7
  6
CONTINUOUS
 10
91.158673059
 20
410.6514728185
 11
91.158673059
 21
411.4064748201
  0
LINE
  5
227
100
AcDbEntity
  8
5
100
AcDbLine
 62
7
  6
CONTINUOUS
 10
94.6630174537
 20
167.9564748201
 11
94.6630174537
 21
167.7064748201
  0
LINE
  5
228
100
AcDbEntity
  8
5
100
AcDbLine
 62
7
  6
CONTINUOUS
 10
97.158673059
 20
411.4064748201
 11
97.158673059
 21
410.6514728185
  0
LINE
  5
229
100
AcDbEntity
  8
5
100
AcDbLine
 62
7
  6
CONTINUOUS
 10
97.158673059
 20
33.9064748201
 11
97.158673059
 21
37.4064748201
  0
LINE
  5
22A
100
AcDbEntity
  8
5
100
AcDbLine
 62
7
  6
CONTINUOUS
 10
98.658673059
 20
167.7064748201
 11
98.658673059
 21
167.9564748201
  0
LINE
  5
22B
100
AcDbEntity
  8
5
100
AcDbLine
 62
7
  6
CONTINUOUS
 10
106.658673059
 20
167.7064748201
 11
106.658673059
 21
167.9564748201
  0
LINE
  5
22C
100
AcDbEntity
  8
5
100
AcDbLine
 62
7
  6
CONTINUOUS
 10
74.158673059
 20
167.7064748201
 11
254.158673059
 21
167.7064748201
  0
LINE
  5
22D
100
AcDbEntity
  8
5
100
AcDbLine
 62
7
  6
CONTINUOUS
 10
74.158673059
 20
167.9564748201
 11
254.1586730598
 21
167.9564748201
  0
LINE
  5
22E
100
AcDbEntity
  8
5
100
AcDbLine
 62
7
  6
CONTINUOUS
 10
119.158673059
 20
37.4064748201
 11
119.158673059
 21
33.9064748201
  0
LINE
  5
22F
100
AcDbEntity
  8
5
100
AcDbLine
 62
7
  6
CONTINUOUS
 10
168.6669495956
 20
387.4061856915
 11
168.6669495956
 21
240.7126621962
  0
LINE
  5
230
100
AcDbEntity
  8
5
100
AcDbLine
 62
7
  6
CONTINUOUS
 10
169.158673059
 20
240.4064748201
 11
169.158673059
 21
261.4822721741
  0
LINE
  5
231
100
AcDbEntity
  8
5
100
AcDbLine
 62
7
  6
CONTINUOUS
 10
169.158673059
 20
263.9711249649
 11
169.158673059
 21
342.6018246753
  0
LINE
  5
232
100
AcDbEntity
  8
5
100
AcDbLine
 62
7
  6
CONTINUOUS
 10
169.158673059
 20
345.0906774661
 11
169.158673059
 21
387.4064748201
  0
LINE
  5
233
100
AcDbEntity
  8
5
100
AcDbLine
 62
7
  6
CONTINUOUS
 10
170.358673059
 20
353.7121191084
 11
170.358673059
 21
387.4064748201
  0
LINE
  5
234
100
AcDbEntity
  8
5
100
AcDbLine
 62
7
  6
CONTINUOUS
 10
171.0367188367
 20
388.2857052537
 11
171.0367188367
 21
353.7100929191
  0
LINE
  5
235
100
AcDbEntity
  8
5
100
AcDbLine
 62
7
  6
CONTINUOUS
 10
171.3191746193
 20
306.9064748201
 11
171.3191746193
 21
293.4472351279
  0
LINE
  5
236
100
AcDbEntity
  8
5
100
AcDbLine
 62
7
  6
CONTINUOUS
 10
171.8150446797
 20
293.4472351279
 11
171.8150446797
 21
306.9064748201
  0
LINE
  5
237
100
AcDbEntity
  8
5
100
AcDbLine
 62
7
  6
CONTINUOUS
 10
172.3361244107
 20
306.9064748201
 11
172.3361244107
 21
293.4472351279
  0
LINE
  5
238
100
AcDbEntity
  8
5
100
AcDbLine
 62
7
  6
CONTINUOUS
 10
172.5316478495
 20
293.4472351279
 11
172.5316626714
 21
306.9064748201
  0
LINE
  5
239
100
AcDbEntity
  8
5
100
AcDbLine
 62
7
  6
CONTINUOUS
 10
173.2432030052
 20
306.9064748201
 11
173.2432030052
 21
293.4472351279
  0
LINE
  5
23A
100
AcDbEntity
  8
5
100
AcDbLine
 62
7
  6
CONTINUOUS
 10
173.4164080859
 20
293.4472351279
 11
173.4164080859
 21
306.9064748201
  0
LINE
  5
23B
100
AcDbEntity
  8
5
100
AcDbLine
 62
7
  6
CONTINUOUS
 10
174.2184806801
 20
306.9064748201
 11
174.2184806801
 21
293.4472351279
  0
LINE
  5
23C
100
AcDbEntity
  8
5
100
AcDbLine
 62
7
  6
CONTINUOUS
 10
174.258673059
 20
293.4472351279
 11
174.258673059
 21
306.9064748201
  0
LINE
  5
23D
100
AcDbEntity
  8
5
100
AcDbLine
 62
7
  6
CONTINUOUS
 10
179.8057867475
 20
389.2642976176
 11
179.8057867475
 21
357.5117371171
  0
LINE
  5
23E
100
AcDbEntity
  8
5
100
AcDbLine
 62
7
  6
CONTINUOUS
 10
179.6669495849
 20
229.7126621998
 11
244.1574474798
 21
229.7126621998
  0
LINE
  5
23F
100
AcDbEntity
  8
5
100
AcDbLine
 62
7
  6
CONTINUOUS
 10
228.158673059
 20
230.4064748201
 11
179.158673059
 21
230.4064748201
  0
LINE
  5
240
100
AcDbEntity
  8
5
100
AcDbLine
 62
7
  6
CONTINUOUS
 10
188.7194837012
 20
310.7766703034
 11
188.7194837012
 21
294.1973728835
  0
LINE
  5
241
100
AcDbEntity
  8
5
100
AcDbLine
 62
7
  6
CONTINUOUS
 10
189.0829799343
 20
357.5117371171
 11
189.0829799343
 21
389.2642976176
  0
LINE
  5
242
100
AcDbEntity
  8
5
100
AcDbLine
 62
7
  6
CONTINUOUS
 10
192.2889214243
 20
388.3116750034
 11
192.2889214243
 21
366.0990803939
  0
LINE
  5
243
100
AcDbEntity
  8
5
100
AcDbLine
 62
7
  6
CONTINUOUS
 10
193.9280785787
 20
354.2564748209
 11
193.9280785787
 21
354.6064748201
  0
LINE
  5
244
100
AcDbEntity
  8
5
100
AcDbLine
 62
7
  6
CONTINUOUS
 10
207.4892934195
 20
241.0494528934
 11
223.3816033772
 21
241.0494528934
  0
LINE
  5
245
100
AcDbEntity
  8
5
100
AcDbLine
 62
7
  6
CONTINUOUS
 10
203.1662229083
 20
366.0990803939
 11
203.1662229083
 21
388.3116750034
  0
LINE
  5
246
100
AcDbEntity
  8
5
100
AcDbLine
 62
7
  6
CONTINUOUS
 10
204.6117936589
 20
294.1973728835
 11
204.6117936589
 21
310.7766703034
  0
LINE
  5
247
100
AcDbEntity
  8
5
100
AcDbLine
 62
7
  6
CONTINUOUS
 10
207.4892934195
 20
257.6287503132
 11
207.4892934195
 21
241.0494528934
  0
LINE
  5
248
100
AcDbEntity
  8
5
100
AcDbLine
 62
7
  6
CONTINUOUS
 10
223.3816033772
 20
257.6287503132
 11
207.4892934195
 21
257.6287503132
  0
LINE
  5
249
100
AcDbEntity
  8
5
100
AcDbLine
 62
7
  6
CONTINUOUS
 10
174.1586730589
 20
259.3677386845
 11
219.1586730591
 21
259.3677386845
  0
LINE
  5
24A
100
AcDbEntity
  8
5
100
AcDbLine
 62
7
  6
CONTINUOUS
 10
219.158673059
 20
260.8052109557
 11
174.1586730591
 21
260.8052109557
  0
LINE
  5
24B
100
AcDbEntity
  8
5
100
AcDbLine
 62
7
  6
CONTINUOUS
 10
209.158673059
 20
33.9064748201
 11
209.158673059
 21
37.4064748201
  0
LINE
  5
24C
100
AcDbEntity
  8
5
100
AcDbLine
 62
7
  6
CONTINUOUS
 10
210.3933307291
 20
384.8698659569
 11
210.3933307291
 21
366.0990803939
  0
LINE
  5
24D
100
AcDbEntity
  8
5
100
AcDbLine
 62
7
  6
CONTINUOUS
 10
215.0177709159
 20
397.4064748201
 11
215.0177709159
 21
403.3564748201
  0
LINE
  5
24E
100
AcDbEntity
  8
5
100
AcDbLine
 62
7
  6
CONTINUOUS
 10
219.058673059
 20
306.9064748201
 11
219.058673059
 21
293.4472351279
  0
LINE
  5
24F
100
AcDbEntity
  8
5
100
AcDbLine
 62
7
  6
CONTINUOUS
 10
219.0988654379
 20
293.4472351279
 11
219.0988654379
 21
306.9064748201
  0
LINE
  5
250
100
AcDbEntity
  8
5
100
AcDbLine
 62
7
  6
CONTINUOUS
 10
219.9009380321
 20
306.9064748201
 11
219.9009380321
 21
293.4472351279
  0
LINE
  5
251
100
AcDbEntity
  8
5
100
AcDbLine
 62
7
  6
CONTINUOUS
 10
219.9755914198
 20
397.4064748201
 11
219.9755914198
 21
400.6564440175
  0
LINE
  5
252
100
AcDbEntity
  8
5
100
AcDbLine
 62
7
  6
CONTINUOUS
 10
220.0741431129
 20
293.4472351279
 11
220.0741431129
 21
306.9064748201
  0
LINE
  5
253
100
AcDbEntity
  8
5
100
AcDbLine
 62
7
  6
CONTINUOUS
 10
220.7256221598
 20
366.0990803939
 11
220.7256221598
 21
384.8698659569
  0
LINE
  5
254
100
AcDbEntity
  8
5
100
AcDbLine
 62
7
  6
CONTINUOUS
 10
220.7828736832
 20
306.9064748201
 11
220.7828736832
 21
293.4472351279
  0
LINE
  5
255
100
AcDbEntity
  8
5
100
AcDbLine
 62
7
  6
CONTINUOUS
 10
220.980859416
 20
293.4472351279
 11
220.9808613171
 21
306.9064748201
  0
LINE
  5
256
100
AcDbEntity
  8
5
100
AcDbLine
 62
7
  6
CONTINUOUS
 10
221.5023014388
 20
306.9064748201
 11
221.5023014388
 21
293.4472351279
  0
LINE
  5
257
100
AcDbEntity
  8
5
100
AcDbLine
 62
7
  6
CONTINUOUS
 10
221.658673059
 20
167.7064748201
 11
221.658673059
 21
167.9564748201
  0
LINE
  5
258
100
AcDbEntity
  8
5
100
AcDbLine
 62
7
  6
CONTINUOUS
 10
221.9981715022
 20
293.4472351279
 11
221.9981715022
 21
306.9064748201
  0
LINE
  5
259
100
AcDbEntity
  8
5
100
AcDbLine
 62
7
  6
CONTINUOUS
 10
223.3816033772
 20
241.0494528934
 11
223.3816033772
 21
257.6287503132
  0
LINE
  5
25A
100
AcDbEntity
  8
5
100
AcDbLine
 62
7
  6
CONTINUOUS
 10
224.6899369234
 20
340.2364748201
 11
224.6899369234
 21
266.3364748201
  0
LINE
  5
25B
100
AcDbEntity
  8
5
100
AcDbLine
 62
7
  6
CONTINUOUS
 10
225.8280785787
 20
360.6064748209
 11
225.8280785787
 21
387.4064748201
  0
LINE
  5
25C
100
AcDbEntity
  8
5
100
AcDbLine
 62
7
  6
CONTINUOUS
 10
226.1274091946
 20
266.3364748201
 11
226.1274091946
 21
340.2364748202
  0
LINE
  5
25D
100
AcDbEntity
  8
5
100
AcDbLine
 62
7
  6
CONTINUOUS
 10
228.0348739998
 20
397.4064748201
 11
228.0348739998
 21
400.6564440175
  0
LINE
  5
25E
100
AcDbEntity
  8
5
100
AcDbLine
 62
7
  6
CONTINUOUS
 10
228.158673059
 20
229.7126621998
 11
228.158673059
 21
387.4064748201
  0
LINE
  5
25F
100
AcDbEntity
  8
5
100
AcDbLine
 62
7
  6
CONTINUOUS
 10
228.3744471018
 20
397.4064748201
 11
228.3744471018
 21
403.3564748201
  0
LINE
  5
260
100
AcDbEntity
  8
5
100
AcDbLine
 62
7
  6
CONTINUOUS
 10
229.658673059
 20
167.7064748201
 11
229.658673059
 21
167.9564748201
  0
LINE
  5
261
100
AcDbEntity
  8
5
100
AcDbLine
 62
7
  6
CONTINUOUS
 10
231.158673059
 20
37.4064748201
 11
231.158673059
 21
33.9064748201
  0
LINE
  5
262
100
AcDbEntity
  8
5
100
AcDbLine
 62
7
  6
CONTINUOUS
 10
231.158673059
 20
410.6514728185
 11
231.158673059
 21
411.4064748201
  0
LINE
  5
263
100
AcDbEntity
  8
5
100
AcDbLine
 62
7
  6
CONTINUOUS
 10
171.3191746193
 20
293.4472351279
 11
174.258673059
 21
293.4472351279
  0
LINE
  5
264
100
AcDbEntity
  8
5
100
AcDbLine
 62
7
  6
CONTINUOUS
 10
219.058673059
 20
293.4472351279
 11
221.9981715104
 21
293.4472351279
  0
LINE
  5
265
100
AcDbEntity
  8
5
100
AcDbLine
 62
7
  6
CONTINUOUS
 10
188.7194837012
 20
294.1973728835
 11
204.6117936589
 21
294.1973728835
  0
LINE
  5
266
100
AcDbEntity
  8
5
100
AcDbLine
 62
7
  6
CONTINUOUS
 10
237.158673059
 20
411.4064748201
 11
237.158673059
 21
410.6514728185
  0
LINE
  5
267
100
AcDbEntity
  8
5
100
AcDbLine
 62
7
  6
CONTINUOUS
 10
237.158673059
 20
33.9064748201
 11
237.158673059
 21
37.4064748201
  0
LINE
  5
268
100
AcDbEntity
  8
5
100
AcDbLine
 62
7
  6
CONTINUOUS
 10
244.158673059
 20
230.4064748202
 11
244.158673059
 21
229.712663822
  0
LINE
  5
269
100
AcDbEntity
  8
5
100
AcDbLine
 62
7
  6
CONTINUOUS
 10
247.158673059
 20
37.4064748201
 11
247.158673059
 21
35.4064748201
  0
LINE
  5
26A
100
AcDbEntity
  8
5
100
AcDbLine
 62
7
  6
CONTINUOUS
 10
247.658673059
 20
397.4064748201
 11
247.658673059
 21
417.4064748201
  0
LINE
  5
26B
100
AcDbEntity
  8
5
100
AcDbLine
 62
7
  6
CONTINUOUS
 10
249.158673059
 20
397.4064748201
 11
249.158673059
 21
417.4064748201
  0
LINE
  5
26C
100
AcDbEntity
  8
5
100
AcDbLine
 62
7
  6
CONTINUOUS
 10
249.5728866214
 20
395.8139888107
 11
249.5728866214
 21
231.9989608296
  0
LINE
  5
26D
100
AcDbEntity
  8
5
100
AcDbLine
 62
7
  6
CONTINUOUS
 10
250.5650918968
 20
167.7064748201
 11
250.5650918968
 21
167.9564748201
  0
LINE
  5
26E
100
AcDbEntity
  8
5
100
AcDbLine
 62
7
  6
CONTINUOUS
 10
89.658673059
 20
32.4064748201
 11
91.158673059
 21
33.9064748201
  0
LINE
  5
26F
100
AcDbEntity
  8
5
100
AcDbLine
 62
7
  6
CONTINUOUS
 10
171.3191746193
 20
306.9064748201
 11
174.258673059
 21
306.9064748201
  0
LINE
  5
270
100
AcDbEntity
  8
5
100
AcDbLine
 62
7
  6
CONTINUOUS
 10
219.058673059
 20
306.9064748201
 11
221.9981715178
 21
306.9064748201
  0
LINE
  5
271
100
AcDbEntity
  8
5
100
AcDbLine
 62
7
  6
CONTINUOUS
 10
204.6117936589
 20
310.7766703034
 11
188.7194837012
 21
310.7766703034
  0
LINE
  5
272
100
AcDbEntity
  8
5
100
AcDbLine
 62
7
  6
CONTINUOUS
 10
254.158673059
 20
37.4064748201
 11
254.158673059
 21
397.4064748201
  0
LINE
  5
273
100
AcDbEntity
  8
5
100
AcDbLine
 62
7
  6
CONTINUOUS
 10
117.658673059
 20
32.4064748201
 11
119.158673059
 21
33.9064748201
  0
LINE
  5
274
100
AcDbEntity
  8
5
100
AcDbLine
 62
7
  6
CONTINUOUS
 10
174.158673059
 20
345.7677386845
 11
219.158673059
 21
345.7677386845
  0
LINE
  5
275
100
AcDbEntity
  8
5
100
AcDbLine
 62
7
  6
CONTINUOUS
 10
219.158673059
 20
347.2052109558
 11
174.158673059
 21
347.2052109558
  0
LINE
  5
276
100
AcDbEntity
  8
5
100
AcDbLine
 62
7
  6
CONTINUOUS
 10
174.1586730605
 20
351.0870693005
 11
190.758673059
 21
351.0870693005
  0
LINE
  5
277
100
AcDbEntity
  8
5
100
AcDbLine
 62
7
  6
CONTINUOUS
 10
169.158673059
 20
353.7121191084
 11
170.358673059
 21
353.7121191084
  0
LINE
  5
278
100
AcDbEntity
  8
5
100
AcDbLine
 62
7
  6
CONTINUOUS
 10
169.158673059
 20
356.7121191084
 11
170.358673059
 21
356.7121191084
  0
LINE
  5
279
100
AcDbEntity
  8
5
100
AcDbLine
 62
7
  6
CONTINUOUS
 10
196.7586730634
 20
357.4370693005
 11
222.658673059
 21
357.4370693005
  0
LINE
  5
27A
100
AcDbEntity
  8
5
100
AcDbLine
 62
7
  6
CONTINUOUS
 10
179.8057867475
 20
357.5117371171
 11
189.0829799343
 21
357.5117371171
  0
LINE
  5
27B
100
AcDbEntity
  8
5
100
AcDbLine
 62
7
  6
CONTINUOUS
 10
170.358673059
 20
359.7121191084
 11
169.158673059
 21
359.7121191084
  0
LINE
  5
27C
100
AcDbEntity
  8
5
100
AcDbLine
 62
7
  6
CONTINUOUS
 10
192.2889214243
 20
366.0990803939
 11
203.1662229083
 21
366.0990803939
  0
LINE
  5
27D
100
AcDbEntity
  8
5
100
AcDbLine
 62
7
  6
CONTINUOUS
 10
210.3933307291
 20
366.0990803939
 11
220.7256221598
 21
366.0990803939
  0
LINE
  5
27E
100
AcDbEntity
  8
5
100
AcDbLine
 62
7
  6
CONTINUOUS
 10
220.7256221598
 20
384.8698659569
 11
210.3933307291
 21
384.8698659569
  0
LINE
  5
27F
100
AcDbEntity
  8
5
100
AcDbLine
 62
7
  6
CONTINUOUS
 10
168.6669456065
 20
387.4064748201
 11
169.158673059
 21
387.4064748201
  0
LINE
  5
280
100
AcDbEntity
  8
5
100
AcDbLine
 62
7
  6
CONTINUOUS
 10
203.1662229083
 20
388.3116750034
 11
192.2889214243
 21
388.3116750034
  0
LINE
  5
281
100
AcDbEntity
  8
5
100
AcDbLine
 62
7
  6
CONTINUOUS
 10
189.0829799343
 20
389.2642976176
 11
179.8057867475
 21
389.2642976176
  0
LINE
  5
282
100
AcDbEntity
  8
5
100
AcDbLine
 62
7
  6
CONTINUOUS
 10
217.6586730584
 20
395.5758803398
 11
179.158673059
 21
395.5758803398
  0
LINE
  5
283
100
AcDbEntity
  8
5
100
AcDbLine
 62
7
  6
CONTINUOUS
 10
170.358673059
 20
386.1201472089
 11
169.158673059
 21
386.3778946189
  0
LINE
  5
284
100
AcDbEntity
  8
5
100
AcDbLine
 62
7
  6
CONTINUOUS
 10
170.5333355762
 20
389.1510530807
 11
169.360019507
 21
389.4030690623
  0
LINE
  5
285
100
AcDbEntity
  8
5
100
AcDbLine
 62
7
  6
CONTINUOUS
 10
170.4079545549
 20
392.2464051566
 11
171.6414006991
 21
391.9814738657
  0
LINE
  5
286
100
AcDbEntity
  8
5
100
AcDbLine
 62
7
  6
CONTINUOUS
 10
229.658673059
 20
32.4064748201
 11
231.158673059
 21
33.9064748201
  0
LINE
  5
287
100
AcDbEntity
  8
5
100
AcDbLine
 62
7
  6
CONTINUOUS
 10
74.158673059
 20
397.4064748201
 11
254.158673059
 21
397.4064748201
  0
LINE
  5
288
100
AcDbEntity
  8
5
100
AcDbLine
 62
7
  6
CONTINUOUS
 10
219.9755914198
 20
400.6564440175
 11
228.0348739998
 21
400.6564440175
  0
LINE
  5
289
100
AcDbEntity
  8
5
100
AcDbLine
 62
7
  6
CONTINUOUS
 10
215.0177709159
 20
403.3564748201
 11
228.3744471018
 21
403.3564748201
  0
LINE
  5
28A
100
AcDbEntity
  8
5
100
AcDbLine
 62
7
  6
CONTINUOUS
 10
79.158673059
 20
407.4064748201
 11
80.658673059
 21
407.4064748201
  0
LINE
  5
28B
100
AcDbEntity
  8
5
100
AcDbLine
 62
7
  6
CONTINUOUS
 10
247.658673059
 20
407.4064748201
 11
249.158673059
 21
407.4064748201
  0
LINE
  5
28C
100
AcDbEntity
  8
5
100
AcDbLine
 62
7
  6
CONTINUOUS
 10
79.158673059
 20
417.4064748201
 11
249.158673059
 21
417.4064748201
  0
ARC
  5
28D
100
AcDbEntity
  8
5
100
AcDbCircle
 62
7
  6
CONTINUOUS
 10
84.158673059
 20
47.4064748201
 40
10.0
100
AcDbArc
 50
180.0
 51
270.0
  0
ARC
  5
28E
100
AcDbEntity
  8
5
100
AcDbCircle
 62
7
  6
CONTINUOUS
 10
84.158673059
 20
35.4064748201
 40
3.0
100
AcDbArc
 50
180.0
 51
270.0
  0
ARC
  5
28F
100
AcDbEntity
  8
5
100
AcDbCircle
 62
7
  6
CONTINUOUS
 10
158.666868292
 20
387.4063837268
 40
10.0000653456
100
AcDbArc
 50
0.002813899
 51
90.0076881549
  0
ARC
  5
290
100
AcDbEntity
  8
5
100
AcDbCircle
 62
7
  6
CONTINUOUS
 10
84.158673059
 20
387.4064748201
 40
10.0
100
AcDbArc
 50
89.9999997078
 51
180.0
  0
ARC
  5
291
100
AcDbEntity
  8
5
100
AcDbCircle
 62
7
  6
CONTINUOUS
 10
94.158673059
 20
404.4064748201
 40
6.0
100
AcDbArc
 50
128.6821874478
 51
51.3178125679
  0
ARC
  5
292
100
AcDbEntity
  8
5
100
AcDbCircle
 62
7
  6
CONTINUOUS
 10
94.158673059
 20
411.4064748201
 40
3.0
100
AcDbArc
 50
0.0
 51
180.0
  0
ARC
  5
293
100
AcDbEntity
  8
5
100
AcDbCircle
 62
7
  6
CONTINUOUS
 10
99.158673059
 20
410.6514728185
 40
2.0
100
AcDbArc
 50
180.0
 51
231.3178124823
  0
ARC
  5
294
100
AcDbEntity
  8
5
100
AcDbCircle
 62
7
  6
CONTINUOUS
 10
89.158673059
 20
410.6514728185
 40
2.0
100
AcDbArc
 50
308.6821874706
 51
360.0
  0
ARC
  5
295
100
AcDbEntity
  8
5
100
AcDbCircle
 62
7
  6
CONTINUOUS
 10
244.1585134747
 20
219.7125186223
 40
10.0001500951
100
AcDbArc
 50
359.9974161772
 51
90.0094354898
  0
ARC
  5
296
100
AcDbEntity
  8
5
100
AcDbCircle
 62
7
  6
CONTINUOUS
 10
244.158673059
 20
47.4064748201
 40
10.0
100
AcDbArc
 50
270.0
 51
360.0
  0
ARC
  5
297
100
AcDbEntity
  8
5
100
AcDbCircle
 62
7
  6
CONTINUOUS
 10
244.158673059
 20
35.4064748201
 40
3.0
100
AcDbArc
 50
270.0
 51
360.0
  0
ARC
  5
298
100
AcDbEntity
  8
5
100
AcDbCircle
 62
7
  6
CONTINUOUS
 10
179.6669495956
 20
240.7126621998
 40
11.0
100
AcDbArc
 50
180.0000000754
 51
269.9999997762
  0
ARC
  5
299
100
AcDbEntity
  8
5
100
AcDbCircle
 62
7
  6
CONTINUOUS
 10
179.158673059
 20
240.4064748201
 40
10.0
100
AcDbArc
 50
180.0
 51
270.0
  0
ARC
  5
29A
100
AcDbEntity
  8
5
100
AcDbCircle
 62
7
  6
CONTINUOUS
 10
174.158673059
 20
266.3364748201
 40
6.9687361356
100
AcDbArc
 50
224.1523450569
 51
269.9999999969
  0
ARC
  5
29B
100
AcDbEntity
  8
5
100
AcDbCircle
 62
7
  6
CONTINUOUS
 10
174.158673059
 20
266.3364748201
 40
5.5312638644
100
AcDbArc
 50
205.3174252383
 51
270.0000000036
  0
ARC
  5
29C
100
AcDbEntity
  8
5
100
AcDbCircle
 62
7
  6
CONTINUOUS
 10
179.158673059
 20
387.4064748201
 40
10.0
100
AcDbArc
 50
90.0
 51
180.0
  0
ARC
  5
29D
100
AcDbEntity
  8
5
100
AcDbCircle
 62
7
  6
CONTINUOUS
 10
179.158673059
 20
387.4064748201
 40
8.8
100
AcDbArc
 50
148.6753779705
 51
180.0
  0
ARC
  5
29E
100
AcDbEntity
  8
5
100
AcDbCircle
 62
7
  6
CONTINUOUS
 10
179.158673059
 20
387.4064748201
 40
8.1694055197
100
AcDbArc
 50
90.0
 51
173.8215877039
  0
ARC
  5
29F
100
AcDbEntity
  8
5
100
AcDbCircle
 62
7
  6
CONTINUOUS
 10
174.158673059
 20
340.2364748201
 40
6.9687361356
100
AcDbArc
 50
90.0000000006
 51
135.8476549432
  0
ARC
  5
2A0
100
AcDbEntity
  8
5
100
AcDbCircle
 62
7
  6
CONTINUOUS
 10
174.158673059
 20
340.2364748201
 40
5.5312638644
100
AcDbArc
 50
89.9999999995
 51
154.6825747619
  0
ARC
  5
2A1
100
AcDbEntity
  8
5
100
AcDbCircle
 62
7
  6
CONTINUOUS
 10
174.158673059
 20
354.2564748201
 40
3.1694055197
100
AcDbArc
 50
189.9269562286
 51
270.0000000006
  0
ARC
  5
2A2
100
AcDbEntity
  8
5
100
AcDbCircle
 62
7
  6
CONTINUOUS
 10
190.758673059
 20
354.2564748201
 40
3.1694055197
100
AcDbArc
 50
270.0000000002
 51
360.0
  0
ARC
  5
2A3
100
AcDbEntity
  8
5
100
AcDbCircle
 62
7
  6
CONTINUOUS
 10
196.758673059
 20
354.6064748201
 40
2.8305944803
100
AcDbArc
 50
90.000000003
 51
180.0000000003
  0
ARC
  5
2A4
100
AcDbEntity
  8
5
100
AcDbCircle
 62
7
  6
CONTINUOUS
 10
244.158673059
 20
240.4064748201
 40
10.0
100
AcDbArc
 50
270.0
 51
359.9996385736
  0
ARC
  5
2A5
100
AcDbEntity
  8
5
100
AcDbCircle
 62
7
  6
CONTINUOUS
 10
219.158673059
 20
266.3364748201
 40
6.9687361356
100
AcDbArc
 50
270.0000000031
 51
359.9999999997
  0
ARC
  5
2A6
100
AcDbEntity
  8
5
100
AcDbCircle
 62
7
  6
CONTINUOUS
 10
219.158673059
 20
266.3364748201
 40
5.5312638644
100
AcDbArc
 50
269.9999999987
 51
360.0
  0
ARC
  5
2A7
100
AcDbEntity
  8
5
100
AcDbCircle
 62
7
  6
CONTINUOUS
 10
218.158673059
 20
387.4064748201
 40
10.0
100
AcDbArc
 50
0.0
 51
90.0
  0
ARC
  5
2A8
100
AcDbEntity
  8
5
100
AcDbCircle
 62
7
  6
CONTINUOUS
 10
244.158673059
 20
387.4064748201
 40
10.0
100
AcDbArc
 50
0.0
 51
90.0
  0
ARC
  5
2A9
100
AcDbEntity
  8
5
100
AcDbCircle
 62
7
  6
CONTINUOUS
 10
217.658673059
 20
387.4064748201
 40
8.1694055197
100
AcDbArc
 50
0.0000000001
 51
90.0000000001
  0
ARC
  5
2AA
100
AcDbEntity
  8
5
100
AcDbCircle
 62
7
  6
CONTINUOUS
 10
219.158673059
 20
340.2364748201
 40
6.9687361356
100
AcDbArc
 50
0.0000000006
 51
89.9999999994
  0
ARC
  5
2AB
100
AcDbEntity
  8
5
100
AcDbCircle
 62
7
  6
CONTINUOUS
 10
234.158673059
 20
404.4064748201
 40
6.0
100
AcDbArc
 50
197.104453724
 51
51.3178125465
  0
ARC
  5
2AC
100
AcDbEntity
  8
5
100
AcDbCircle
 62
7
  6
CONTINUOUS
 10
234.158673059
 20
404.4064748201
 40
6.0
100
AcDbArc
 50
128.6821874475
 51
190.3439288177
  0
ARC
  5
2AD
100
AcDbEntity
  8
5
100
AcDbCircle
 62
7
  6
CONTINUOUS
 10
219.158673059
 20
340.2364748201
 40
5.5312638644
100
AcDbArc
 50
0.0
 51
90.0000000007
  0
ARC
  5
2AE
100
AcDbEntity
  8
5
100
AcDbCircle
 62
7
  6
CONTINUOUS
 10
222.658673059
 20
360.6064748201
 40
3.1694055197
100
AcDbArc
 50
269.9999999994
 51
360.0
  0
ARC
  5
2AF
100
AcDbEntity
  8
5
100
AcDbCircle
 62
7
  6
CONTINUOUS
 10
234.158673059
 20
411.4064748201
 40
3.0
100
AcDbArc
 50
0.0
 51
180.0
  0
ARC
  5
2B0
100
AcDbEntity
  8
5
100
AcDbCircle
 62
7
  6
CONTINUOUS
 10
239.158673059
 20
410.6514728185
 40
2.0
100
AcDbArc
 50
180.0
 51
231.3178125465
  0
ARC
  5
2B1
100
AcDbEntity
  8
5
100
AcDbCircle
 62
7
  6
CONTINUOUS
 10
229.158673059
 20
410.6514728185
 40
2.0
100
AcDbArc
 50
308.6821874714
 51
360.0
  0
ENDSEC
  0
SECTION
  2
OBJECTS
  0
DICTIONARY
  5
C
100
AcDbDictionary
280
0
281
1
  3
ACAD_GROUP
350
D
  3
ACAD_MLINESTYLE
350
17
  3
ACAD_LAYOUT
350
1A
  3
ACAD_PLOTSETTINGS
350
19
  3
ACAD_PLOTSTYLENAME
350
E
  0
DICTIONARY
  5
D
102
{ACAD_REACTORS
330
C
102
}
100
AcDbDictionary
280
0
281
1
  0
ACDBDICTIONARYWDFLT
  5
E
102
{ACAD_REACTORS
330
C
102
}
100
AcDbDictionary
281
1
  3
Normal
350
F
100
AcDbDictionaryWithDefault
340
F
  0
DICTIONARY
  5
17
102
{ACAD_REACTORS
330
C
102
}
100
AcDbDictionary
280
0
281
1
  3
Standard
350
18
  0
DICTIONARY
  5
19
102
{ACAD_REACTORS
330
C
102
}
100
AcDbDictionary
281
1
  0
DICTIONARY
  5
1A
102
{ACAD_REACTORS
330
C
102
}
100
AcDbDictionary
281
1
  3
Model
350
2B2
  3
Layout1
350
2B3
  0
ACDBPLACEHOLDER
  5
F
102
{ACAD_REACTORS
330
E
102
}
  0
MLINESTYLE
  5
18
102
{ACAD_REACTORS
330
17
102
}
100
AcDbMlineStyle
  2
STANDARD
 70
0
  3

 62
256
 51
90.0
 52
90.0
 71
2
 49
0.5
 62
256
  6
BYLAYER
 49
-0.5
 62
256
  6
BYLAYER
  0
LAYOUT
  5
2B2
102
{ACAD_REACTORS
330
1A
102
}
100
AcDbPlotSettings
  1

  2
none_device
  4

  6

 40
0.0
 41
0.0
 42
0.0
 43
0.0
 44
210.0
 45
297.0
 46
0.0
 47
0.0
 48
0.0
 49
0.0
140
0.0
141
0.0
142
1.0
143
1.0
 70
1024
 72
1
 73
0
 74
0
  7

 75
0
147
1.0
148
0.0
149
0.0
100
AcDbLayout
  1
Model
 70
0
 71
0
 10
0.0
 20
0.0
 11
210.0
 21
297.0
 12
0.0
 22
0.0
 32
0.0
 14
0.0
 24
0.0
 34
0.0
 15
0.0
 25
0.0
 35
0.0
146
0.0
 13
0.0
 23
0.0
 33
0.0
 16
1.0
 26
0.0
 36
0.0
 17
0.0
 27
1.0
 37
0.0
 76
0
330
211
345
0
346
0
  0
LAYOUT
  5
2B3
102
{ACAD_REACTORS
330
1A
102
}
100
AcDbPlotSettings
  1

  2
none_device
  4

  6

 40
0.0
 41
0.0
 42
0.0
 43
0.0
 44
210.0
 45
297.0
 46
0.0
 47
0.0
 48
0.0
 49
0.0
140
0.0
141
0.0
142
1.0
143
1.0
 70
0
 72
1
 73
0
 74
0
  7

 75
0
147
1.0
148
0.0
149
0.0
100
AcDbLayout
  1
Layout1
 70
0
 71
1
 10
0.0
 20
0.0
 11
210.0
 21
297.0
 12
0.0
 22
0.0
 32
0.0
 14
0.0
 24
0.0
 34
0.0
 15
0.0
 25
0.0
 35
0.0
146
0.0
 13
0.0
 23
0.0
 33
0.0
 16
1.0
 26
0.0
 36
0.0
 17
0.0
 27
1.0
 37
0.0
 76
0
330
212
345
0
346
0
  0
ENDSEC
  0
EOF
