999
DXF file: C:\Users\sesa63760\Dev\_Creo\CAD\MCADPD0003997_3D-CAD\drw0001_4.dxf
999
Pro/ENGINEER 2019471 by Parametric Technology Corporation
  0
SECTION
  2
HEADER
  9
$ACADVER
  1
AC1024
  9
$DWGCODEPAGE
  3
ANSI_1252
  9
$EXTMAX
 10
73.9758738464
 20
104.6230215827
 30
0.0
  9
$EXTMIN
 10
0.0
 20
0.0
 30
0.0
  9
$LIMMIN
 10
0.0
 20
0.0
  9
$LIMMAX
 10
73.9758738464
 20
104.6230215827
  9
$VIEWCTR
 10
36.9879369232
 20
52.3115107914
  9
$VIEWSIZE
 40
104.6230215827
  9
$CLAYER
  8
0
  9
$LTSCALE
 40
6.8198710365
  9
$CELTYPE
  6
BYLAYER
  9
$DIMSCALE
 40
1.0
  9
$DIMASZ
 40
0.8806651648
  9
$DIMEXO
 40
1.0
  9
$DIMDLI
 40
4.7119108979
  9
$DIMEXE
 40
1.0
  9
$DIMCEN
 40
1.1159788969
  9
$DIMLFAC
 40
1.0
  9
$DIMBLK
  1
_FILLED
  9
$DIMALT
 70
0
  9
$DIMALTF
 40
0.0393700787
  9
$DIMTXT
 40
1.2329312308
  9
$DIMTOL
 70
1
  9
$DIMLIM
 70
0
  9
$DIMTFAC
 40
1.0
  9
$DIMTP
 40
0.01
  9
$DIMTM
 40
0.01
  9
$DIMGAP
 40
0.625
  9
$DIMDSEP
 70
46
  9
$AUNITS
 70
0
  9
$PDMODE
 70
3
  9
$PDSIZE
 40
0.3125
  9
$HANDSEED
  5
2CE
  9
$TILEMODE
 70
1
  9
$MEASUREMENT
 70
1
  9
$INSUNITS
 70
4
  0
ENDSEC
  0
SECTION
  2
CLASSES
  0
CLASS
  1
ACDBDICTIONARYWDFLT
  2
AcDbDictionaryWithDefault
  3
AutoCAD 2000
 90
0
 91
1
280
0
281
0
  0
CLASS
  1
ACDBPLACEHOLDER
  2
AcDbPlaceHolder
  3
AutoCAD 2000
 90
0
 91
1
280
0
281
0
  0
CLASS
  1
LAYOUT
  2
AcDbLayout
  3
AutoCAD 2000
 90
0
 91
0
280
0
281
0
  0
ENDSEC
  0
SECTION
  2
TABLES
  0
TABLE
  2
VPORT
  5
8
100
AcDbSymbolTable
 70
2
  0
VPORT
  5
1F4
100
AcDbSymbolTableRecord
100
AcDbViewportTableRecord
  2
*ACTIVE
 70
0
 10
0.0
 20
0.0
 11
1.0
 21
1.0
 12
36.9879369232
 22
52.3115107914
 13
0.0
 23
0.0
 14
1.0
 24
1.0
 15
0.0
 25
0.0
 16
0.0
 26
0.0
 36
1.0
 17
0.0
 27
0.0
 37
0.0
 40
104.6230215827
 41
0.7070707071
 42
50.0
 43
0.0
 44
0.0
 50
0.0
 51
0.0
 71
0
 72
100
 73
1
 74
1
 75
0
 76
0
 77
0
 78
0
  0
ENDTAB
  0
TABLE
  2
LTYPE
  5
5
100
AcDbSymbolTable
 70
6
  0
LTYPE
  5
14
100
AcDbSymbolTableRecord
100
AcDbLinetypeTableRecord
  2
BYBLOCK
 70
0
  3

 72
65
 73
0
 40
0.0
  0
LTYPE
  5
15
100
AcDbSymbolTableRecord
100
AcDbLinetypeTableRecord
  2
BYLAYER
 70
0
  3

 72
65
 73
0
 40
0.0
  0
LTYPE
  5
16
100
AcDbSymbolTableRecord
100
AcDbLinetypeTableRecord
  2
CONTINUOUS
 70
64
  3
Solid line
 72
65
 73
0
 40
0.0
  0
LTYPE
  5
1F5
100
AcDbSymbolTableRecord
100
AcDbLinetypeTableRecord
  2
CENTER
 70
64
  3
____ _ ____ _ ____ _ ____ _ ____ _ ____ _ ____
 72
65
 73
4
 40
0.6
 49
0.375
 74
0
 49
-0.075
 74
0
 49
0.075
 74
0
 49
-0.075
 74
0
  0
LTYPE
  5
1F6
100
AcDbSymbolTableRecord
100
AcDbLinetypeTableRecord
  2
HIDDEN
 70
64
  3
- - - - - - - - - - - - - - - - - - - -
 72
65
 73
2
 40
0.2
 49
0.1
 74
0
 49
-0.1
 74
0
  0
LTYPE
  5
1F7
100
AcDbSymbolTableRecord
100
AcDbLinetypeTableRecord
  2
PHANTOM
 70
64
  3
_____ _ _ _____ _ _ _____ _ _ _____
 72
65
 73
6
 40
0.8
 49
0.45
 74
0
 49
-0.05
 74
0
 49
0.1
 74
0
 49
-0.05
 74
0
 49
0.1
 74
0
 49
-0.05
 74
0
  0
LTYPE
  5
1F8
100
AcDbSymbolTableRecord
100
AcDbLinetypeTableRecord
  2
DOT
 70
64
  3
. . . . . . . . . . . . . . . . . . . .
 72
65
 73
2
 40
0.2
 49
0.1
 74
0
 49
-0.1
 74
0
  0
LTYPE
  5
1F9
100
AcDbSymbolTableRecord
100
AcDbLinetypeTableRecord
  2
DASHED
 70
64
  3
- - - - - - - - - - - - - - - - - - - -
 72
65
 73
2
 40
0.2
 49
0.1
 74
0
 49
-0.1
 74
0
  0
ENDTAB
  0
TABLE
  2
LAYER
  5
2
100
AcDbSymbolTable
 70
36
  0
LAYER
  5
10
100
AcDbSymbolTableRecord
100
AcDbLayerTableRecord
  2
0
 70
0
 62
7
  6
CONTINUOUS
370
-3
390
F
  0
LAYER
  5
1FA
100
AcDbSymbolTableRecord
100
AcDbLayerTableRecord
  2
DEFAULT_1
 70
0
 62
7
  6
CENTER
370
-3
390
F
  0
LAYER
  5
1FB
100
AcDbSymbolTableRecord
100
AcDbLayerTableRecord
  2
DEFAULT_2
 70
0
 62
7
  6
HIDDEN
370
-3
390
F
  0
LAYER
  5
1FC
100
AcDbSymbolTableRecord
100
AcDbLayerTableRecord
  2
DEFAULT_3
 70
0
 62
7
  6
PHANTOM
370
-3
390
F
  0
LAYER
  5
1FD
100
AcDbSymbolTableRecord
100
AcDbLayerTableRecord
  2
00_COMPONENTS
 70
0
 62
7
  6
CONTINUOUS
370
-3
390
F
  0
LAYER
  5
1FE
100
AcDbSymbolTableRecord
100
AcDbLayerTableRecord
  2
00_COMPONENTS_1
 70
0
 62
7
  6
CONTINUOUS
370
-3
390
F
  0
LAYER
  5
1FF
100
AcDbSymbolTableRecord
100
AcDbLayerTableRecord
  2
01_1_DEFAULT_DATUMS
 70
0
 62
7
  6
CONTINUOUS
370
-3
390
F
  0
LAYER
  5
200
100
AcDbSymbolTableRecord
100
AcDbLayerTableRecord
  2
01_PLANES
 70
0
 62
7
  6
CONTINUOUS
370
-3
390
F
  0
LAYER
  5
201
100
AcDbSymbolTableRecord
100
AcDbLayerTableRecord
  2
02_COORD_SYS
 70
0
 62
7
  6
CONTINUOUS
370
-3
390
F
  0
LAYER
  5
202
100
AcDbSymbolTableRecord
100
AcDbLayerTableRecord
  2
03_AXES
 70
0
 62
7
  6
CONTINUOUS
370
-3
390
F
  0
LAYER
  5
203
100
AcDbSymbolTableRecord
100
AcDbLayerTableRecord
  2
03_AXES_1
 70
0
 62
7
  6
CONTINUOUS
370
-3
390
F
  0
LAYER
  5
204
100
AcDbSymbolTableRecord
100
AcDbLayerTableRecord
  2
04_POINTS
 70
0
 62
7
  6
CONTINUOUS
370
-3
390
F
  0
LAYER
  5
205
100
AcDbSymbolTableRecord
100
AcDbLayerTableRecord
  2
05_CURVES
 70
0
 62
7
  6
CONTINUOUS
370
-3
390
F
  0
LAYER
  5
206
100
AcDbSymbolTableRecord
100
AcDbLayerTableRecord
  2
06_SURFS
 70
0
 62
7
  6
CONTINUOUS
370
-3
390
F
  0
LAYER
  5
207
100
AcDbSymbolTableRecord
100
AcDbLayerTableRecord
  2
07_COSMETICS
 70
0
 62
7
  6
CONTINUOUS
370
-3
390
F
  0
LAYER
  5
208
100
AcDbSymbolTableRecord
100
AcDbLayerTableRecord
  2
10_NOTES
 70
0
 62
7
  6
CONTINUOUS
370
-3
390
F
  0
LAYER
  5
209
100
AcDbSymbolTableRecord
100
AcDbLayerTableRecord
  2
11_NOTES_PUB
 70
0
 62
7
  6
CONTINUOUS
370
-3
390
F
  0
LAYER
  5
20A
100
AcDbSymbolTableRecord
100
AcDbLayerTableRecord
  2
13_REF_GTOL
 70
0
 62
7
  6
CONTINUOUS
370
-3
390
F
  0
LAYER
  5
20B
100
AcDbSymbolTableRecord
100
AcDbLayerTableRecord
  2
16_MISC
 70
0
 62
7
  6
CONTINUOUS
370
-3
390
F
  0
LAYER
  5
20C
100
AcDbSymbolTableRecord
100
AcDbLayerTableRecord
  2
17_NO_PRINT
 70
0
 62
7
  6
CONTINUOUS
370
-3
390
F
  0
LAYER
  5
20D
100
AcDbSymbolTableRecord
100
AcDbLayerTableRecord
  2
18_DATUM_CAMS_JOINTS
 70
0
 62
7
  6
CONTINUOUS
370
-3
390
F
  0
LAYER
  5
20E
100
AcDbSymbolTableRecord
100
AcDbLayerTableRecord
  2
19_DATUM_FUNCTIONAL
 70
0
 62
7
  6
CONTINUOUS
370
-3
390
F
  0
LAYER
  5
20F
100
AcDbSymbolTableRecord
100
AcDbLayerTableRecord
  2
20_DATUM_KINEMATIC_SCHEME
 70
0
 62
7
  6
CONTINUOUS
370
-3
390
F
  0
LAYER
  5
210
100
AcDbSymbolTableRecord
100
AcDbLayerTableRecord
  2
INTFCLR_20
 70
0
 62
7
  6
CONTINUOUS
370
-3
390
F
  0
LAYER
  5
211
100
AcDbSymbolTableRecord
100
AcDbLayerTableRecord
  2
INTFCLR_97
 70
0
 62
7
  6
CONTINUOUS
370
-3
390
F
  0
LAYER
  5
212
100
AcDbSymbolTableRecord
100
AcDbLayerTableRecord
  2
INTF_BLANK
 70
0
 62
7
  6
CONTINUOUS
370
-3
390
F
  0
LAYER
  5
213
100
AcDbSymbolTableRecord
100
AcDbLayerTableRecord
  2
INTF_YELLOW
 70
0
 62
7
  6
CONTINUOUS
370
-3
390
F
  0
LAYER
  5
214
100
AcDbSymbolTableRecord
100
AcDbLayerTableRecord
  2
_BLACK_HOLE
 70
0
 62
7
  6
CONTINUOUS
370
-3
390
F
  0
ENDTAB
  0
TABLE
  2
STYLE
  5
3
100
AcDbSymbolTable
 70
1
  0
STYLE
  5
11
100
AcDbSymbolTableRecord
100
AcDbTextStyleTableRecord
  2
STANDARD
 70
0
 40
0.0
 41
1.0
 50
0.0
 71
0
 42
0.2
  3
ARIAL.TTF
  4

  0
STYLE
  5
215
100
AcDbSymbolTableRecord
100
AcDbTextStyleTableRecord
  2
TEXTSTYLE_1
 70
0
 40
0.0
 41
0.8
 50
0.0
 71
0
 42
0.2
  3
gdt
  4

  0
ENDTAB
  0
TABLE
  2
VIEW
  5
6
100
AcDbSymbolTable
 70
0
  0
ENDTAB
  0
TABLE
  2
UCS
  5
7
100
AcDbSymbolTable
 70
0
  0
ENDTAB
  0
TABLE
  2
APPID
  5
9
100
AcDbSymbolTable
 70
1
  0
APPID
  5
216
100
AcDbSymbolTableRecord
100
AcDbRegAppTableRecord
  2
ACAD
 70
0
  0
ENDTAB
  0
TABLE
  2
BLOCK_RECORD
  5
1
100
AcDbSymbolTable
 70
0
  0
BLOCK_RECORD
  5
217
100
AcDbSymbolTableRecord
100
AcDbBlockTableRecord
  2
*Model_Space
  0
BLOCK_RECORD
  5
218
100
AcDbSymbolTableRecord
100
AcDbBlockTableRecord
  2
*Paper_Space
  0
BLOCK_RECORD
  5
219
100
AcDbSymbolTableRecord
100
AcDbBlockTableRecord
  2
_FILLED
  0
ENDTAB
  0
TABLE
  2
DIMSTYLE
  5
A
100
AcDbSymbolTable
 70
1
100
AcDbDimStyleTable
 71
0
  0
DIMSTYLE
105
21A
100
AcDbSymbolTableRecord
100
AcDbDimStyleTableRecord
  2
STANDARD
 70
0
  3

  4

 40
1.0
 41
0.8806651648
 42
1.0
 43
0.38
 44
1.0
 45
0.0
 46
0.0
 47
0.01
 48
0.01
140
1.2329312308
141
0.09
142
0.0
143
25.4
144
1.0
145
0.0
146
1.0
147
0.625
 71
1
 72
0
 73
0
 74
0
 75
0
 76
0
 77
1
 78
8
 79
2
170
0
171
1
172
0
173
0
174
0
175
0
176
0
177
0
178
0
270
2
179
2
271
2
272
2
273
2
274
2
275
0
280
0
281
0
282
0
283
1
284
8
285
0
286
0
287
3
288
0
340
11
278
46
341
219
342
219
343
219
344
219
  0
ENDTAB
  0
ENDSEC
  0
SECTION
  2
BLOCKS
  0
BLOCK
  5
20
100
AcDbEntity
  8
0
100
AcDbBlockBegin
  2
*Model_Space
 70
0
 10
0.0
 20
0.0
 30
0.0
  3
*Model_Space
  1

  0
ENDBLK
  5
21
100
AcDbEntity
  8
0
100
AcDbBlockEnd
  0
BLOCK
  5
1C
100
AcDbEntity
  8
0
100
AcDbBlockBegin
  2
*Paper_Space
 70
0
 10
0.0
 20
0.0
 30
0.0
  3
*Paper_Space
  1

  0
ENDBLK
  5
1D
100
AcDbEntity
  8
0
100
AcDbBlockEnd
  0
BLOCK
  5
21B
100
AcDbEntity
  8
0
100
AcDbBlockBegin
  2
_FILLED
 70
64
 10
0.0
 20
0.0
  3
_FILLED
  1

  0
SOLID
  5
21C
100
AcDbEntity
  8
0
  6
BYBLOCK
 62
0
100
AcDbTrace
 10
0.0
 20
0.0
 11
-1.0
 21
0.25
 12
-1.0
 22
-0.25
 13
-1.0
 23
-0.25
  0
ENDBLK
  5
21D
100
AcDbEntity
  8
0
  6
BYBLOCK
 62
0
100
AcDbBlockEnd
  0
ENDSEC
  0
SECTION
  2
ENTITIES
  0
LINE
  5
21E
100
AcDbEntity
  8
00_COMPONENTS_1
100
AcDbLine
 62
7
  6
BYLAYER
 10
48.1027851161
 20
7.4913669065
 11
27.1027851161
 21
7.4913669065
  0
LINE
  5
21F
100
AcDbEntity
  8
00_COMPONENTS_1
100
AcDbLine
 62
7
  6
BYLAYER
 10
15.3527851161
 20
8.4913669065
 11
59.8527851161
 21
8.4913669065
  0
LINE
  5
220
100
AcDbEntity
  8
00_COMPONENTS_1
100
AcDbLine
 62
7
  6
BYLAYER
 10
54.5710303497
 20
16.0613669065
 11
51.736194741
 21
16.0613669065
  0
LINE
  5
221
100
AcDbEntity
  8
00_COMPONENTS_1
100
AcDbLine
 62
7
  6
BYLAYER
 10
50.4727851161
 20
16.0613669065
 11
47.6345398826
 21
16.0613669065
  0
LINE
  5
222
100
AcDbEntity
  8
00_COMPONENTS_1
100
AcDbLine
 62
7
  6
BYLAYER
 10
41.0710303497
 20
16.0613669065
 11
38.2327851161
 21
16.0613669065
  0
LINE
  5
223
100
AcDbEntity
  8
00_COMPONENTS_1
100
AcDbLine
 62
7
  6
BYLAYER
 10
36.9727851161
 20
16.0613669065
 11
34.1345398826
 21
16.0613669065
  0
LINE
  5
224
100
AcDbEntity
  8
00_COMPONENTS_1
100
AcDbLine
 62
7
  6
BYLAYER
 10
27.5710303497
 20
16.0613669065
 11
24.7327851161
 21
16.0613669065
  0
LINE
  5
225
100
AcDbEntity
  8
00_COMPONENTS_1
100
AcDbLine
 62
7
  6
BYLAYER
 10
23.4727851161
 20
16.0613669065
 11
20.6345398826
 21
16.0613669065
  0
LINE
  5
226
100
AcDbEntity
  8
00_COMPONENTS_1
100
AcDbLine
 62
7
  6
BYLAYER
 10
20.6345398826
 20
17.3213669065
 11
23.4727851161
 21
17.3213669065
  0
LINE
  5
227
100
AcDbEntity
  8
00_COMPONENTS_1
100
AcDbLine
 62
7
  6
BYLAYER
 10
24.7327851161
 20
17.3213669065
 11
27.5710303497
 21
17.3213669065
  0
LINE
  5
228
100
AcDbEntity
  8
00_COMPONENTS_1
100
AcDbLine
 62
7
  6
BYLAYER
 10
34.1345398826
 20
17.3213669065
 11
36.9727851161
 21
17.3213669065
  0
LINE
  5
229
100
AcDbEntity
  8
00_COMPONENTS_1
100
AcDbLine
 62
7
  6
BYLAYER
 10
38.2327851161
 20
17.3213669065
 11
41.0710303497
 21
17.3213669065
  0
LINE
  5
22A
100
AcDbEntity
  8
00_COMPONENTS_1
100
AcDbLine
 62
7
  6
BYLAYER
 10
47.6345398826
 20
17.3213669065
 11
50.4727851161
 21
17.3213669065
  0
LINE
  5
22B
100
AcDbEntity
  8
00_COMPONENTS_1
100
AcDbLine
 62
7
  6
BYLAYER
 10
51.736194741
 20
17.3213669065
 11
54.5710303497
 21
17.3213669065
  0
LINE
  5
22C
100
AcDbEntity
  8
00_COMPONENTS_1
100
AcDbLine
 62
7
  6
BYLAYER
 10
15.3527851161
 20
8.4913669065
 11
15.3527851161
 21
95.4913669065
  0
LINE
  5
22D
100
AcDbEntity
  8
00_COMPONENTS_1
100
AcDbLine
 62
7
  6
BYLAYER
 10
15.4527851161
 20
30.0913669065
 11
15.4527851161
 21
44.8913669065
  0
LINE
  5
22E
100
AcDbEntity
  8
00_COMPONENTS_1
100
AcDbLine
 62
7
  6
BYLAYER
 10
15.4527851161
 20
72.2913669065
 11
15.4527851161
 21
74.8913669065
  0
LINE
  5
22F
100
AcDbEntity
  8
00_COMPONENTS_1
100
AcDbLine
 62
7
  6
BYLAYER
 10
15.4544927703
 20
45.0913669065
 11
15.4544927703
 21
72.0913669065
  0
LINE
  5
230
100
AcDbEntity
  8
00_COMPONENTS_1
100
AcDbLine
 62
7
  6
BYLAYER
 10
16.4553968132
 20
72.0913669065
 11
16.4553968132
 21
72.2913669065
  0
LINE
  5
231
100
AcDbEntity
  8
00_COMPONENTS_1
100
AcDbLine
 62
7
  6
BYLAYER
 10
59.8527851161
 20
29.9913669065
 11
15.3527851161
 21
29.9913669065
  0
LINE
  5
232
100
AcDbEntity
  8
00_COMPONENTS_1
100
AcDbLine
 62
7
  6
BYLAYER
 10
15.4527851161
 20
30.0913669065
 11
59.7527851161
 21
30.0913669065
  0
LINE
  5
233
100
AcDbEntity
  8
00_COMPONENTS_1
100
AcDbLine
 62
7
  6
BYLAYER
 10
40.0777851161
 20
30.4863669065
 11
58.0277851161
 21
30.4863669065
  0
LINE
  5
234
100
AcDbEntity
  8
00_COMPONENTS_1
100
AcDbLine
 62
7
  6
BYLAYER
 10
19.7852360635
 20
53.1477718468
 11
19.7852360635
 21
51.4349619662
  0
LINE
  5
235
100
AcDbEntity
  8
00_COMPONENTS_1
100
AcDbLine
 62
7
  6
BYLAYER
 10
20.0627851161
 20
51.6913669065
 11
20.0627851161
 21
52.8913669065
  0
LINE
  5
236
100
AcDbEntity
  8
00_COMPONENTS_1
100
AcDbLine
 62
7
  6
BYLAYER
 10
23.4727851161
 20
13.2231216729
 11
23.4727851161
 21
16.0613669065
  0
LINE
  5
237
100
AcDbEntity
  8
00_COMPONENTS_1
100
AcDbLine
 62
7
  6
BYLAYER
 10
23.4727851161
 20
17.3213669065
 11
23.4727851161
 21
20.15961214
  0
LINE
  5
238
100
AcDbEntity
  8
00_COMPONENTS_1
100
AcDbLine
 62
7
  6
BYLAYER
 10
23.4777851161
 20
83.9222171547
 11
23.4777851161
 21
86.7713669065
  0
LINE
  5
239
100
AcDbEntity
  8
00_COMPONENTS_1
100
AcDbLine
 62
7
  6
BYLAYER
 10
23.4777851161
 20
88.0213669065
 11
23.4777851161
 21
90.8605166582
  0
LINE
  5
23A
100
AcDbEntity
  8
00_COMPONENTS_1
100
AcDbLine
 62
7
  6
BYLAYER
 10
23.5627851161
 20
52.8913669065
 11
23.5627851161
 21
51.6913669065
  0
LINE
  5
23B
100
AcDbEntity
  8
00_COMPONENTS_1
100
AcDbLine
 62
7
  6
BYLAYER
 10
24.0965756143
 20
51.4365115467
 11
24.0965756143
 21
53.1462222663
  0
LINE
  5
23C
100
AcDbEntity
  8
00_COMPONENTS_1
100
AcDbLine
 62
7
  6
BYLAYER
 10
24.7327851161
 20
90.85961214
 11
24.7327851161
 21
88.0213669065
  0
LINE
  5
23D
100
AcDbEntity
  8
00_COMPONENTS_1
100
AcDbLine
 62
7
  6
BYLAYER
 10
24.7327851161
 20
86.7713669065
 11
24.7327851161
 21
83.9231216729
  0
LINE
  5
23E
100
AcDbEntity
  8
00_COMPONENTS_1
100
AcDbLine
 62
7
  6
BYLAYER
 10
24.7327851161
 20
20.15961214
 11
24.7327851161
 21
17.3213669065
  0
LINE
  5
23F
100
AcDbEntity
  8
00_COMPONENTS_1
100
AcDbLine
 62
7
  6
BYLAYER
 10
24.7327851161
 20
16.0613669065
 11
24.7327851161
 21
13.2231216729
  0
LINE
  5
240
100
AcDbEntity
  8
00_COMPONENTS_1
100
AcDbLine
 62
7
  6
BYLAYER
 10
40.0777851161
 20
38.0413669065
 11
58.0277851161
 21
38.0413669065
  0
LINE
  5
241
100
AcDbEntity
  8
00_COMPONENTS_1
100
AcDbLine
 62
7
  6
BYLAYER
 10
39.8027851161
 20
38.3113669065
 11
59.7527851161
 21
38.3113669065
  0
LINE
  5
242
100
AcDbEntity
  8
00_COMPONENTS_1
100
AcDbLine
 62
7
  6
BYLAYER
 10
27.1027851161
 20
96.4913669065
 11
27.1027851161
 21
95.4913669065
  0
LINE
  5
243
100
AcDbEntity
  8
00_COMPONENTS_1
100
AcDbLine
 62
7
  6
BYLAYER
 10
27.1027851161
 20
7.4913669065
 11
27.1027851161
 21
8.4913669065
  0
LINE
  5
244
100
AcDbEntity
  8
00_COMPONENTS_1
100
AcDbLine
 62
7
  6
BYLAYER
 10
28.2027851161
 20
96.4913669065
 11
28.2027851161
 21
95.4913669065
  0
LINE
  5
245
100
AcDbEntity
  8
00_COMPONENTS_1
100
AcDbLine
 62
7
  6
BYLAYER
 10
28.2027851161
 20
7.4913669065
 11
28.2027851161
 21
8.4913669065
  0
LINE
  5
246
100
AcDbEntity
  8
00_COMPONENTS_1
100
AcDbLine
 62
7
  6
BYLAYER
 10
28.7723627076
 20
72.0913669065
 11
28.7723627076
 21
45.0913669065
  0
LINE
  5
247
100
AcDbEntity
  8
00_COMPONENTS_1
100
AcDbLine
 62
7
  6
BYLAYER
 10
29.1027851161
 20
74.8913669065
 11
29.1027851161
 21
44.8913669065
  0
LINE
  5
248
100
AcDbEntity
  8
00_COMPONENTS_1
100
AcDbLine
 62
7
  6
BYLAYER
 10
29.2027851161
 20
96.4913669065
 11
29.2027851161
 21
95.4913669065
  0
LINE
  5
249
100
AcDbEntity
  8
00_COMPONENTS_1
100
AcDbLine
 62
7
  6
BYLAYER
 10
29.2027851161
 20
7.4913669065
 11
29.2027851161
 21
8.4913669065
  0
LINE
  5
24A
100
AcDbEntity
  8
00_COMPONENTS_1
100
AcDbLine
 62
7
  6
BYLAYER
 10
29.3527851161
 20
70.5484313357
 11
29.3527851161
 21
51.4547648934
  0
LINE
  5
24B
100
AcDbEntity
  8
00_COMPONENTS_1
100
AcDbLine
 62
7
  6
BYLAYER
 10
30.1027851161
 20
96.4913669065
 11
30.1027851161
 21
95.4913669065
  0
LINE
  5
24C
100
AcDbEntity
  8
00_COMPONENTS_1
100
AcDbLine
 62
7
  6
BYLAYER
 10
30.1027851161
 20
7.4913669065
 11
30.1027851161
 21
8.4913669065
  0
LINE
  5
24D
100
AcDbEntity
  8
00_COMPONENTS_1
100
AcDbLine
 62
7
  6
BYLAYER
 10
31.6027851161
 20
96.4913669065
 11
31.6027851161
 21
95.4913669065
  0
LINE
  5
24E
100
AcDbEntity
  8
00_COMPONENTS_1
100
AcDbLine
 62
7
  6
BYLAYER
 10
31.6027851161
 20
7.4913669065
 11
31.6027851161
 21
8.4913669065
  0
LINE
  5
24F
100
AcDbEntity
  8
00_COMPONENTS_1
100
AcDbLine
 62
7
  6
BYLAYER
 10
28.7731132368
 20
72.2913669065
 11
28.77295992
 21
72.0913669065
  0
LINE
  5
250
100
AcDbEntity
  8
00_COMPONENTS_1
100
AcDbLine
 62
7
  6
BYLAYER
 10
56.6027851161
 20
44.8913669065
 11
45.1027851161
 21
44.8913669065
  0
LINE
  5
251
100
AcDbEntity
  8
00_COMPONENTS_1
100
AcDbLine
 62
7
  6
BYLAYER
 10
40.6027851161
 20
44.8913669065
 11
15.4527851161
 21
44.8913669065
  0
LINE
  5
252
100
AcDbEntity
  8
00_COMPONENTS_1
100
AcDbLine
 62
7
  6
BYLAYER
 10
15.4544927703
 20
45.0913669065
 11
28.7723627076
 21
45.0913669065
  0
LINE
  5
253
100
AcDbEntity
  8
00_COMPONENTS_1
100
AcDbLine
 62
7
  6
BYLAYER
 10
32.5027851161
 20
96.4913669065
 11
32.5027851161
 21
95.4913669065
  0
LINE
  5
254
100
AcDbEntity
  8
00_COMPONENTS_1
100
AcDbLine
 62
7
  6
BYLAYER
 10
32.5027851161
 20
7.4913669065
 11
32.5027851161
 21
8.4913669065
  0
LINE
  5
255
100
AcDbEntity
  8
00_COMPONENTS_1
100
AcDbLine
 62
7
  6
BYLAYER
 10
33.5027851161
 20
96.4913669065
 11
33.5027851161
 21
95.4913669065
  0
LINE
  5
256
100
AcDbEntity
  8
00_COMPONENTS_1
100
AcDbLine
 62
7
  6
BYLAYER
 10
33.5027851161
 20
7.4913669065
 11
33.5027851161
 21
8.4913669065
  0
LINE
  5
257
100
AcDbEntity
  8
00_COMPONENTS_1
100
AcDbLine
 62
7
  6
BYLAYER
 10
36.9727851161
 20
13.2231216729
 11
36.9727851161
 21
16.0613669065
  0
LINE
  5
258
100
AcDbEntity
  8
00_COMPONENTS_1
100
AcDbLine
 62
7
  6
BYLAYER
 10
36.9727851161
 20
17.3213669065
 11
36.9727851161
 21
20.15961214
  0
LINE
  5
259
100
AcDbEntity
  8
00_COMPONENTS_1
100
AcDbLine
 62
7
  6
BYLAYER
 10
36.9727851161
 20
83.9231216729
 11
36.9727851161
 21
86.7613669065
  0
LINE
  5
25A
100
AcDbEntity
  8
00_COMPONENTS_1
100
AcDbLine
 62
7
  6
BYLAYER
 10
36.9727851161
 20
88.0213669065
 11
36.9727851161
 21
90.85961214
  0
LINE
  5
25B
100
AcDbEntity
  8
00_COMPONENTS_1
100
AcDbLine
 62
7
  6
BYLAYER
 10
38.2327851161
 20
90.85961214
 11
38.2327851161
 21
88.0213669065
  0
LINE
  5
25C
100
AcDbEntity
  8
00_COMPONENTS_1
100
AcDbLine
 62
7
  6
BYLAYER
 10
38.2327851161
 20
86.7613669065
 11
38.2327851161
 21
83.9231216729
  0
LINE
  5
25D
100
AcDbEntity
  8
00_COMPONENTS_1
100
AcDbLine
 62
7
  6
BYLAYER
 10
38.2327851161
 20
20.15961214
 11
38.2327851161
 21
17.3213669065
  0
LINE
  5
25E
100
AcDbEntity
  8
00_COMPONENTS_1
100
AcDbLine
 62
7
  6
BYLAYER
 10
38.2327851161
 20
16.0613669065
 11
38.2327851161
 21
13.2231216729
  0
LINE
  5
25F
100
AcDbEntity
  8
00_COMPONENTS_1
100
AcDbLine
 62
7
  6
BYLAYER
 10
40.3527851161
 20
51.4547648934
 11
29.3527851161
 21
51.4547648934
  0
LINE
  5
260
100
AcDbEntity
  8
00_COMPONENTS_1
100
AcDbLine
 62
7
  6
BYLAYER
 10
20.0627851161
 20
51.6913669065
 11
23.5627851161
 21
51.6913669065
  0
LINE
  5
261
100
AcDbEntity
  8
00_COMPONENTS_1
100
AcDbLine
 62
7
  6
BYLAYER
 10
54.9577851161
 20
51.9669437909
 11
46.7577851161
 21
51.9669437909
  0
LINE
  5
262
100
AcDbEntity
  8
00_COMPONENTS_1
100
AcDbLine
 62
7
  6
BYLAYER
 10
39.8027851161
 20
38.3113669065
 11
39.8027851161
 21
30.0913669065
  0
LINE
  5
263
100
AcDbEntity
  8
00_COMPONENTS_1
100
AcDbLine
 62
7
  6
BYLAYER
 10
40.0777851161
 20
38.0413669065
 11
40.0777851161
 21
30.4863669065
  0
LINE
  5
264
100
AcDbEntity
  8
00_COMPONENTS_1
100
AcDbLine
 62
7
  6
BYLAYER
 10
40.3527851161
 20
51.4547648934
 11
40.3527851161
 21
70.5484313357
  0
LINE
  5
265
100
AcDbEntity
  8
00_COMPONENTS_1
100
AcDbLine
 62
7
  6
BYLAYER
 10
40.6027851161
 20
44.8913669065
 11
40.6027851161
 21
74.8913669065
  0
LINE
  5
266
100
AcDbEntity
  8
00_COMPONENTS_1
100
AcDbLine
 62
7
  6
BYLAYER
 10
41.7027851161
 20
96.4913669065
 11
41.7027851161
 21
95.4913669065
  0
LINE
  5
267
100
AcDbEntity
  8
00_COMPONENTS_1
100
AcDbLine
 62
7
  6
BYLAYER
 10
41.7027851161
 20
7.4913669065
 11
41.7027851161
 21
8.4913669065
  0
LINE
  5
268
100
AcDbEntity
  8
00_COMPONENTS_1
100
AcDbLine
 62
7
  6
BYLAYER
 10
29.3527851161
 20
52.6949922273
 11
40.3527851161
 21
52.6949922273
  0
LINE
  5
269
100
AcDbEntity
  8
00_COMPONENTS_1
100
AcDbLine
 62
7
  6
BYLAYER
 10
23.5627851161
 20
52.8913669065
 11
20.0627851161
 21
52.8913669065
  0
LINE
  5
26A
100
AcDbEntity
  8
00_COMPONENTS_1
100
AcDbLine
 62
7
  6
BYLAYER
 10
42.7027851161
 20
96.4913669065
 11
42.7027851161
 21
95.4913669065
  0
LINE
  5
26B
100
AcDbEntity
  8
00_COMPONENTS_1
100
AcDbLine
 62
7
  6
BYLAYER
 10
42.7027851161
 20
7.4913669065
 11
42.7027851161
 21
8.4913669065
  0
LINE
  5
26C
100
AcDbEntity
  8
00_COMPONENTS_1
100
AcDbLine
 62
7
  6
BYLAYER
 10
43.6027851161
 20
96.4913669065
 11
43.6027851161
 21
95.4913669065
  0
LINE
  5
26D
100
AcDbEntity
  8
00_COMPONENTS_1
100
AcDbLine
 62
7
  6
BYLAYER
 10
43.6027851161
 20
7.4913669065
 11
43.6027851161
 21
8.4913669065
  0
LINE
  5
26E
100
AcDbEntity
  8
00_COMPONENTS_1
100
AcDbLine
 62
7
  6
BYLAYER
 10
45.3527851161
 20
56.6480411179
 11
56.3527851161
 21
56.6480411179
  0
LINE
  5
26F
100
AcDbEntity
  8
00_COMPONENTS_1
100
AcDbLine
 62
7
  6
BYLAYER
 10
56.3527851161
 20
57.4949179341
 11
45.3527851161
 21
57.4949179341
  0
LINE
  5
270
100
AcDbEntity
  8
00_COMPONENTS_1
100
AcDbLine
 62
7
  6
BYLAYER
 10
45.3527851161
 20
59.021544964
 11
56.3527851161
 21
59.021544964
  0
LINE
  5
271
100
AcDbEntity
  8
00_COMPONENTS_1
100
AcDbLine
 62
7
  6
BYLAYER
 10
45.1027851161
 20
96.4913669065
 11
45.1027851161
 21
95.4913669065
  0
LINE
  5
272
100
AcDbEntity
  8
00_COMPONENTS_1
100
AcDbLine
 62
7
  6
BYLAYER
 10
45.1027851161
 20
74.8913669065
 11
45.1027851161
 21
44.8913669065
  0
LINE
  5
273
100
AcDbEntity
  8
00_COMPONENTS_1
100
AcDbLine
 62
7
  6
BYLAYER
 10
45.1027851161
 20
7.4913669065
 11
45.1027851161
 21
8.4913669065
  0
LINE
  5
274
100
AcDbEntity
  8
00_COMPONENTS_1
100
AcDbLine
 62
7
  6
BYLAYER
 10
45.3527851161
 20
73.7413669069
 11
45.3527851161
 21
56.6480411179
  0
LINE
  5
275
100
AcDbEntity
  8
00_COMPONENTS_1
100
AcDbLine
 62
7
  6
BYLAYER
 10
46.0027851161
 20
96.4913669065
 11
46.0027851161
 21
95.4913669065
  0
LINE
  5
276
100
AcDbEntity
  8
00_COMPONENTS_1
100
AcDbLine
 62
7
  6
BYLAYER
 10
46.0027851161
 20
7.4913669065
 11
46.0027851161
 21
8.4913669065
  0
LINE
  5
277
100
AcDbEntity
  8
00_COMPONENTS_1
100
AcDbLine
 62
7
  6
BYLAYER
 10
46.7527851161
 20
56.6480411179
 11
46.7527851161
 21
53.9114148249
  0
LINE
  5
278
100
AcDbEntity
  8
00_COMPONENTS_1
100
AcDbLine
 62
7
  6
BYLAYER
 10
46.7577851161
 20
56.6480411179
 11
46.7577851161
 21
51.9669437909
  0
LINE
  5
279
100
AcDbEntity
  8
00_COMPONENTS_1
100
AcDbLine
 62
7
  6
BYLAYER
 10
47.0027851161
 20
96.4913669065
 11
47.0027851161
 21
95.4913669065
  0
LINE
  5
27A
100
AcDbEntity
  8
00_COMPONENTS_1
100
AcDbLine
 62
7
  6
BYLAYER
 10
47.0027851161
 20
7.4913669065
 11
47.0027851161
 21
8.4913669065
  0
LINE
  5
27B
100
AcDbEntity
  8
00_COMPONENTS_1
100
AcDbLine
 62
7
  6
BYLAYER
 10
48.1027851161
 20
96.4913669065
 11
48.1027851161
 21
95.4913669065
  0
LINE
  5
27C
100
AcDbEntity
  8
00_COMPONENTS_1
100
AcDbLine
 62
7
  6
BYLAYER
 10
48.1027851161
 20
7.4913669065
 11
48.1027851161
 21
8.4913669065
  0
LINE
  5
27D
100
AcDbEntity
  8
00_COMPONENTS_1
100
AcDbLine
 62
7
  6
BYLAYER
 10
51.736194741
 20
17.3213669065
 11
51.7053633652
 21
20.1644814243
  0
LINE
  5
27E
100
AcDbEntity
  8
00_COMPONENTS_1
100
AcDbLine
 62
7
  6
BYLAYER
 10
50.2989566648
 20
68.2848618647
 11
50.2989566648
 21
71.9863864798
  0
LINE
  5
27F
100
AcDbEntity
  8
00_COMPONENTS_1
100
AcDbLine
 62
7
  6
BYLAYER
 10
50.4727851161
 20
13.2231216729
 11
50.4727851161
 21
16.0613669065
  0
LINE
  5
280
100
AcDbEntity
  8
00_COMPONENTS_1
100
AcDbLine
 62
7
  6
BYLAYER
 10
50.4727851161
 20
17.3213669065
 11
50.4727851161
 21
20.15961214
  0
LINE
  5
281
100
AcDbEntity
  8
00_COMPONENTS_1
100
AcDbLine
 62
7
  6
BYLAYER
 10
50.4727851161
 20
83.9231216729
 11
50.4727851161
 21
86.7613669065
  0
LINE
  5
282
100
AcDbEntity
  8
00_COMPONENTS_1
100
AcDbLine
 62
7
  6
BYLAYER
 10
50.4727851161
 20
88.0213669065
 11
50.4727851161
 21
90.85961214
  0
LINE
  5
283
100
AcDbEntity
  8
00_COMPONENTS_1
100
AcDbLine
 62
7
  6
BYLAYER
 10
51.4066135675
 20
71.9863864798
 11
51.4066135675
 21
68.2848618647
  0
LINE
  5
284
100
AcDbEntity
  8
00_COMPONENTS_1
100
AcDbLine
 62
7
  6
BYLAYER
 10
51.7327851161
 20
90.85961214
 11
51.7327851161
 21
88.0213669065
  0
LINE
  5
285
100
AcDbEntity
  8
00_COMPONENTS_1
100
AcDbLine
 62
7
  6
BYLAYER
 10
51.7327851161
 20
86.7613669065
 11
51.7327851161
 21
83.9231216729
  0
LINE
  5
286
100
AcDbEntity
  8
00_COMPONENTS_1
100
AcDbLine
 62
7
  6
BYLAYER
 10
51.736194741
 20
16.0613669065
 11
51.736194741
 21
13.2237427563
  0
LINE
  5
287
100
AcDbEntity
  8
00_COMPONENTS_1
100
AcDbLine
 62
7
  6
BYLAYER
 10
54.9577851161
 20
51.9669437909
 11
54.9577851161
 21
56.6480411179
  0
LINE
  5
288
100
AcDbEntity
  8
00_COMPONENTS_1
100
AcDbLine
 62
7
  6
BYLAYER
 10
50.2989566648
 20
68.2848618647
 11
51.4066135675
 21
68.2848618647
  0
LINE
  5
289
100
AcDbEntity
  8
00_COMPONENTS_1
100
AcDbLine
 62
7
  6
BYLAYER
 10
56.3527851161
 20
56.6480411179
 11
56.3527851161
 21
73.7413669069
  0
LINE
  5
28A
100
AcDbEntity
  8
00_COMPONENTS_1
100
AcDbLine
 62
7
  6
BYLAYER
 10
56.6027851161
 20
44.8913669065
 11
56.6027851161
 21
74.8913669065
  0
LINE
  5
28B
100
AcDbEntity
  8
00_COMPONENTS_1
100
AcDbLine
 62
7
  6
BYLAYER
 10
58.0277851161
 20
38.0413669065
 11
58.0277851161
 21
30.4863669065
  0
LINE
  5
28C
100
AcDbEntity
  8
00_COMPONENTS_1
100
AcDbLine
 62
7
  6
BYLAYER
 10
40.3527851161
 20
69.1511601523
 11
29.3527851161
 21
69.1511601523
  0
LINE
  5
28D
100
AcDbEntity
  8
00_COMPONENTS_1
100
AcDbLine
 62
7
  6
BYLAYER
 10
29.3527851161
 20
69.448865464
 11
40.3527851161
 21
69.448865464
  0
LINE
  5
28E
100
AcDbEntity
  8
00_COMPONENTS_1
100
AcDbLine
 62
7
  6
BYLAYER
 10
29.3527851161
 20
70.5484313357
 11
40.3527851161
 21
70.5484313357
  0
LINE
  5
28F
100
AcDbEntity
  8
00_COMPONENTS_1
100
AcDbLine
 62
7
  6
BYLAYER
 10
51.4066135675
 20
71.8824352044
 11
50.2989566648
 21
71.8824352044
  0
LINE
  5
290
100
AcDbEntity
  8
00_COMPONENTS_1
100
AcDbLine
 62
7
  6
BYLAYER
 10
51.4066135675
 20
71.9863864798
 11
50.2989566648
 21
71.9863864798
  0
LINE
  5
291
100
AcDbEntity
  8
00_COMPONENTS_1
100
AcDbLine
 62
7
  6
BYLAYER
 10
28.7723627076
 20
72.0913669065
 11
15.4544927703
 21
72.0913669065
  0
LINE
  5
292
100
AcDbEntity
  8
00_COMPONENTS_1
100
AcDbLine
 62
7
  6
BYLAYER
 10
15.4527851161
 20
72.2913669065
 11
29.1027851161
 21
72.2913669065
  0
LINE
  5
293
100
AcDbEntity
  8
00_COMPONENTS_1
100
AcDbLine
 62
7
  6
BYLAYER
 10
59.7527851161
 20
74.8913669065
 11
59.7527851161
 21
30.0913669065
  0
LINE
  5
294
100
AcDbEntity
  8
00_COMPONENTS_1
100
AcDbLine
 62
7
  6
BYLAYER
 10
59.8527851161
 20
95.4913669065
 11
59.8527851161
 21
8.4913669065
  0
LINE
  5
295
100
AcDbEntity
  8
00_COMPONENTS_1
100
AcDbLine
 62
7
  6
BYLAYER
 10
45.3527851161
 20
73.7413669069
 11
56.3527851161
 21
73.7413669069
  0
LINE
  5
296
100
AcDbEntity
  8
00_COMPONENTS_1
100
AcDbLine
 62
7
  6
BYLAYER
 10
59.7527851161
 20
74.8913669065
 11
15.4527851161
 21
74.8913669065
  0
LINE
  5
297
100
AcDbEntity
  8
00_COMPONENTS_1
100
AcDbLine
 62
7
  6
BYLAYER
 10
59.8527851161
 20
74.9913669065
 11
15.3527851161
 21
74.9913669065
  0
LINE
  5
298
100
AcDbEntity
  8
00_COMPONENTS_1
100
AcDbLine
 62
7
  6
BYLAYER
 10
54.5710303497
 20
86.7613669065
 11
51.7327851161
 21
86.7613669065
  0
LINE
  5
299
100
AcDbEntity
  8
00_COMPONENTS_1
100
AcDbLine
 62
7
  6
BYLAYER
 10
50.4727851161
 20
86.7613669065
 11
47.6345398826
 21
86.7613669065
  0
LINE
  5
29A
100
AcDbEntity
  8
00_COMPONENTS_1
100
AcDbLine
 62
7
  6
BYLAYER
 10
41.0710303497
 20
86.7613669065
 11
38.2327851161
 21
86.7613669065
  0
LINE
  5
29B
100
AcDbEntity
  8
00_COMPONENTS_1
100
AcDbLine
 62
7
  6
BYLAYER
 10
36.9727851161
 20
86.7613669065
 11
34.1345398826
 21
86.7613669065
  0
LINE
  5
29C
100
AcDbEntity
  8
00_COMPONENTS_1
100
AcDbLine
 62
7
  6
BYLAYER
 10
27.5728319458
 20
86.7713669065
 11
24.7327851161
 21
86.7713669065
  0
LINE
  5
29D
100
AcDbEntity
  8
00_COMPONENTS_1
100
AcDbLine
 62
7
  6
BYLAYER
 10
23.4777851161
 20
86.7713669065
 11
20.6327382865
 21
86.7713669065
  0
LINE
  5
29E
100
AcDbEntity
  8
00_COMPONENTS_1
100
AcDbLine
 62
7
  6
BYLAYER
 10
20.6345398826
 20
88.0213669065
 11
23.4777851161
 21
88.0213669065
  0
LINE
  5
29F
100
AcDbEntity
  8
00_COMPONENTS_1
100
AcDbLine
 62
7
  6
BYLAYER
 10
24.7327851161
 20
88.0213669065
 11
27.5710303497
 21
88.0213669065
  0
LINE
  5
2A0
100
AcDbEntity
  8
00_COMPONENTS_1
100
AcDbLine
 62
7
  6
BYLAYER
 10
34.1345398826
 20
88.0213669065
 11
36.9727851161
 21
88.0213669065
  0
LINE
  5
2A1
100
AcDbEntity
  8
00_COMPONENTS_1
100
AcDbLine
 62
7
  6
BYLAYER
 10
38.2327851161
 20
88.0213669065
 11
41.0710303497
 21
88.0213669065
  0
LINE
  5
2A2
100
AcDbEntity
  8
00_COMPONENTS_1
100
AcDbLine
 62
7
  6
BYLAYER
 10
47.6345398826
 20
88.0213669065
 11
50.4727851161
 21
88.0213669065
  0
LINE
  5
2A3
100
AcDbEntity
  8
00_COMPONENTS_1
100
AcDbLine
 62
7
  6
BYLAYER
 10
51.7327851161
 20
88.0213669065
 11
54.5710303497
 21
88.0213669065
  0
LINE
  5
2A4
100
AcDbEntity
  8
00_COMPONENTS_1
100
AcDbLine
 62
7
  6
BYLAYER
 10
59.8527851161
 20
95.4913669065
 11
15.3527851161
 21
95.4913669065
  0
LINE
  5
2A5
100
AcDbEntity
  8
00_COMPONENTS_1
100
AcDbLine
 62
7
  6
BYLAYER
 10
48.1027851161
 20
96.4913669065
 11
27.1027851161
 21
96.4913669065
  0
ARC
  5
2A6
100
AcDbEntity
  8
00_COMPONENTS_1
100
AcDbCircle
 62
7
  6
BYLAYER
 10
22.10190253
 20
-396.3573804057
 40
447.7983345013
100
AcDbArc
 50
89.7447808123
 51
90.2964187064
  0
CIRCLE
  5
2A7
100
AcDbEntity
  8
00_COMPONENTS_1
100
AcDbCircle
 62
7
  6
BYLAYER
 10
24.1027925657
 20
16.6913668654
 40
3.7499938462
  0
ARC
  5
2A8
100
AcDbEntity
  8
00_COMPONENTS_1
100
AcDbCircle
 62
7
  6
BYLAYER
 10
24.1027851161
 20
16.6913669065
 40
3.525
100
AcDbArc
 50
79.7045894558
 51
100.2954105442
  0
ARC
  5
2A9
100
AcDbEntity
  8
00_COMPONENTS_1
100
AcDbCircle
 62
7
  6
BYLAYER
 10
24.1027851161
 20
16.6913669065
 40
3.525
100
AcDbArc
 50
349.7045894558
 51
10.2954105442
  0
ARC
  5
2AA
100
AcDbEntity
  8
00_COMPONENTS_1
100
AcDbCircle
 62
7
  6
BYLAYER
 10
24.1027851161
 20
16.6913669065
 40
3.525
100
AcDbArc
 50
259.7045894558
 51
280.2954105442
  0
ARC
  5
2AB
100
AcDbEntity
  8
00_COMPONENTS_1
100
AcDbCircle
 62
7
  6
BYLAYER
 10
24.1027851161
 20
16.6913669065
 40
3.525
100
AcDbArc
 50
169.7045894558
 51
190.2954105442
  0
ARC
  5
2AC
100
AcDbEntity
  8
00_COMPONENTS_1
100
AcDbCircle
 62
7
  6
BYLAYER
 10
22.1016379109
 20
500.2034441693
 40
447.061672664
100
AcDbArc
 50
269.7031267692
 51
270.255673651
  0
CIRCLE
  5
2AD
100
AcDbEntity
  8
00_COMPONENTS_1
100
AcDbCircle
 62
7
  6
BYLAYER
 10
24.1027851161
 20
87.2913669065
 40
3.75
  0
ARC
  5
2AE
100
AcDbEntity
  8
00_COMPONENTS_1
100
AcDbCircle
 62
7
  6
BYLAYER
 10
24.1027851161
 20
87.3913669065
 40
3.525
100
AcDbArc
 50
79.7045894558
 51
100.2128207973
  0
ARC
  5
2AF
100
AcDbEntity
  8
00_COMPONENTS_1
100
AcDbCircle
 62
7
  6
BYLAYER
 10
24.1027851161
 20
87.3913669065
 40
3.525
100
AcDbArc
 50
349.8697475071
 51
10.2954105442
  0
ARC
  5
2B0
100
AcDbEntity
  8
00_COMPONENTS_1
100
AcDbCircle
 62
7
  6
BYLAYER
 10
24.1027851161
 20
87.3913669065
 40
3.525
100
AcDbArc
 50
259.7871792027
 51
280.2954105442
  0
ARC
  5
2B1
100
AcDbEntity
  8
00_COMPONENTS_1
100
AcDbCircle
 62
7
  6
BYLAYER
 10
24.1027851161
 20
87.3913669065
 40
3.525
100
AcDbArc
 50
169.7045894558
 51
190.1302524929
  0
CIRCLE
  5
2B2
100
AcDbEntity
  8
00_COMPONENTS_1
100
AcDbCircle
 62
7
  6
BYLAYER
 10
34.8527851161
 20
65.3913669065
 40
2.4
  0
CIRCLE
  5
2B3
100
AcDbEntity
  8
00_COMPONENTS_1
100
AcDbCircle
 62
7
  6
BYLAYER
 10
34.8527851161
 20
65.3913669065
 40
1.3
  0
CIRCLE
  5
2B4
100
AcDbEntity
  8
00_COMPONENTS_1
100
AcDbCircle
 62
7
  6
BYLAYER
 10
51.1027776665
 20
16.6913669475
 40
3.7499938462
  0
CIRCLE
  5
2B5
100
AcDbEntity
  8
00_COMPONENTS_1
100
AcDbCircle
 62
7
  6
BYLAYER
 10
37.6027769046
 20
16.6913652189
 40
3.7499917738
  0
ARC
  5
2B6
100
AcDbEntity
  8
00_COMPONENTS_1
100
AcDbCircle
 62
7
  6
BYLAYER
 10
51.1027851161
 20
16.6913669065
 40
3.525
100
AcDbArc
 50
80.1572795554
 51
100.2954105442
  0
ARC
  5
2B7
100
AcDbEntity
  8
00_COMPONENTS_1
100
AcDbCircle
 62
7
  6
BYLAYER
 10
51.1027851161
 20
16.6913669065
 40
3.525
100
AcDbArc
 50
349.7045894558
 51
10.2954105442
  0
ARC
  5
2B8
100
AcDbEntity
  8
00_COMPONENTS_1
100
AcDbCircle
 62
7
  6
BYLAYER
 10
51.1027851161
 20
16.6913669065
 40
3.525
100
AcDbArc
 50
259.7045894558
 51
280.351742949
  0
ARC
  5
2B9
100
AcDbEntity
  8
00_COMPONENTS_1
100
AcDbCircle
 62
7
  6
BYLAYER
 10
51.1027851161
 20
16.6913669065
 40
3.525
100
AcDbArc
 50
169.7045894558
 51
190.2954105442
  0
ARC
  5
2BA
100
AcDbEntity
  8
00_COMPONENTS_1
100
AcDbCircle
 62
7
  6
BYLAYER
 10
37.6027851161
 20
16.6913669065
 40
3.525
100
AcDbArc
 50
79.7045894558
 51
100.2954105442
  0
ARC
  5
2BB
100
AcDbEntity
  8
00_COMPONENTS_1
100
AcDbCircle
 62
7
  6
BYLAYER
 10
37.6027851161
 20
16.6913669065
 40
3.525
100
AcDbArc
 50
349.7045894558
 51
10.2954105442
  0
ARC
  5
2BC
100
AcDbEntity
  8
00_COMPONENTS_1
100
AcDbCircle
 62
7
  6
BYLAYER
 10
37.6027851161
 20
16.6913669065
 40
3.525
100
AcDbArc
 50
259.7045894558
 51
280.2954105442
  0
ARC
  5
2BD
100
AcDbEntity
  8
00_COMPONENTS_1
100
AcDbCircle
 62
7
  6
BYLAYER
 10
37.6027851161
 20
16.6913669065
 40
3.525
100
AcDbArc
 50
169.7045894558
 51
190.2954105442
  0
CIRCLE
  5
2BE
100
AcDbEntity
  8
00_COMPONENTS_1
100
AcDbCircle
 62
7
  6
BYLAYER
 10
51.1027851161
 20
87.2913669065
 40
3.75
  0
CIRCLE
  5
2BF
100
AcDbEntity
  8
00_COMPONENTS_1
100
AcDbCircle
 62
7
  6
BYLAYER
 10
37.6027851161
 20
87.2913669065
 40
3.75
  0
ARC
  5
2C0
100
AcDbEntity
  8
00_COMPONENTS_1
100
AcDbCircle
 62
7
  6
BYLAYER
 10
37.6027851161
 20
87.3913669065
 40
3.525
100
AcDbArc
 50
79.7045894558
 51
100.2954105442
  0
ARC
  5
2C1
100
AcDbEntity
  8
00_COMPONENTS_1
100
AcDbCircle
 62
7
  6
BYLAYER
 10
37.6027851161
 20
87.3913669065
 40
3.525
100
AcDbArc
 50
349.7045894558
 51
10.2954105442
  0
ARC
  5
2C2
100
AcDbEntity
  8
00_COMPONENTS_1
100
AcDbCircle
 62
7
  6
BYLAYER
 10
37.6027851161
 20
87.3913669065
 40
3.525
100
AcDbArc
 50
259.7045894558
 51
280.2954105442
  0
ARC
  5
2C3
100
AcDbEntity
  8
00_COMPONENTS_1
100
AcDbCircle
 62
7
  6
BYLAYER
 10
37.6027851161
 20
87.3913669065
 40
3.525
100
AcDbArc
 50
169.7045894558
 51
190.2954105442
  0
ARC
  5
2C4
100
AcDbEntity
  8
00_COMPONENTS_1
100
AcDbCircle
 62
7
  6
BYLAYER
 10
51.1027851161
 20
87.3913669065
 40
3.525
100
AcDbArc
 50
79.7045894558
 51
100.2954105442
  0
ARC
  5
2C5
100
AcDbEntity
  8
00_COMPONENTS_1
100
AcDbCircle
 62
7
  6
BYLAYER
 10
51.1027851161
 20
87.3913669065
 40
3.525
100
AcDbArc
 50
349.7045894558
 51
10.2954105442
  0
ARC
  5
2C6
100
AcDbEntity
  8
00_COMPONENTS_1
100
AcDbCircle
 62
7
  6
BYLAYER
 10
51.1027851161
 20
87.3913669065
 40
3.525
100
AcDbArc
 50
259.7045894558
 51
280.2954105442
  0
ARC
  5
2C7
100
AcDbEntity
  8
00_COMPONENTS_1
100
AcDbCircle
 62
7
  6
BYLAYER
 10
51.1027851161
 20
87.3913669065
 40
3.525
100
AcDbArc
 50
169.7045894558
 51
190.2954105442
  0
SPLINE
  5
2C8
100
AcDbEntity
  8
00_COMPONENTS_1
100
AcDbSpline
 62
7
  6
BYLAYER
 70
0
 71
3
 72
23
 73
19
 74
0
 42
0.0000001
 43
0.0000001
 44
0.0000000001
 40
0.0
 40
0.0
 40
0.0
 40
0.0
 40
0.0627652221
 40
0.125468957
 40
0.1879978454
 40
0.250369175
 40
0.3125956508
 40
0.3747470748
 40
0.436900079
 40
0.4991023274
 40
0.5614039033
 40
0.6238247625
 40
0.6863591547
 40
0.7489918485
 40
0.8116857227
 40
0.8744327812
 40
0.9372218557
 40
1.0
 40
1.0
 40
1.0
 40
1.0
 10
34.8527851161
 20
54.8231692652
 30
0.0
 10
35.0706298433
 20
54.8231714696
 30
0.0
 10
35.5073946065
 20
54.8668930401
 30
0.0
 10
36.1344724832
 20
55.0619729419
 30
0.0
 10
36.7092665404
 20
55.3770051226
 30
0.0
 10
37.209865994
 20
55.7973001298
 30
0.0
 10
37.6178654132
 20
56.3064459326
 30
0.0
 10
37.9170833501
 20
56.8851552598
 30
0.0
 10
38.1017185389
 20
57.5096153268
 30
0.0
 10
38.1646599618
 20
58.1584028092
 30
0.0
 10
38.1025424629
 20
58.8082084682
 30
0.0
 10
37.9178562827
 20
59.4354277819
 30
0.0
 10
37.6178568536
 20
60.0176993482
 30
0.0
 10
37.2111274066
 20
60.5326726848
 30
0.0
 10
36.7102909515
 20
60.9579755586
 30
0.0
 10
36.1351213964
 20
61.2768291359
 30
0.0
 10
35.5078437549
 20
61.4752125275
 30
0.0
 10
35.0706746938
 20
61.519552847
 30
0.0
 10
34.8527851161
 20
61.5195546935
 30
0.0
  0
SPLINE
  5
2C9
100
AcDbEntity
  8
00_COMPONENTS_1
100
AcDbSpline
 62
7
  6
BYLAYER
 70
0
 71
3
 72
23
 73
19
 74
0
 42
0.0000001
 43
0.0000001
 44
0.0000000001
 40
0.0
 40
0.0
 40
0.0
 40
0.0
 40
0.0678456036
 40
0.1349471394
 40
0.2006889994
 40
0.2647403144
 40
0.3269569372
 40
0.3874549348
 40
0.4464977645
 40
0.50450647
 40
0.5620431444
 40
0.6197621003
 40
0.6783776633
 40
0.7385955157
 40
0.8009301337
 40
0.8655513493
 40
0.9321959822
 40
1.0
 40
1.0
 40
1.0
 40
1.0
 10
50.8527851161
 20
66.4638945349
 30
0.0
 10
50.6162351769
 20
66.4638945349
 30
0.0
 10
50.1442964175
 20
66.4154944693
 30
0.0
 10
49.4728127449
 20
66.2028706348
 30
0.0
 10
48.8688854277
 20
65.8670263608
 30
0.0
 10
48.3545641326
 20
65.431999898
 30
0.0
 10
47.9448789007
 20
64.9206271368
 30
0.0
 10
47.648681606
 20
64.3560553625
 30
0.0
 10
47.4686364545
 20
63.7598188565
 30
0.0
 10
47.4079833982
 20
63.1502105802
 30
0.0
 10
47.4675885182
 20
62.5450541812
 30
0.0
 10
47.6469996683
 20
61.9617105046
 30
0.0
 10
47.944309485
 20
61.4178957973
 30
0.0
 10
48.3554042915
 20
60.9326831292
 30
0.0
 10
48.8709954768
 20
60.5257290139
 30
0.0
 10
49.4757872737
 20
60.216451342
 30
0.0
 10
50.1464179275
 20
60.0227136326
 30
0.0
 10
50.6163801697
 20
59.9786504741
 30
0.0
 10
50.8527851161
 20
59.9786504741
 30
0.0
  0
SPLINE
  5
2CA
100
AcDbEntity
  8
00_COMPONENTS_1
100
AcDbSpline
 62
7
  6
BYLAYER
 70
0
 71
3
 72
23
 73
19
 74
0
 42
0.0000001
 43
0.0000001
 44
0.0000000001
 40
0.0
 40
0.0
 40
0.0
 40
0.0
 40
0.0677883941
 40
0.1344094768
 40
0.1990186773
 40
0.2613432626
 40
0.3215435533
 40
0.3801524905
 40
0.4378624558
 40
0.4953904771
 40
0.5534049375
 40
0.6124525245
 40
0.6729563232
 40
0.7351923857
 40
0.7992518763
 40
0.8650060389
 40
0.9321368877
 40
1.0
 40
1.0
 40
1.0
 40
1.0
 10
50.8527851161
 20
59.9786504741
 30
0.0
 10
51.0891337276
 20
59.9786504741
 30
0.0
 10
51.5589669831
 20
60.0225424466
 30
0.0
 10
52.2294287757
 20
60.2162936406
 30
0.0
 10
52.8339685692
 20
60.5256519715
 30
0.0
 10
53.3496629724
 20
60.9322053185
 30
0.0
 10
53.7608948879
 20
61.4171729817
 30
0.0
 10
54.0581213437
 20
61.9608841104
 30
0.0
 10
54.2378343335
 20
62.5440351569
 30
0.0
 10
54.297489203
 20
63.1491551887
 30
0.0
 10
54.2370716948
 20
63.7587527978
 30
0.0
 10
54.057526842
 20
64.3552329045
 30
0.0
 10
53.7608338669
 20
64.9196858121
 30
0.0
 10
53.3512984032
 20
65.4312265217
 30
0.0
 10
52.8374001983
 20
65.8669968917
 30
0.0
 10
52.2331831711
 20
66.2027962324
 30
0.0
 10
51.5614571323
 20
66.4151719899
 30
0.0
 10
51.0893942374
 20
66.4638945349
 30
0.0
 10
50.8527851161
 20
66.4638945349
 30
0.0
  0
SPLINE
  5
2CB
100
AcDbEntity
  8
00_COMPONENTS_1
100
AcDbSpline
 62
7
  6
BYLAYER
 70
0
 71
3
 72
23
 73
19
 74
0
 42
0.0000001
 43
0.0000001
 44
0.0000000001
 40
0.0
 40
0.0
 40
0.0
 40
0.0
 40
0.0627669143
 40
0.1255699394
 40
0.1883021826
 40
0.250997233
 40
0.3136241182
 40
0.3761537057
 40
0.4385707492
 40
0.5008696877
 40
0.5630754578
 40
0.6252253509
 40
0.6873843914
 40
0.7496202062
 40
0.8119972507
 40
0.8745309658
 40
0.9372456613
 40
1.0
 40
1.0
 40
1.0
 40
1.0
 10
34.8527851161
 20
61.5195546935
 30
0.0
 10
34.6349347655
 20
61.5195528473
 30
0.0
 10
34.1978387176
 20
61.474713242
 30
0.0
 10
33.5703788237
 20
61.2771887446
 30
0.0
 10
32.9952062755
 20
60.9581348181
 30
0.0
 10
32.4948989945
 20
60.5324026812
 30
0.0
 10
32.0876219174
 20
60.0179751527
 30
0.0
 10
31.7873249492
 20
59.4358239353
 30
0.0
 10
31.6033256488
 20
58.8084315917
 30
0.0
 10
31.5412477595
 20
58.1586967852
 30
0.0
 10
31.6034677785
 20
57.5098794726
 30
0.0
 10
31.787836914
 20
56.8851850529
 30
0.0
 10
32.0883685257
 20
56.3071517865
 30
0.0
 10
32.4955368879
 20
55.7973636234
 30
0.0
 10
32.9960726461
 20
55.3767534531
 30
0.0
 10
33.5710937737
 20
55.0619410306
 30
0.0
 10
34.1982515994
 20
54.8671954558
 30
0.0
 10
34.634978413
 20
54.8231714693
 30
0.0
 10
34.8527851161
 20
54.8231692652
 30
0.0
  0
ENDSEC
  0
SECTION
  2
OBJECTS
  0
DICTIONARY
  5
C
100
AcDbDictionary
280
0
281
1
  3
ACAD_GROUP
350
D
  3
ACAD_MLINESTYLE
350
17
  3
ACAD_LAYOUT
350
1A
  3
ACAD_PLOTSETTINGS
350
19
  3
ACAD_PLOTSTYLENAME
350
E
  0
DICTIONARY
  5
D
102
{ACAD_REACTORS
330
C
102
}
100
AcDbDictionary
280
0
281
1
  0
ACDBDICTIONARYWDFLT
  5
E
102
{ACAD_REACTORS
330
C
102
}
100
AcDbDictionary
281
1
  3
Normal
350
F
100
AcDbDictionaryWithDefault
340
F
  0
DICTIONARY
  5
17
102
{ACAD_REACTORS
330
C
102
}
100
AcDbDictionary
280
0
281
1
  3
Standard
350
18
  0
DICTIONARY
  5
19
102
{ACAD_REACTORS
330
C
102
}
100
AcDbDictionary
281
1
  0
DICTIONARY
  5
1A
102
{ACAD_REACTORS
330
C
102
}
100
AcDbDictionary
281
1
  3
Model
350
2CC
  3
Layout1
350
2CD
  0
ACDBPLACEHOLDER
  5
F
102
{ACAD_REACTORS
330
E
102
}
  0
MLINESTYLE
  5
18
102
{ACAD_REACTORS
330
17
102
}
100
AcDbMlineStyle
  2
STANDARD
 70
0
  3

 62
256
 51
90.0
 52
90.0
 71
2
 49
0.5
 62
256
  6
BYLAYER
 49
-0.5
 62
256
  6
BYLAYER
  0
LAYOUT
  5
2CC
102
{ACAD_REACTORS
330
1A
102
}
100
AcDbPlotSettings
  1

  2
none_device
  4

  6

 40
0.0
 41
0.0
 42
0.0
 43
0.0
 44
210.0
 45
297.0
 46
0.0
 47
0.0
 48
0.0
 49
0.0
140
0.0
141
0.0
142
1.0
143
1.0
 70
1024
 72
1
 73
0
 74
0
  7

 75
0
147
1.0
148
0.0
149
0.0
100
AcDbLayout
  1
Model
 70
0
 71
0
 10
0.0
 20
0.0
 11
210.0
 21
297.0
 12
0.0
 22
0.0
 32
0.0
 14
0.0
 24
0.0
 34
0.0
 15
0.0
 25
0.0
 35
0.0
146
0.0
 13
0.0
 23
0.0
 33
0.0
 16
1.0
 26
0.0
 36
0.0
 17
0.0
 27
1.0
 37
0.0
 76
0
330
217
345
0
346
0
  0
LAYOUT
  5
2CD
102
{ACAD_REACTORS
330
1A
102
}
100
AcDbPlotSettings
  1

  2
none_device
  4

  6

 40
0.0
 41
0.0
 42
0.0
 43
0.0
 44
210.0
 45
297.0
 46
0.0
 47
0.0
 48
0.0
 49
0.0
140
0.0
141
0.0
142
1.0
143
1.0
 70
0
 72
1
 73
0
 74
0
  7

 75
0
147
1.0
148
0.0
149
0.0
100
AcDbLayout
  1
Layout1
 70
0
 71
1
 10
0.0
 20
0.0
 11
210.0
 21
297.0
 12
0.0
 22
0.0
 32
0.0
 14
0.0
 24
0.0
 34
0.0
 15
0.0
 25
0.0
 35
0.0
146
0.0
 13
0.0
 23
0.0
 33
0.0
 16
1.0
 26
0.0
 36
0.0
 17
0.0
 27
1.0
 37
0.0
 76
0
330
218
345
0
346
0
  0
ENDSEC
  0
EOF
