999
DXF file: C:\Users\sesa63760\Dev\_Creo\CAD\MCADID0004001_3D-CAD\drw0001_7.dxf
999
Pro/ENGINEER 2019471 by Parametric Technology Corporation
  0
SECTION
  2
HEADER
  9
$ACADVER
  1
AC1024
  9
$DWGCODEPAGE
  3
ANSI_1252
  9
$EXTMAX
 10
60.5735353535
 20
85.6682857143
 30
0.0
  9
$EXTMIN
 10
0.0
 20
0.0
 30
0.0
  9
$LIMMIN
 10
0.0
 20
0.0
  9
$LIMMAX
 10
60.5735353535
 20
85.6682857143
  9
$VIEWCTR
 10
30.2867676768
 20
42.8341428571
  9
$VIEWSIZE
 40
85.6682857143
  9
$CLAYER
  8
0
  9
$LTSCALE
 40
5.5843030688
  9
$CELTYPE
  6
BYLAYER
  9
$DIMSCALE
 40
1.0
  9
$DIMASZ
 40
0.7211135161
  9
$DIMEXO
 40
1.0
  9
$DIMDLI
 40
3.8582457566
  9
$DIMEXE
 40
1.0
  9
$DIMCEN
 40
0.9137950476
  9
$DIMLFAC
 40
1.0
  9
$DIMBLK
  1
_FILLED
  9
$DIMALT
 70
0
  9
$DIMALTF
 40
0.0393700787
  9
$DIMTXT
 40
1.0095589226
  9
$DIMTOL
 70
1
  9
$DIMLIM
 70
0
  9
$DIMTFAC
 40
1.0
  9
$DIMTP
 40
0.01
  9
$DIMTM
 40
0.01
  9
$DIMGAP
 40
0.625
  9
$DIMDSEP
 70
46
  9
$AUNITS
 70
0
  9
$PDMODE
 70
3
  9
$PDSIZE
 40
0.3125
  9
$HANDSEED
  5
336
  9
$TILEMODE
 70
1
  9
$MEASUREMENT
 70
1
  9
$INSUNITS
 70
4
  0
ENDSEC
  0
SECTION
  2
CLASSES
  0
CLASS
  1
ACDBDICTIONARYWDFLT
  2
AcDbDictionaryWithDefault
  3
AutoCAD 2000
 90
0
 91
1
280
0
281
0
  0
CLASS
  1
ACDBPLACEHOLDER
  2
AcDbPlaceHolder
  3
AutoCAD 2000
 90
0
 91
1
280
0
281
0
  0
CLASS
  1
LAYOUT
  2
AcDbLayout
  3
AutoCAD 2000
 90
0
 91
0
280
0
281
0
  0
ENDSEC
  0
SECTION
  2
TABLES
  0
TABLE
  2
VPORT
  5
8
100
AcDbSymbolTable
 70
2
  0
VPORT
  5
1F4
100
AcDbSymbolTableRecord
100
AcDbViewportTableRecord
  2
*ACTIVE
 70
0
 10
0.0
 20
0.0
 11
1.0
 21
1.0
 12
30.2867676768
 22
42.8341428571
 13
0.0
 23
0.0
 14
1.0
 24
1.0
 15
0.0
 25
0.0
 16
0.0
 26
0.0
 36
1.0
 17
0.0
 27
0.0
 37
0.0
 40
85.6682857143
 41
0.7070707071
 42
50.0
 43
0.0
 44
0.0
 50
0.0
 51
0.0
 71
0
 72
100
 73
1
 74
1
 75
0
 76
0
 77
0
 78
0
  0
ENDTAB
  0
TABLE
  2
LTYPE
  5
5
100
AcDbSymbolTable
 70
6
  0
LTYPE
  5
14
100
AcDbSymbolTableRecord
100
AcDbLinetypeTableRecord
  2
BYBLOCK
 70
0
  3

 72
65
 73
0
 40
0.0
  0
LTYPE
  5
15
100
AcDbSymbolTableRecord
100
AcDbLinetypeTableRecord
  2
BYLAYER
 70
0
  3

 72
65
 73
0
 40
0.0
  0
LTYPE
  5
16
100
AcDbSymbolTableRecord
100
AcDbLinetypeTableRecord
  2
CONTINUOUS
 70
64
  3
Solid line
 72
65
 73
0
 40
0.0
  0
LTYPE
  5
1F5
100
AcDbSymbolTableRecord
100
AcDbLinetypeTableRecord
  2
CENTER
 70
64
  3
____ _ ____ _ ____ _ ____ _ ____ _ ____ _ ____
 72
65
 73
4
 40
0.6
 49
0.375
 74
0
 49
-0.075
 74
0
 49
0.075
 74
0
 49
-0.075
 74
0
  0
LTYPE
  5
1F6
100
AcDbSymbolTableRecord
100
AcDbLinetypeTableRecord
  2
HIDDEN
 70
64
  3
- - - - - - - - - - - - - - - - - - - -
 72
65
 73
2
 40
0.2
 49
0.1
 74
0
 49
-0.1
 74
0
  0
LTYPE
  5
1F7
100
AcDbSymbolTableRecord
100
AcDbLinetypeTableRecord
  2
PHANTOM
 70
64
  3
_____ _ _ _____ _ _ _____ _ _ _____
 72
65
 73
6
 40
0.8
 49
0.45
 74
0
 49
-0.05
 74
0
 49
0.1
 74
0
 49
-0.05
 74
0
 49
0.1
 74
0
 49
-0.05
 74
0
  0
LTYPE
  5
1F8
100
AcDbSymbolTableRecord
100
AcDbLinetypeTableRecord
  2
DOT
 70
64
  3
. . . . . . . . . . . . . . . . . . . .
 72
65
 73
2
 40
0.2
 49
0.1
 74
0
 49
-0.1
 74
0
  0
LTYPE
  5
1F9
100
AcDbSymbolTableRecord
100
AcDbLinetypeTableRecord
  2
DASHED
 70
64
  3
- - - - - - - - - - - - - - - - - - - -
 72
65
 73
2
 40
0.2
 49
0.1
 74
0
 49
-0.1
 74
0
  0
ENDTAB
  0
TABLE
  2
LAYER
  5
2
100
AcDbSymbolTable
 70
36
  0
LAYER
  5
10
100
AcDbSymbolTableRecord
100
AcDbLayerTableRecord
  2
0
 70
0
 62
7
  6
CONTINUOUS
370
-3
390
F
  0
LAYER
  5
1FA
100
AcDbSymbolTableRecord
100
AcDbLayerTableRecord
  2
DEFAULT_1
 70
0
 62
7
  6
CENTER
370
-3
390
F
  0
LAYER
  5
1FB
100
AcDbSymbolTableRecord
100
AcDbLayerTableRecord
  2
DEFAULT_2
 70
0
 62
7
  6
HIDDEN
370
-3
390
F
  0
LAYER
  5
1FC
100
AcDbSymbolTableRecord
100
AcDbLayerTableRecord
  2
DEFAULT_3
 70
0
 62
7
  6
PHANTOM
370
-3
390
F
  0
LAYER
  5
1FD
100
AcDbSymbolTableRecord
100
AcDbLayerTableRecord
  2
00_COMPONENTS
 70
0
 62
7
  6
CONTINUOUS
370
-3
390
F
  0
LAYER
  5
1FE
100
AcDbSymbolTableRecord
100
AcDbLayerTableRecord
  2
01_1_DEFAULT_DATUMS
 70
0
 62
7
  6
CONTINUOUS
370
-3
390
F
  0
LAYER
  5
1FF
100
AcDbSymbolTableRecord
100
AcDbLayerTableRecord
  2
01_PLANES
 70
0
 62
7
  6
CONTINUOUS
370
-3
390
F
  0
LAYER
  5
200
100
AcDbSymbolTableRecord
100
AcDbLayerTableRecord
  2
02_COORD_SYS
 70
0
 62
7
  6
CONTINUOUS
370
-3
390
F
  0
LAYER
  5
201
100
AcDbSymbolTableRecord
100
AcDbLayerTableRecord
  2
03_AXES
 70
0
 62
7
  6
CONTINUOUS
370
-3
390
F
  0
LAYER
  5
202
100
AcDbSymbolTableRecord
100
AcDbLayerTableRecord
  2
04_POINTS
 70
0
 62
7
  6
CONTINUOUS
370
-3
390
F
  0
LAYER
  5
203
100
AcDbSymbolTableRecord
100
AcDbLayerTableRecord
  2
05_CURVES
 70
0
 62
7
  6
CONTINUOUS
370
-3
390
F
  0
LAYER
  5
204
100
AcDbSymbolTableRecord
100
AcDbLayerTableRecord
  2
06_SURFS
 70
0
 62
7
  6
CONTINUOUS
370
-3
390
F
  0
LAYER
  5
205
100
AcDbSymbolTableRecord
100
AcDbLayerTableRecord
  2
07_COSMETICS
 70
0
 62
7
  6
CONTINUOUS
370
-3
390
F
  0
LAYER
  5
206
100
AcDbSymbolTableRecord
100
AcDbLayerTableRecord
  2
10_NOTES
 70
0
 62
7
  6
CONTINUOUS
370
-3
390
F
  0
LAYER
  5
207
100
AcDbSymbolTableRecord
100
AcDbLayerTableRecord
  2
11_NOTES_PUB
 70
0
 62
7
  6
CONTINUOUS
370
-3
390
F
  0
LAYER
  5
208
100
AcDbSymbolTableRecord
100
AcDbLayerTableRecord
  2
13_REF_GTOL
 70
0
 62
7
  6
CONTINUOUS
370
-3
390
F
  0
LAYER
  5
209
100
AcDbSymbolTableRecord
100
AcDbLayerTableRecord
  2
16_MISC
 70
0
 62
7
  6
CONTINUOUS
370
-3
390
F
  0
LAYER
  5
20A
100
AcDbSymbolTableRecord
100
AcDbLayerTableRecord
  2
17_NO_PRINT
 70
0
 62
7
  6
CONTINUOUS
370
-3
390
F
  0
LAYER
  5
20B
100
AcDbSymbolTableRecord
100
AcDbLayerTableRecord
  2
18_DATUM_CAMS_JOINTS
 70
0
 62
7
  6
CONTINUOUS
370
-3
390
F
  0
LAYER
  5
20C
100
AcDbSymbolTableRecord
100
AcDbLayerTableRecord
  2
19_DATUM_FUNCTIONAL
 70
0
 62
7
  6
CONTINUOUS
370
-3
390
F
  0
LAYER
  5
20D
100
AcDbSymbolTableRecord
100
AcDbLayerTableRecord
  2
20_DATUM_KINEMATIC_SCHEME
 70
0
 62
7
  6
CONTINUOUS
370
-3
390
F
  0
ENDTAB
  0
TABLE
  2
STYLE
  5
3
100
AcDbSymbolTable
 70
1
  0
STYLE
  5
11
100
AcDbSymbolTableRecord
100
AcDbTextStyleTableRecord
  2
STANDARD
 70
0
 40
0.0
 41
1.0
 50
0.0
 71
0
 42
0.2
  3
ARIAL.TTF
  4

  0
STYLE
  5
20E
100
AcDbSymbolTableRecord
100
AcDbTextStyleTableRecord
  2
TEXTSTYLE_1
 70
0
 40
0.0
 41
0.8
 50
0.0
 71
0
 42
0.2
  3
gdt
  4

  0
ENDTAB
  0
TABLE
  2
VIEW
  5
6
100
AcDbSymbolTable
 70
0
  0
ENDTAB
  0
TABLE
  2
UCS
  5
7
100
AcDbSymbolTable
 70
0
  0
ENDTAB
  0
TABLE
  2
APPID
  5
9
100
AcDbSymbolTable
 70
1
  0
APPID
  5
20F
100
AcDbSymbolTableRecord
100
AcDbRegAppTableRecord
  2
ACAD
 70
0
  0
ENDTAB
  0
TABLE
  2
BLOCK_RECORD
  5
1
100
AcDbSymbolTable
 70
0
  0
BLOCK_RECORD
  5
210
100
AcDbSymbolTableRecord
100
AcDbBlockTableRecord
  2
*Model_Space
  0
BLOCK_RECORD
  5
211
100
AcDbSymbolTableRecord
100
AcDbBlockTableRecord
  2
*Paper_Space
  0
BLOCK_RECORD
  5
212
100
AcDbSymbolTableRecord
100
AcDbBlockTableRecord
  2
_FILLED
  0
ENDTAB
  0
TABLE
  2
DIMSTYLE
  5
A
100
AcDbSymbolTable
 70
1
100
AcDbDimStyleTable
 71
0
  0
DIMSTYLE
105
213
100
AcDbSymbolTableRecord
100
AcDbDimStyleTableRecord
  2
STANDARD
 70
0
  3

  4

 40
1.0
 41
0.7211135161
 42
1.0
 43
0.38
 44
1.0
 45
0.0
 46
0.0
 47
0.01
 48
0.01
140
1.0095589226
141
0.09
142
0.0
143
25.4
144
1.0
145
0.0
146
1.0
147
0.625
 71
1
 72
0
 73
0
 74
0
 75
0
 76
0
 77
1
 78
8
 79
2
170
0
171
1
172
0
173
0
174
0
175
0
176
0
177
0
178
0
270
2
179
2
271
2
272
2
273
2
274
2
275
0
280
0
281
0
282
0
283
1
284
8
285
0
286
0
287
3
288
0
340
11
278
46
341
212
342
212
343
212
344
212
  0
ENDTAB
  0
ENDSEC
  0
SECTION
  2
BLOCKS
  0
BLOCK
  5
20
100
AcDbEntity
  8
0
100
AcDbBlockBegin
  2
*Model_Space
 70
0
 10
0.0
 20
0.0
 30
0.0
  3
*Model_Space
  1

  0
ENDBLK
  5
21
100
AcDbEntity
  8
0
100
AcDbBlockEnd
  0
BLOCK
  5
1C
100
AcDbEntity
  8
0
100
AcDbBlockBegin
  2
*Paper_Space
 70
0
 10
0.0
 20
0.0
 30
0.0
  3
*Paper_Space
  1

  0
ENDBLK
  5
1D
100
AcDbEntity
  8
0
100
AcDbBlockEnd
  0
BLOCK
  5
214
100
AcDbEntity
  8
0
100
AcDbBlockBegin
  2
_FILLED
 70
64
 10
0.0
 20
0.0
  3
_FILLED
  1

  0
SOLID
  5
215
100
AcDbEntity
  8
0
  6
BYBLOCK
 62
0
100
AcDbTrace
 10
0.0
 20
0.0
 11
-1.0
 21
0.25
 12
-1.0
 22
-0.25
 13
-1.0
 23
-0.25
  0
ENDBLK
  5
216
100
AcDbEntity
  8
0
  6
BYBLOCK
 62
0
100
AcDbBlockEnd
  0
ENDSEC
  0
SECTION
  2
ENTITIES
  0
LINE
  5
217
100
AcDbEntity
  8
0
100
AcDbLine
 62
7
  6
BYLAYER
 10
34.3614806709
 20
6.3438571429
 11
32.3614806709
 21
6.3438571429
  0
LINE
  5
218
100
AcDbEntity
  8
0
100
AcDbLine
 62
7
  6
BYLAYER
 10
21.5916321899
 20
79.3438571429
 11
21.3916321899
 21
79.1438571429
  0
LINE
  5
219
100
AcDbEntity
  8
0
100
AcDbLine
 62
7
  6
BYLAYER
 10
34.5668721819
 20
16.3438571429
 11
32.1560891428
 21
16.3438571429
  0
LINE
  5
21A
100
AcDbEntity
  8
0
100
AcDbLine
 62
7
  6
BYLAYER
 10
34.7665981059
 20
16.5333899517
 11
31.9563632358
 21
16.5333899517
  0
LINE
  5
21B
100
AcDbEntity
  8
0
100
AcDbLine
 62
7
  6
BYLAYER
 10
31.8714136645
 20
18.1543243341
 11
34.8515476773
 21
18.1543243341
  0
LINE
  5
21C
100
AcDbEntity
  8
0
100
AcDbLine
 62
7
  6
BYLAYER
 10
36.4977211408
 20
18.3438571429
 11
24.2855349641
 21
18.3438571429
  0
LINE
  5
21D
100
AcDbEntity
  8
0
100
AcDbLine
 62
7
  6
BYLAYER
 10
36.6946909664
 20
18.5091275074
 11
24.0885734135
 21
18.5091275074
  0
LINE
  5
21E
100
AcDbEntity
  8
0
100
AcDbLine
 62
7
  6
BYLAYER
 10
37.1416321899
 20
21.0438571429
 11
23.6416321899
 21
21.0438571429
  0
LINE
  5
21F
100
AcDbEntity
  8
0
100
AcDbLine
 62
7
  6
BYLAYER
 10
38.1915196126
 20
21.5438571429
 11
22.5917447672
 21
21.5438571429
  0
LINE
  5
220
100
AcDbEntity
  8
0
100
AcDbLine
 62
7
  6
BYLAYER
 10
38.3916321899
 20
21.7438571429
 11
22.3916321899
 21
21.7438571429
  0
LINE
  5
221
100
AcDbEntity
  8
0
100
AcDbLine
 62
7
  6
BYLAYER
 10
29.8916321899
 20
71.0438571429
 11
30.3916321899
 21
71.5438571429
  0
LINE
  5
222
100
AcDbEntity
  8
0
100
AcDbLine
 62
7
  6
BYLAYER
 10
22.3916321899
 20
25.3438571429
 11
38.3914935191
 21
25.3438571429
  0
LINE
  5
223
100
AcDbEntity
  8
0
100
AcDbLine
 62
7
  6
BYLAYER
 10
19.6402220284
 20
67.9438571429
 11
19.5866321899
 21
67.7438571429
  0
LINE
  5
224
100
AcDbEntity
  8
0
100
AcDbLine
 62
7
  6
BYLAYER
 10
30.8916321899
 20
68.4438571429
 11
30.3916321899
 21
67.9438571429
  0
LINE
  5
225
100
AcDbEntity
  8
0
100
AcDbLine
 62
7
  6
BYLAYER
 10
38.3915198352
 20
25.4438571429
 11
22.3917445446
 21
25.4438571429
  0
LINE
  5
226
100
AcDbEntity
  8
0
100
AcDbLine
 62
7
  6
BYLAYER
 10
22.3916321899
 20
28.3438571429
 11
21.3916321899
 21
29.3438571429
  0
LINE
  5
227
100
AcDbEntity
  8
0
100
AcDbLine
 62
7
  6
BYLAYER
 10
22.3916321899
 20
28.3438571429
 11
38.3916321899
 21
28.3438571429
  0
LINE
  5
228
100
AcDbEntity
  8
0
100
AcDbLine
 62
7
  6
BYLAYER
 10
39.3916321899
 20
29.3438571429
 11
21.3916321899
 21
29.3438571429
  0
LINE
  5
229
100
AcDbEntity
  8
0
100
AcDbLine
 62
7
  6
BYLAYER
 10
18.3916321899
 20
67.7438571439
 11
18.3916321899
 21
64.7438571418
  0
LINE
  5
22A
100
AcDbEntity
  8
0
100
AcDbLine
 62
7
  6
BYLAYER
 10
18.3916321899
 20
71.7438571418
 11
18.3916321899
 21
74.7438571439
  0
LINE
  5
22B
100
AcDbEntity
  8
0
100
AcDbLine
 62
7
  6
BYLAYER
 10
18.8246448918
 20
67.3115761883
 11
18.8246448918
 21
65.1761380975
  0
LINE
  5
22C
100
AcDbEntity
  8
0
100
AcDbLine
 62
7
  6
BYLAYER
 10
18.8246448918
 20
72.1761380975
 11
18.8246448918
 21
74.311576169
  0
LINE
  5
22D
100
AcDbEntity
  8
0
100
AcDbLine
 62
7
  6
BYLAYER
 10
24.0885734135
 20
18.5091275074
 11
23.6416321899
 21
21.0438571429
  0
LINE
  5
22E
100
AcDbEntity
  8
0
100
AcDbLine
 62
7
  6
BYLAYER
 10
21.3916321899
 20
79.1438571428
 11
21.3916321899
 21
74.7438571429
  0
LINE
  5
22F
100
AcDbEntity
  8
0
100
AcDbLine
 62
7
  6
BYLAYER
 10
21.3916321899
 20
71.1289973802
 11
21.3916321899
 21
68.3587215357
  0
LINE
  5
230
100
AcDbEntity
  8
0
100
AcDbLine
 62
7
  6
BYLAYER
 10
21.3916321899
 20
64.7438571429
 11
21.3916321899
 21
29.3438571429
  0
LINE
  5
231
100
AcDbEntity
  8
0
100
AcDbLine
 62
7
  6
BYLAYER
 10
22.1416321899
 20
79.5438571429
 11
22.1416321899
 21
79.3438571429
  0
LINE
  5
232
100
AcDbEntity
  8
0
100
AcDbLine
 62
7
  6
BYLAYER
 10
22.3916321899
 20
28.3438571429
 11
22.3916321899
 21
25.4438571429
  0
LINE
  5
233
100
AcDbEntity
  8
0
100
AcDbLine
 62
7
  6
BYLAYER
 10
22.3916321899
 20
25.3438571429
 11
22.3916321899
 21
21.7438571429
  0
LINE
  5
234
100
AcDbEntity
  8
0
100
AcDbLine
 62
7
  6
BYLAYER
 10
22.4416321899
 20
25.4438571429
 11
22.4416321899
 21
25.3438571429
  0
LINE
  5
235
100
AcDbEntity
  8
0
100
AcDbLine
 62
7
  6
BYLAYER
 10
23.6416321899
 20
21.5438571429
 11
23.6416321899
 21
21.0438571429
  0
LINE
  5
236
100
AcDbEntity
  8
0
100
AcDbLine
 62
7
  6
BYLAYER
 10
19.6402220284
 20
71.5438571429
 11
19.5866321899
 21
71.7438571429
  0
LINE
  5
237
100
AcDbEntity
  8
0
100
AcDbLine
 62
7
  6
BYLAYER
 10
31.9563632358
 20
16.5333899517
 11
31.8714136645
 21
18.1543243341
  0
LINE
  5
238
100
AcDbEntity
  8
0
100
AcDbLine
 62
7
  6
BYLAYER
 10
29.4847143325
 20
79.3438571429
 11
29.4847143325
 21
79.5438571429
  0
LINE
  5
239
100
AcDbEntity
  8
0
100
AcDbLine
 62
7
  6
BYLAYER
 10
29.958619488
 20
67.3115761874
 11
29.958619488
 21
65.1761381176
  0
LINE
  5
23A
100
AcDbEntity
  8
0
100
AcDbLine
 62
7
  6
BYLAYER
 10
29.958619488
 20
72.1761380984
 11
29.958619488
 21
74.3115761874
  0
LINE
  5
23B
100
AcDbEntity
  8
0
100
AcDbLine
 62
7
  6
BYLAYER
 10
30.651439811
 20
67.2859672083
 11
30.651439811
 21
65.2017470987
  0
LINE
  5
23C
100
AcDbEntity
  8
0
100
AcDbLine
 62
7
  6
BYLAYER
 10
30.651439811
 20
72.2017470775
 11
30.651439811
 21
74.2859672142
  0
LINE
  5
23D
100
AcDbEntity
  8
0
100
AcDbLine
 62
7
  6
BYLAYER
 10
31.2985500473
 20
79.5438571429
 11
31.2985500473
 21
79.3438571429
  0
LINE
  5
23E
100
AcDbEntity
  8
0
100
AcDbLine
 62
7
  6
BYLAYER
 10
32.3614806709
 20
6.3438571429
 11
32.3614806709
 21
16.3438571429
  0
LINE
  5
23F
100
AcDbEntity
  8
0
100
AcDbLine
 62
7
  6
BYLAYER
 10
34.3614806709
 20
6.3438571429
 11
34.3614806709
 21
16.3438571429
  0
LINE
  5
240
100
AcDbEntity
  8
0
100
AcDbLine
 62
7
  6
BYLAYER
 10
41.1430423514
 20
71.5438571429
 11
41.1966321899
 21
71.7438571429
  0
LINE
  5
241
100
AcDbEntity
  8
0
100
AcDbLine
 62
7
  6
BYLAYER
 10
37.1416321899
 20
21.5438571429
 11
37.1416321899
 21
21.0438571429
  0
LINE
  5
242
100
AcDbEntity
  8
0
100
AcDbLine
 62
7
  6
BYLAYER
 10
38.3416321899
 20
25.4438571429
 11
38.3416321899
 21
25.3438571429
  0
LINE
  5
243
100
AcDbEntity
  8
0
100
AcDbLine
 62
7
  6
BYLAYER
 10
38.3916321899
 20
28.3438571429
 11
38.3916321899
 21
25.4438571429
  0
LINE
  5
244
100
AcDbEntity
  8
0
100
AcDbLine
 62
7
  6
BYLAYER
 10
38.3916321899
 20
25.3438571429
 11
38.3916321899
 21
21.7438571429
  0
LINE
  5
245
100
AcDbEntity
  8
0
100
AcDbLine
 62
7
  6
BYLAYER
 10
34.7665981059
 20
16.5333899517
 11
34.8515476773
 21
18.1543243341
  0
LINE
  5
246
100
AcDbEntity
  8
0
100
AcDbLine
 62
7
  6
BYLAYER
 10
38.6416321899
 20
79.5438571429
 11
38.6416321899
 21
79.3438571429
  0
LINE
  5
247
100
AcDbEntity
  8
0
100
AcDbLine
 62
7
  6
BYLAYER
 10
39.3916321899
 20
79.1438571428
 11
39.3916321899
 21
74.7438571429
  0
LINE
  5
248
100
AcDbEntity
  8
0
100
AcDbLine
 62
7
  6
BYLAYER
 10
39.3916321899
 20
71.1289927501
 11
39.3916321899
 21
68.3587169055
  0
LINE
  5
249
100
AcDbEntity
  8
0
100
AcDbLine
 62
7
  6
BYLAYER
 10
39.3916321899
 20
64.7438571429
 11
39.3916321899
 21
29.3438571429
  0
LINE
  5
24A
100
AcDbEntity
  8
0
100
AcDbLine
 62
7
  6
BYLAYER
 10
36.6946909664
 20
18.5091275074
 11
37.1416321899
 21
21.0438571429
  0
LINE
  5
24B
100
AcDbEntity
  8
0
100
AcDbLine
 62
7
  6
BYLAYER
 10
42.1318245688
 20
67.2859672081
 11
42.1318245688
 21
65.2017470717
  0
LINE
  5
24C
100
AcDbEntity
  8
0
100
AcDbLine
 62
7
  6
BYLAYER
 10
42.1318245688
 20
72.2017470777
 11
42.1318245688
 21
74.2859671869
  0
LINE
  5
24D
100
AcDbEntity
  8
0
100
AcDbLine
 62
7
  6
BYLAYER
 10
42.3916321899
 20
64.7438571413
 11
42.3916321899
 21
67.7438571444
  0
LINE
  5
24E
100
AcDbEntity
  8
0
100
AcDbLine
 62
7
  6
BYLAYER
 10
42.3916321899
 20
71.7438571413
 11
42.3916321899
 21
74.7438571444
  0
LINE
  5
24F
100
AcDbEntity
  8
0
100
AcDbLine
 62
7
  6
BYLAYER
 10
38.3916321899
 20
28.3438571429
 11
39.3916321899
 21
29.3438571429
  0
LINE
  5
250
100
AcDbEntity
  8
0
100
AcDbLine
 62
7
  6
BYLAYER
 10
29.8916321899
 20
68.4438571429
 11
30.3916321899
 21
67.9438571429
  0
LINE
  5
251
100
AcDbEntity
  8
0
100
AcDbLine
 62
7
  6
BYLAYER
 10
41.1430423514
 20
67.9438571429
 11
41.1966321899
 21
67.7438571429
  0
LINE
  5
252
100
AcDbEntity
  8
0
100
AcDbLine
 62
7
  6
BYLAYER
 10
30.8916321899
 20
71.0438571429
 11
30.3916321899
 21
71.5438571429
  0
LINE
  5
253
100
AcDbEntity
  8
0
100
AcDbLine
 62
7
  6
BYLAYER
 10
42.3916321899
 20
64.7438571429
 11
18.3916321841
 21
64.7438571429
  0
LINE
  5
254
100
AcDbEntity
  8
0
100
AcDbLine
 62
7
  6
BYLAYER
 10
18.3916321899
 20
67.7438571429
 11
42.3916321899
 21
67.7438571429
  0
LINE
  5
255
100
AcDbEntity
  8
0
100
AcDbLine
 62
7
  6
BYLAYER
 10
19.7859762468
 20
68.4438571429
 11
20.1800720955
 21
68.4438571429
  0
LINE
  5
256
100
AcDbEntity
  8
0
100
AcDbLine
 62
7
  6
BYLAYER
 10
20.2767647323
 20
68.4438571429
 11
20.5570111416
 21
68.4438571429
  0
LINE
  5
257
100
AcDbEntity
  8
0
100
AcDbLine
 62
7
  6
BYLAYER
 10
20.7846254514
 20
68.4438571429
 11
21.1022232805
 21
68.4438571429
  0
LINE
  5
258
100
AcDbEntity
  8
0
100
AcDbLine
 62
7
  6
BYLAYER
 10
21.4568647194
 20
68.4438571429
 11
21.8063797813
 21
68.4438571429
  0
LINE
  5
259
100
AcDbEntity
  8
0
100
AcDbLine
 62
7
  6
BYLAYER
 10
22.281980336
 20
68.4438571429
 11
22.6574323311
 21
68.4438571429
  0
LINE
  5
25A
100
AcDbEntity
  8
0
100
AcDbLine
 62
7
  6
BYLAYER
 10
23.2458543442
 20
68.4438571429
 11
23.6408191849
 21
68.4438571429
  0
LINE
  5
25B
100
AcDbEntity
  8
0
100
AcDbLine
 62
7
  6
BYLAYER
 10
24.3319945926
 20
68.4438571429
 11
24.7397143208
 21
68.4438571429
  0
LINE
  5
25C
100
AcDbEntity
  8
0
100
AcDbLine
 62
7
  6
BYLAYER
 10
25.5218169203
 20
68.4438571429
 11
25.9353153385
 21
68.4438571429
  0
LINE
  5
25D
100
AcDbEntity
  8
0
100
AcDbLine
 62
7
  6
BYLAYER
 10
26.7949631374
 20
68.4438571429
 11
27.2071651731
 21
68.4438571429
  0
LINE
  5
25E
100
AcDbEntity
  8
0
100
AcDbLine
 62
7
  6
BYLAYER
 10
28.1296493592
 20
68.4438571429
 11
28.5335021212
 21
68.4438571429
  0
LINE
  5
25F
100
AcDbEntity
  8
0
100
AcDbLine
 62
7
  6
BYLAYER
 10
29.5030387343
 20
68.4438571429
 11
29.8916321899
 21
68.4438571429
  0
LINE
  5
260
100
AcDbEntity
  8
0
100
AcDbLine
 62
7
  6
BYLAYER
 10
30.8916321899
 20
68.4438571429
 11
31.2802256455
 21
68.4438571429
  0
LINE
  5
261
100
AcDbEntity
  8
0
100
AcDbLine
 62
7
  6
BYLAYER
 10
32.2497622587
 20
68.4438571429
 11
32.6536150206
 21
68.4438571429
  0
LINE
  5
262
100
AcDbEntity
  8
0
100
AcDbLine
 62
7
  6
BYLAYER
 10
33.5760992067
 20
68.4438571429
 11
33.9883012424
 21
68.4438571429
  0
LINE
  5
263
100
AcDbEntity
  8
0
100
AcDbLine
 62
7
  6
BYLAYER
 10
34.8479490413
 20
68.4438571429
 11
35.2614474596
 21
68.4438571429
  0
LINE
  5
264
100
AcDbEntity
  8
0
100
AcDbLine
 62
7
  6
BYLAYER
 10
36.043550059
 20
68.4438571429
 11
36.4512697873
 21
68.4438571429
  0
LINE
  5
265
100
AcDbEntity
  8
0
100
AcDbLine
 62
7
  6
BYLAYER
 10
37.1424451949
 20
68.4438571429
 11
37.5374100356
 21
68.4438571429
  0
LINE
  5
266
100
AcDbEntity
  8
0
100
AcDbLine
 62
7
  6
BYLAYER
 10
38.1258320487
 20
68.4438571429
 11
38.5012840438
 21
68.4438571429
  0
LINE
  5
267
100
AcDbEntity
  8
0
100
AcDbLine
 62
7
  6
BYLAYER
 10
38.9768845985
 20
68.4438571429
 11
39.3263996604
 21
68.4438571429
  0
LINE
  5
268
100
AcDbEntity
  8
0
100
AcDbLine
 62
7
  6
BYLAYER
 10
39.6810410994
 20
68.4438571429
 11
39.9986389284
 21
68.4438571429
  0
LINE
  5
269
100
AcDbEntity
  8
0
100
AcDbLine
 62
7
  6
BYLAYER
 10
40.2262532383
 20
68.4438571429
 11
40.5064996475
 21
68.4438571429
  0
LINE
  5
26A
100
AcDbEntity
  8
0
100
AcDbLine
 62
7
  6
BYLAYER
 10
40.6031922843
 20
68.4438571429
 11
40.997288133
 21
68.4438571429
  0
LINE
  5
26B
100
AcDbEntity
  8
0
100
AcDbLine
 62
7
  6
BYLAYER
 10
40.997288133
 20
71.0438571429
 11
40.6031922843
 21
71.0438571429
  0
LINE
  5
26C
100
AcDbEntity
  8
0
100
AcDbLine
 62
7
  6
BYLAYER
 10
40.5064996475
 20
71.0438571429
 11
40.2262532383
 21
71.0438571429
  0
LINE
  5
26D
100
AcDbEntity
  8
0
100
AcDbLine
 62
7
  6
BYLAYER
 10
39.9986389284
 20
71.0438571429
 11
39.6810410994
 21
71.0438571429
  0
LINE
  5
26E
100
AcDbEntity
  8
0
100
AcDbLine
 62
7
  6
BYLAYER
 10
39.3263996604
 20
71.0438571429
 11
38.9768845985
 21
71.0438571429
  0
LINE
  5
26F
100
AcDbEntity
  8
0
100
AcDbLine
 62
7
  6
BYLAYER
 10
38.5012840438
 20
71.0438571429
 11
38.1258320487
 21
71.0438571429
  0
LINE
  5
270
100
AcDbEntity
  8
0
100
AcDbLine
 62
7
  6
BYLAYER
 10
37.5374100356
 20
71.0438571429
 11
37.1424451949
 21
71.0438571429
  0
LINE
  5
271
100
AcDbEntity
  8
0
100
AcDbLine
 62
7
  6
BYLAYER
 10
36.4512697873
 20
71.0438571429
 11
36.043550059
 21
71.0438571429
  0
LINE
  5
272
100
AcDbEntity
  8
0
100
AcDbLine
 62
7
  6
BYLAYER
 10
35.2614474596
 20
71.0438571429
 11
34.8479490413
 21
71.0438571429
  0
LINE
  5
273
100
AcDbEntity
  8
0
100
AcDbLine
 62
7
  6
BYLAYER
 10
33.9883012424
 20
71.0438571429
 11
33.5760992067
 21
71.0438571429
  0
LINE
  5
274
100
AcDbEntity
  8
0
100
AcDbLine
 62
7
  6
BYLAYER
 10
32.6536150206
 20
71.0438571429
 11
32.2497622587
 21
71.0438571429
  0
LINE
  5
275
100
AcDbEntity
  8
0
100
AcDbLine
 62
7
  6
BYLAYER
 10
31.2802256455
 20
71.0438571429
 11
30.8916321899
 21
71.0438571429
  0
LINE
  5
276
100
AcDbEntity
  8
0
100
AcDbLine
 62
7
  6
BYLAYER
 10
29.8916321899
 20
71.0438571429
 11
29.5030387343
 21
71.0438571429
  0
LINE
  5
277
100
AcDbEntity
  8
0
100
AcDbLine
 62
7
  6
BYLAYER
 10
28.5335021212
 20
71.0438571429
 11
28.1296493592
 21
71.0438571429
  0
LINE
  5
278
100
AcDbEntity
  8
0
100
AcDbLine
 62
7
  6
BYLAYER
 10
27.2071651731
 20
71.0438571429
 11
26.7949631374
 21
71.0438571429
  0
LINE
  5
279
100
AcDbEntity
  8
0
100
AcDbLine
 62
7
  6
BYLAYER
 10
25.9353153385
 20
71.0438571429
 11
25.5218169203
 21
71.0438571429
  0
LINE
  5
27A
100
AcDbEntity
  8
0
100
AcDbLine
 62
7
  6
BYLAYER
 10
24.7397143208
 20
71.0438571429
 11
24.3319945926
 21
71.0438571429
  0
LINE
  5
27B
100
AcDbEntity
  8
0
100
AcDbLine
 62
7
  6
BYLAYER
 10
23.6408191849
 20
71.0438571429
 11
23.2458543442
 21
71.0438571429
  0
LINE
  5
27C
100
AcDbEntity
  8
0
100
AcDbLine
 62
7
  6
BYLAYER
 10
22.6574323311
 20
71.0438571429
 11
22.281980336
 21
71.0438571429
  0
LINE
  5
27D
100
AcDbEntity
  8
0
100
AcDbLine
 62
7
  6
BYLAYER
 10
21.8063797813
 20
71.0438571429
 11
21.4568647194
 21
71.0438571429
  0
LINE
  5
27E
100
AcDbEntity
  8
0
100
AcDbLine
 62
7
  6
BYLAYER
 10
21.1022232805
 20
71.0438571429
 11
20.7846254514
 21
71.0438571429
  0
LINE
  5
27F
100
AcDbEntity
  8
0
100
AcDbLine
 62
7
  6
BYLAYER
 10
20.5570111416
 20
71.0438571429
 11
20.2767647323
 21
71.0438571429
  0
LINE
  5
280
100
AcDbEntity
  8
0
100
AcDbLine
 62
7
  6
BYLAYER
 10
20.1800720955
 20
71.0438571429
 11
19.7859762468
 21
71.0438571429
  0
LINE
  5
281
100
AcDbEntity
  8
0
100
AcDbLine
 62
7
  6
BYLAYER
 10
42.3916321899
 20
71.7438571429
 11
18.3916321899
 21
71.7438571429
  0
LINE
  5
282
100
AcDbEntity
  8
0
100
AcDbLine
 62
7
  6
BYLAYER
 10
18.3916321841
 20
74.7438571429
 11
42.3916321899
 21
74.7438571429
  0
LINE
  5
283
100
AcDbEntity
  8
0
100
AcDbLine
 62
7
  6
BYLAYER
 10
39.1916321899
 20
79.3438571429
 11
39.3916321899
 21
79.1438571429
  0
LINE
  5
284
100
AcDbEntity
  8
0
100
AcDbLine
 62
7
  6
BYLAYER
 10
21.3916321899
 20
79.1438571429
 11
39.3916321899
 21
79.1438571429
  0
LINE
  5
285
100
AcDbEntity
  8
0
100
AcDbLine
 62
7
  6
BYLAYER
 10
21.5916321899
 20
79.3438571429
 11
39.191598085
 21
79.3438571429
  0
LINE
  5
286
100
AcDbEntity
  8
0
100
AcDbLine
 62
7
  6
BYLAYER
 10
22.1416321899
 20
79.5438571429
 11
29.4847143325
 21
79.5438571429
  0
LINE
  5
287
100
AcDbEntity
  8
0
100
AcDbLine
 62
7
  6
BYLAYER
 10
31.2985500473
 20
79.5438571429
 11
38.6416321899
 21
79.5438571429
  0
LINE
  5
288
100
AcDbEntity
  8
0
100
AcDbLine
 62
7
  6
BYLAYER
 10
22.3416321899
 20
79.7438571429
 11
38.4416236464
 21
79.7438571429
  0
ARC
  5
289
100
AcDbEntity
  8
0
100
AcDbCircle
 62
7
  6
BYLAYER
 10
28.4213214273
 20
16.3372970565
 40
50.9974550172
100
AcDbArc
 50
87.4936566743
 51
88.2725797604
  0
ARC
  5
28A
100
AcDbEntity
  8
0
100
AcDbCircle
 62
7
  6
BYLAYER
 10
28.4213214273
 20
123.1504172292
 40
50.9974550172
100
AcDbArc
 50
271.7274202396
 51
272.5063433257
  0
ARC
  5
28B
100
AcDbEntity
  8
0
100
AcDbCircle
 62
7
  6
BYLAYER
 10
28.4213259247
 20
23.337368724
 40
50.9973832276
100
AcDbArc
 50
87.4936582016
 51
88.2725823831
  0
ARC
  5
28C
100
AcDbEntity
  8
0
100
AcDbCircle
 62
7
  6
BYLAYER
 10
28.421325925
 20
116.1503455547
 40
50.9973832206
100
AcDbArc
 50
271.7274176169
 51
272.5063417985
  0
ARC
  5
28D
100
AcDbEntity
  8
0
100
AcDbCircle
 62
7
  6
BYLAYER
 10
19.7879876459
 20
92.1384358291
 40
19.9855287643
100
AcDbArc
 50
265.9935756145
 51
267.2371574
  0
ARC
  5
28E
100
AcDbEntity
  8
0
100
AcDbCircle
 62
7
  6
BYLAYER
 10
19.787987645
 20
47.3492784568
 40
19.9855287641
100
AcDbArc
 50
92.7628425974
 51
94.0064243829
  0
ARC
  5
28F
100
AcDbEntity
  8
0
100
AcDbCircle
 62
7
  6
BYLAYER
 10
19.7879850719
 20
54.3492835804
 40
19.9855235032
100
AcDbArc
 50
92.7628359399
 51
94.0064180444
  0
ARC
  5
290
100
AcDbEntity
  8
0
100
AcDbCircle
 62
7
  6
BYLAYER
 10
19.7879850288
 20
85.1384299933
 40
19.9855227899
100
AcDbArc
 50
265.993581936
 51
267.2371640849
  0
ARC
  5
291
100
AcDbEntity
  8
0
100
AcDbCircle
 62
7
  6
BYLAYER
 10
42.97570013
 20
67.0553805402
 40
7.2796641138
100
AcDbArc
 50
94.6019480384
 51
96.6568259676
  0
ARC
  5
292
100
AcDbEntity
  8
0
100
AcDbCircle
 62
7
  6
BYLAYER
 10
42.9748502795
 20
72.4237118473
 40
7.271001827
100
AcDbArc
 50
263.3419498732
 51
265.3992761382
  0
ARC
  5
293
100
AcDbEntity
  8
0
100
AcDbCircle
 62
7
  6
BYLAYER
 10
42.9730521637
 20
60.0822477809
 40
7.2526710563
100
AcDbArc
 50
94.5981260731
 51
96.6606526988
  0
ARC
  5
294
100
AcDbEntity
  8
0
100
AcDbCircle
 62
7
  6
BYLAYER
 10
42.9720868888
 20
79.3956735845
 40
7.2428322742
100
AcDbArc
 50
263.3379462559
 51
265.4032749547
  0
ARC
  5
295
100
AcDbEntity
  8
0
100
AcDbCircle
 62
7
  6
BYLAYER
 10
38.4416321899
 20
79.5438571429
 40
0.2
100
AcDbArc
 50
0.0
 51
90.0
  0
ARC
  5
296
100
AcDbEntity
  8
0
100
AcDbCircle
 62
7
  6
BYLAYER
 10
22.3416321899
 20
79.5438571429
 40
0.2
100
AcDbArc
 50
90.0
 51
180.0
  0
ARC
  5
297
100
AcDbEntity
  8
0
100
AcDbCircle
 62
7
  6
BYLAYER
 10
22.5916321899
 20
21.7438571429
 40
0.2
100
AcDbArc
 50
180.0
 51
270.0
  0
ARC
  5
298
100
AcDbEntity
  8
0
100
AcDbCircle
 62
7
  6
BYLAYER
 10
38.1916321899
 20
21.7438571429
 40
0.2
100
AcDbArc
 50
270.0
 51
360.0
  0
ARC
  5
299
100
AcDbEntity
  8
0
100
AcDbCircle
 62
7
  6
BYLAYER
 10
24.2855349641
 20
18.5438571429
 40
0.2
100
AcDbArc
 50
190.0
 51
270.0
  0
ARC
  5
29A
100
AcDbEntity
  8
0
100
AcDbCircle
 62
7
  6
BYLAYER
 10
31.6716877575
 20
18.1438571429
 40
0.2
100
AcDbArc
 50
2.9999999861
 51
90.0
  0
ARC
  5
29B
100
AcDbEntity
  8
0
100
AcDbCircle
 62
7
  6
BYLAYER
 10
35.0512735842
 20
18.1438571429
 40
0.2
100
AcDbArc
 50
90.0
 51
177.0000000139
  0
ARC
  5
29C
100
AcDbEntity
  8
0
100
AcDbCircle
 62
7
  6
BYLAYER
 10
32.1560891428
 20
16.5438571429
 40
0.2
100
AcDbArc
 50
182.9999999861
 51
270.0
  0
ARC
  5
29D
100
AcDbEntity
  8
0
100
AcDbCircle
 62
7
  6
BYLAYER
 10
34.566872199
 20
16.5438571429
 40
0.2
100
AcDbArc
 50
270.0
 51
357.0000000139
  0
ARC
  5
29E
100
AcDbEntity
  8
0
100
AcDbCircle
 62
7
  6
BYLAYER
 10
36.4977294158
 20
18.5438571429
 40
0.2
100
AcDbArc
 50
270.0
 51
350.0
  0
SPLINE
  5
29F
100
AcDbEntity
  8
0
100
AcDbSpline
 62
7
  6
BYLAYER
 70
0
 71
3
 72
10
 73
6
 74
0
 42
0.0000001
 43
0.0000001
 44
0.0000000001
 40
0.0
 40
0.0
 40
0.0
 40
0.0
 40
0.5003167392
 40
0.7502096511
 40
1.0
 40
1.0
 40
1.0
 40
1.0
 10
29.958619488
 20
65.1761380984
 30
0.0
 10
29.0364742317
 20
65.0414133267
 30
0.0
 10
27.647345247
 20
64.8776640391
 30
0.0
 10
25.7877937627
 20
64.7632988267
 30
0.0
 10
24.856914142
 20
64.7438581515
 30
0.0
 10
24.3916322058
 20
64.7438581989
 30
0.0
  0
SPLINE
  5
2A0
100
AcDbEntity
  8
0
100
AcDbSpline
 62
7
  6
BYLAYER
 70
0
 71
3
 72
10
 73
6
 74
0
 42
0.0000001
 43
0.0000001
 44
0.0000000001
 40
0.0
 40
0.0
 40
0.0
 40
0.0
 40
0.2497781181
 40
0.4996647315
 40
1.0
 40
1.0
 40
1.0
 40
1.0
 10
36.3916322653
 20
64.7438581979
 30
0.0
 10
35.9117995604
 20
64.7438573078
 30
0.0
 10
34.9517903958
 20
64.7645559112
 30
0.0
 10
33.0341878398
 20
64.8860453891
 30
0.0
 10
31.6020242665
 20
65.0595447653
 30
0.0
 10
30.651439811
 20
65.2017470987
 30
0.0
  0
SPLINE
  5
2A1
100
AcDbEntity
  8
0
100
AcDbSpline
 62
7
  6
BYLAYER
 70
0
 71
3
 72
10
 73
6
 74
0
 42
0.0000001
 43
0.0000001
 44
0.0000000001
 40
0.0
 40
0.0
 40
0.0
 40
0.0
 40
0.2497903507
 40
0.4996832634
 40
1.0
 40
1.0
 40
1.0
 40
1.0
 10
24.3916322058
 20
64.7438581989
 30
0.0
 10
23.9263502636
 20
64.743858151
 30
0.0
 10
22.9954706328
 20
64.7632988258
 30
0.0
 10
21.1359191376
 20
64.8776640353
 30
0.0
 10
19.7467901486
 20
65.0414133258
 30
0.0
 10
18.8246448918
 20
65.1761380975
 30
0.0
  0
SPLINE
  5
2A2
100
AcDbEntity
  8
0
100
AcDbSpline
 62
7
  6
BYLAYER
 70
0
 71
3
 72
10
 73
6
 74
0
 42
0.0000001
 43
0.0000001
 44
0.0000000001
 40
0.0
 40
0.0
 40
0.0
 40
0.0
 40
0.5003167392
 40
0.7502096511
 40
1.0
 40
1.0
 40
1.0
 40
1.0
 10
18.8246448918
 20
67.3115761883
 30
0.0
 10
19.7467901512
 20
67.4463009755
 30
0.0
 10
21.1359191464
 20
67.6100502469
 30
0.0
 10
22.995470641
 20
67.7244154588
 30
0.0
 10
23.9263502669
 20
67.7438561347
 30
0.0
 10
24.3916322058
 20
67.7438560869
 30
0.0
  0
SPLINE
  5
2A3
100
AcDbEntity
  8
0
100
AcDbSpline
 62
7
  6
BYLAYER
 70
0
 71
3
 72
10
 73
6
 74
0
 42
0.0000001
 43
0.0000001
 44
0.0000000001
 40
0.0
 40
0.0
 40
0.0
 40
0.0
 40
0.2497781176
 40
0.4996647392
 40
1.0
 40
1.0
 40
1.0
 40
1.0
 10
36.3916322058
 20
67.7438560869
 30
0.0
 10
36.8714649066
 20
67.7438561462
 30
0.0
 10
37.8314740817
 20
67.723159198
 30
0.0
 10
39.7490766854
 20
67.6016697059
 30
0.0
 10
41.1812401345
 20
67.4281695411
 30
0.0
 10
42.1318245688
 20
67.2859672081
 30
0.0
  0
SPLINE
  5
2A4
100
AcDbEntity
  8
0
100
AcDbSpline
 62
7
  6
BYLAYER
 70
0
 71
3
 72
10
 73
6
 74
0
 42
0.0000001
 43
0.0000001
 44
0.0000000001
 40
0.0
 40
0.0
 40
0.0
 40
0.0
 40
0.5003367696
 40
0.7502231702
 40
1.0
 40
1.0
 40
1.0
 40
1.0
 10
42.1318245688
 20
65.2017470996
 30
0.0
 10
41.1812372239
 20
65.059544334
 30
0.0
 10
39.7490713491
 20
64.8860448335
 30
0.0
 10
37.8314690467
 20
64.7645471663
 30
0.0
 10
36.8714625142
 20
64.7438567927
 30
0.0
 10
36.3916322653
 20
64.7438581979
 30
0.0
  0
SPLINE
  5
2A5
100
AcDbEntity
  8
0
100
AcDbSpline
 62
7
  6
BYLAYER
 70
0
 71
3
 72
10
 73
6
 74
0
 42
0.0000001
 43
0.0000001
 44
0.0000000001
 40
0.0
 40
0.0
 40
0.0
 40
0.0
 40
0.2497903507
 40
0.4996832634
 40
1.0
 40
1.0
 40
1.0
 40
1.0
 10
24.3916322058
 20
67.7438560869
 30
0.0
 10
24.8569141454
 20
67.7438561342
 30
0.0
 10
25.787793771
 20
67.7244154615
 30
0.0
 10
27.6473452548
 20
67.6100502433
 30
0.0
 10
29.0364742386
 20
67.4463009731
 30
0.0
 10
29.958619488
 20
67.3115761874
 30
0.0
  0
SPLINE
  5
2A6
100
AcDbEntity
  8
0
100
AcDbSpline
 62
7
  6
BYLAYER
 70
0
 71
3
 72
10
 73
6
 74
0
 42
0.0000001
 43
0.0000001
 44
0.0000000001
 40
0.0
 40
0.0
 40
0.0
 40
0.0
 40
0.5003367696
 40
0.7502231702
 40
1.0
 40
1.0
 40
1.0
 40
1.0
 10
30.651439811
 20
67.2859672083
 30
0.0
 10
31.6020271701
 20
67.4281699789
 30
0.0
 10
33.0341930707
 20
67.6016690925
 30
0.0
 10
34.951795402
 20
67.7231677203
 30
0.0
 10
35.9118019495
 20
67.7438561814
 30
0.0
 10
36.3916322058
 20
67.7438560869
 30
0.0
  0
SPLINE
  5
2A7
100
AcDbEntity
  8
0
100
AcDbSpline
 62
7
  6
BYLAYER
 70
0
 71
3
 72
10
 73
6
 74
0
 42
0.0000001
 43
0.0000001
 44
0.0000000001
 40
0.0
 40
0.0
 40
0.0
 40
0.0
 40
0.2497903507
 40
0.4996832634
 40
1.0
 40
1.0
 40
1.0
 40
1.0
 10
24.3916322058
 20
71.7438581988
 30
0.0
 10
23.9263502636
 20
71.743858151
 30
0.0
 10
22.9954706327
 20
71.7632988251
 30
0.0
 10
21.1359191381
 20
71.8776640387
 30
0.0
 10
19.7467901465
 20
72.041413311
 30
0.0
 10
18.8246448918
 20
72.1761380975
 30
0.0
  0
SPLINE
  5
2A8
100
AcDbEntity
  8
0
100
AcDbSpline
 62
7
  6
BYLAYER
 70
0
 71
3
 72
10
 73
6
 74
0
 42
0.0000001
 43
0.0000001
 44
0.0000000001
 40
0.0
 40
0.0
 40
0.0
 40
0.0
 40
0.5003167392
 40
0.7502096511
 40
1.0
 40
1.0
 40
1.0
 40
1.0
 10
29.958619488
 20
72.1761380984
 30
0.0
 10
29.0364742338
 20
72.0414133119
 30
0.0
 10
27.6473452465
 20
71.8776640425
 30
0.0
 10
25.7877937628
 20
71.763298826
 30
0.0
 10
24.856914142
 20
71.7438581515
 30
0.0
 10
24.3916322058
 20
71.7438581988
 30
0.0
  0
SPLINE
  5
2A9
100
AcDbEntity
  8
0
100
AcDbSpline
 62
7
  6
BYLAYER
 70
0
 71
3
 72
10
 73
6
 74
0
 42
0.0000001
 43
0.0000001
 44
0.0000000001
 40
0.0
 40
0.0
 40
0.0
 40
0.0
 40
0.2497781176
 40
0.4996647392
 40
1.0
 40
1.0
 40
1.0
 40
1.0
 10
36.3916322058
 20
71.7438581988
 30
0.0
 10
35.9117995024
 20
71.743858139
 30
0.0
 10
34.9517903221
 20
71.7645550879
 30
0.0
 10
33.0341877076
 20
71.8860445771
 30
0.0
 10
31.6020242505
 20
72.0595447436
 30
0.0
 10
30.651439811
 20
72.2017470775
 30
0.0
  0
SPLINE
  5
2AA
100
AcDbEntity
  8
0
100
AcDbSpline
 62
7
  6
BYLAYER
 70
0
 71
3
 72
10
 73
6
 74
0
 42
0.0000001
 43
0.0000001
 44
0.0000000001
 40
0.0
 40
0.0
 40
0.0
 40
0.0
 40
0.2497781181
 40
0.4996647315
 40
1.0
 40
1.0
 40
1.0
 40
1.0
 10
36.3916322997
 20
74.7438560879
 30
0.0
 10
36.8714649891
 20
74.7438569753
 30
0.0
 10
37.8314741232
 20
74.7231583794
 30
0.0
 10
39.7490766162
 20
74.6016688797
 30
0.0
 10
41.1812401438
 20
74.4281695157
 30
0.0
 10
42.1318245688
 20
74.2859671869
 30
0.0
  0
SPLINE
  5
2AB
100
AcDbEntity
  8
0
100
AcDbSpline
 62
7
  6
BYLAYER
 70
0
 71
3
 72
10
 73
6
 74
0
 42
0.0000001
 43
0.0000001
 44
0.0000000001
 40
0.0
 40
0.0
 40
0.0
 40
0.0
 40
0.5003367696
 40
0.7502231702
 40
1.0
 40
1.0
 40
1.0
 40
1.0
 10
42.1318245688
 20
72.2017470777
 30
0.0
 10
41.181237215
 20
72.0595443078
 30
0.0
 10
39.7490713224
 20
71.8860451947
 30
0.0
 10
37.8314690017
 20
71.7645465666
 30
0.0
 10
36.8714624595
 20
71.7438581048
 30
0.0
 10
36.3916322058
 20
71.7438581988
 30
0.0
  0
SPLINE
  5
2AC
100
AcDbEntity
  8
0
100
AcDbSpline
 62
7
  6
BYLAYER
 70
0
 71
3
 72
10
 73
6
 74
0
 42
0.0000001
 43
0.0000001
 44
0.0000000001
 40
0.0
 40
0.0
 40
0.0
 40
0.0
 40
0.5003167392
 40
0.7502096511
 40
1.0
 40
1.0
 40
1.0
 40
1.0
 10
18.8246448918
 20
74.3115761882
 30
0.0
 10
19.7467901534
 20
74.4463009605
 30
0.0
 10
21.1359191459
 20
74.6100502503
 30
0.0
 10
22.9954706411
 20
74.7244154581
 30
0.0
 10
23.9263502669
 20
74.7438561347
 30
0.0
 10
24.3916322058
 20
74.7438560869
 30
0.0
  0
SPLINE
  5
2AD
100
AcDbEntity
  8
0
100
AcDbSpline
 62
7
  6
BYLAYER
 70
0
 71
3
 72
10
 73
6
 74
0
 42
0.0000001
 43
0.0000001
 44
0.0000000001
 40
0.0
 40
0.0
 40
0.0
 40
0.0
 40
0.2497903507
 40
0.4996832634
 40
1.0
 40
1.0
 40
1.0
 40
1.0
 10
24.3916322058
 20
74.7438560869
 30
0.0
 10
24.8569141454
 20
74.7438561343
 30
0.0
 10
25.7877937709
 20
74.7244154609
 30
0.0
 10
27.6473452553
 20
74.6100502467
 30
0.0
 10
29.0364742364
 20
74.4463009584
 30
0.0
 10
29.958619488
 20
74.3115761874
 30
0.0
  0
SPLINE
  5
2AE
100
AcDbEntity
  8
0
100
AcDbSpline
 62
7
  6
BYLAYER
 70
0
 71
3
 72
10
 73
6
 74
0
 42
0.0000001
 43
0.0000001
 44
0.0000000001
 40
0.0
 40
0.0
 40
0.0
 40
0.0
 40
0.5003367696
 40
0.7502231702
 40
1.0
 40
1.0
 40
1.0
 40
1.0
 10
30.651439811
 20
74.2859671863
 30
0.0
 10
31.6020271865
 20
74.4281699565
 30
0.0
 10
33.0341931075
 20
74.6016694611
 30
0.0
 10
34.9517954719
 20
74.723167126
 30
0.0
 10
35.9118020353
 20
74.7438574957
 30
0.0
 10
36.3916322997
 20
74.7438560879
 30
0.0
  0
SPLINE
  5
2AF
100
AcDbEntity
  8
0
100
AcDbSpline
 62
7
  6
BYLAYER
 70
0
 71
3
 72
41
 73
37
 74
0
 42
0.0000001
 43
0.0000001
 44
0.0000000001
 40
0.0
 40
0.0
 40
0.0
 40
0.0
 40
0.0078204575
 40
0.0156512239
 40
0.0234684918
 40
0.031283822
 40
0.0390971817
 40
0.0469101037
 40
0.0625335923
 40
0.0937774231
 40
0.1250237625
 40
0.1562710736
 40
0.1875190451
 40
0.2500131711
 40
0.3125085245
 40
0.375004399
 40
0.4375006282
 40
0.4999969218
 40
0.5624932127
 40
0.6249893971
 40
0.6874853436
 40
0.7499807265
 40
0.8124747162
 40
0.8437226545
 40
0.8749702011
 40
0.8905944408
 40
0.9062186358
 40
0.9218427557
 40
0.9374666058
 40
0.9530899584
 40
0.9609036115
 40
0.9687190814
 40
0.9765303905
 40
0.984351661
 40
0.9921793437
 40
1.0
 40
1.0
 40
1.0
 40
1.0
 10
31.2985500473
 20
79.5438571429
 30
0.0
 10
31.2985500473
 20
79.548736064
 30
0.0
 10
31.2948807517
 20
79.5584619551
 30
0.0
 10
31.2846586943
 20
79.5691094189
 30
0.0
 10
31.2726265807
 20
79.5775370528
 30
0.0
 10
31.2598745154
 20
79.5847234656
 30
0.0
 10
31.2466520374
 20
79.5909982019
 30
0.0
 10
31.228549922
 20
79.5982637386
 30
0.0
 10
31.1960388988
 20
79.6086885295
 30
0.0
 10
31.1487597573
 20
79.6206390073
 30
0.0
 10
31.0913607265
 20
79.6319308875
 30
0.0
 10
31.0335563012
 20
79.6408878822
 30
0.0
 10
30.9561768157
 20
79.6505717871
 30
0.0
 10
30.8591291588
 20
79.6598657705
 30
0.0
 10
30.7424088986
 20
79.6676235221
 30
0.0
 10
30.625541624
 20
79.6726613321
 30
0.0
 10
30.5086027964
 20
79.6755004288
 30
0.0
 10
30.391633848
 20
79.6764555197
 30
0.0
 10
30.2746642631
 20
79.6755273963
 30
0.0
 10
30.1577268449
 20
79.6726235304
 30
0.0
 10
30.0408609015
 20
79.6675608808
 30
0.0
 10
29.924138318
 20
79.6598637726
 30
0.0
 10
29.8270798288
 20
79.6506501636
 30
0.0
 10
29.7497219762
 20
79.6407953049
 30
0.0
 10
29.7015525505
 20
79.6333201635
 30
0.0
 10
29.6632086493
 20
79.6262408386
 30
0.0
 10
29.6345758495
 20
79.6202908399
 30
0.0
 10
29.6061021611
 20
79.6136067153
 30
0.0
 10
29.5779311376
 20
79.6057316343
 30
0.0
 10
29.5548080857
 20
79.5979906425
 30
0.0
 10
29.5366484942
 20
79.5908834473
 30
0.0
 10
29.5233113276
 20
79.5848522856
 30
0.0
 10
29.510570488
 20
79.5776214463
 30
0.0
 10
29.4986384092
 20
79.5690698605
 30
0.0
 10
29.4883697947
 20
79.558472596
 30
0.0
 10
29.4847143325
 20
79.5487361881
 30
0.0
 10
29.4847143325
 20
79.5438571429
 30
0.0
  0
ELLIPSE
  5
2B0
100
AcDbEntity
  8
0
100
AcDbEllipse
 62
7
  6
BYLAYER
 10
31.5065860978
 20
72.2517082417
 30
0.0
 11
8.0474192635
 21
10.195190748
 31
0.0
 40
0.7470541823
 41
4.9099662904
 42
4.9176315918
  0
ELLIPSE
  5
2B1
100
AcDbEntity
  8
0
100
AcDbEllipse
 62
7
  6
BYLAYER
 10
32.0401754345
 20
72.2517082417
 30
0.0
 11
8.919591999
 21
10.3341729894
 31
0.0
 40
0.6468548444
 41
-1.404243728
 42
-1.3891458436
  0
ELLIPSE
  5
2B2
100
AcDbEntity
  8
0
100
AcDbEllipse
 62
7
  6
BYLAYER
 10
32.5455577393
 20
72.2517082417
 30
0.0
 11
9.5757833526
 21
10.5743403885
 31
0.0
 40
0.5552272381
 41
-1.4530004987
 42
-1.4324654912
  0
ELLIPSE
  5
2B3
100
AcDbEntity
  8
0
100
AcDbEllipse
 62
7
  6
BYLAYER
 10
33.0140857808
 20
72.2517082417
 30
0.0
 11
10.1170563979
 21
10.8336078883
 31
0.0
 40
0.4711119558
 41
-1.5086873256
 42
-1.4838808103
  0
ELLIPSE
  5
2B4
100
AcDbEntity
  8
0
100
AcDbEllipse
 62
7
  6
BYLAYER
 10
33.4377429143
 20
72.2517082417
 30
0.0
 11
10.57430594
 21
11.0811640271
 31
0.0
 40
0.3932536107
 41
-1.5677038183
 42
-1.5393435277
  0
ELLIPSE
  5
2B5
100
AcDbEntity
  8
0
100
AcDbEllipse
 62
7
  6
BYLAYER
 10
33.8092802487
 20
72.2517082417
 30
0.0
 11
10.9583479679
 21
11.3026503924
 31
0.0
 40
0.32049021
 41
-1.6285433084
 42
-1.5970782097
  0
ELLIPSE
  5
2B6
100
AcDbEntity
  8
0
100
AcDbEllipse
 62
7
  6
BYLAYER
 10
34.1223406772
 20
72.2517082417
 30
0.0
 11
11.272755276
 21
11.4903624333
 31
0.0
 40
0.2517837063
 41
-1.690470904
 42
-1.6561797436
  0
ELLIPSE
  5
2B7
100
AcDbEntity
  8
0
100
AcDbEllipse
 62
7
  6
BYLAYER
 10
34.3715676492
 20
72.2517082417
 30
0.0
 11
11.5182116851
 21
11.6397811956
 31
0.0
 40
0.1862029912
 41
-1.7527475135
 42
-1.7161329273
  0
ELLIPSE
  5
2B8
100
AcDbEntity
  8
0
100
AcDbEllipse
 62
7
  6
BYLAYER
 10
34.5526968221
 20
72.2517082417
 30
0.0
 11
11.6942962282
 21
11.7481381864
 31
0.0
 40
0.1228992729
 41
-1.8159349801
 42
-1.776616227
  0
ELLIPSE
  5
2B9
100
AcDbEntity
  8
0
100
AcDbEllipse
 62
7
  6
BYLAYER
 10
34.6626290254
 20
72.2517082417
 30
0.0
 11
11.8003161272
 21
11.8137551981
 31
0.0
 40
0.0610824685
 41
-1.8795294874
 42
-1.8374099321
  0
ELLIPSE
  5
2BA
100
AcDbEntity
  8
0
100
AcDbEllipse
 62
7
  6
BYLAYER
 10
30.3916321899
 20
64.8401923674
 30
0.0
 11
0.0
 21
11.5830346317
 31
0.0
 40
0.963433044
 41
-1.2995325731
 42
-1.2544294813
  0
ELLIPSE
  5
2BB
100
AcDbEntity
  8
0
100
AcDbEllipse
 62
7
  6
BYLAYER
 10
30.796741735
 20
64.8401923674
 30
0.0
 11
-7.3844602403
 21
9.6458827394
 31
0.0
 40
0.8684143762
 41
-1.8862553139
 42
-1.8411522221
  0
ELLIPSE
  5
2BC
100
AcDbEntity
  8
0
100
AcDbEllipse
 62
7
  6
BYLAYER
 10
31.1949197434
 20
64.8401923674
 30
0.0
 11
-8.472058128
 21
9.6390686169
 31
0.0
 40
0.7581403628
 41
-1.8873170525
 42
-1.8422139607
  0
ELLIPSE
  5
2BD
100
AcDbEntity
  8
0
100
AcDbEllipse
 62
7
  6
BYLAYER
 10
31.5793532791
 20
64.8401923674
 30
0.0
 11
-9.1398053983
 21
9.9008743148
 31
0.0
 40
0.657738698
 41
-1.8452140898
 42
-1.800110998
  0
ELLIPSE
  5
2BE
100
AcDbEntity
  8
0
100
AcDbEllipse
 62
7
  6
BYLAYER
 10
31.9434645776
 20
64.8401923674
 30
0.0
 11
-9.672197328
 21
10.207034137
 31
0.0
 40
0.5661264515
 41
-1.7919226086
 42
-1.7468195168
  0
ELLIPSE
  5
2BF
100
AcDbEntity
  8
0
100
AcDbEllipse
 62
7
  6
BYLAYER
 10
29.2766782821
 20
72.2517082417
 30
0.0
 11
-8.0474192635
 21
10.195190748
 31
0.0
 40
0.7470541823
 41
1.3655537154
 42
1.3732190188
  0
ELLIPSE
  5
2C0
100
AcDbEntity
  8
0
100
AcDbEllipse
 62
7
  6
BYLAYER
 10
32.2810235938
 20
64.8401923674
 30
0.0
 11
-10.1235279518
 21
10.5062434209
 31
0.0
 40
0.4817532195
 41
-1.7341357163
 42
-1.6890326245
  0
ELLIPSE
  5
2C1
100
AcDbEntity
  8
0
100
AcDbEllipse
 62
7
  6
BYLAYER
 10
28.7430889453
 20
72.2517082417
 30
0.0
 11
-8.919591999
 21
10.3341729894
 31
0.0
 40
0.6468548444
 41
1.3891458436
 42
1.4042437168
  0
ELLIPSE
  5
2C2
100
AcDbEntity
  8
0
100
AcDbEllipse
 62
7
  6
BYLAYER
 10
32.5862545992
 20
64.8401923674
 30
0.0
 11
-10.5096998268
 21
10.7798633581
 31
0.0
 40
0.4032531911
 41
-1.674117191
 42
-1.6290140991
  0
ELLIPSE
  5
2C3
100
AcDbEntity
  8
0
100
AcDbEllipse
 62
7
  6
BYLAYER
 10
28.2377066405
 20
72.2517082417
 30
0.0
 11
-9.5757833526
 21
10.5743403885
 31
0.0
 40
0.5552272381
 41
1.4324654912
 42
1.4530004966
  0
ELLIPSE
  5
2C4
100
AcDbEntity
  8
0
100
AcDbEllipse
 62
7
  6
BYLAYER
 10
32.8539350067
 20
64.8401923674
 30
0.0
 11
-10.8359096051
 21
11.0191384116
 31
0.0
 40
0.3294650235
 41
-1.6128476156
 42
-1.5677445238
  0
ELLIPSE
  5
2C5
100
AcDbEntity
  8
0
100
AcDbEllipse
 62
7
  6
BYLAYER
 10
27.769178599
 20
72.2517082417
 30
0.0
 11
-10.1170563979
 21
10.8336078883
 31
0.0
 40
0.4711119558
 41
1.4838808103
 42
1.5086873211
  0
ELLIPSE
  5
2C6
100
AcDbEntity
  8
0
100
AcDbEllipse
 62
7
  6
BYLAYER
 10
33.0794847303
 20
64.8401923674
 30
0.0
 11
-11.103573653
 21
11.2192358625
 31
0.0
 40
0.2593921815
 41
-1.5508240306
 42
-1.5057209388
  0
ELLIPSE
  5
2C7
100
AcDbEntity
  8
0
100
AcDbEllipse
 62
7
  6
BYLAYER
 10
27.3455214656
 20
72.2517082417
 30
0.0
 11
-10.57430594
 21
11.0811640271
 31
0.0
 40
0.3932536107
 41
1.5393435277
 42
1.5677038056
  0
ELLIPSE
  5
2C8
100
AcDbEntity
  8
0
100
AcDbEllipse
 62
7
  6
BYLAYER
 10
33.2590445517
 20
64.8401923674
 30
0.0
 11
-11.3126576757
 21
11.377213794
 31
0.0
 40
0.1921623568
 41
-1.4883289622
 42
-1.4432258704
  0
ELLIPSE
  5
2C9
100
AcDbEntity
  8
0
100
AcDbEllipse
 62
7
  6
BYLAYER
 10
26.9739841312
 20
72.2517082417
 30
0.0
 11
-10.9583479679
 21
11.3026503924
 31
0.0
 40
0.32049021
 41
-4.6861070975
 42
-4.6546419184
  0
ELLIPSE
  5
2CA
100
AcDbEntity
  8
0
100
AcDbEllipse
 62
7
  6
BYLAYER
 10
33.3895421527
 20
64.8401923674
 30
0.0
 11
-11.4626280056
 21
11.4912004934
 31
0.0
 40
0.1269935126
 41
-1.425539161
 42
-1.3804360692
  0
ELLIPSE
  5
2CB
100
AcDbEntity
  8
0
100
AcDbEllipse
 62
7
  6
BYLAYER
 10
26.6609237026
 20
72.2517082417
 30
0.0
 11
-11.272755276
 21
11.4903624333
 31
0.0
 40
0.2517837063
 41
-4.6270055636
 42
-4.5927143299
  0
ELLIPSE
  5
2CC
100
AcDbEntity
  8
0
100
AcDbEllipse
 62
7
  6
BYLAYER
 10
33.468744683
 20
64.8401923674
 30
0.0
 11
-11.5528949874
 21
11.5600239517
 31
0.0
 40
0.0631661312
 41
-1.3625760954
 42
-1.3174730036
  0
ELLIPSE
  5
2CD
100
AcDbEntity
  8
0
100
AcDbEllipse
 62
7
  6
BYLAYER
 10
26.4116967306
 20
72.2517082417
 30
0.0
 11
-11.5182116851
 21
11.6397811956
 31
0.0
 40
0.1862029912
 41
-4.5670523798
 42
-4.5304377202
  0
ELLIPSE
  5
2CE
100
AcDbEntity
  8
0
100
AcDbEllipse
 62
7
  6
BYLAYER
 10
30.3916321899
 20
64.8401923674
 30
0.0
 11
0.0
 21
11.5830346317
 31
0.0
 40
0.963433044
 41
1.2544294813
 42
1.2995325731
  0
ELLIPSE
  5
2CF
100
AcDbEntity
  8
0
100
AcDbEllipse
 62
7
  6
BYLAYER
 10
29.9865226448
 20
64.8401923674
 30
0.0
 11
7.3844602403
 21
9.6458827394
 31
0.0
 40
0.8684143762
 41
-4.4420330851
 42
-4.3969299932
  0
ELLIPSE
  5
2D0
100
AcDbEntity
  8
0
100
AcDbEllipse
 62
7
  6
BYLAYER
 10
29.5883446364
 20
64.8401923674
 30
0.0
 11
8.472058128
 21
9.6390686169
 31
0.0
 40
0.7581403628
 41
-4.4409713465
 42
-4.3958682546
  0
ELLIPSE
  5
2D1
100
AcDbEntity
  8
0
100
AcDbEllipse
 62
7
  6
BYLAYER
 10
29.2039111007
 20
64.8401923674
 30
0.0
 11
9.1398053983
 21
9.9008743148
 31
0.0
 40
0.657738698
 41
-4.4830743092
 42
-4.4379712174
  0
ELLIPSE
  5
2D2
100
AcDbEntity
  8
0
100
AcDbEllipse
 62
7
  6
BYLAYER
 10
28.8397998022
 20
64.8401923674
 30
0.0
 11
9.672197328
 21
10.207034137
 31
0.0
 40
0.5661264515
 41
-4.5363657904
 42
-4.4912626986
  0
ELLIPSE
  5
2D3
100
AcDbEntity
  8
0
100
AcDbEllipse
 62
7
  6
BYLAYER
 10
28.502240786
 20
64.8401923674
 30
0.0
 11
10.1235279518
 21
10.5062434209
 31
0.0
 40
0.4817532195
 41
-4.5941526827
 42
-4.5490495909
  0
ELLIPSE
  5
2D4
100
AcDbEntity
  8
0
100
AcDbEllipse
 62
7
  6
BYLAYER
 10
28.1970097807
 20
64.8401923674
 30
0.0
 11
10.5096998268
 21
10.7798633581
 31
0.0
 40
0.4032531911
 41
-4.654171208
 42
-4.6090681162
  0
ELLIPSE
  5
2D5
100
AcDbEntity
  8
0
100
AcDbEllipse
 62
7
  6
BYLAYER
 10
27.9293293732
 20
64.8401923674
 30
0.0
 11
10.8359096051
 21
11.0191384116
 31
0.0
 40
0.3294650235
 41
1.5677445238
 42
1.6128476156
  0
ELLIPSE
  5
2D6
100
AcDbEntity
  8
0
100
AcDbEllipse
 62
7
  6
BYLAYER
 10
27.7037796495
 20
64.8401923674
 30
0.0
 11
11.103573653
 21
11.2192358625
 31
0.0
 40
0.2593921815
 41
1.5057209388
 42
1.5508240306
  0
ELLIPSE
  5
2D7
100
AcDbEntity
  8
0
100
AcDbEllipse
 62
7
  6
BYLAYER
 10
27.5242198281
 20
64.8401923674
 30
0.0
 11
11.3126576757
 21
11.377213794
 31
0.0
 40
0.1921623568
 41
1.4432258704
 42
1.4883289622
  0
ELLIPSE
  5
2D8
100
AcDbEntity
  8
0
100
AcDbEllipse
 62
7
  6
BYLAYER
 10
27.3937222272
 20
64.8401923674
 30
0.0
 11
11.4626280056
 21
11.4912004934
 31
0.0
 40
0.1269935126
 41
1.3804360692
 42
1.425539161
  0
ELLIPSE
  5
2D9
100
AcDbEntity
  8
0
100
AcDbEllipse
 62
7
  6
BYLAYER
 10
27.3145196969
 20
64.8401923674
 30
0.0
 11
11.5528949874
 21
11.5600239517
 31
0.0
 40
0.0631661312
 41
1.3174730036
 42
1.3625760954
  0
ELLIPSE
  5
2DA
100
AcDbEntity
  8
0
100
AcDbEllipse
 62
7
  6
BYLAYER
 10
26.2305675577
 20
72.2517082417
 30
0.0
 11
-11.6942962282
 21
11.7481381864
 31
0.0
 40
0.1228992729
 41
-4.5065690802
 42
-4.4672502745
  0
ELLIPSE
  5
2DB
100
AcDbEntity
  8
0
100
AcDbEllipse
 62
7
  6
BYLAYER
 10
26.1206353544
 20
72.2517082417
 30
0.0
 11
-11.8003161272
 21
11.8137551981
 31
0.0
 40
0.0610824685
 41
-4.4457753751
 42
-4.4036557914
  0
ELLIPSE
  5
2DC
100
AcDbEntity
  8
0
100
AcDbEllipse
 62
7
  6
BYLAYER
 10
31.9434645776
 20
64.8401923674
 30
0.0
 11
-9.672197328
 21
10.207034137
 31
0.0
 40
0.5661264515
 41
0.7620394457
 42
0.8071425375
  0
ELLIPSE
  5
2DD
100
AcDbEntity
  8
0
100
AcDbEllipse
 62
7
  6
BYLAYER
 10
32.2810235938
 20
64.8401923674
 30
0.0
 11
-10.1235279518
 21
10.5062434209
 31
0.0
 40
0.4817532195
 41
0.819826338
 42
0.8649294298
  0
ELLIPSE
  5
2DE
100
AcDbEntity
  8
0
100
AcDbEllipse
 62
7
  6
BYLAYER
 10
32.5862545992
 20
64.8401923674
 30
0.0
 11
-10.5096998268
 21
10.7798633581
 31
0.0
 40
0.4032531911
 41
0.8798448634
 42
0.9249479552
  0
ELLIPSE
  5
2DF
100
AcDbEntity
  8
0
100
AcDbEllipse
 62
7
  6
BYLAYER
 10
32.8539350067
 20
64.8401923674
 30
0.0
 11
-10.8359096051
 21
11.0191384116
 31
0.0
 40
0.3294650235
 41
0.9411144387
 42
0.9862175305
  0
ELLIPSE
  5
2E0
100
AcDbEntity
  8
0
100
AcDbEllipse
 62
7
  6
BYLAYER
 10
33.0794847303
 20
64.8401923674
 30
0.0
 11
-11.103573653
 21
11.2192358625
 31
0.0
 40
0.2593921815
 41
1.0031380237
 42
1.0482411156
  0
ELLIPSE
  5
2E1
100
AcDbEntity
  8
0
100
AcDbEllipse
 62
7
  6
BYLAYER
 10
33.2590445517
 20
64.8401923674
 30
0.0
 11
-11.3126576757
 21
11.377213794
 31
0.0
 40
0.1921623568
 41
1.0656330921
 42
1.1107361839
  0
ELLIPSE
  5
2E2
100
AcDbEntity
  8
0
100
AcDbEllipse
 62
7
  6
BYLAYER
 10
33.468744683
 20
64.8401923674
 30
0.0
 11
-11.5528949874
 21
11.5600239517
 31
0.0
 40
0.0631661312
 41
1.1913859589
 42
1.2364890507
  0
ELLIPSE
  5
2E3
100
AcDbEntity
  8
0
100
AcDbEllipse
 62
7
  6
BYLAYER
 10
30.796741735
 20
64.8401923674
 30
0.0
 11
-7.3844602403
 21
9.6458827394
 31
0.0
 40
0.8684143762
 41
0.6677067404
 42
0.7128098322
  0
ELLIPSE
  5
2E4
100
AcDbEntity
  8
0
100
AcDbEllipse
 62
7
  6
BYLAYER
 10
31.1949197434
 20
64.8401923674
 30
0.0
 11
-8.472058128
 21
9.6390686169
 31
0.0
 40
0.7581403628
 41
0.6666450018
 42
0.7117480936
  0
ELLIPSE
  5
2E5
100
AcDbEntity
  8
0
100
AcDbEllipse
 62
7
  6
BYLAYER
 10
27.3145196969
 20
64.8401923674
 30
0.0
 11
11.5528949874
 21
11.5600239517
 31
0.0
 40
0.0631661312
 41
-1.2364890507
 42
-1.1913859589
  0
ELLIPSE
  5
2E6
100
AcDbEntity
  8
0
100
AcDbEllipse
 62
7
  6
BYLAYER
 10
27.3937222272
 20
64.8401923674
 30
0.0
 11
11.4626280056
 21
11.4912004934
 31
0.0
 40
0.1269935126
 41
-1.1735259851
 42
-1.1284228933
  0
ELLIPSE
  5
2E7
100
AcDbEntity
  8
0
100
AcDbEllipse
 62
7
  6
BYLAYER
 10
27.5242198281
 20
64.8401923674
 30
0.0
 11
11.3126576757
 21
11.377213794
 31
0.0
 40
0.1921623568
 41
-1.1107361839
 42
-1.0656330921
  0
ELLIPSE
  5
2E8
100
AcDbEntity
  8
0
100
AcDbEllipse
 62
7
  6
BYLAYER
 10
27.7037796495
 20
64.8401923674
 30
0.0
 11
11.103573653
 21
11.2192358625
 31
0.0
 40
0.2593921815
 41
-1.0482411156
 42
-1.0031380237
  0
ELLIPSE
  5
2E9
100
AcDbEntity
  8
0
100
AcDbEllipse
 62
7
  6
BYLAYER
 10
27.9293293732
 20
64.8401923674
 30
0.0
 11
10.8359096051
 21
11.0191384116
 31
0.0
 40
0.3294650235
 41
-0.9862175305
 42
-0.9411144387
  0
ELLIPSE
  5
2EA
100
AcDbEntity
  8
0
100
AcDbEllipse
 62
7
  6
BYLAYER
 10
28.1970097807
 20
64.8401923674
 30
0.0
 11
10.5096998268
 21
10.7798633581
 31
0.0
 40
0.4032531911
 41
-0.9249479552
 42
-0.8798448634
  0
ELLIPSE
  5
2EB
100
AcDbEntity
  8
0
100
AcDbEllipse
 62
7
  6
BYLAYER
 10
28.502240786
 20
64.8401923674
 30
0.0
 11
10.1235279518
 21
10.5062434209
 31
0.0
 40
0.4817532195
 41
-0.8649294298
 42
-0.819826338
  0
ELLIPSE
  5
2EC
100
AcDbEntity
  8
0
100
AcDbEllipse
 62
7
  6
BYLAYER
 10
28.8397998022
 20
64.8401923674
 30
0.0
 11
9.672197328
 21
10.207034137
 31
0.0
 40
0.5661264515
 41
-0.8071425375
 42
-0.7620394457
  0
ELLIPSE
  5
2ED
100
AcDbEntity
  8
0
100
AcDbEllipse
 62
7
  6
BYLAYER
 10
29.2039111007
 20
64.8401923674
 30
0.0
 11
9.1398053983
 21
9.9008743148
 31
0.0
 40
0.657738698
 41
-0.7538510564
 42
-0.7087479645
  0
ELLIPSE
  5
2EE
100
AcDbEntity
  8
0
100
AcDbEllipse
 62
7
  6
BYLAYER
 10
29.5883446364
 20
64.8401923674
 30
0.0
 11
8.472058128
 21
9.6390686169
 31
0.0
 40
0.7581403628
 41
-0.7117480936
 42
-0.6666450018
  0
ELLIPSE
  5
2EF
100
AcDbEntity
  8
0
100
AcDbEllipse
 62
7
  6
BYLAYER
 10
29.9865226448
 20
64.8401923674
 30
0.0
 11
7.3844602403
 21
9.6458827394
 31
0.0
 40
0.8684143762
 41
-0.7128098322
 42
-0.6677067404
  0
ELLIPSE
  5
2F0
100
AcDbEntity
  8
0
100
AcDbEllipse
 62
7
  6
BYLAYER
 10
33.3895421527
 20
64.8401923674
 30
0.0
 11
-11.4626280056
 21
11.4912004934
 31
0.0
 40
0.1269935126
 41
1.1284228933
 42
1.1735259851
  0
ELLIPSE
  5
2F1
100
AcDbEntity
  8
0
100
AcDbEllipse
 62
7
  6
BYLAYER
 10
31.5793532791
 20
64.8401923674
 30
0.0
 11
-9.1398053983
 21
9.9008743148
 31
0.0
 40
0.657738698
 41
0.7087479645
 42
0.7538510564
  0
ELLIPSE
  5
2F2
100
AcDbEntity
  8
0
100
AcDbEllipse
 62
7
  6
BYLAYER
 10
30.3916321899
 20
74.6475219183
 30
0.0
 11
-0.0
 21
11.5830346317
 31
0.0
 40
0.963433044
 41
-4.4411252267
 42
-4.3960221348
  0
ELLIPSE
  5
2F3
100
AcDbEntity
  8
0
100
AcDbEllipse
 62
7
  6
BYLAYER
 10
29.2766782821
 20
67.236006044
 30
0.0
 11
8.0474192635
 21
10.195190748
 31
0.0
 40
0.7470541823
 41
1.7683736368
 42
1.7760389382
  0
ELLIPSE
  5
2F4
100
AcDbEntity
  8
0
100
AcDbEllipse
 62
7
  6
BYLAYER
 10
28.7430889453
 20
67.236006044
 30
0.0
 11
8.919591999
 21
10.3341729894
 31
0.0
 40
0.6468548444
 41
-4.5458363816
 42
-4.5307384971
  0
ELLIPSE
  5
2F5
100
AcDbEntity
  8
0
100
AcDbEllipse
 62
7
  6
BYLAYER
 10
28.2377066405
 20
67.236006044
 30
0.0
 11
9.5757833526
 21
10.5743403885
 31
0.0
 40
0.5552272381
 41
-4.5945931523
 42
-4.5740581448
  0
ELLIPSE
  5
2F6
100
AcDbEntity
  8
0
100
AcDbEllipse
 62
7
  6
BYLAYER
 10
27.769178599
 20
67.236006044
 30
0.0
 11
10.1170563979
 21
10.8336078883
 31
0.0
 40
0.4711119558
 41
-4.6502799792
 42
-4.6254734639
  0
ELLIPSE
  5
2F7
100
AcDbEntity
  8
0
100
AcDbEllipse
 62
7
  6
BYLAYER
 10
27.3455214656
 20
67.236006044
 30
0.0
 11
10.57430594
 21
11.0811640271
 31
0.0
 40
0.3932536107
 41
-4.7092964719
 42
-4.6809361813
  0
ELLIPSE
  5
2F8
100
AcDbEntity
  8
0
100
AcDbEllipse
 62
7
  6
BYLAYER
 10
26.9739841312
 20
67.236006044
 30
0.0
 11
10.9583479679
 21
11.3026503924
 31
0.0
 40
0.32049021
 41
1.5130493452
 42
1.5445144439
  0
ELLIPSE
  5
2F9
100
AcDbEntity
  8
0
100
AcDbEllipse
 62
7
  6
BYLAYER
 10
26.6609237026
 20
67.236006044
 30
0.0
 11
11.272755276
 21
11.4903624333
 31
0.0
 40
0.2517837063
 41
1.4511217496
 42
1.48541291
  0
ELLIPSE
  5
2FA
100
AcDbEntity
  8
0
100
AcDbEllipse
 62
7
  6
BYLAYER
 10
26.4116967306
 20
67.236006044
 30
0.0
 11
11.5182116851
 21
11.6397811956
 31
0.0
 40
0.1862029912
 41
1.3888451401
 42
1.4254597263
  0
ELLIPSE
  5
2FB
100
AcDbEntity
  8
0
100
AcDbEllipse
 62
7
  6
BYLAYER
 10
26.2305675577
 20
67.236006044
 30
0.0
 11
11.6942962282
 21
11.7481381864
 31
0.0
 40
0.1228992729
 41
1.3256576735
 42
1.3649764266
  0
ELLIPSE
  5
2FC
100
AcDbEntity
  8
0
100
AcDbEllipse
 62
7
  6
BYLAYER
 10
26.1206353544
 20
67.236006044
 30
0.0
 11
11.8003161272
 21
11.8137551981
 31
0.0
 40
0.0610824685
 41
1.2620631662
 42
1.3041827215
  0
ELLIPSE
  5
2FD
100
AcDbEntity
  8
0
100
AcDbEllipse
 62
7
  6
BYLAYER
 10
31.5065860978
 20
67.236006044
 30
0.0
 11
-8.0474192635
 21
10.195190748
 31
0.0
 40
0.7470541823
 41
-1.7760389382
 42
-1.7683736348
  0
ELLIPSE
  5
2FE
100
AcDbEntity
  8
0
100
AcDbEllipse
 62
7
  6
BYLAYER
 10
32.0401754345
 20
67.236006044
 30
0.0
 11
-8.919591999
 21
10.3341729894
 31
0.0
 40
0.6468548444
 41
-1.75244681
 42
-1.7373489368
  0
ELLIPSE
  5
2FF
100
AcDbEntity
  8
0
100
AcDbEllipse
 62
7
  6
BYLAYER
 10
33.468744683
 20
74.6475219183
 30
0.0
 11
11.5528949874
 21
11.5600239517
 31
0.0
 40
0.0631661312
 41
-1.82411965
 42
-1.7790165582
  0
ELLIPSE
  5
300
100
AcDbEntity
  8
0
100
AcDbEllipse
 62
7
  6
BYLAYER
 10
33.3895421527
 20
74.6475219183
 30
0.0
 11
11.4626280056
 21
11.4912004934
 31
0.0
 40
0.1269935126
 41
-1.7611565844
 42
-1.7160534926
  0
ELLIPSE
  5
301
100
AcDbEntity
  8
0
100
AcDbEllipse
 62
7
  6
BYLAYER
 10
33.2590445517
 20
74.6475219183
 30
0.0
 11
11.3126576757
 21
11.377213794
 31
0.0
 40
0.1921623568
 41
-1.6983667832
 42
-1.6532636914
  0
ELLIPSE
  5
302
100
AcDbEntity
  8
0
100
AcDbEllipse
 62
7
  6
BYLAYER
 10
32.5455577393
 20
67.236006044
 30
0.0
 11
-9.5757833526
 21
10.5743403885
 31
0.0
 40
0.5552272381
 41
-1.7091271624
 42
-1.688592157
  0
ELLIPSE
  5
303
100
AcDbEntity
  8
0
100
AcDbEllipse
 62
7
  6
BYLAYER
 10
33.0794847303
 20
74.6475219183
 30
0.0
 11
11.103573653
 21
11.2192358625
 31
0.0
 40
0.2593921815
 41
-1.6358717148
 42
-1.590768623
  0
ELLIPSE
  5
304
100
AcDbEntity
  8
0
100
AcDbEllipse
 62
7
  6
BYLAYER
 10
32.8539350067
 20
74.6475219183
 30
0.0
 11
10.8359096051
 21
11.0191384116
 31
0.0
 40
0.3294650235
 41
-1.5738481298
 42
-1.5287450379
  0
ELLIPSE
  5
305
100
AcDbEntity
  8
0
100
AcDbEllipse
 62
7
  6
BYLAYER
 10
32.5862545992
 20
74.6475219183
 30
0.0
 11
10.5096998268
 21
10.7798633581
 31
0.0
 40
0.4032531911
 41
-1.5125785545
 42
-1.4674754626
  0
ELLIPSE
  5
306
100
AcDbEntity
  8
0
100
AcDbEllipse
 62
7
  6
BYLAYER
 10
33.0140857808
 20
67.236006044
 30
0.0
 11
-10.1170563979
 21
10.8336078883
 31
0.0
 40
0.4711119558
 41
-1.6577118433
 42
-1.6329053324
  0
ELLIPSE
  5
307
100
AcDbEntity
  8
0
100
AcDbEllipse
 62
7
  6
BYLAYER
 10
32.2810235938
 20
74.6475219183
 30
0.0
 11
10.1235279518
 21
10.5062434209
 31
0.0
 40
0.4817532195
 41
-1.4525600291
 42
-1.4074569373
  0
ELLIPSE
  5
308
100
AcDbEntity
  8
0
100
AcDbEllipse
 62
7
  6
BYLAYER
 10
31.9434645776
 20
74.6475219183
 30
0.0
 11
9.672197328
 21
10.207034137
 31
0.0
 40
0.5661264515
 41
-1.3947731368
 42
-1.349670045
  0
ELLIPSE
  5
309
100
AcDbEntity
  8
0
100
AcDbEllipse
 62
7
  6
BYLAYER
 10
31.5793532791
 20
74.6475219183
 30
0.0
 11
9.1398053983
 21
9.9008743148
 31
0.0
 40
0.657738698
 41
-1.3414816556
 42
-1.2963785638
  0
ELLIPSE
  5
30A
100
AcDbEntity
  8
0
100
AcDbEllipse
 62
7
  6
BYLAYER
 10
33.4377429143
 20
67.236006044
 30
0.0
 11
-10.57430594
 21
11.0811640271
 31
0.0
 40
0.3932536107
 41
-1.6022491259
 42
-1.573888848
  0
ELLIPSE
  5
30B
100
AcDbEntity
  8
0
100
AcDbEllipse
 62
7
  6
BYLAYER
 10
31.1949197434
 20
74.6475219183
 30
0.0
 11
8.472058128
 21
9.6390686169
 31
0.0
 40
0.7581403628
 41
-1.2993786929
 42
-1.2542756011
  0
ELLIPSE
  5
30C
100
AcDbEntity
  8
0
100
AcDbEllipse
 62
7
  6
BYLAYER
 10
30.796741735
 20
74.6475219183
 30
0.0
 11
7.3844602403
 21
9.6458827394
 31
0.0
 40
0.8684143762
 41
-1.3004404315
 42
-1.2553373397
  0
ELLIPSE
  5
30D
100
AcDbEntity
  8
0
100
AcDbEllipse
 62
7
  6
BYLAYER
 10
30.3916321899
 20
74.6475219183
 30
0.0
 11
-0.0
 21
11.5830346317
 31
0.0
 40
0.963433044
 41
-1.8871631723
 42
-1.8420600805
  0
ELLIPSE
  5
30E
100
AcDbEntity
  8
0
100
AcDbEllipse
 62
7
  6
BYLAYER
 10
33.8092802487
 20
67.236006044
 30
0.0
 11
-10.9583479679
 21
11.3026503924
 31
0.0
 40
0.32049021
 41
-1.5445144439
 42
-1.5130492648
  0
ELLIPSE
  5
30F
100
AcDbEntity
  8
0
100
AcDbEllipse
 62
7
  6
BYLAYER
 10
34.1223406772
 20
67.236006044
 30
0.0
 11
-11.272755276
 21
11.4903624333
 31
0.0
 40
0.2517837063
 41
-1.48541291
 42
-1.4511216763
  0
ELLIPSE
  5
310
100
AcDbEntity
  8
0
100
AcDbEllipse
 62
7
  6
BYLAYER
 10
29.9865226448
 20
74.6475219183
 30
0.0
 11
-7.3844602403
 21
9.6458827394
 31
0.0
 40
0.8684143762
 41
1.2553373397
 42
1.3004404315
  0
ELLIPSE
  5
311
100
AcDbEntity
  8
0
100
AcDbEllipse
 62
7
  6
BYLAYER
 10
34.3715676492
 20
67.236006044
 30
0.0
 11
-11.5182116851
 21
11.6397811956
 31
0.0
 40
0.1862029912
 41
-1.4254597263
 42
-1.3888450666
  0
ELLIPSE
  5
312
100
AcDbEntity
  8
0
100
AcDbEllipse
 62
7
  6
BYLAYER
 10
29.5883446364
 20
74.6475219183
 30
0.0
 11
-8.472058128
 21
9.6390686169
 31
0.0
 40
0.7581403628
 41
1.2542756011
 42
1.2993786929
  0
ELLIPSE
  5
313
100
AcDbEntity
  8
0
100
AcDbEllipse
 62
7
  6
BYLAYER
 10
34.5526968221
 20
67.236006044
 30
0.0
 11
-11.6942962282
 21
11.7481381864
 31
0.0
 40
0.1228992729
 41
-1.3649764266
 42
-1.3256576209
  0
ELLIPSE
  5
314
100
AcDbEntity
  8
0
100
AcDbEllipse
 62
7
  6
BYLAYER
 10
29.2039111007
 20
74.6475219183
 30
0.0
 11
-9.1398053983
 21
9.9008743148
 31
0.0
 40
0.657738698
 41
1.2963785638
 42
1.3414816556
  0
ELLIPSE
  5
315
100
AcDbEntity
  8
0
100
AcDbEllipse
 62
7
  6
BYLAYER
 10
34.6626290254
 20
67.236006044
 30
0.0
 11
-11.8003161272
 21
11.8137551981
 31
0.0
 40
0.0610824685
 41
-1.3041827215
 42
-1.2620631378
  0
ELLIPSE
  5
316
100
AcDbEntity
  8
0
100
AcDbEllipse
 62
7
  6
BYLAYER
 10
28.8397998022
 20
74.6475219183
 30
0.0
 11
-9.672197328
 21
10.207034137
 31
0.0
 40
0.5661264515
 41
1.349670045
 42
1.3947731368
  0
ELLIPSE
  5
317
100
AcDbEntity
  8
0
100
AcDbEllipse
 62
7
  6
BYLAYER
 10
28.502240786
 20
74.6475219183
 30
0.0
 11
-10.1235279518
 21
10.5062434209
 31
0.0
 40
0.4817532195
 41
1.4074569373
 42
1.4525600291
  0
ELLIPSE
  5
318
100
AcDbEntity
  8
0
100
AcDbEllipse
 62
7
  6
BYLAYER
 10
28.1970097807
 20
74.6475219183
 30
0.0
 11
-10.5096998268
 21
10.7798633581
 31
0.0
 40
0.4032531911
 41
1.4674754626
 42
1.5125785545
  0
ELLIPSE
  5
319
100
AcDbEntity
  8
0
100
AcDbEllipse
 62
7
  6
BYLAYER
 10
27.9293293732
 20
74.6475219183
 30
0.0
 11
-10.8359096051
 21
11.0191384116
 31
0.0
 40
0.3294650235
 41
1.5287450379
 42
1.5738481298
  0
ELLIPSE
  5
31A
100
AcDbEntity
  8
0
100
AcDbEllipse
 62
7
  6
BYLAYER
 10
27.3145196969
 20
74.6475219183
 30
0.0
 11
-11.5528949874
 21
11.5600239517
 31
0.0
 40
0.0631661312
 41
-4.504168749
 42
-4.4590656572
  0
ELLIPSE
  5
31B
100
AcDbEntity
  8
0
100
AcDbEllipse
 62
7
  6
BYLAYER
 10
27.7037796495
 20
74.6475219183
 30
0.0
 11
-11.103573653
 21
11.2192358625
 31
0.0
 40
0.2593921815
 41
-4.6924166842
 42
-4.6473135924
  0
ELLIPSE
  5
31C
100
AcDbEntity
  8
0
100
AcDbEllipse
 62
7
  6
BYLAYER
 10
27.3937222272
 20
74.6475219183
 30
0.0
 11
-11.4626280056
 21
11.4912004934
 31
0.0
 40
0.1269935126
 41
-4.5671318146
 42
-4.5220287228
  0
ELLIPSE
  5
31D
100
AcDbEntity
  8
0
100
AcDbEllipse
 62
7
  6
BYLAYER
 10
27.5242198281
 20
74.6475219183
 30
0.0
 11
-11.3126576757
 21
11.377213794
 31
0.0
 40
0.1921623568
 41
-4.6299216158
 42
-4.584818524
  0
ELLIPSE
  5
31E
100
AcDbEntity
  8
0
100
AcDbEllipse
 62
7
  6
BYLAYER
 10
28.8397998022
 20
74.6475219183
 30
0.0
 11
-9.672197328
 21
10.207034137
 31
0.0
 40
0.5661264515
 41
-2.3795532079
 42
-2.3344501161
  0
ELLIPSE
  5
31F
100
AcDbEntity
  8
0
100
AcDbEllipse
 62
7
  6
BYLAYER
 10
28.502240786
 20
74.6475219183
 30
0.0
 11
-10.1235279518
 21
10.5062434209
 31
0.0
 40
0.4817532195
 41
-2.3217663156
 42
-2.2766632237
  0
ELLIPSE
  5
320
100
AcDbEntity
  8
0
100
AcDbEllipse
 62
7
  6
BYLAYER
 10
28.1970097807
 20
74.6475219183
 30
0.0
 11
-10.5096998268
 21
10.7798633581
 31
0.0
 40
0.4032531911
 41
-2.2617477902
 42
-2.2166446984
  0
ELLIPSE
  5
321
100
AcDbEntity
  8
0
100
AcDbEllipse
 62
7
  6
BYLAYER
 10
27.9293293732
 20
74.6475219183
 30
0.0
 11
-10.8359096051
 21
11.0191384116
 31
0.0
 40
0.3294650235
 41
-2.2004782149
 42
-2.1553751231
  0
ELLIPSE
  5
322
100
AcDbEntity
  8
0
100
AcDbEllipse
 62
7
  6
BYLAYER
 10
27.7037796495
 20
74.6475219183
 30
0.0
 11
-11.103573653
 21
11.2192358625
 31
0.0
 40
0.2593921815
 41
-2.1384546298
 42
-2.093351538
  0
ELLIPSE
  5
323
100
AcDbEntity
  8
0
100
AcDbEllipse
 62
7
  6
BYLAYER
 10
27.5242198281
 20
74.6475219183
 30
0.0
 11
-11.3126576757
 21
11.377213794
 31
0.0
 40
0.1921623568
 41
-2.0759595615
 42
-2.0308564696
  0
ELLIPSE
  5
324
100
AcDbEntity
  8
0
100
AcDbEllipse
 62
7
  6
BYLAYER
 10
27.3937222272
 20
74.6475219183
 30
0.0
 11
-11.4626280056
 21
11.4912004934
 31
0.0
 40
0.1269935126
 41
-2.0131697603
 42
-1.9680666685
  0
ELLIPSE
  5
325
100
AcDbEntity
  8
0
100
AcDbEllipse
 62
7
  6
BYLAYER
 10
30.796741735
 20
74.6475219183
 30
0.0
 11
7.3844602403
 21
9.6458827394
 31
0.0
 40
0.8684143762
 41
-3.8544024858
 42
-3.809299394
  0
ELLIPSE
  5
326
100
AcDbEntity
  8
0
100
AcDbEllipse
 62
7
  6
BYLAYER
 10
31.1949197434
 20
74.6475219183
 30
0.0
 11
8.472058128
 21
9.6390686169
 31
0.0
 40
0.7581403628
 41
-3.8533407472
 42
-3.8082376554
  0
ELLIPSE
  5
327
100
AcDbEntity
  8
0
100
AcDbEllipse
 62
7
  6
BYLAYER
 10
31.5793532791
 20
74.6475219183
 30
0.0
 11
9.1398053983
 21
9.9008743148
 31
0.0
 40
0.657738698
 41
-3.8954437099
 42
-3.8503406181
  0
ELLIPSE
  5
328
100
AcDbEntity
  8
0
100
AcDbEllipse
 62
7
  6
BYLAYER
 10
31.9434645776
 20
74.6475219183
 30
0.0
 11
9.672197328
 21
10.207034137
 31
0.0
 40
0.5661264515
 41
-3.9487351911
 42
-3.9036320993
  0
ELLIPSE
  5
329
100
AcDbEntity
  8
0
100
AcDbEllipse
 62
7
  6
BYLAYER
 10
32.2810235938
 20
74.6475219183
 30
0.0
 11
10.1235279518
 21
10.5062434209
 31
0.0
 40
0.4817532195
 41
-4.0065220834
 42
-3.9614189916
  0
ELLIPSE
  5
32A
100
AcDbEntity
  8
0
100
AcDbEllipse
 62
7
  6
BYLAYER
 10
27.3145196969
 20
74.6475219183
 30
0.0
 11
-11.5528949874
 21
11.5600239517
 31
0.0
 40
0.0631661312
 41
-1.9502066947
 42
-1.9051036029
  0
ELLIPSE
  5
32B
100
AcDbEntity
  8
0
100
AcDbEllipse
 62
7
  6
BYLAYER
 10
32.5862545992
 20
74.6475219183
 30
0.0
 11
10.5096998268
 21
10.7798633581
 31
0.0
 40
0.4032531911
 41
-4.0665406088
 42
-4.021437517
  0
ELLIPSE
  5
32C
100
AcDbEntity
  8
0
100
AcDbEllipse
 62
7
  6
BYLAYER
 10
32.8539350067
 20
74.6475219183
 30
0.0
 11
10.8359096051
 21
11.0191384116
 31
0.0
 40
0.3294650235
 41
-4.1278101841
 42
-4.0827070923
  0
ELLIPSE
  5
32D
100
AcDbEntity
  8
0
100
AcDbEllipse
 62
7
  6
BYLAYER
 10
29.9865226448
 20
74.6475219183
 30
0.0
 11
-7.3844602403
 21
9.6458827394
 31
0.0
 40
0.8684143762
 41
-2.4738859132
 42
-2.4287828214
  0
ELLIPSE
  5
32E
100
AcDbEntity
  8
0
100
AcDbEllipse
 62
7
  6
BYLAYER
 10
33.0794847303
 20
74.6475219183
 30
0.0
 11
11.103573653
 21
11.2192358625
 31
0.0
 40
0.2593921815
 41
-4.1898337691
 42
-4.1447306773
  0
ELLIPSE
  5
32F
100
AcDbEntity
  8
0
100
AcDbEllipse
 62
7
  6
BYLAYER
 10
33.2590445517
 20
74.6475219183
 30
0.0
 11
11.3126576757
 21
11.377213794
 31
0.0
 40
0.1921623568
 41
-4.2523288375
 42
-4.2072257457
  0
ELLIPSE
  5
330
100
AcDbEntity
  8
0
100
AcDbEllipse
 62
7
  6
BYLAYER
 10
33.3895421527
 20
74.6475219183
 30
0.0
 11
11.4626280056
 21
11.4912004934
 31
0.0
 40
0.1269935126
 41
-4.3151186387
 42
-4.2700155469
  0
ELLIPSE
  5
331
100
AcDbEntity
  8
0
100
AcDbEllipse
 62
7
  6
BYLAYER
 10
29.5883446364
 20
74.6475219183
 30
0.0
 11
-8.472058128
 21
9.6390686169
 31
0.0
 40
0.7581403628
 41
-2.4749476518
 42
-2.42984456
  0
ELLIPSE
  5
332
100
AcDbEntity
  8
0
100
AcDbEllipse
 62
7
  6
BYLAYER
 10
33.468744683
 20
74.6475219183
 30
0.0
 11
11.5528949874
 21
11.5600239517
 31
0.0
 40
0.0631661312
 41
-4.3780817043
 42
-4.3329786125
  0
ELLIPSE
  5
333
100
AcDbEntity
  8
0
100
AcDbEllipse
 62
7
  6
BYLAYER
 10
29.2039111007
 20
74.6475219183
 30
0.0
 11
-9.1398053983
 21
9.9008743148
 31
0.0
 40
0.657738698
 41
-2.432844689
 42
-2.3877415972
  0
ENDSEC
  0
SECTION
  2
OBJECTS
  0
DICTIONARY
  5
C
100
AcDbDictionary
280
0
281
1
  3
ACAD_GROUP
350
D
  3
ACAD_MLINESTYLE
350
17
  3
ACAD_LAYOUT
350
1A
  3
ACAD_PLOTSETTINGS
350
19
  3
ACAD_PLOTSTYLENAME
350
E
  0
DICTIONARY
  5
D
102
{ACAD_REACTORS
330
C
102
}
100
AcDbDictionary
280
0
281
1
  0
ACDBDICTIONARYWDFLT
  5
E
102
{ACAD_REACTORS
330
C
102
}
100
AcDbDictionary
281
1
  3
Normal
350
F
100
AcDbDictionaryWithDefault
340
F
  0
DICTIONARY
  5
17
102
{ACAD_REACTORS
330
C
102
}
100
AcDbDictionary
280
0
281
1
  3
Standard
350
18
  0
DICTIONARY
  5
19
102
{ACAD_REACTORS
330
C
102
}
100
AcDbDictionary
281
1
  0
DICTIONARY
  5
1A
102
{ACAD_REACTORS
330
C
102
}
100
AcDbDictionary
281
1
  3
Model
350
334
  3
Layout1
350
335
  0
ACDBPLACEHOLDER
  5
F
102
{ACAD_REACTORS
330
E
102
}
  0
MLINESTYLE
  5
18
102
{ACAD_REACTORS
330
17
102
}
100
AcDbMlineStyle
  2
STANDARD
 70
0
  3

 62
256
 51
90.0
 52
90.0
 71
2
 49
0.5
 62
256
  6
BYLAYER
 49
-0.5
 62
256
  6
BYLAYER
  0
LAYOUT
  5
334
102
{ACAD_REACTORS
330
1A
102
}
100
AcDbPlotSettings
  1

  2
none_device
  4

  6

 40
0.0
 41
0.0
 42
0.0
 43
0.0
 44
210.0
 45
297.0
 46
0.0
 47
0.0
 48
0.0
 49
0.0
140
0.0
141
0.0
142
1.0
143
1.0
 70
1024
 72
1
 73
0
 74
0
  7

 75
0
147
1.0
148
0.0
149
0.0
100
AcDbLayout
  1
Model
 70
0
 71
0
 10
0.0
 20
0.0
 11
210.0
 21
297.0
 12
0.0
 22
0.0
 32
0.0
 14
0.0
 24
0.0
 34
0.0
 15
0.0
 25
0.0
 35
0.0
146
0.0
 13
0.0
 23
0.0
 33
0.0
 16
1.0
 26
0.0
 36
0.0
 17
0.0
 27
1.0
 37
0.0
 76
0
330
210
345
0
346
0
  0
LAYOUT
  5
335
102
{ACAD_REACTORS
330
1A
102
}
100
AcDbPlotSettings
  1

  2
none_device
  4

  6

 40
0.0
 41
0.0
 42
0.0
 43
0.0
 44
210.0
 45
297.0
 46
0.0
 47
0.0
 48
0.0
 49
0.0
140
0.0
141
0.0
142
1.0
143
1.0
 70
0
 72
1
 73
0
 74
0
  7

 75
0
147
1.0
148
0.0
149
0.0
100
AcDbLayout
  1
Layout1
 70
0
 71
1
 10
0.0
 20
0.0
 11
210.0
 21
297.0
 12
0.0
 22
0.0
 32
0.0
 14
0.0
 24
0.0
 34
0.0
 15
0.0
 25
0.0
 35
0.0
146
0.0
 13
0.0
 23
0.0
 33
0.0
 16
1.0
 26
0.0
 36
0.0
 17
0.0
 27
1.0
 37
0.0
 76
0
330
211
345
0
346
0
  0
ENDSEC
  0
EOF
