999
DXF file: C:\Users\sesa63760\Dev\_Creo\CAD\MCADID0005790_3D-CAD\mcadid0005790_3d-simplified_1.dxf
999
Pro/ENGINEER 2019471 by Parametric Technology Corporation
  0
SECTION
  2
HEADER
  9
$ACADVER
  1
AC1024
  9
$DWGCODEPAGE
  3
ANSI_1252
  9
$EXTMAX
 10
76.4438237838
 20
108.1134079228
 30
0.0
  9
$EXTMIN
 10
0.0
 20
0.0
 30
0.0
  9
$LIMMIN
 10
0.0
 20
0.0
  9
$LIMMAX
 10
76.4438237838
 20
108.1134079228
  9
$VIEWCTR
 10
38.2219118919
 20
54.0567039614
  9
$VIEWSIZE
 40
108.1134079228
  9
$CLAYER
  8
0
  9
$LTSCALE
 40
7.0473925164
  9
$CELTYPE
  6
BYLAYER
  9
$DIMSCALE
 40
1.0
  9
$DIMASZ
 40
0.9100455212
  9
$DIMEXO
 40
1.0
  9
$DIMDLI
 40
4.8691075568
  9
$DIMEXE
 40
1.0
  9
$DIMCEN
 40
1.1532096845
  9
$DIMLFAC
 40
1.0
  9
$DIMBLK
  1
_FILLED
  9
$DIMALT
 70
0
  9
$DIMALTF
 40
0.0393700787
  9
$DIMTXT
 40
1.2740637297
  9
$DIMTOL
 70
1
  9
$DIMLIM
 70
0
  9
$DIMTFAC
 40
1.0
  9
$DIMTP
 40
0.01
  9
$DIMTM
 40
0.01
  9
$DIMGAP
 40
0.625
  9
$DIMDSEP
 70
46
  9
$AUNITS
 70
0
  9
$PDMODE
 70
3
  9
$PDSIZE
 40
0.3125
  9
$HANDSEED
  5
2FF
  9
$TILEMODE
 70
1
  9
$MEASUREMENT
 70
1
  9
$INSUNITS
 70
4
  0
ENDSEC
  0
SECTION
  2
CLASSES
  0
CLASS
  1
ACDBDICTIONARYWDFLT
  2
AcDbDictionaryWithDefault
  3
AutoCAD 2000
 90
0
 91
1
280
0
281
0
  0
CLASS
  1
ACDBPLACEHOLDER
  2
AcDbPlaceHolder
  3
AutoCAD 2000
 90
0
 91
1
280
0
281
0
  0
CLASS
  1
LAYOUT
  2
AcDbLayout
  3
AutoCAD 2000
 90
0
 91
0
280
0
281
0
  0
ENDSEC
  0
SECTION
  2
TABLES
  0
TABLE
  2
VPORT
  5
8
100
AcDbSymbolTable
 70
2
  0
VPORT
  5
1F4
100
AcDbSymbolTableRecord
100
AcDbViewportTableRecord
  2
*ACTIVE
 70
0
 10
0.0
 20
0.0
 11
1.0
 21
1.0
 12
38.2219118919
 22
54.0567039614
 13
0.0
 23
0.0
 14
1.0
 24
1.0
 15
0.0
 25
0.0
 16
0.0
 26
0.0
 36
1.0
 17
0.0
 27
0.0
 37
0.0
 40
108.1134079228
 41
0.7070707071
 42
50.0
 43
0.0
 44
0.0
 50
0.0
 51
0.0
 71
0
 72
100
 73
1
 74
1
 75
0
 76
0
 77
0
 78
0
  0
ENDTAB
  0
TABLE
  2
LTYPE
  5
5
100
AcDbSymbolTable
 70
6
  0
LTYPE
  5
14
100
AcDbSymbolTableRecord
100
AcDbLinetypeTableRecord
  2
BYBLOCK
 70
0
  3

 72
65
 73
0
 40
0.0
  0
LTYPE
  5
15
100
AcDbSymbolTableRecord
100
AcDbLinetypeTableRecord
  2
BYLAYER
 70
0
  3

 72
65
 73
0
 40
0.0
  0
LTYPE
  5
16
100
AcDbSymbolTableRecord
100
AcDbLinetypeTableRecord
  2
CONTINUOUS
 70
64
  3
Solid line
 72
65
 73
0
 40
0.0
  0
LTYPE
  5
1F5
100
AcDbSymbolTableRecord
100
AcDbLinetypeTableRecord
  2
CENTER
 70
64
  3
____ _ ____ _ ____ _ ____ _ ____ _ ____ _ ____
 72
65
 73
4
 40
0.6
 49
0.375
 74
0
 49
-0.075
 74
0
 49
0.075
 74
0
 49
-0.075
 74
0
  0
LTYPE
  5
1F6
100
AcDbSymbolTableRecord
100
AcDbLinetypeTableRecord
  2
HIDDEN
 70
64
  3
- - - - - - - - - - - - - - - - - - - -
 72
65
 73
2
 40
0.2
 49
0.1
 74
0
 49
-0.1
 74
0
  0
LTYPE
  5
1F7
100
AcDbSymbolTableRecord
100
AcDbLinetypeTableRecord
  2
PHANTOM
 70
64
  3
_____ _ _ _____ _ _ _____ _ _ _____
 72
65
 73
6
 40
0.8
 49
0.45
 74
0
 49
-0.05
 74
0
 49
0.1
 74
0
 49
-0.05
 74
0
 49
0.1
 74
0
 49
-0.05
 74
0
  0
LTYPE
  5
1F8
100
AcDbSymbolTableRecord
100
AcDbLinetypeTableRecord
  2
DOT
 70
64
  3
. . . . . . . . . . . . . . . . . . . .
 72
65
 73
2
 40
0.2
 49
0.1
 74
0
 49
-0.1
 74
0
  0
LTYPE
  5
1F9
100
AcDbSymbolTableRecord
100
AcDbLinetypeTableRecord
  2
DASHED
 70
64
  3
- - - - - - - - - - - - - - - - - - - -
 72
65
 73
2
 40
0.2
 49
0.1
 74
0
 49
-0.1
 74
0
  0
ENDTAB
  0
TABLE
  2
LAYER
  5
2
100
AcDbSymbolTable
 70
36
  0
LAYER
  5
10
100
AcDbSymbolTableRecord
100
AcDbLayerTableRecord
  2
0
 70
0
 62
7
  6
CONTINUOUS
370
-3
390
F
  0
LAYER
  5
1FA
100
AcDbSymbolTableRecord
100
AcDbLayerTableRecord
  2
DEFAULT_1
 70
0
 62
7
  6
CENTER
370
-3
390
F
  0
LAYER
  5
1FB
100
AcDbSymbolTableRecord
100
AcDbLayerTableRecord
  2
DEFAULT_2
 70
0
 62
7
  6
HIDDEN
370
-3
390
F
  0
LAYER
  5
1FC
100
AcDbSymbolTableRecord
100
AcDbLayerTableRecord
  2
DEFAULT_3
 70
0
 62
7
  6
PHANTOM
370
-3
390
F
  0
LAYER
  5
1FD
100
AcDbSymbolTableRecord
100
AcDbLayerTableRecord
  2
00_COMPONENTS
 70
0
 62
7
  6
CONTINUOUS
370
-3
390
F
  0
LAYER
  5
1FE
100
AcDbSymbolTableRecord
100
AcDbLayerTableRecord
  2
01_1_DEFAULT_DATUMS
 70
0
 62
7
  6
CONTINUOUS
370
-3
390
F
  0
LAYER
  5
1FF
100
AcDbSymbolTableRecord
100
AcDbLayerTableRecord
  2
01_PLANES
 70
0
 62
7
  6
CONTINUOUS
370
-3
390
F
  0
LAYER
  5
200
100
AcDbSymbolTableRecord
100
AcDbLayerTableRecord
  2
02_COORD_SYS
 70
0
 62
7
  6
CONTINUOUS
370
-3
390
F
  0
LAYER
  5
201
100
AcDbSymbolTableRecord
100
AcDbLayerTableRecord
  2
03_AXES
 70
0
 62
7
  6
CONTINUOUS
370
-3
390
F
  0
LAYER
  5
202
100
AcDbSymbolTableRecord
100
AcDbLayerTableRecord
  2
04_POINTS
 70
0
 62
7
  6
CONTINUOUS
370
-3
390
F
  0
LAYER
  5
203
100
AcDbSymbolTableRecord
100
AcDbLayerTableRecord
  2
05_CURVES
 70
0
 62
7
  6
CONTINUOUS
370
-3
390
F
  0
LAYER
  5
204
100
AcDbSymbolTableRecord
100
AcDbLayerTableRecord
  2
06_SURFS
 70
0
 62
7
  6
CONTINUOUS
370
-3
390
F
  0
LAYER
  5
205
100
AcDbSymbolTableRecord
100
AcDbLayerTableRecord
  2
07_COSMETICS
 70
0
 62
7
  6
CONTINUOUS
370
-3
390
F
  0
LAYER
  5
206
100
AcDbSymbolTableRecord
100
AcDbLayerTableRecord
  2
1
 70
0
 62
7
  6
CONTINUOUS
370
-3
390
F
  0
LAYER
  5
207
100
AcDbSymbolTableRecord
100
AcDbLayerTableRecord
  2
10_NOTES
 70
0
 62
7
  6
CONTINUOUS
370
-3
390
F
  0
LAYER
  5
208
100
AcDbSymbolTableRecord
100
AcDbLayerTableRecord
  2
11_NOTES_PUB
 70
0
 62
7
  6
CONTINUOUS
370
-3
390
F
  0
LAYER
  5
209
100
AcDbSymbolTableRecord
100
AcDbLayerTableRecord
  2
13_REF_GTOL
 70
0
 62
7
  6
CONTINUOUS
370
-3
390
F
  0
LAYER
  5
20A
100
AcDbSymbolTableRecord
100
AcDbLayerTableRecord
  2
16_MISC
 70
0
 62
7
  6
CONTINUOUS
370
-3
390
F
  0
LAYER
  5
20B
100
AcDbSymbolTableRecord
100
AcDbLayerTableRecord
  2
17_NO_PRINT
 70
0
 62
7
  6
CONTINUOUS
370
-3
390
F
  0
LAYER
  5
20C
100
AcDbSymbolTableRecord
100
AcDbLayerTableRecord
  2
18_DATUM_CAMS_JOINTS
 70
0
 62
7
  6
CONTINUOUS
370
-3
390
F
  0
LAYER
  5
20D
100
AcDbSymbolTableRecord
100
AcDbLayerTableRecord
  2
19_DATUM_FUNCTIONAL
 70
0
 62
7
  6
CONTINUOUS
370
-3
390
F
  0
LAYER
  5
20E
100
AcDbSymbolTableRecord
100
AcDbLayerTableRecord
  2
20_DATUM_KINEMATIC_SCHEME
 70
0
 62
7
  6
CONTINUOUS
370
-3
390
F
  0
ENDTAB
  0
TABLE
  2
STYLE
  5
3
100
AcDbSymbolTable
 70
1
  0
STYLE
  5
11
100
AcDbSymbolTableRecord
100
AcDbTextStyleTableRecord
  2
STANDARD
 70
0
 40
0.0
 41
1.0
 50
0.0
 71
0
 42
0.2
  3
ARIAL.TTF
  4

  0
STYLE
  5
20F
100
AcDbSymbolTableRecord
100
AcDbTextStyleTableRecord
  2
TEXTSTYLE_1
 70
0
 40
0.0
 41
0.8
 50
0.0
 71
0
 42
0.2
  3
gdt
  4

  0
ENDTAB
  0
TABLE
  2
VIEW
  5
6
100
AcDbSymbolTable
 70
0
  0
ENDTAB
  0
TABLE
  2
UCS
  5
7
100
AcDbSymbolTable
 70
0
  0
ENDTAB
  0
TABLE
  2
APPID
  5
9
100
AcDbSymbolTable
 70
1
  0
APPID
  5
210
100
AcDbSymbolTableRecord
100
AcDbRegAppTableRecord
  2
ACAD
 70
0
  0
ENDTAB
  0
TABLE
  2
BLOCK_RECORD
  5
1
100
AcDbSymbolTable
 70
0
  0
BLOCK_RECORD
  5
211
100
AcDbSymbolTableRecord
100
AcDbBlockTableRecord
  2
*Model_Space
  0
BLOCK_RECORD
  5
212
100
AcDbSymbolTableRecord
100
AcDbBlockTableRecord
  2
*Paper_Space
  0
BLOCK_RECORD
  5
213
100
AcDbSymbolTableRecord
100
AcDbBlockTableRecord
  2
_FILLED
  0
ENDTAB
  0
TABLE
  2
DIMSTYLE
  5
A
100
AcDbSymbolTable
 70
1
100
AcDbDimStyleTable
 71
0
  0
DIMSTYLE
105
214
100
AcDbSymbolTableRecord
100
AcDbDimStyleTableRecord
  2
STANDARD
 70
0
  3

  4

 40
1.0
 41
0.9100455212
 42
1.0
 43
0.38
 44
1.0
 45
0.0
 46
0.0
 47
0.01
 48
0.01
140
1.2740637297
141
0.09
142
0.0
143
25.4
144
1.0
145
0.0
146
1.0
147
0.625
 71
1
 72
0
 73
0
 74
0
 75
0
 76
0
 77
1
 78
8
 79
2
170
0
171
1
172
0
173
0
174
0
175
0
176
0
177
0
178
0
270
2
179
2
271
2
272
2
273
2
274
2
275
0
280
0
281
0
282
0
283
1
284
8
285
0
286
0
287
3
288
0
340
11
278
46
341
213
342
213
343
213
344
213
  0
ENDTAB
  0
ENDSEC
  0
SECTION
  2
BLOCKS
  0
BLOCK
  5
20
100
AcDbEntity
  8
0
100
AcDbBlockBegin
  2
*Model_Space
 70
0
 10
0.0
 20
0.0
 30
0.0
  3
*Model_Space
  1

  0
ENDBLK
  5
21
100
AcDbEntity
  8
0
100
AcDbBlockEnd
  0
BLOCK
  5
1C
100
AcDbEntity
  8
0
100
AcDbBlockBegin
  2
*Paper_Space
 70
0
 10
0.0
 20
0.0
 30
0.0
  3
*Paper_Space
  1

  0
ENDBLK
  5
1D
100
AcDbEntity
  8
0
100
AcDbBlockEnd
  0
BLOCK
  5
215
100
AcDbEntity
  8
0
100
AcDbBlockBegin
  2
_FILLED
 70
64
 10
0.0
 20
0.0
  3
_FILLED
  1

  0
SOLID
  5
216
100
AcDbEntity
  8
0
  6
BYBLOCK
 62
0
100
AcDbTrace
 10
0.0
 20
0.0
 11
-1.0
 21
0.25
 12
-1.0
 22
-0.25
 13
-1.0
 23
-0.25
  0
ENDBLK
  5
217
100
AcDbEntity
  8
0
  6
BYBLOCK
 62
0
100
AcDbBlockEnd
  0
ENDSEC
  0
SECTION
  2
ENTITIES
  0
LINE
  5
218
100
AcDbEntity
  8
1
100
AcDbLine
 62
7
  6
BYLAYER
 10
22.1008394242
 20
72.869357799
 11
23.8685990172
 21
73.8899681837
  0
LINE
  5
219
100
AcDbEntity
  8
1
100
AcDbLine
 62
7
  6
BYLAYER
 10
30.7509951371
 20
30.7373332143
 11
34.5565772326
 21
28.5402290721
  0
LINE
  5
21A
100
AcDbEntity
  8
1
100
AcDbLine
 62
7
  6
BYLAYER
 10
11.426698112
 20
50.2770692417
 11
10.5031183345
 21
48.6022564274
  0
LINE
  5
21B
100
AcDbEntity
  8
1
100
AcDbLine
 62
7
  6
BYLAYER
 10
23.868613737
 20
71.8487559127
 11
25.6363733301
 21
72.8693662974
  0
LINE
  5
21C
100
AcDbEntity
  8
1
100
AcDbLine
 62
7
  6
BYLAYER
 10
35.1222650127
 20
29.6704486759
 11
32.0126495537
 21
31.4657453833
  0
LINE
  5
21D
100
AcDbEntity
  8
1
100
AcDbLine
 62
7
  6
BYLAYER
 10
30.2431384316
 20
72.5773719601
 11
27.4257234109
 21
70.9507463491
  0
LINE
  5
21E
100
AcDbEntity
  8
1
100
AcDbLine
 62
7
  6
BYLAYER
 10
44.8828641875
 20
80.5192588662
 11
40.7351301314
 21
78.1245777867
  0
LINE
  5
21F
100
AcDbEntity
  8
1
100
AcDbLine
 62
7
  6
BYLAYER
 10
41.4422398565
 20
77.7163370322
 11
32.8771068492
 21
72.7712847027
  0
LINE
  5
220
100
AcDbEntity
  8
1
100
AcDbLine
 62
7
  6
BYLAYER
 10
45.8123948668
 20
79.8451025634
 11
42.3431097686
 21
77.8614869208
  0
LINE
  5
221
100
AcDbEntity
  8
1
100
AcDbLine
 62
7
  6
BYLAYER
 10
22.1008394242
 20
72.869357799
 11
22.1008394242
 21
57.9492534243
  0
LINE
  5
222
100
AcDbEntity
  8
1
100
AcDbLine
 62
7
  6
BYLAYER
 10
38.5922645791
 20
76.0709128605
 11
40.7351301314
 21
78.1245777867
  0
LINE
  5
223
100
AcDbEntity
  8
1
100
AcDbLine
 62
7
  6
BYLAYER
 10
15.0219823234
 20
54.5650085954
 11
15.0150750982
 21
54.5591108219
  0
LINE
  5
224
100
AcDbEntity
  8
1
100
AcDbLine
 62
7
  6
BYLAYER
 10
54.7621393002
 20
39.1232587038
 11
61.700933482
 21
39.892162067
  0
LINE
  5
225
100
AcDbEntity
  8
1
100
AcDbLine
 62
7
  6
BYLAYER
 10
37.2435941882
 20
34.814445266
 11
40.1533507072
 21
33.1345345611
  0
LINE
  5
226
100
AcDbEntity
  8
1
100
AcDbLine
 62
7
  6
BYLAYER
 10
40.7190384873
 20
34.8491980003
 11
38.1628368309
 21
36.3249883279
  0
LWPOLYLINE
  5
227
100
AcDbEntity
  8
1
100
AcDbPolyline
 62
7
  6
BYLAYER
 90
5
 70
0
 10
22.2612415029
 20
47.6361576656
 10
19.419317101
 20
50.0980081594
 10
18.0939555479
 20
50.8638539971
 10
15.5170777477
 20
51.6744170884
 10
13.2274960879
 20
51.4732055429
  0
LINE
  5
228
100
AcDbEntity
  8
1
100
AcDbLine
 62
7
  6
BYLAYER
 10
23.868613737
 20
57.9567869377
 11
23.868613737
 21
71.8487559127
  0
LINE
  5
229
100
AcDbEntity
  8
1
100
AcDbLine
 62
7
  6
BYLAYER
 10
24.1090276697
 20
61.1886844127
 11
24.1090276697
 21
57.9487462208
  0
LINE
  5
22A
100
AcDbEntity
  8
1
100
AcDbLine
 62
7
  6
BYLAYER
 10
30.702793903
 20
67.576403001
 11
26.3187501122
 21
65.045289247
  0
LINE
  5
22B
100
AcDbEntity
  8
1
100
AcDbLine
 62
7
  6
BYLAYER
 10
46.9576957127
 20
74.5320591469
 11
38.3925627053
 21
69.5870068175
  0
LINE
  5
22C
100
AcDbEntity
  8
1
100
AcDbLine
 62
7
  6
BYLAYER
 10
26.3187501122
 20
62.4644994806
 11
24.1090276697
 21
61.1886844127
  0
LINE
  5
22D
100
AcDbEntity
  8
1
100
AcDbLine
 62
7
  6
BYLAYER
 10
50.3070515852
 20
77.2946866756
 11
46.7844825365
 21
75.2806051373
  0
LINE
  5
22E
100
AcDbEntity
  8
1
100
AcDbLine
 62
7
  6
BYLAYER
 10
45.3045891195
 20
34.0795459337
 11
44.6603492876
 21
34.4514895595
  0
LINE
  5
22F
100
AcDbEntity
  8
1
100
AcDbLine
 62
7
  6
BYLAYER
 10
38.3661773486
 20
38.0855520221
 11
40.5493333308
 21
36.8251348426
  0
LINE
  5
230
100
AcDbEntity
  8
1
100
AcDbLine
 62
7
  6
BYLAYER
 10
49.7593803879
 20
32.7323828059
 11
45.7210322042
 21
35.0638714715
  0
LINE
  5
231
100
AcDbEntity
  8
1
100
AcDbLine
 62
7
  6
BYLAYER
 10
26.3187501122
 20
65.045289247
 11
26.3187501122
 21
62.4644994806
  0
LINE
  5
232
100
AcDbEntity
  8
1
100
AcDbLine
 62
7
  6
BYLAYER
 10
28.1112367603
 20
66.0801757183
 11
28.1112367603
 21
70.2157087503
  0
LINE
  5
233
100
AcDbEntity
  8
1
100
AcDbLine
 62
7
  6
BYLAYER
 10
13.2274960879
 20
51.4732055429
 11
11.426698112
 21
50.2770692417
  0
LINE
  5
234
100
AcDbEntity
  8
1
100
AcDbLine
 62
7
  6
BYLAYER
 10
51.8125394939
 20
76.5184994719
 11
47.6648054378
 21
74.1238183924
  0
LINE
  5
235
100
AcDbEntity
  8
1
100
AcDbLine
 62
7
  6
BYLAYER
 10
51.9009282096
 20
76.4674693776
 11
47.7531941535
 21
74.0727882981
  0
LINE
  5
236
100
AcDbEntity
  8
1
100
AcDbLine
 62
7
  6
BYLAYER
 10
15.0141983161
 20
54.5606272708
 11
19.9716462784
 21
57.4228266321
  0
LINE
  5
237
100
AcDbEntity
  8
1
100
AcDbLine
 62
7
  6
BYLAYER
 10
11.8093529489
 20
52.6526175699
 11
15.0469193061
 21
54.5218162201
  0
LINE
  5
238
100
AcDbEntity
  8
1
100
AcDbLine
 62
7
  6
BYLAYER
 10
48.4603038786
 20
73.6645475436
 11
39.8951708712
 21
68.7194952141
  0
LINE
  5
239
100
AcDbEntity
  8
1
100
AcDbLine
 62
7
  6
BYLAYER
 10
52.8304588888
 20
75.7933130748
 11
49.3611737907
 21
73.8096974322
  0
LINE
  5
23A
100
AcDbEntity
  8
1
100
AcDbLine
 62
7
  6
BYLAYER
 10
47.2845169577
 20
35.2227398695
 11
46.5261799254
 21
35.6605560546
  0
LINE
  5
23B
100
AcDbEntity
  8
1
100
AcDbLine
 62
7
  6
BYLAYER
 10
49.7593803879
 20
35.3601867399
 11
48.640972552
 21
36.0058851973
  0
LINE
  5
23C
100
AcDbEntity
  8
1
100
AcDbLine
 62
7
  6
BYLAYER
 10
45.8123948668
 20
79.8451025634
 11
43.8765264099
 21
76.970418487
  0
LINE
  5
23D
100
AcDbEntity
  8
1
100
AcDbLine
 62
7
  6
BYLAYER
 10
39.4011779433
 20
67.290094997
 11
39.8951708712
 21
67.7635245824
  0
LINE
  5
23E
100
AcDbEntity
  8
1
100
AcDbLine
 62
7
  6
BYLAYER
 10
42.4041064141
 20
70.1680211787
 11
46.9576957127
 21
74.5320591469
  0
LINE
  5
23F
100
AcDbEntity
  8
1
100
AcDbLine
 62
7
  6
BYLAYER
 10
47.6648054378
 20
74.1238183924
 11
45.2540816915
 21
71.8134453504
  0
LINE
  5
240
100
AcDbEntity
  8
1
100
AcDbLine
 62
7
  6
BYLAYER
 10
45.6103286012
 20
72.0191233719
 11
47.7531941535
 21
74.0727882981
  0
LINE
  5
241
100
AcDbEntity
  8
1
100
AcDbLine
 62
7
  6
BYLAYER
 10
26.9814586466
 20
57.1397989749
 11
28.5140469659
 21
58.0246339719
  0
LINE
  5
242
100
AcDbEntity
  8
1
100
AcDbLine
 62
7
  6
BYLAYER
 10
48.6987246321
 20
36.0392281773
 11
49.7593803879
 21
35.3601867399
  0
LINE
  5
243
100
AcDbEntity
  8
1
100
AcDbLine
 62
7
  6
BYLAYER
 10
32.8771068492
 20
72.7712847027
 11
32.8771068492
 21
71.0566839877
  0
LINE
  5
244
100
AcDbEntity
  8
1
100
AcDbLine
 62
7
  6
BYLAYER
 10
53.9757597348
 20
70.4802696583
 11
45.4106267274
 21
65.5352173289
  0
LINE
  5
245
100
AcDbEntity
  8
1
100
AcDbLine
 62
7
  6
BYLAYER
 10
58.830603516
 20
72.4667099833
 11
54.6828694599
 21
70.0720289038
  0
LINE
  5
246
100
AcDbEntity
  8
1
100
AcDbLine
 62
7
  6
BYLAYER
 10
58.9189922317
 20
72.415679889
 11
54.7712581755
 21
70.0209988095
  0
LINE
  5
247
100
AcDbEntity
  8
1
100
AcDbLine
 62
7
  6
BYLAYER
 10
41.0725933499
 20
61.9162583552
 11
42.8403529429
 21
62.9368687399
  0
LINE
  5
248
100
AcDbEntity
  8
1
100
AcDbLine
 62
7
  6
BYLAYER
 10
55.4783679007
 20
69.612758055
 11
46.9132348933
 21
64.6677057255
  0
LINE
  5
249
100
AcDbEntity
  8
1
100
AcDbLine
 62
7
  6
BYLAYER
 10
57.3251156072
 20
73.242897187
 11
53.8025465585
 21
71.2288156487
  0
LINE
  5
24A
100
AcDbEntity
  8
1
100
AcDbLine
 62
7
  6
BYLAYER
 10
54.2141345624
 20
42.6528427294
 11
51.0321672949
 21
43.6326773761
  0
LINE
  5
24B
100
AcDbEntity
  8
1
100
AcDbLine
 62
7
  6
BYLAYER
 10
51.4352110063
 20
43.6857297289
 11
53.556522518
 21
43.0325066311
  0
LINE
  5
24C
100
AcDbEntity
  8
1
100
AcDbLine
 62
7
  6
BYLAYER
 10
52.0751447188
 20
43.9694720289
 11
54.7621393002
 21
43.0966977241
  0
LINE
  5
24D
100
AcDbEntity
  8
1
100
AcDbLine
 62
7
  6
BYLAYER
 10
54.7621393002
 20
39.1232587038
 11
54.2141345624
 21
39.4396422291
  0
LINE
  5
24E
100
AcDbEntity
  8
1
100
AcDbLine
 62
7
  6
BYLAYER
 10
35.4758198753
 20
33.8142780056
 11
35.4758198753
 21
29.8745795072
  0
LINE
  5
24F
100
AcDbEntity
  8
1
100
AcDbLine
 62
7
  6
BYLAYER
 10
56.7749075652
 20
69.5127610437
 11
60.26341966
 21
71.5465049287
  0
LINE
  5
250
100
AcDbEntity
  8
1
100
AcDbLine
 62
7
  6
BYLAYER
 10
37.3139498079
 20
58.6973513524
 11
41.0725933499
 21
60.8673922598
  0
LINE
  5
251
100
AcDbEntity
  8
1
100
AcDbLine
 62
7
  6
BYLAYER
 10
42.8403676627
 20
60.8956564689
 11
44.6081272558
 21
61.9162668536
  0
LINE
  5
252
100
AcDbEntity
  8
1
100
AcDbLine
 62
7
  6
BYLAYER
 10
51.0321672949
 20
43.91842186
 11
51.4352110063
 21
43.6857297289
  0
LINE
  5
253
100
AcDbEntity
  8
1
100
AcDbLine
 62
7
  6
BYLAYER
 10
37.2435941882
 20
30.0916233901
 11
37.2435941882
 21
34.814445266
  0
LINE
  5
254
100
AcDbEntity
  8
1
100
AcDbLine
 62
7
  6
BYLAYER
 10
38.3925627053
 20
69.5870068175
 11
38.3925627053
 21
67.8724061025
  0
LINE
  5
255
100
AcDbEntity
  8
1
100
AcDbLine
 62
7
  6
BYLAYER
 10
52.8304588888
 20
75.7933130748
 11
50.894590432
 21
72.9186289984
  0
LINE
  5
256
100
AcDbEntity
  8
1
100
AcDbLine
 62
7
  6
BYLAYER
 10
46.4192419653
 20
63.2383055084
 11
46.9132348933
 21
63.7117350938
  0
LINE
  5
257
100
AcDbEntity
  8
1
100
AcDbLine
 62
7
  6
BYLAYER
 10
49.4221704362
 20
66.11623169
 11
53.9757597348
 21
70.4802696583
  0
LINE
  5
258
100
AcDbEntity
  8
1
100
AcDbLine
 62
7
  6
BYLAYER
 10
54.6828694599
 20
70.0720289038
 11
52.2721457136
 21
67.7616558618
  0
LINE
  5
259
100
AcDbEntity
  8
1
100
AcDbLine
 62
7
  6
BYLAYER
 10
52.6283926233
 20
67.9673338832
 11
54.7712581755
 21
70.0209988095
  0
LINE
  5
25A
100
AcDbEntity
  8
1
100
AcDbLine
 62
7
  6
BYLAYER
 10
64.6809701363
 20
68.9515719969
 11
61.2452268314
 21
66.9485914291
  0
LINE
  5
25B
100
AcDbEntity
  8
1
100
AcDbLine
 62
7
  6
BYLAYER
 10
54.2141345624
 20
42.6528427294
 11
53.556522518
 21
43.0325066311
  0
LINE
  5
25C
100
AcDbEntity
  8
1
100
AcDbLine
 62
7
  6
BYLAYER
 10
52.0751447188
 20
43.9694720289
 11
51.3680349937
 21
44.3777127834
  0
LINE
  5
25D
100
AcDbEntity
  8
1
100
AcDbLine
 62
7
  6
BYLAYER
 10
39.8951708712
 20
68.7194952141
 11
39.8951708712
 21
67.0048944991
  0
LINE
  5
25E
100
AcDbEntity
  8
1
100
AcDbLine
 62
7
  6
BYLAYER
 10
40.5493333308
 20
36.8251348426
 11
40.5493333308
 21
53.0554765228
  0
LINE
  5
25F
100
AcDbEntity
  8
1
100
AcDbLine
 62
7
  6
BYLAYER
 10
41.0725933499
 20
61.9162583552
 11
41.0725933499
 21
35.0533288316
  0
LINE
  5
260
100
AcDbEntity
  8
1
100
AcDbLine
 62
7
  6
BYLAYER
 10
41.4862172115
 20
32.5410883133
 11
41.4862172115
 21
32.8360039574
  0
LINE
  5
261
100
AcDbEntity
  8
1
100
AcDbLine
 62
7
  6
BYLAYER
 10
60.9938237568
 20
66.4284801697
 11
52.4286907495
 21
61.4834278403
  0
LINE
  5
262
100
AcDbEntity
  8
1
100
AcDbLine
 62
7
  6
BYLAYER
 10
51.3857192135
 20
60.3709733999
 11
47.2845169577
 21
58.0031573075
  0
LINE
  5
263
100
AcDbEntity
  8
1
100
AcDbLine
 62
7
  6
BYLAYER
 10
65.8486675381
 20
68.4149204947
 11
61.700933482
 21
66.0202394152
  0
LINE
  5
264
100
AcDbEntity
  8
1
100
AcDbLine
 62
7
  6
BYLAYER
 10
41.0725933499
 20
53.3575790323
 11
40.5493333308
 21
53.0554765228
  0
LINE
  5
265
100
AcDbEntity
  8
1
100
AcDbLine
 62
7
  6
BYLAYER
 10
40.5493333308
 20
53.0554765228
 11
37.3139498079
 21
58.6973513524
  0
LINE
  5
266
100
AcDbEntity
  8
1
100
AcDbLine
 62
7
  6
BYLAYER
 10
42.8403676627
 20
34.685928879
 11
42.8403676627
 21
60.8956564689
  0
LINE
  5
267
100
AcDbEntity
  8
1
100
AcDbLine
 62
7
  6
BYLAYER
 10
52.4286907495
 20
58.4623688969
 11
53.065084203
 21
58.8297886354
  0
LINE
  5
268
100
AcDbEntity
  8
1
100
AcDbLine
 62
7
  6
BYLAYER
 10
53.7721939281
 20
58.4215478808
 11
52.0751447188
 21
57.4417619115
  0
LINE
  5
269
100
AcDbEntity
  8
1
100
AcDbLine
 62
7
  6
BYLAYER
 10
52.0928230507
 20
55.6352523259
 11
51.3857192135
 21
55.227008172
  0
LINE
  5
26A
100
AcDbEntity
  8
1
100
AcDbLine
 62
7
  6
BYLAYER
 10
37.3139498079
 20
58.6973513524
 11
26.3187501122
 21
65.045289247
  0
LINE
  5
26B
100
AcDbEntity
  8
1
100
AcDbLine
 62
7
  6
BYLAYER
 10
28.1112367603
 20
70.2157087503
 11
25.6363733301
 21
72.8693662974
  0
LINE
  5
26C
100
AcDbEntity
  8
1
100
AcDbLine
 62
7
  6
BYLAYER
 10
45.3045891195
 20
34.8234393797
 11
45.3045891195
 21
34.0795459337
  0
LINE
  5
26D
100
AcDbEntity
  8
1
100
AcDbLine
 62
7
  6
BYLAYER
 10
45.4106267274
 20
65.5352173289
 11
45.4106267274
 21
63.8206166139
  0
LINE
  5
26E
100
AcDbEntity
  8
1
100
AcDbLine
 62
7
  6
BYLAYER
 10
46.9132348933
 20
64.6677057255
 11
46.9132348933
 21
62.9531050105
  0
LINE
  5
26F
100
AcDbEntity
  8
1
100
AcDbLine
 62
7
  6
BYLAYER
 10
47.082990686
 20
37.1353938023
 11
47.082990686
 21
59.2626093065
  0
LINE
  5
270
100
AcDbEntity
  8
1
100
AcDbLine
 62
7
  6
BYLAYER
 10
53.065084203
 20
58.8297886354
 11
60.9938237568
 21
66.4284801697
  0
LINE
  5
271
100
AcDbEntity
  8
1
100
AcDbLine
 62
7
  6
BYLAYER
 10
61.700933482
 20
66.0202394152
 11
53.7721939281
 21
58.4215478808
  0
LINE
  5
272
100
AcDbEntity
  8
1
100
AcDbLine
 62
7
  6
BYLAYER
 10
28.1112367603
 20
69.0726053663
 11
30.702793903
 21
67.576403001
  0
LINE
  5
273
100
AcDbEntity
  8
1
100
AcDbLine
 62
7
  6
BYLAYER
 10
47.082990686
 20
58.1195059225
 11
47.2845169577
 21
58.0031573075
  0
LINE
  5
274
100
AcDbEntity
  8
1
100
AcDbLine
 62
7
  6
BYLAYER
 10
42.8403676627
 20
60.8956564689
 11
41.0725933499
 21
61.9162583552
  0
LINE
  5
275
100
AcDbEntity
  8
1
100
AcDbLine
 62
7
  6
BYLAYER
 10
23.868613737
 20
71.8487559127
 11
22.1008394242
 21
72.869357799
  0
LINE
  5
276
100
AcDbEntity
  8
1
100
AcDbLine
 62
7
  6
BYLAYER
 10
52.0928230507
 20
55.6352523259
 11
51.3857192135
 21
56.0434896811
  0
LINE
  5
277
100
AcDbEntity
  8
1
100
AcDbLine
 62
7
  6
BYLAYER
 10
47.2845169577
 20
58.0031573075
 11
47.2845169577
 21
35.2227398695
  0
LINE
  5
278
100
AcDbEntity
  8
1
100
AcDbLine
 62
7
  6
BYLAYER
 10
49.7593803879
 20
35.3601867399
 11
49.7593803879
 21
32.7323828059
  0
LINE
  5
279
100
AcDbEntity
  8
1
100
AcDbLine
 62
7
  6
BYLAYER
 10
60.26341966
 20
71.5465049287
 11
58.3698914527
 21
68.5978802541
  0
LINE
  5
27A
100
AcDbEntity
  8
1
100
AcDbLine
 62
7
  6
BYLAYER
 10
68.762795277
 20
68.8726292606
 11
65.8486675381
 21
68.4149204947
  0
LINE
  5
27B
100
AcDbEntity
  8
1
100
AcDbLine
 62
7
  6
BYLAYER
 10
52.0751447188
 20
57.4417619115
 11
51.3857192135
 21
57.8397929079
  0
LINE
  5
27C
100
AcDbEntity
  8
1
100
AcDbLine
 62
7
  6
BYLAYER
 10
44.6081272558
 20
61.9162668536
 11
42.8403529429
 21
62.9368687399
  0
LINE
  5
27D
100
AcDbEntity
  8
1
100
AcDbLine
 62
7
  6
BYLAYER
 10
25.6363733301
 20
72.8693662974
 11
23.8685990172
 21
73.8899681837
  0
LINE
  5
27E
100
AcDbEntity
  8
1
100
AcDbLine
 62
7
  6
BYLAYER
 10
52.4286907495
 20
58.4623688969
 11
51.3857192135
 21
59.0645151716
  0
LINE
  5
27F
100
AcDbEntity
  8
1
100
AcDbLine
 62
7
  6
BYLAYER
 10
47.082990686
 20
59.2626093065
 11
44.6081272558
 21
61.9162668536
  0
LINE
  5
280
100
AcDbEntity
  8
1
100
AcDbLine
 62
7
  6
BYLAYER
 10
51.0321672949
 20
43.6326773761
 11
51.0321672949
 21
49.2816972398
  0
LINE
  5
281
100
AcDbEntity
  8
1
100
AcDbLine
 62
7
  6
BYLAYER
 10
51.3680349937
 20
44.3777127834
 11
51.3680349937
 21
43.7245129405
  0
LINE
  5
282
100
AcDbEntity
  8
1
100
AcDbLine
 62
7
  6
BYLAYER
 10
51.3857192135
 20
55.227008172
 11
51.3857192135
 21
60.3709733999
  0
LINE
  5
283
100
AcDbEntity
  8
1
100
AcDbLine
 62
7
  6
BYLAYER
 10
52.0751447188
 20
57.4417619115
 11
52.0751447188
 21
55.6454586847
  0
LINE
  5
284
100
AcDbEntity
  8
1
100
AcDbLine
 62
7
  6
BYLAYER
 10
52.0751447188
 20
50.4553138061
 11
52.0751447188
 21
43.9694720289
  0
LINE
  5
285
100
AcDbEntity
  8
1
100
AcDbLine
 62
7
  6
BYLAYER
 10
52.0928230507
 20
50.4752064546
 11
52.0928230507
 21
55.6352523259
  0
LINE
  5
286
100
AcDbEntity
  8
1
100
AcDbLine
 62
7
  6
BYLAYER
 10
52.4286907495
 20
61.4834278403
 11
52.4286907495
 21
58.4623688969
  0
LINE
  5
287
100
AcDbEntity
  8
1
100
AcDbLine
 62
7
  6
BYLAYER
 10
51.0321672949
 20
49.2816972398
 11
52.0928230507
 21
50.4752064546
  0
LINE
  5
288
100
AcDbEntity
  8
1
100
AcDbLine
 62
7
  6
BYLAYER
 10
29.2717927175
 20
29.8834656745
 11
29.2786999427
 21
29.8893634481
  0
LWPOLYLINE
  5
289
100
AcDbEntity
  8
1
100
AcDbPolyline
 62
7
  6
BYLAYER
 90
4
 70
0
 10
24.7617218832
 20
29.3773708143
 10
26.0788800916
 20
30.252261151
 10
27.2299483745
 20
32.3395999573
 10
27.6270161526
 20
35.1412437272
  0
LINE
  5
28A
100
AcDbEntity
  8
1
100
AcDbLine
 62
7
  6
BYLAYER
 10
38.1790748461
 20
37.9705822107
 11
38.3661773486
 21
38.0855520221
  0
LINE
  5
28B
100
AcDbEntity
  8
1
100
AcDbLine
 62
7
  6
BYLAYER
 10
37.4280893332
 20
38.9224528918
 11
39.0139999589
 21
39.838073353
  0
LINE
  5
28C
100
AcDbEntity
  8
1
100
AcDbLine
 62
7
  6
BYLAYER
 10
53.7721939281
 20
58.4215478808
 11
53.065084203
 21
58.8297886354
  0
LINE
  5
28D
100
AcDbEntity
  8
1
100
AcDbLine
 62
7
  6
BYLAYER
 10
51.3857192135
 20
60.3709733999
 11
30.2431384316
 21
72.5773719601
  0
LINE
  5
28E
100
AcDbEntity
  8
1
100
AcDbLine
 62
7
  6
BYLAYER
 10
52.4286907495
 20
61.4834278403
 11
46.9132348933
 21
64.6677057255
  0
LINE
  5
28F
100
AcDbEntity
  8
1
100
AcDbLine
 62
7
  6
BYLAYER
 10
32.8771068492
 20
72.7712847027
 11
38.3925627053
 21
69.5870068175
  0
LINE
  5
290
100
AcDbEntity
  8
1
100
AcDbLine
 62
7
  6
BYLAYER
 10
39.8951708712
 20
68.7194952141
 11
45.4106267274
 21
65.5352173289
  0
LINE
  5
291
100
AcDbEntity
  8
1
100
AcDbLine
 62
7
  6
BYLAYER
 10
54.0550295751
 20
42.7446999586
 11
54.0550295751
 21
43.3263770852
  0
LINE
  5
292
100
AcDbEntity
  8
1
100
AcDbLine
 62
7
  6
BYLAYER
 10
54.2141345624
 20
35.9411928606
 11
54.2141345624
 21
42.6528427294
  0
LINE
  5
293
100
AcDbEntity
  8
1
100
AcDbLine
 62
7
  6
BYLAYER
 10
54.7266672329
 20
76.9112953307
 11
54.7266672329
 21
76.9762082378
  0
LINE
  5
294
100
AcDbEntity
  8
1
100
AcDbLine
 62
7
  6
BYLAYER
 10
54.7621393002
 20
39.1232587038
 11
54.7621393002
 21
43.0966977241
  0
LINE
  5
295
100
AcDbEntity
  8
1
100
AcDbLine
 62
7
  6
BYLAYER
 10
37.1159531661
 20
37.0057196829
 11
38.6762356589
 21
37.9065438229
  0
LINE
  5
296
100
AcDbEntity
  8
1
100
AcDbLine
 62
7
  6
BYLAYER
 10
38.1628368309
 20
36.3249883279
 11
39.7892209244
 21
37.2639760171
  0
LINE
  5
297
100
AcDbEntity
  8
1
100
AcDbLine
 62
7
  6
BYLAYER
 10
41.0725933499
 20
37.1272373521
 11
40.5493333308
 21
36.8251348426
  0
LINE
  5
298
100
AcDbEntity
  8
1
100
AcDbLine
 62
7
  6
BYLAYER
 10
26.0092893776
 20
28.0574593995
 11
29.2468557347
 21
29.9266580498
  0
LINE
  5
299
100
AcDbEntity
  8
1
100
AcDbLine
 62
7
  6
BYLAYER
 10
29.2718457227
 20
29.8833738661
 11
34.2215824832
 21
32.7410657922
  0
LINE
  5
29A
100
AcDbEntity
  8
1
100
AcDbLine
 62
7
  6
BYLAYER
 10
58.9189922317
 20
72.415679889
 11
61.8331199706
 21
72.8733886549
  0
LINE
  5
29B
100
AcDbEntity
  8
1
100
AcDbLine
 62
7
  6
BYLAYER
 10
61.744731255
 20
72.9244187492
 11
58.830603516
 21
72.4667099833
  0
LINE
  5
29C
100
AcDbEntity
  8
1
100
AcDbLine
 62
7
  6
BYLAYER
 10
41.0725964046
 20
35.0533235406
 11
40.7190384873
 21
34.8491980003
  0
LINE
  5
29D
100
AcDbEntity
  8
1
100
AcDbLine
 62
7
  6
BYLAYER
 10
47.082990686
 20
37.1353938023
 11
42.8403676627
 21
34.685928879
  0
LINE
  5
29E
100
AcDbEntity
  8
1
100
AcDbLine
 62
7
  6
BYLAYER
 10
53.8957022216
 20
35.120475075
 11
54.2141345624
 21
35.9411928606
  0
LINE
  5
29F
100
AcDbEntity
  8
1
100
AcDbLine
 62
7
  6
BYLAYER
 10
35.4758229301
 20
29.8745742162
 11
35.1222650127
 21
29.6704486759
  0
LINE
  5
2A0
100
AcDbEntity
  8
1
100
AcDbLine
 62
7
  6
BYLAYER
 10
42.0533422011
 20
32.9463423009
 11
46.2959652244
 21
35.3958072241
  0
LINE
  5
2A1
100
AcDbEntity
  8
1
100
AcDbLine
 62
7
  6
BYLAYER
 10
41.4862172115
 20
32.5410883133
 11
37.2435941882
 21
30.0916233901
  0
LINE
  5
2A2
100
AcDbEntity
  8
1
100
AcDbLine
 62
7
  6
BYLAYER
 10
47.2845169577
 20
35.2227398695
 11
48.6987246321
 21
36.0392281773
  0
LINE
  5
2A3
100
AcDbEntity
  8
1
100
AcDbLine
 62
7
  6
BYLAYER
 10
46.3652720361
 20
34.6919278456
 11
45.3045891195
 21
34.0795459337
  0
LINE
  5
2A4
100
AcDbEntity
  8
1
100
AcDbLine
 62
7
  6
BYLAYER
 10
36.4565687266
 20
28.3520368119
 11
40.6991917498
 21
30.8015017351
  0
LINE
  5
2A5
100
AcDbEntity
  8
1
100
AcDbLine
 62
7
  6
BYLAYER
 10
51.9009282096
 20
76.4674693776
 11
54.8150559485
 21
76.9251781435
  0
LINE
  5
2A6
100
AcDbEntity
  8
1
100
AcDbLine
 62
7
  6
BYLAYER
 10
54.7266672329
 20
76.9762082378
 11
51.8125394939
 21
76.5184994719
  0
LINE
  5
2A7
100
AcDbEntity
  8
1
100
AcDbLine
 62
7
  6
BYLAYER
 10
61.700933482
 20
66.0202394152
 11
60.9938237568
 21
66.4284801697
  0
LINE
  5
2A8
100
AcDbEntity
  8
1
100
AcDbLine
 62
7
  6
BYLAYER
 10
54.6828694599
 20
70.0720289038
 11
53.9757597348
 21
70.4802696583
  0
LINE
  5
2A9
100
AcDbEntity
  8
1
100
AcDbLine
 62
7
  6
BYLAYER
 10
47.6648054378
 20
74.1238183924
 11
46.9576957127
 21
74.5320591469
  0
LINE
  5
2AA
100
AcDbEntity
  8
1
100
AcDbLine
 62
7
  6
BYLAYER
 10
40.7351301314
 20
78.1245777867
 11
41.4422398565
 21
77.7163370322
  0
LINE
  5
2AB
100
AcDbEntity
  8
1
100
AcDbLine
 62
7
  6
BYLAYER
 10
47.7531941535
 20
74.0727882981
 11
48.4603038786
 21
73.6645475436
  0
LINE
  5
2AC
100
AcDbEntity
  8
1
100
AcDbLine
 62
7
  6
BYLAYER
 10
54.7712581755
 20
70.0209988095
 11
55.4783679007
 21
69.612758055
  0
LINE
  5
2AD
100
AcDbEntity
  8
1
100
AcDbLine
 62
7
  6
BYLAYER
 10
61.744731255
 20
72.8595058421
 11
61.744731255
 21
72.9244187492
  0
LINE
  5
2AE
100
AcDbEntity
  8
1
100
AcDbLine
 62
7
  6
BYLAYER
 10
61.700933482
 20
39.892162067
 11
65.8486675381
 21
42.2868431466
  0
LINE
  5
2AF
100
AcDbEntity
  8
1
100
AcDbLine
 62
7
  6
BYLAYER
 10
53.8957022216
 20
35.120475075
 11
49.7593803879
 21
32.7323828059
  0
LINE
  5
2B0
100
AcDbEntity
  8
1
100
AcDbLine
 62
7
  6
BYLAYER
 10
61.2452268314
 20
66.9485914291
 11
56.7749075652
 21
69.5127610437
  0
LINE
  5
2B1
100
AcDbEntity
  8
1
100
AcDbLine
 62
7
  6
BYLAYER
 10
46.7844825365
 20
75.2806051373
 11
42.3431097686
 21
77.8614869208
  0
LINE
  5
2B2
100
AcDbEntity
  8
1
100
AcDbLine
 62
7
  6
BYLAYER
 10
53.8025465585
 20
71.2288156487
 11
49.3611737907
 21
73.8096974322
  0
LINE
  5
2B3
100
AcDbEntity
  8
1
100
AcDbLine
 62
7
  6
BYLAYER
 10
44.8828641875
 20
80.5192588662
 11
47.7969919264
 21
80.9769676321
  0
LINE
  5
2B4
100
AcDbEntity
  8
1
100
AcDbLine
 62
7
  6
BYLAYER
 10
52.8304588888
 20
75.7933130748
 11
57.3251156072
 21
73.242897187
  0
LINE
  5
2B5
100
AcDbEntity
  8
1
100
AcDbLine
 62
7
  6
BYLAYER
 10
45.8123948668
 20
79.8451025634
 11
50.3070515852
 21
77.2946866756
  0
LINE
  5
2B6
100
AcDbEntity
  8
1
100
AcDbLine
 62
7
  6
BYLAYER
 10
65.8486675381
 20
68.4149204947
 11
58.9189922317
 21
72.415679889
  0
LINE
  5
2B7
100
AcDbEntity
  8
1
100
AcDbLine
 62
7
  6
BYLAYER
 10
44.8828641875
 20
80.5192588662
 11
51.8125394939
 21
76.5184994719
  0
LINE
  5
2B8
100
AcDbEntity
  8
1
100
AcDbLine
 62
7
  6
BYLAYER
 10
51.9009282096
 20
76.4674693776
 11
58.830603516
 21
72.4667099833
  0
LINE
  5
2B9
100
AcDbEntity
  8
1
100
AcDbLine
 62
7
  6
BYLAYER
 10
60.26341966
 20
71.5465049287
 11
64.6809701363
 21
68.9515719969
  0
LINE
  5
2BA
100
AcDbEntity
  8
1
100
AcDbLine
 62
7
  6
BYLAYER
 10
65.8486675381
 20
42.2868431466
 11
68.762795277
 21
45.1940591638
  0
LINE
  5
2BB
100
AcDbEntity
  8
1
100
AcDbLine
 62
7
  6
BYLAYER
 10
68.762795277
 20
68.8726292606
 11
61.8331199706
 21
72.8733886549
  0
LINE
  5
2BC
100
AcDbEntity
  8
1
100
AcDbLine
 62
7
  6
BYLAYER
 10
47.7969919264
 20
80.9769676321
 11
54.7266672329
 21
76.9762082378
  0
LINE
  5
2BD
100
AcDbEntity
  8
1
100
AcDbLine
 62
7
  6
BYLAYER
 10
54.8150559485
 20
76.9251781435
 11
61.744731255
 21
72.9244187492
  0
LINE
  5
2BE
100
AcDbEntity
  8
1
100
AcDbLine
 62
7
  6
BYLAYER
 10
68.762795277
 20
45.1940591638
 11
68.762795277
 21
68.8726292606
  0
ARC
  5
2BF
100
AcDbEntity
  8
1
100
AcDbCircle
 62
7
  6
BYLAYER
 10
21.2120709155
 20
45.1847663542
 40
11.4042180987
100
AcDbArc
 50
178.9256110465
 51
180.0040247244
  0
ARC
  5
2C0
100
AcDbEntity
  8
1
100
AcDbCircle
 62
7
  6
BYLAYER
 10
26.8822611623
 20
34.0243142357
 40
4.7809519466
100
AcDbArc
 50
292.4432667573
 51
299.9876652728
  0
ARC
  5
2C1
100
AcDbEntity
  8
1
100
AcDbCircle
 62
7
  6
BYLAYER
 10
17.4016436829
 20
50.4434508461
 40
4.7593105689
100
AcDbArc
 50
120.1083496239
 51
123.2541016855
  0
ARC
  5
2C2
100
AcDbEntity
  8
1
100
AcDbCircle
 62
7
  6
BYLAYER
 10
36.197666335
 20
41.409980176
 40
3.9694616778
100
AcDbArc
 50
286.2020190688
 51
299.9458880928
  0
ARC
  5
2C3
100
AcDbEntity
  8
1
100
AcDbCircle
 62
7
  6
BYLAYER
 10
28.6132581644
 20
54.5419073387
 40
3.7657276484
100
AcDbArc
 50
120.0207403839
 51
128.8657826798
  0
ARC
  5
2C4
100
AcDbEntity
  8
1
100
AcDbCircle
 62
7
  6
BYLAYER
 10
36.0488483461
 20
41.661746796
 40
3.7619069099
100
AcDbArc
 50
289.809208132
 51
299.9885659437
  0
ARC
  5
2C5
100
AcDbEntity
  8
1
100
AcDbCircle
 62
7
  6
BYLAYER
 10
37.2487948455
 20
42.892923178
 40
3.5281754628
100
AcDbArc
 50
300.0209092946
 51
308.0196765301
  0
ARC
  5
2C6
100
AcDbEntity
  8
1
100
AcDbCircle
 62
7
  6
BYLAYER
 10
30.2751741405
 20
54.9730851721
 40
3.5232775367
100
AcDbArc
 50
110.1009013479
 51
119.9903480117
  0
SPLINE
  5
2C7
100
AcDbEntity
  8
1
100
AcDbSpline
 62
7
  6
BYLAYER
 70
0
 71
3
 72
15
 73
11
 74
0
 42
0.0000001
 43
0.0000001
 44
0.0000000001
 40
0.0
 40
0.0
 40
0.0
 40
0.0
 40
0.1485793306
 40
0.2895082526
 40
0.4227234607
 40
0.5486404721
 40
0.6680008053
 40
0.7819381691
 40
0.8919868318
 40
1.0
 40
1.0
 40
1.0
 40
1.0
 10
40.2488116976
 20
43.5306565003
 30
0.0
 10
40.2488116976
 20
43.2389831808
 30
0.0
 10
40.2252814194
 20
42.6702638978
 30
0.0
 10
40.113353088
 20
41.8466887021
 30
0.0
 10
39.92633964
 20
41.0822594609
 30
0.0
 10
39.6657219134
 20
40.3844163212
 30
0.0
 10
39.3335444053
 20
39.7598436284
 30
0.0
 10
38.9323449694
 20
39.2149358654
 30
0.0
 10
38.465826599
 20
38.7558565354
 30
0.0
 10
38.1127876413
 20
38.5094748875
 30
0.0
 10
37.9291516094
 20
38.4034645435
 30
0.0
  0
SPLINE
  5
2C8
100
AcDbEntity
  8
1
100
AcDbSpline
 62
7
  6
BYLAYER
 70
0
 71
3
 72
26
 73
22
 74
0
 42
0.0000001
 43
0.0000001
 44
0.0000000001
 40
0.0
 40
0.0
 40
0.0
 40
0.0
 40
0.0213312558
 40
0.0428908089
 40
0.0648953006
 40
0.0875389776
 40
0.1353118615
 40
0.1607338865
 40
0.1872580609
 40
0.243692902
 40
0.3046376902
 40
0.3697220986
 40
0.4383158419
 40
0.5095986282
 40
0.5826191366
 40
0.6563469479
 40
0.7297204063
 40
0.8016934105
 40
0.8712829388
 40
0.9376192824
 40
1.0
 40
1.0
 40
1.0
 40
1.0
 10
26.7292139426
 20
57.8024413583
 30
0.0
 10
26.8668187788
 20
57.8818785791
 30
0.0
 10
27.154062496
 20
58.0240481606
 30
0.0
 10
27.612040709
 20
58.1823596694
 30
0.0
 10
28.0955512732
 20
58.2854784095
 30
0.0
 10
28.7822195385
 20
58.349930429
 30
0.0
 10
29.5000247865
 20
58.2972597702
 30
0.0
 10
30.2269526811
 20
58.1419551351
 30
0.0
 10
31.0000258582
 20
57.9061597591
 30
0.0
 10
31.9842305886
 20
57.4711611128
 30
0.0
 10
33.146352177
 20
56.7601676871
 30
0.0
 10
34.2900916862
 20
55.8647690149
 30
0.0
 10
35.3914472942
 20
54.8040663556
 30
0.0
 10
36.4273153953
 20
53.6005064847
 30
0.0
 10
37.3756988239
 20
52.2796857329
 30
0.0
 10
38.2164004992
 20
50.8697495072
 30
0.0
 10
38.9314874
 20
49.4007693105
 30
0.0
 10
39.5057059016
 20
47.9040865972
 30
0.0
 10
39.9268349058
 20
46.4114243407
 30
0.0
 10
40.1858626465
 20
44.9547066191
 30
0.0
 10
40.2488116976
 20
43.9953052288
 30
0.0
 10
40.2488116976
 20
43.5306565003
 30
0.0
  0
SPLINE
  5
2C9
100
AcDbEntity
  8
1
100
AcDbSpline
 62
7
  6
BYLAYER
 70
0
 71
3
 72
14
 73
10
 74
0
 42
0.0000001
 43
0.0000001
 44
0.0000000001
 40
0.0
 40
0.0
 40
0.0
 40
0.0
 40
0.2892730352
 40
0.4225562199
 40
0.5484998506
 40
0.6678886669
 40
0.7818692291
 40
0.8919533702
 40
1.0
 40
1.0
 40
1.0
 40
1.0
 10
41.4862172115
 20
32.5410883133
 30
0.0
 10
41.4862172115
 20
32.3484817806
 30
0.0
 10
41.4637303678
 20
32.0657471877
 30
0.0
 10
41.3768056668
 20
31.7103946516
 30
0.0
 10
41.2883911095
 20
31.4735951004
 30
0.0
 10
41.1756503829
 20
31.2617288734
 30
0.0
 10
41.0395674995
 20
31.0768233376
 30
0.0
 10
40.8812603378
 20
30.9210830945
 30
0.0
 10
40.7614910193
 20
30.8374775114
 30
0.0
 10
40.6991885062
 20
30.8015073534
 30
0.0
  0
SPLINE
  5
2CA
100
AcDbEntity
  8
1
100
AcDbSpline
 62
7
  6
BYLAYER
 70
0
 71
3
 72
11
 73
7
 74
0
 42
0.0000001
 43
0.0000001
 44
0.0000000001
 40
0.0
 40
0.0
 40
0.0
 40
0.0
 40
0.2834617899
 40
0.543038887
 40
0.7802665605
 40
1.0
 40
1.0
 40
1.0
 40
1.0
 10
47.082990686
 20
37.1353938023
 30
0.0
 10
47.082990686
 20
36.9790224284
 30
0.0
 10
47.0634923662
 20
36.6788512172
 30
0.0
 10
46.9669862409
 20
36.2571340139
 30
0.0
 10
46.8056111991
 20
35.8932898763
 30
0.0
 10
46.6515037183
 20
35.6899267484
 30
0.0
 10
46.5659477036
 20
35.6040581584
 30
0.0
  0
SPLINE
  5
2CB
100
AcDbEntity
  8
1
100
AcDbSpline
 62
7
  6
BYLAYER
 70
0
 71
3
 72
9
 73
5
 74
0
 42
0.0000001
 43
0.0000001
 44
0.0000000001
 40
0.0
 40
0.0
 40
0.0
 40
0.0
 40
0.5029329262
 40
1.0
 40
1.0
 40
1.0
 40
1.0
 10
46.5659477036
 20
35.6040581584
 30
0.0
 10
46.5255142555
 20
35.5634769885
 30
0.0
 10
46.4398988559
 20
35.4878027835
 30
0.0
 10
46.3449946255
 20
35.424121684
 30
0.0
 10
46.2959619807
 20
35.3958128423
 30
0.0
  0
SPLINE
  5
2CC
100
AcDbEntity
  8
1
100
AcDbSpline
 62
7
  6
BYLAYER
 70
0
 71
3
 72
14
 73
10
 74
0
 42
0.0000001
 43
0.0000001
 44
0.0000000001
 40
0.0
 40
0.0
 40
0.0
 40
0.0
 40
0.2892720607
 40
0.422554976
 40
0.5484985194
 40
0.6678874407
 40
0.781868291
 40
0.8919528621
 40
1.0
 40
1.0
 40
1.0
 40
1.0
 10
40.1533507072
 20
33.1345345611
 30
0.0
 10
40.3201487704
 20
33.038235833
 30
0.0
 10
40.5762410547
 20
32.9163487899
 30
0.0
 10
40.9274383157
 20
32.8139574597
 30
0.0
 10
41.1767134684
 20
32.7721299028
 30
0.0
 10
41.4165591715
 20
32.7638347021
 30
0.0
 10
41.6447278213
 20
32.7892333149
 30
0.0
 10
41.85875141
 20
32.8484599107
 30
0.0
 10
41.9910378171
 20
32.9103785612
 30
0.0
 10
42.0533389574
 20
32.9463479191
 30
0.0
  0
SPLINE
  5
2CD
100
AcDbEntity
  8
1
100
AcDbSpline
 62
7
  6
BYLAYER
 70
0
 71
3
 72
14
 73
10
 74
0
 42
0.0000001
 43
0.0000001
 44
0.0000000001
 40
0.0
 40
0.0
 40
0.0
 40
0.0
 40
0.2892720607
 40
0.422554976
 40
0.5484985194
 40
0.6678874407
 40
0.781868291
 40
0.8919528621
 40
1.0
 40
1.0
 40
1.0
 40
1.0
 10
34.5565772326
 20
28.5402290721
 30
0.0
 10
34.7233752958
 20
28.443930344
 30
0.0
 10
34.9794675801
 20
28.322043301
 30
0.0
 10
35.3306648412
 20
28.2196519707
 30
0.0
 10
35.5799399939
 20
28.1778244138
 30
0.0
 10
35.819785697
 20
28.1695292131
 30
0.0
 10
36.0479543468
 20
28.1949278259
 30
0.0
 10
36.2619779354
 20
28.2541544217
 30
0.0
 10
36.3942643425
 20
28.3160730722
 30
0.0
 10
36.4565654829
 20
28.3520424301
 30
0.0
  0
SPLINE
  5
2CE
100
AcDbEntity
  8
1
100
AcDbSpline
 62
7
  6
BYLAYER
 70
0
 71
3
 72
11
 73
7
 74
0
 42
0.0000001
 43
0.0000001
 44
0.0000000001
 40
0.0
 40
0.0
 40
0.0
 40
0.0
 40
0.2895401978
 40
0.5491171512
 40
0.782255066
 40
1.0
 40
1.0
 40
1.0
 40
1.0
 10
35.4758198753
 20
29.8745795072
 30
0.0
 10
35.4758198753
 20
29.8492601956
 30
0.0
 10
35.4719538504
 20
29.8010819364
 30
0.0
 10
35.4524773158
 20
29.7348765153
 30
0.0
 10
35.4196240831
 20
29.6811359218
 30
0.0
 10
35.3887399721
 20
29.6552312486
 30
0.0
 10
35.3722499055
 20
29.6457107649
 30
0.0
  0
SPLINE
  5
2CF
100
AcDbEntity
  8
1
100
AcDbSpline
 62
7
  6
BYLAYER
 70
0
 71
3
 72
11
 73
7
 74
0
 42
0.0000001
 43
0.0000001
 44
0.0000000001
 40
0.0
 40
0.0
 40
0.0
 40
0.0
 40
0.2895401978
 40
0.5491171512
 40
0.782255066
 40
1.0
 40
1.0
 40
1.0
 40
1.0
 10
41.0725933499
 20
35.0533288316
 30
0.0
 10
41.0725933499
 20
35.0280095201
 30
0.0
 10
41.0687273249
 20
34.9798312608
 30
0.0
 10
41.0492507903
 20
34.9136258397
 30
0.0
 10
41.0163975576
 20
34.8598852462
 30
0.0
 10
40.9855134467
 20
34.833980573
 30
0.0
 10
40.96902338
 20
34.8244600893
 30
0.0
  0
SPLINE
  5
2D0
100
AcDbEntity
  8
1
100
AcDbSpline
 62
7
  6
BYLAYER
 70
0
 71
3
 72
14
 73
10
 74
0
 42
0.0000001
 43
0.0000001
 44
0.0000000001
 40
0.0
 40
0.0
 40
0.0
 40
0.0
 40
0.1080466357
 40
0.2181307812
 40
0.3321113461
 40
0.4515001674
 40
0.5774437985
 40
0.7107269735
 40
1.0
 40
1.0
 40
1.0
 40
1.0
 10
36.4565654829
 20
28.3520424301
 30
0.0
 10
36.5188680027
 20
28.3880125845
 30
0.0
 10
36.6386373222
 20
28.47161818
 30
0.0
 10
36.7969444916
 20
28.6273584265
 30
0.0
 10
36.9330273792
 20
28.8122639706
 30
0.0
 10
37.0457680988
 20
29.0241302076
 30
0.0
 10
37.1341826527
 20
29.2609297567
 30
0.0
 10
37.2211073508
 20
29.6162822817
 30
0.0
 10
37.2435941882
 20
29.899016863
 30
0.0
 10
37.2435941882
 20
30.0916233901
 30
0.0
  0
SPLINE
  5
2D1
100
AcDbEntity
  8
1
100
AcDbSpline
 62
7
  6
BYLAYER
 70
0
 71
3
 72
11
 73
7
 74
0
 42
0.0000001
 43
0.0000001
 44
0.0000000001
 40
0.0
 40
0.0
 40
0.0
 40
0.0
 40
0.275829359
 40
0.5341107619
 40
0.7749049487
 40
1.0
 40
1.0
 40
1.0
 40
1.0
 10
38.1628368309
 20
36.3249883279
 30
0.0
 10
38.0579183863
 20
36.3855616498
 30
0.0
 10
37.8485895851
 20
36.4926785326
 30
0.0
 10
37.5286117802
 20
36.6112761106
 30
0.0
 10
37.217110068
 20
36.6805983064
 30
0.0
 10
37.0117347377
 20
36.6933767007
 30
0.0
 10
36.9129122541
 20
36.6904648496
 30
0.0
  0
SPLINE
  5
2D2
100
AcDbEntity
  8
1
100
AcDbSpline
 62
7
  6
BYLAYER
 70
0
 71
3
 72
14
 73
10
 74
0
 42
0.0000001
 43
0.0000001
 44
0.0000000001
 40
0.0
 40
0.0
 40
0.0
 40
0.0
 40
0.1080466357
 40
0.2181307812
 40
0.3321113461
 40
0.4515001674
 40
0.5774437985
 40
0.7107269735
 40
1.0
 40
1.0
 40
1.0
 40
1.0
 10
42.0533389574
 20
32.9463479191
 30
0.0
 10
42.1156414773
 20
32.9823180735
 30
0.0
 10
42.2354107967
 20
33.065923669
 30
0.0
 10
42.3937179661
 20
33.2216639155
 30
0.0
 10
42.5298008537
 20
33.4065694596
 30
0.0
 10
42.6425415733
 20
33.6184356966
 30
0.0
 10
42.7309561272
 20
33.8552352457
 30
0.0
 10
42.8178808253
 20
34.2105877707
 30
0.0
 10
42.8403676627
 20
34.493322352
 30
0.0
 10
42.8403676627
 20
34.685928879
 30
0.0
  0
SPLINE
  5
2D3
100
AcDbEntity
  8
1
100
AcDbSpline
 62
7
  6
BYLAYER
 70
0
 71
3
 72
11
 73
7
 74
0
 42
0.0000001
 43
0.0000001
 44
0.0000000001
 40
0.0
 40
0.0
 40
0.0
 40
0.0
 40
0.2177460211
 40
0.4508843679
 40
0.7104607696
 40
1.0
 40
1.0
 40
1.0
 40
1.0
 10
35.3722499055
 20
29.6457107649
 30
0.0
 10
35.3557601971
 20
29.636190488
 30
0.0
 10
35.3178849449
 20
29.6223967647
 30
0.0
 10
35.2549192397
 20
29.6208150686
 30
0.0
 10
35.1878471514
 20
29.6370495641
 30
0.0
 10
35.1441916447
 20
29.6577896154
 30
0.0
 10
35.1222650127
 20
29.6704486759
 30
0.0
  0
SPLINE
  5
2D4
100
AcDbEntity
  8
1
100
AcDbSpline
 62
7
  6
BYLAYER
 70
0
 71
3
 72
11
 73
7
 74
0
 42
0.0000001
 43
0.0000001
 44
0.0000000001
 40
0.0
 40
0.0
 40
0.0
 40
0.0
 40
0.2177460211
 40
0.4508843679
 40
0.7104607696
 40
1.0
 40
1.0
 40
1.0
 40
1.0
 10
40.96902338
 20
34.8244600893
 30
0.0
 10
40.9525336717
 20
34.8149398124
 30
0.0
 10
40.9146584195
 20
34.8011460891
 30
0.0
 10
40.8516927143
 20
34.799564393
 30
0.0
 10
40.7846206259
 20
34.8157988885
 30
0.0
 10
40.7409651192
 20
34.8365389399
 30
0.0
 10
40.7190384873
 20
34.8491980003
 30
0.0
  0
SPLINE
  5
2D5
100
AcDbEntity
  8
1
100
AcDbSpline
 62
7
  6
BYLAYER
 70
0
 71
3
 72
15
 73
11
 74
0
 42
0.0000001
 43
0.0000001
 44
0.0000000001
 40
0.0
 40
0.0
 40
0.0
 40
0.0
 40
0.1485836721
 40
0.2895057814
 40
0.422720169
 40
0.548639348
 40
0.667999015
 40
0.7819371618
 40
0.8919868353
 40
1.0
 40
1.0
 40
1.0
 40
1.0
 10
18.5406579508
 20
30.0583870986
 30
0.0
 10
18.8191931173
 20
29.8975783832
 30
0.0
 10
19.3752429513
 20
29.6064988208
 30
0.0
 10
20.2234042884
 20
29.2593460764
 30
0.0
 10
21.0564707065
 20
29.0164953107
 30
0.0
 10
21.8665409831
 20
28.8806086886
 30
0.0
 10
22.6461044602
 20
28.853494339
 30
0.0
 10
23.3876390343
 20
28.9361915186
 30
0.0
 10
24.0832433308
 20
29.1285484662
 30
0.0
 10
24.5131434186
 20
29.329871169
 30
0.0
 10
24.7156237713
 20
29.4467735715
 30
0.0
  0
SPLINE
  5
2D6
100
AcDbEntity
  8
1
100
AcDbSpline
 62
7
  6
BYLAYER
 70
0
 71
3
 72
19
 73
15
 74
0
 42
0.0000001
 43
0.0000001
 44
0.0000000001
 40
0.0
 40
0.0
 40
0.0
 40
0.0
 40
0.0558442957
 40
0.1142086588
 40
0.1748227455
 40
0.2374073033
 40
0.3670176046
 40
0.50000108
 40
0.6329844051
 40
0.762594267
 40
0.8251785074
 40
0.8857922204
 40
0.944156162
 40
1.0
 40
1.0
 40
1.0
 40
1.0
 10
9.807852845
 20
45.1839652685
 30
0.0
 10
9.807852845
 20
44.8461619815
 30
0.0
 10
9.8378776431
 20
44.1550588892
 30
0.0
 10
9.9651190568
 20
43.1043372373
 30
0.0
 10
10.1744928568
 20
42.0252789079
 30
0.0
 10
10.5649067364
 20
40.5457627936
 30
0.0
 10
11.2458627497
 20
38.694835929
 30
0.0
 10
12.3265180227
 20
36.5543555876
 30
0.0
 10
13.6399088021
 20
34.5482489424
 30
0.0
 10
14.9023849631
 20
33.0330711013
 30
0.0
 10
15.9884783456
 20
31.9552161867
 30
0.0
 10
16.8182832695
 20
31.2343741122
 30
0.0
 10
17.6646131426
 20
30.5988301638
 30
0.0
 10
18.2481124661
 20
30.2272844919
 30
0.0
 10
18.5406579508
 20
30.0583870986
 30
0.0
  0
SPLINE
  5
2D7
100
AcDbEntity
  8
1
100
AcDbSpline
 62
7
  6
BYLAYER
 70
0
 71
3
 72
26
 73
22
 74
0
 42
0.0000001
 43
0.0000001
 44
0.0000000001
 40
0.0
 40
0.0
 40
0.0
 40
0.0
 40
0.0623802293
 40
0.1287141127
 40
0.1983027023
 40
0.2702746676
 40
0.3436472268
 40
0.4173741316
 40
0.4903938395
 40
0.5616758443
 40
0.6302687977
 40
0.6953524059
 40
0.7562964176
 40
0.8127305477
 40
0.8646283254
 40
0.8890140066
 40
0.9124620404
 40
0.935105678
 40
0.957109737
 40
0.9786691161
 40
1.0
 40
1.0
 40
1.0
 40
1.0
 10
8.868363066
 20
46.1520571988
 30
0.0
 10
8.868363066
 20
45.5629454824
 30
0.0
 10
8.9481676429
 20
44.3465720475
 30
0.0
 10
9.2765852356
 20
42.4996747031
 30
0.0
 10
9.8104994041
 20
40.6072029784
 30
0.0
 10
10.5385296658
 20
38.7096232023
 30
0.0
 10
11.4451527672
 20
36.8471620368
 30
0.0
 10
12.5110428753
 20
35.0595602586
 30
0.0
 10
13.7134599845
 20
33.384941898
 30
0.0
 10
15.0267878652
 20
31.8589972573
 30
0.0
 10
16.4231763653
 20
30.5141648586
 30
0.0
 10
17.8731901622
 20
29.3789547493
 30
0.0
 10
19.3468865853
 20
28.4774119059
 30
0.0
 10
20.8137773483
 20
27.8289880554
 30
0.0
 10
22.0318574283
 20
27.5055445068
 30
0.0
 10
22.9686169489
 20
27.3953446355
 30
0.0
 10
23.6353665694
 20
27.3848775211
 30
0.0
 10
24.2770020472
 20
27.4450125056
 30
0.0
 10
24.8899742531
 20
27.5758065714
 30
0.0
 10
25.4706481303
 20
27.7764808462
 30
0.0
 10
25.8348237866
 20
27.9567498346
 30
0.0
 10
26.0092817829
 20
28.057472554
 30
0.0
  0
SPLINE
  5
2D8
100
AcDbEntity
  8
1
100
AcDbSpline
 62
7
  6
BYLAYER
 70
0
 71
3
 72
15
 73
11
 74
0
 42
0.0000001
 43
0.0000001
 44
0.0000000001
 40
0.0
 40
0.0
 40
0.0
 40
0.0
 40
0.1485846972
 40
0.2895071139
 40
0.422721961
 40
0.5486413917
 40
0.6680004511
 40
0.7819377614
 40
0.8919871025
 40
1.0
 40
1.0
 40
1.0
 40
1.0
 10
37.1729279643
 20
39.2645154603
 30
0.0
 10
37.1729279643
 20
38.8933997191
 30
0.0
 10
37.1430006007
 20
38.1698079311
 30
0.0
 10
37.0005766449
 20
37.1219602904
 30
0.0
 10
36.7626326482
 20
36.1493740198
 30
0.0
 10
36.431067803
 20
35.2614808908
 30
0.0
 10
36.0084081052
 20
34.4668304397
 30
0.0
 10
35.4979525118
 20
33.7735400683
 30
0.0
 10
34.9044172345
 20
33.1894094233
 30
0.0
 10
34.4552101244
 20
32.8759722893
 30
0.0
 10
34.2215726645
 20
32.7410828013
 30
0.0
  0
SPLINE
  5
2D9
100
AcDbEntity
  8
1
100
AcDbSpline
 62
7
  6
BYLAYER
 70
0
 71
3
 72
10
 73
6
 74
0
 42
0.0000001
 43
0.0000001
 44
0.0000000001
 40
0.0
 40
0.0
 40
0.0
 40
0.0
 40
0.2707814938
 40
0.5277704624
 40
1.0
 40
1.0
 40
1.0
 40
1.0
 10
37.5795086964
 20
40.0503831619
 30
0.0
 10
37.5795086964
 20
39.7008288143
 30
0.0
 10
37.5515625796
 20
39.0188284127
 30
0.0
 10
37.3798983946
 20
37.7387496469
 30
0.0
 10
37.11327117
 20
36.8244324373
 30
0.0
 10
36.8653887573
 20
36.2675005066
 30
0.0
  0
SPLINE
  5
2DA
100
AcDbEntity
  8
1
100
AcDbSpline
 62
7
  6
BYLAYER
 70
0
 71
3
 72
9
 73
5
 74
0
 42
0.0000001
 43
0.0000001
 44
0.0000000001
 40
0.0
 40
0.0
 40
0.0
 40
0.0
 40
0.5145297131
 40
1.0
 40
1.0
 40
1.0
 40
1.0
 10
37.7562687582
 20
42.3569534531
 30
0.0
 10
37.7562687582
 20
42.048731924
 30
0.0
 10
37.7293191869
 20
41.4492786276
 30
0.0
 10
37.6406697371
 20
40.8554182334
 30
0.0
 10
37.580520999
 20
40.5708925656
 30
0.0
  0
SPLINE
  5
2DB
100
AcDbEntity
  8
1
100
AcDbSpline
 62
7
  6
BYLAYER
 70
0
 71
3
 72
23
 73
19
 74
0
 42
0.0000001
 43
0.0000001
 44
0.0000000001
 40
0.0
 40
0.0
 40
0.0
 40
0.0
 40
0.050957838
 40
0.1051419415
 40
0.1624459864
 40
0.2226357734
 40
0.2853739311
 40
0.3502413154
 40
0.4167573061
 40
0.4843965297
 40
0.5526038888
 40
0.6208097322
 40
0.6884442421
 40
0.7549531315
 40
0.8198113314
 40
0.8825332056
 40
0.9427174821
 40
1.0
 40
1.0
 40
1.0
 40
1.0
 10
28.360713063
 20
56.439611372
 30
0.0
 10
28.6499980662
 20
56.3485860918
 30
0.0
 10
29.235296274
 20
56.1225548596
 30
0.0
 10
30.0954266348
 20
55.6777673572
 30
0.0
 10
30.9547543775
 20
55.1223956447
 30
0.0
 10
31.8026276959
 20
54.4634216974
 30
0.0
 10
32.6286912363
 20
53.7089931994
 30
0.0
 10
33.4227428687
 20
52.8684960787
 30
0.0
 10
34.1749474458
 20
51.9523740077
 30
0.0
 10
34.8759509106
 20
50.9720177868
 30
0.0
 10
35.5170123134
 20
49.9396247853
 30
0.0
 10
36.0901547467
 20
48.8680679005
 30
0.0
 10
36.5882500975
 20
47.7707020357
 30
0.0
 10
37.0050891641
 20
46.6611763472
 30
0.0
 10
37.3354394127
 20
45.5533134661
 30
0.0
 10
37.5752860593
 20
44.4607684471
 30
0.0
 10
37.7214812623
 20
43.3972611166
 30
0.0
 10
37.7562687582
 20
42.6978617255
 30
0.0
 10
37.7562687582
 20
42.3569534531
 30
0.0
  0
SPLINE
  5
2DC
100
AcDbEntity
  8
1
100
AcDbSpline
 62
7
  6
BYLAYER
 70
0
 71
3
 72
23
 73
19
 74
0
 42
0.0000001
 43
0.0000001
 44
0.0000000001
 40
0.0
 40
0.0
 40
0.0
 40
0.0
 40
0.0458621795
 40
0.0951429534
 40
0.1481696302
 40
0.2049860738
 40
0.2654042727
 40
0.3290526177
 40
0.3954174533
 40
0.4638785505
 40
0.5337399827
 40
0.6042579623
 40
0.6746671262
 40
0.7442050589
 40
0.812140058
 40
0.8777923376
 40
0.9405744055
 40
1.0
 40
1.0
 40
1.0
 40
1.0
 10
23.5887430521
 20
57.9836541551
 30
0.0
 10
23.9644911883
 20
57.9899750456
 30
0.0
 10
24.7463978628
 20
57.9276433131
 30
0.0
 10
25.9291856092
 20
57.635373146
 30
0.0
 10
27.1425774744
 20
57.1479410591
 30
0.0
 10
28.3674606126
 20
56.473920271
 30
0.0
 10
29.5850541898
 20
55.6244081747
 30
0.0
 10
30.7761699177
 20
54.6130938782
 30
0.0
 10
31.9218860053
 20
53.4562211804
 30
0.0
 10
33.0038452059
 20
52.1723952495
 30
0.0
 10
34.0046372711
 20
50.7823042423
 30
0.0
 10
34.9081193021
 20
49.3083817288
 30
0.0
 10
35.6996935604
 20
47.7744330461
 30
0.0
 10
36.366595709
 20
46.2052211717
 30
0.0
 10
36.8980256889
 20
44.6260772028
 30
0.0
 10
37.2854777016
 20
43.062308514
 30
0.0
 10
37.5225766803
 20
41.5392607096
 30
0.0
 10
37.5795086964
 20
40.5373250346
 30
0.0
 10
37.5795086964
 20
40.0503831619
 30
0.0
  0
SPLINE
  5
2DD
100
AcDbEntity
  8
1
100
AcDbSpline
 62
7
  6
BYLAYER
 70
0
 71
3
 72
16
 73
12
 74
0
 42
0.0000001
 43
0.0000001
 44
0.0000000001
 40
0.0
 40
0.0
 40
0.0
 40
0.0
 40
0.108635735
 40
0.2192119469
 40
0.3335017707
 40
0.4529882408
 40
0.5150778641
 40
0.5788528378
 40
0.7117182601
 40
0.8520829096
 40
1.0
 40
1.0
 40
1.0
 40
1.0
 10
12.3656920849
 20
50.8376104071
 30
0.0
 10
12.1687488129
 20
50.7239058314
 30
0.0
 10
11.7897691883
 20
50.4608058287
 30
0.0
 10
11.2868159795
 20
49.9725511579
 30
0.0
 10
10.8516786358
 20
49.3945090908
 30
0.0
 10
10.5524974902
 20
48.8498990104
 30
0.0
 10
10.3493445531
 20
48.377901295
 30
0.0
 10
10.1659712056
 20
47.8679558008
 30
0.0
 10
9.9863379037
 20
47.1841037677
 30
0.0
 10
9.8517866283
 20
46.3115077724
 30
0.0
 10
9.8156710148
 20
45.7081857682
 30
0.0
 10
9.8098577532
 20
45.3986014398
 30
0.0
  0
SPLINE
  5
2DE
100
AcDbEntity
  8
1
100
AcDbSpline
 62
7
  6
BYLAYER
 70
0
 71
3
 72
11
 73
7
 74
0
 42
0.0000001
 43
0.0000001
 44
0.0000000001
 40
0.0
 40
0.0
 40
0.0
 40
0.0
 40
0.2471445882
 40
0.499999629
 40
0.7528548729
 40
1.0
 40
1.0
 40
1.0
 40
1.0
 10
22.2682171032
 20
47.6442074963
 30
0.0
 10
22.7890229258
 20
47.0784426681
 30
0.0
 10
23.7755405521
 20
45.8704885868
 30
0.0
 10
25.0547349164
 20
43.9030759816
 30
0.0
 10
26.1189599663
 20
41.8115524575
 30
0.0
 10
26.6718378719
 20
40.3532271014
 30
0.0
 10
26.9013699646
 20
39.6193019395
 30
0.0
  0
SPLINE
  5
2DF
100
AcDbEntity
  8
1
100
AcDbSpline
 62
7
  6
BYLAYER
 70
0
 71
3
 72
15
 73
11
 74
0
 42
0.0000001
 43
0.0000001
 44
0.0000000001
 40
0.0
 40
0.0
 40
0.0
 40
0.0
 40
0.1080128009
 40
0.2180620984
 40
0.3319998672
 40
0.4513592489
 40
0.5772785455
 40
0.7104931115
 40
0.8514153353
 40
1.0
 40
1.0
 40
1.0
 40
1.0
 10
11.8093605436
 20
52.6526044154
 30
0.0
 10
11.5765431337
 20
52.5181880909
 30
0.0
 10
11.1289125994
 20
52.205850559
 30
0.0
 10
10.537459307
 20
51.6237685442
 30
0.0
 10
10.0287951986
 20
50.9329079262
 30
0.0
 10
9.6076171198
 20
50.1410443764
 30
0.0
 10
9.2772175624
 20
49.2562658643
 30
0.0
 10
9.040109051
 20
48.2870933864
 30
0.0
 10
8.8981853711
 20
47.2429232944
 30
0.0
 10
8.868363066
 20
46.5218707999
 30
0.0
 10
8.868363066
 20
46.1520571988
 30
0.0
  0
SPLINE
  5
2E0
100
AcDbEntity
  8
1
100
AcDbSpline
 62
7
  6
BYLAYER
 70
0
 71
3
 72
26
 73
22
 74
0
 42
0.0000001
 43
0.0000001
 44
0.0000000001
 40
0.0
 40
0.0
 40
0.0
 40
0.0
 40
0.0213308783
 40
0.0428902384
 40
0.0648942634
 40
0.0875378513
 40
0.1109858389
 40
0.1353714858
 40
0.1872692724
 40
0.2437034563
 40
0.3046474984
 40
0.3697311035
 40
0.4383239664
 40
0.5096057787
 40
0.5826252604
 40
0.6563519557
 40
0.7297244389
 40
0.8016962539
 40
0.8712851586
 40
0.9376195394
 40
1.0
 40
1.0
 40
1.0
 40
1.0
 10
19.9716560971
 20
57.422809623
 30
0.0
 10
20.146728377
 20
57.5238867799
 30
0.0
 10
20.5121862198
 20
57.7047899442
 30
0.0
 10
21.0949041281
 20
57.9061702585
 30
0.0
 10
21.7100336274
 20
58.0374241584
 30
0.0
 10
22.3539269378
 20
58.0977710004
 30
0.0
 10
23.0230228201
 20
58.0872666505
 30
0.0
 10
23.963079894
 20
57.9766795961
 30
0.0
 10
25.1854489367
 20
57.6520972288
 30
0.0
 10
26.6575053629
 20
57.0013905432
 30
0.0
 10
28.1363912591
 20
56.0966734106
 30
0.0
 10
29.5915100555
 20
54.9574671092
 30
0.0
 10
30.9928134813
 20
53.6079021589
 30
0.0
 10
32.3107630076
 20
52.0765893114
 30
0.0
 10
33.5174113397
 20
50.3960806453
 30
0.0
 10
34.5870536528
 20
48.6021903498
 30
0.0
 10
35.4968691095
 20
46.7331765343
 30
0.0
 10
36.2274655994
 20
44.8289159925
 30
0.0
 10
36.7632642624
 20
42.9297759691
 30
0.0
 10
37.0928413247
 20
41.0763664869
 30
0.0
 10
37.1729279643
 20
39.8557035266
 30
0.0
 10
37.1729279643
 20
39.2645154603
 30
0.0
  0
SPLINE
  5
2E1
100
AcDbEntity
  8
1
100
AcDbSpline
 62
7
  6
BYLAYER
 70
0
 71
3
 72
12
 73
8
 74
0
 42
0.0000001
 43
0.0000001
 44
0.0000000001
 40
0.0
 40
0.0
 40
0.0
 40
0.0
 40
0.280749076
 40
0.539843489
 40
0.7783606522
 40
0.8910207997
 40
1.0
 40
1.0
 40
1.0
 40
1.0
 10
10.8272554585
 20
44.1670175657
 30
0.0
 10
10.8272554585
 20
44.5593139146
 30
0.0
 10
10.8723958963
 20
45.3149623781
 30
0.0
 10
11.093522902
 20
46.3840166878
 30
0.0
 10
11.4079925699
 20
47.1826972456
 30
0.0
 10
11.7329895996
 20
47.738671434
 30
0.0
 10
11.9177908788
 20
47.9881707138
 30
0.0
 10
12.0154052227
 20
48.1050479298
 30
0.0
  0
SPLINE
  5
2E2
100
AcDbEntity
  8
1
100
AcDbSpline
 62
7
  6
BYLAYER
 70
0
 71
3
 72
15
 73
11
 74
0
 42
0.0000001
 43
0.0000001
 44
0.0000000001
 40
0.0
 40
0.0
 40
0.0
 40
0.0
 40
0.1130473368
 40
0.2238176153
 40
0.335676381
 40
0.4518320103
 40
0.574916282
 40
0.7067443903
 40
0.8483690185
 40
1.0
 40
1.0
 40
1.0
 40
1.0
 10
12.0154052227
 20
48.1050479298
 30
0.0
 10
12.17780605
 20
48.2994963667
 30
0.0
 10
12.5383343383
 20
48.6542744678
 30
0.0
 10
13.1795093343
 20
49.0585598109
 30
0.0
 10
13.8993788522
 20
49.3175794867
 30
0.0
 10
14.6836193439
 20
49.4274207975
 30
0.0
 10
15.5184870128
 20
49.3883723914
 30
0.0
 10
16.3910935727
 20
49.2030950415
 30
0.0
 10
17.2884639927
 20
48.8756119205
 30
0.0
 10
17.8753503261
 20
48.5761706976
 30
0.0
 10
18.1696398779
 20
48.4062663894
 30
0.0
  0
SPLINE
  5
2E3
100
AcDbEntity
  8
1
100
AcDbSpline
 62
7
  6
BYLAYER
 70
0
 71
3
 72
19
 73
15
 74
0
 42
0.0000001
 43
0.0000001
 44
0.0000000001
 40
0.0
 40
0.0
 40
0.0
 40
0.0
 40
0.0558398063
 40
0.1142083142
 40
0.1748227683
 40
0.2374052757
 40
0.3670158662
 40
0.4999989199
 40
0.6329821241
 40
0.7625931541
 40
0.8251759788
 40
0.8857908067
 40
0.944159736
 40
1.0
 40
1.0
 40
1.0
 40
1.0
 10
18.1696398779
 20
31.4497052996
 30
0.0
 10
17.9236907297
 20
31.5917008941
 30
0.0
 10
17.4331017156
 20
31.9041044576
 30
0.0
 10
16.7215026892
 20
32.4384411487
 30
0.0
 10
16.0238049144
 20
33.0445263119
 30
0.0
 10
15.1106548959
 20
33.9507822363
 30
0.0
 10
14.0491808317
 20
35.2246999422
 30
0.0
 10
12.9448946212
 20
36.9113928431
 30
0.0
 10
12.036309287
 20
38.7110768835
 30
0.0
 10
11.4637914768
 20
40.2673005169
 30
0.0
 10
11.1355167249
 20
41.5112431211
 30
0.0
 10
10.9594731382
 20
42.4185140283
 30
0.0
 10
10.8525158128
 20
43.3019506797
 30
0.0
 10
10.8272554585
 20
43.8830192303
 30
0.0
 10
10.8272554585
 20
44.1670175657
 30
0.0
  0
SPLINE
  5
2E4
100
AcDbEntity
  8
1
100
AcDbSpline
 62
7
  6
BYLAYER
 70
0
 71
3
 72
15
 73
11
 74
0
 42
0.0000001
 43
0.0000001
 44
0.0000000001
 40
0.0
 40
0.0
 40
0.0
 40
0.0
 40
0.1485841216
 40
0.2895059203
 40
0.4227202167
 40
0.5486394273
 40
0.6679989191
 40
0.7819369791
 40
0.8919867101
 40
1.0
 40
1.0
 40
1.0
 40
1.0
 10
18.5406579508
 20
50.2259968017
 30
0.0
 10
18.2621219359
 20
50.3868060068
 30
0.0
 10
17.7060719941
 20
50.6778860545
 30
0.0
 10
16.8579102628
 20
51.025038274
 30
0.0
 10
16.0248444737
 20
51.2678881342
 30
0.0
 10
15.2147749398
 20
51.4037761557
 30
0.0
 10
14.435211759
 20
51.4308896313
 30
0.0
 10
13.693678004
 20
51.3481913322
 30
0.0
 10
12.9980723965
 20
51.1558375202
 30
0.0
 10
12.5681731139
 20
50.9545121893
 30
0.0
 10
12.3656920849
 20
50.8376104071
 30
0.0
  0
SPLINE
  5
2E5
100
AcDbEntity
  8
1
100
AcDbSpline
 62
7
  6
BYLAYER
 70
0
 71
3
 72
10
 73
6
 74
0
 42
0.0000001
 43
0.0000001
 44
0.0000000001
 40
0.0
 40
0.0
 40
0.0
 40
0.0
 40
0.2348978431
 40
0.4807496762
 40
1.0
 40
1.0
 40
1.0
 40
1.0
 10
27.6270161526
 20
35.1412437272
 30
0.0
 10
27.6270161526
 20
35.4974557136
 30
0.0
 10
27.5941396622
 20
36.226821459
 30
0.0
 10
27.4053591272
 20
37.7325399091
 30
0.0
 10
27.1327385062
 20
38.8653813066
 30
0.0
 10
26.9014965207
 20
39.6180810668
 30
0.0
  0
SPLINE
  5
2E6
100
AcDbEntity
  8
1
100
AcDbSpline
 62
7
  6
BYLAYER
 70
0
 71
3
 72
12
 73
8
 74
0
 42
0.0000001
 43
0.0000001
 44
0.0000000001
 40
0.0
 40
0.0
 40
0.0
 40
0.0
 40
0.2712722799
 40
0.5255681226
 40
0.766645784
 40
0.8839517356
 40
1.0
 40
1.0
 40
1.0
 40
1.0
 10
21.1714095077
 20
29.0091409737
 30
0.0
 10
21.4985179613
 20
28.927291115
 30
0.0
 10
22.1442835781
 20
28.8110854869
 30
0.0
 10
23.10136461
 20
28.793480912
 30
0.0
 10
23.8579169135
 20
28.9177733415
 30
0.0
 10
24.4198301836
 20
29.0994064209
 30
0.0
 10
24.6859296306
 20
29.2163936596
 30
0.0
 10
24.8148099833
 20
29.2811823197
 30
0.0
  0
SPLINE
  5
2E7
100
AcDbEntity
  8
1
100
AcDbSpline
 62
7
  6
BYLAYER
 70
0
 71
3
 72
15
 73
11
 74
0
 42
0.0000001
 43
0.0000001
 44
0.0000000001
 40
0.0
 40
0.0
 40
0.0
 40
0.0
 40
0.148579344
 40
0.2895083364
 40
0.422723512
 40
0.5486404139
 40
0.6680006748
 40
0.7819380511
 40
0.8919867786
 40
1.0
 40
1.0
 40
1.0
 40
1.0
 10
27.4855942075
 20
35.2228918781
 30
0.0
 10
27.4855942075
 20
34.9012699309
 30
0.0
 10
27.4596477768
 20
34.2741551912
 30
0.0
 10
27.3362268719
 20
33.3660163504
 30
0.0
 10
27.130011086
 20
32.5230967861
 30
0.0
 10
26.8426337468
 20
31.7536005183
 30
0.0
 10
26.4763488951
 20
31.0648979315
 30
0.0
 10
26.0339550281
 20
30.4640396831
 30
0.0
 10
25.5195349414
 20
29.9578226324
 30
0.0
 10
25.1302463591
 20
29.6861425523
 30
0.0
 10
24.9277547374
 20
29.5692471698
 30
0.0
  0
SPLINE
  5
2E8
100
AcDbEntity
  8
1
100
AcDbSpline
 62
7
  6
BYLAYER
 70
0
 71
3
 72
37
 73
33
 74
0
 42
0.0000001
 43
0.0000001
 44
0.0000000001
 40
0.0
 40
0.0
 40
0.0
 40
0.0
 40
0.0309888358
 40
0.0603820234
 40
0.0881664015
 40
0.1014858384
 40
0.1144413629
 40
0.1393361914
 40
0.1631000361
 40
0.1860526896
 40
0.208580716
 40
0.2311087094
 40
0.2540614261
 40
0.2778249975
 40
0.3027190993
 40
0.315674424
 40
0.3289946169
 40
0.3567802168
 40
0.3861659562
 40
0.4171600769
 40
0.4497119639
 40
0.4837229656
 40
0.5190531564
 40
0.5555296139
 40
0.6310713658
 40
0.708579316
 40
0.7860873685
 40
0.8616296146
 40
0.8981060258
 40
0.9334344121
 40
0.9674527588
 40
1.0
 40
1.0
 40
1.0
 40
1.0
 10
27.6703731985
 20
34.9589602498
 30
0.0
 10
27.6703731985
 20
34.6255211413
 30
0.0
 10
27.6434702579
 20
33.975350377
 30
0.0
 10
27.5155322202
 20
33.0339064938
 30
0.0
 10
27.334859297
 20
32.2953922142
 30
0.0
 10
27.1466116356
 20
31.7446592856
 30
0.0
 10
26.9364036824
 20
31.235472872
 30
0.0
 10
26.6240337638
 20
30.6481442178
 30
0.0
 10
26.1654497252
 20
30.0252649121
 30
0.0
 10
25.6319861481
 20
29.5003363481
 30
0.0
 10
25.0290086781
 20
29.0794921715
 30
0.0
 10
24.3630732137
 20
28.7676749086
 30
0.0
 10
23.6417313312
 20
28.5681883472
 30
0.0
 10
22.8730293178
 20
28.4824322025
 30
0.0
 10
22.208212883
 20
28.5055496842
 30
0.0
 10
21.6621408702
 20
28.57808772
 30
0.0
 10
21.091055428
 20
28.6904692889
 30
0.0
 10
20.3612104964
 20
28.903207479
 30
0.0
 10
19.4818549303
 20
29.263087871
 30
0.0
 10
18.5947946084
 20
29.7275048692
 30
0.0
 10
17.7083657458
 20
30.2918818396
 30
0.0
 10
16.830898725
 20
30.9508604102
 30
0.0
 10
15.9706429522
 20
31.6981553807
 30
0.0
 10
14.844590322
 20
32.8156231899
 30
0.0
 10
13.5357469514
 20
34.3865102997
 30
0.0
 10
12.174062436
 20
36.4663312533
 30
0.0
 10
11.0536904425
 20
38.6854860871
 30
0.0
 10
10.3477247139
 20
40.6044439066
 30
0.0
 10
9.9429449446
 20
42.1383316308
 30
0.0
 10
9.7258749253
 20
43.2570602292
 30
0.0
 10
9.5939699601
 20
44.3464040751
 30
0.0
 10
9.5628329321
 20
45.0629094797
 30
0.0
 10
9.5628329321
 20
45.4131169919
 30
0.0
  0
SPLINE
  5
2E9
100
AcDbEntity
  8
1
100
AcDbSpline
 62
7
  6
BYLAYER
 70
0
 71
3
 72
26
 73
22
 74
0
 42
0.0000001
 43
0.0000001
 44
0.0000000001
 40
0.0
 40
0.0
 40
0.0
 40
0.0
 40
0.0623802293
 40
0.1287141127
 40
0.1983027023
 40
0.2702746676
 40
0.3436472268
 40
0.4173741316
 40
0.4903938395
 40
0.5616758443
 40
0.6302687977
 40
0.6953524059
 40
0.7562964176
 40
0.8127305477
 40
0.8646283254
 40
0.8890140066
 40
0.9124620404
 40
0.935105678
 40
0.957109737
 40
0.9786691161
 40
1.0
 40
1.0
 40
1.0
 40
1.0
 10
28.9502792605
 20
34.5580197706
 30
0.0
 10
28.9502792605
 20
35.147131487
 30
0.0
 10
28.8704746836
 20
36.3635049219
 30
0.0
 10
28.5420570909
 20
38.2104022663
 30
0.0
 10
28.0081429224
 20
40.102873991
 30
0.0
 10
27.2801126607
 20
42.0004537671
 30
0.0
 10
26.3734895593
 20
43.8629149326
 30
0.0
 10
25.3075994512
 20
45.6505167108
 30
0.0
 10
24.105182342
 20
47.3251350714
 30
0.0
 10
22.7918544613
 20
48.8510797121
 30
0.0
 10
21.3954659611
 20
50.1959121108
 30
0.0
 10
19.9454521642
 20
51.3311222201
 30
0.0
 10
18.4717557412
 20
52.2326650635
 30
0.0
 10
17.0048649782
 20
52.881088914
 30
0.0
 10
15.7867848982
 20
53.2045324626
 30
0.0
 10
14.8500253776
 20
53.3147323339
 30
0.0
 10
14.1832757571
 20
53.3251994483
 30
0.0
 10
13.5416402793
 20
53.2650644638
 30
0.0
 10
12.9286680733
 20
53.134270398
 30
0.0
 10
12.3479941962
 20
52.9335961232
 30
0.0
 10
11.9838185399
 20
52.7533271348
 30
0.0
 10
11.8093605436
 20
52.6526044154
 30
0.0
  0
SPLINE
  5
2EA
100
AcDbEntity
  8
1
100
AcDbSpline
 62
7
  6
BYLAYER
 70
0
 71
3
 72
23
 73
19
 74
0
 42
0.0000001
 43
0.0000001
 44
0.0000000001
 40
0.0
 40
0.0
 40
0.0
 40
0.0
 40
0.0690105449
 40
0.1334668516
 40
0.1934724421
 40
0.2494993278
 40
0.3023721902
 40
0.3532850205
 40
0.4036936451
 40
0.4551275379
 40
0.5089694273
 40
0.5662930606
 40
0.627798188
 40
0.6938220432
 40
0.7643873004
 40
0.8392586773
 40
0.9179960814
 40
1.0
 40
1.0
 40
1.0
 40
1.0
 10
9.5628329321
 20
45.4131169919
 30
0.0
 10
9.5628329321
 20
45.8317594271
 30
0.0
 10
9.6048078333
 20
46.6423713064
 30
0.0
 10
9.8079772679
 20
47.8015934558
 30
0.0
 10
10.1474439125
 20
48.8469376775
 30
0.0
 10
10.6195686538
 20
49.7621226371
 30
0.0
 10
11.2192548973
 20
50.5317937871
 30
0.0
 10
11.9382542634
 20
51.1411301831
 30
0.0
 10
12.764106276
 20
51.5773625228
 30
0.0
 10
13.6805638899
 20
51.8323547408
 30
0.0
 10
14.6702626553
 20
51.903516975
 30
0.0
 10
15.7166457968
 20
51.7923340663
 30
0.0
 10
16.8039484845
 20
51.5026773155
 30
0.0
 10
17.9164576778
 20
51.040213498
 30
0.0
 10
19.0380905226
 20
50.4125318927
 30
0.0
 10
20.152444345
 20
49.6293274247
 30
0.0
 10
21.2428929058
 20
48.7025819348
 30
0.0
 10
21.9312994195
 20
48.0102098857
 30
0.0
 10
22.2682171032
 20
47.6442074963
 30
0.0
  0
SPLINE
  5
2EB
100
AcDbEntity
  8
1
100
AcDbSpline
 62
7
  6
BYLAYER
 70
0
 71
3
 72
26
 73
22
 74
0
 42
0.0000001
 43
0.0000001
 44
0.0000000001
 40
0.0
 40
0.0
 40
0.0
 40
0.0
 40
0.0623802915
 40
0.1287143647
 40
0.1983030499
 40
0.2702747856
 40
0.3436474303
 40
0.4173743722
 40
0.490394012
 40
0.5616759134
 40
0.6302688808
 40
0.6953525927
 40
0.7562966803
 40
0.8127308444
 40
0.8646286061
 40
0.8890142528
 40
0.9124622405
 40
0.9351058261
 40
0.9571098356
 40
0.978669164
 40
1.0
 40
1.0
 40
1.0
 40
1.0
 10
32.2232011039
 20
36.4068063832
 30
0.0
 10
32.2232011039
 20
36.997992843
 30
0.0
 10
32.1431151851
 20
38.2186512965
 30
0.0
 10
31.8135398925
 20
40.0720543434
 30
0.0
 10
31.2777446997
 20
41.9711893359
 30
0.0
 10
30.5471501726
 20
43.8754492357
 30
0.0
 10
29.6373349157
 20
45.7444666114
 30
0.0
 10
28.567690833
 20
47.5383621175
 30
0.0
 10
27.3610403595
 20
49.2188750109
 30
0.0
 10
26.0430889609
 20
50.7501906461
 30
0.0
 10
24.6417836037
 20
52.0997576956
 30
0.0
 10
23.1866628293
 20
53.2389654377
 30
0.0
 10
21.7077756732
 20
54.1436829031
 30
0.0
 10
20.2357190362
 20
54.7943892084
 30
0.0
 10
19.0133502634
 20
55.118970709
 30
0.0
 10
18.0732934282
 20
55.2295578882
 30
0.0
 10
17.4041975637
 20
55.2400614862
 30
0.0
 10
16.76030442
 20
55.1797147281
 30
0.0
 10
16.1451754938
 20
55.0484604012
 30
0.0
 10
15.5624584082
 20
54.847080291
 30
0.0
 10
15.1970013762
 20
54.6661771396
 30
0.0
 10
15.0219293182
 20
54.5651004038
 30
0.0
  0
SPLINE
  5
2EC
100
AcDbEntity
  8
1
100
AcDbSpline
 62
7
  6
BYLAYER
 70
0
 71
3
 72
15
 73
11
 74
0
 42
0.0000001
 43
0.0000001
 44
0.0000000001
 40
0.0
 40
0.0
 40
0.0
 40
0.0
 40
0.1141578216
 40
0.2373244184
 40
0.3669749174
 40
0.499998918
 40
0.6330230691
 40
0.7626740077
 40
0.885841297
 40
1.0
 40
1.0
 40
1.0
 40
1.0
 10
18.0495507069
 20
46.0336738904
 30
0.0
 10
18.4156543538
 20
45.8223086331
 30
0.0
 10
19.1387548984
 20
45.3154376161
 30
0.0
 10
20.1336845594
 20
44.3845799202
 30
0.0
 10
21.0505906785
 20
43.2842779659
 30
0.0
 10
21.8549093207
 20
42.0557394144
 30
0.0
 10
22.5167025408
 20
40.7449114551
 30
0.0
 10
23.0111476145
 20
39.4006946601
 30
0.0
 10
23.3198392962
 20
38.0736261996
 30
0.0
 10
23.3972599292
 20
37.1939621838
 30
0.0
 10
23.3972599292
 20
36.7712212325
 30
0.0
  0
SPLINE
  5
2ED
100
AcDbEntity
  8
1
100
AcDbSpline
 62
7
  6
BYLAYER
 70
0
 71
3
 72
23
 73
19
 74
0
 42
0.0000001
 43
0.0000001
 44
0.0000000001
 40
0.0
 40
0.0
 40
0.0
 40
0.0
 40
0.0742864627
 40
0.1447546974
 40
0.2113630555
 40
0.2743202538
 40
0.3340015067
 40
0.3909706922
 40
0.4459951555
 40
0.5000019685
 40
0.5540086904
 40
0.6090328891
 40
0.6660016596
 40
0.7256823793
 40
0.7886389618
 40
0.8552466559
 40
0.9257142089
 40
1.0
 40
1.0
 40
1.0
 40
1.0
 10
12.7018414865
 20
42.9460842552
 30
0.0
 10
12.7018414865
 20
43.1430248129
 30
0.0
 10
12.7177370144
 20
43.5270469967
 30
0.0
 10
12.7933031194
 20
44.0831613147
 30
0.0
 10
12.9195825365
 20
44.5993435414
 30
0.0
 10
13.0955688316
 20
45.0705496615
 30
0.0
 10
13.3198547532
 20
45.4923015257
 30
0.0
 10
13.5907508372
 20
45.8602246347
 30
0.0
 10
13.9058381419
 20
46.1702762359
 30
0.0
 10
14.2619861075
 20
46.4188699144
 30
0.0
 10
14.6553433205
 20
46.6030157643
 30
0.0
 10
15.0813947986
 20
46.7208731517
 30
0.0
 10
15.5354693452
 20
46.7715239945
 30
0.0
 10
16.0128563533
 20
46.7548946972
 30
0.0
 10
16.5089226592
 20
46.6717093169
 30
0.0
 10
17.019086462
 20
46.5229881495
 30
0.0
 10
17.538476322
 20
46.3103815397
 30
0.0
 10
17.8789957584
 20
46.1321416081
 30
0.0
 10
18.0495507069
 20
46.0336738904
 30
0.0
  0
SPLINE
  5
2EE
100
AcDbEntity
  8
1
100
AcDbSpline
 62
7
  6
BYLAYER
 70
0
 71
3
 72
15
 73
11
 74
0
 42
0.0000001
 43
0.0000001
 44
0.0000000001
 40
0.0
 40
0.0
 40
0.0
 40
0.0
 40
0.148584693
 40
0.2895071078
 40
0.4227219608
 40
0.5486413991
 40
0.6680004634
 40
0.7819377728
 40
0.8919871087
 40
1.0
 40
1.0
 40
1.0
 40
1.0
 10
32.1878456176
 20
36.4272184209
 30
0.0
 10
32.1878456176
 20
36.0574048509
 30
0.0
 10
32.1580232692
 20
35.3363519964
 30
0.0
 10
32.0160990411
 20
34.2921810158
 30
0.0
 10
31.7789899388
 20
33.3230072978
 30
0.0
 10
31.4485884473
 20
32.438229546
 30
0.0
 10
31.027411751
 20
31.6463673183
 30
0.0
 10
30.5187472247
 20
30.9555095505
 30
0.0
 10
29.9272945328
 20
30.3734285268
 30
0.0
 10
29.4796636169
 20
30.0610911819
 30
0.0
 10
29.2468459502
 20
29.9266749999
 30
0.0
  0
SPLINE
  5
2EF
100
AcDbEntity
  8
1
100
AcDbSpline
 62
7
  6
BYLAYER
 70
0
 71
3
 72
15
 73
11
 74
0
 42
0.0000001
 43
0.0000001
 44
0.0000000001
 40
0.0
 40
0.0
 40
0.0
 40
0.0
 40
0.1080136954
 40
0.2180638226
 40
0.3320021759
 40
0.4513618006
 40
0.5772814965
 40
0.7104957723
 40
0.8514158712
 40
1.0
 40
1.0
 40
1.0
 40
1.0
 10
24.7156237713
 20
29.4467735715
 30
0.0
 10
24.918110551
 20
29.5636796846
 30
0.0
 10
25.3074275498
 20
29.8353254751
 30
0.0
 10
25.8218255334
 20
30.3415801845
 30
0.0
 10
26.2642213648
 20
30.9424374138
 30
0.0
 10
26.630529017
 20
31.6311381815
 30
0.0
 10
26.9178787926
 20
32.4006489237
 30
0.0
 10
27.1240940683
 20
33.2435518251
 30
0.0
 10
27.2475283232
 20
34.151679214
 30
0.0
 10
27.2734630564
 20
34.7787861269
 30
0.0
 10
27.2734630564
 20
35.100418632
 30
0.0
  0
SPLINE
  5
2F0
100
AcDbEntity
  8
1
100
AcDbSpline
 62
7
  6
BYLAYER
 70
0
 71
3
 72
15
 73
11
 74
0
 42
0.0000001
 43
0.0000001
 44
0.0000000001
 40
0.0
 40
0.0
 40
0.0
 40
0.0
 40
0.1141578216
 40
0.2373244184
 40
0.3669749174
 40
0.4999989181
 40
0.6330230691
 40
0.7626740077
 40
0.885841297
 40
1.0
 40
1.0
 40
1.0
 40
1.0
 10
18.0495507069
 20
33.6836315985
 30
0.0
 10
17.6834470601
 20
33.8949968559
 30
0.0
 10
16.9603465157
 20
34.4018678731
 30
0.0
 10
15.965416855
 20
35.332725569
 30
0.0
 10
15.0485107362
 20
36.4330275233
 30
0.0
 10
14.2441920944
 20
37.6615660746
 30
0.0
 10
13.5823988746
 20
38.9723940336
 30
0.0
 10
13.0879538011
 20
40.3166108283
 30
0.0
 10
12.7792621196
 20
41.6436792885
 30
0.0
 10
12.7018414865
 20
42.5233433041
 30
0.0
 10
12.7018414865
 20
42.9460842552
 30
0.0
  0
SPLINE
  5
2F1
100
AcDbEntity
  8
1
100
AcDbSpline
 62
7
  6
BYLAYER
 70
0
 71
3
 72
17
 73
13
 74
0
 42
0.0000001
 43
0.0000001
 44
0.0000000001
 40
0.0
 40
0.0
 40
0.0
 40
0.0
 40
0.0485740225
 40
0.0976754436
 40
0.1478043146
 40
0.1994083834
 40
0.3083466417
 40
0.4267796797
 40
0.5556287677
 40
0.6948034126
 40
0.8434205915
 40
1.0
 40
1.0
 40
1.0
 40
1.0
 10
12.5778234663
 20
50.960083223
 30
0.0
 10
12.7306691254
 20
51.0483187343
 30
0.0
 10
13.0498405716
 20
51.2061040897
 30
0.0
 10
13.5589091835
 20
51.3812837117
 30
0.0
 10
14.0964812024
 20
51.4946937325
 30
0.0
 10
14.8602768217
 20
51.5641266555
 30
0.0
 10
15.8787256174
 20
51.485456558
 30
0.0
 10
17.1338458517
 20
51.1458551236
 30
0.0
 10
18.4199096404
 20
50.5701399104
 30
0.0
 10
19.7105037578
 20
49.7716393261
 30
0.0
 10
20.9790456513
 20
48.7679372598
 30
0.0
 10
21.7751001729
 20
47.9929972987
 30
0.0
 10
22.1640634655
 20
47.5778322686
 30
0.0
  0
SPLINE
  5
2F2
100
AcDbEntity
  8
1
100
AcDbSpline
 62
7
  6
BYLAYER
 70
0
 71
3
 72
11
 73
7
 74
0
 42
0.0000001
 43
0.0000001
 44
0.0000000001
 40
0.0
 40
0.0
 40
0.0
 40
0.0
 40
0.2469449042
 40
0.5000351982
 40
0.7531076745
 40
1.0
 40
1.0
 40
1.0
 40
1.0
 10
22.1640634655
 20
47.5778322686
 30
0.0
 10
22.6898248739
 20
47.0166539901
 30
0.0
 10
23.684679151
 20
45.8133020859
 30
0.0
 10
24.9688650698
 20
43.8455004742
 30
0.0
 10
26.0295039807
 20
41.7489207929
 30
0.0
 10
26.5731460487
 20
40.2855074261
 30
0.0
 10
26.7956537453
 20
39.5495830713
 30
0.0
  0
SPLINE
  5
2F3
100
AcDbEntity
  8
1
100
AcDbSpline
 62
7
  6
BYLAYER
 70
0
 71
3
 72
10
 73
6
 74
0
 42
0.0000001
 43
0.0000001
 44
0.0000000001
 40
0.0
 40
0.0
 40
0.0
 40
0.0
 40
0.5190315566
 40
0.764916396
 40
1.0
 40
1.0
 40
1.0
 40
1.0
 10
26.7956537453
 20
39.5495830713
 30
0.0
 10
27.0156970076
 20
38.821809613
 30
0.0
 10
27.2749728928
 20
37.7269529692
 30
0.0
 10
27.4543752746
 20
36.2721222527
 30
0.0
 10
27.4855942075
 20
35.567257676
 30
0.0
 10
27.4855942075
 20
35.2228918781
 30
0.0
  0
SPLINE
  5
2F4
100
AcDbEntity
  8
1
100
AcDbSpline
 62
7
  6
BYLAYER
 70
0
 71
3
 72
15
 73
11
 74
0
 42
0.0000001
 43
0.0000001
 44
0.0000000001
 40
0.0
 40
0.0
 40
0.0
 40
0.0
 40
0.1080024168
 40
0.218057212
 40
0.3320083132
 40
0.4513821964
 40
0.5773112353
 40
0.710526805
 40
0.8514387682
 40
1.0
 40
1.0
 40
1.0
 40
1.0
 10
29.2795767247
 20
29.8878469992
 30
0.0
 10
29.5126604857
 20
30.0230009308
 30
0.0
 10
29.9607593522
 20
30.3368479275
 30
0.0
 10
30.552740227
 20
30.9211568958
 30
0.0
 10
31.0618337307
 20
31.6142679222
 30
0.0
 10
31.4833533719
 20
32.4084076094
 30
0.0
 10
31.814021055
 20
33.2954902345
 30
0.0
 10
32.0513167114
 20
34.2670021298
 30
0.0
 10
32.1933522334
 20
35.3135448736
 30
0.0
 10
32.2232011039
 20
36.0361903097
 30
0.0
 10
32.2232011039
 20
36.4068063832
 30
0.0
  0
SPLINE
  5
2F5
100
AcDbEntity
  8
1
100
AcDbSpline
 62
7
  6
BYLAYER
 70
0
 71
3
 72
11
 73
7
 74
0
 42
0.0000001
 43
0.0000001
 44
0.0000000001
 40
0.0
 40
0.0
 40
0.0
 40
0.0
 40
0.2640695912
 40
0.5196458553
 40
0.7653847948
 40
1.0
 40
1.0
 40
1.0
 40
1.0
 10
26.9013699646
 20
39.6193019395
 30
0.0
 10
27.0259098862
 20
39.2210875502
 30
0.0
 10
27.2457904155
 20
38.4292780836
 30
0.0
 10
27.4880575967
 20
37.2434316474
 30
0.0
 10
27.6354676466
 20
36.0889240398
 30
0.0
 10
27.6703731985
 20
35.329656594
 30
0.0
 10
27.6703731985
 20
34.9589602498
 30
0.0
  0
SPLINE
  5
2F6
100
AcDbEntity
  8
1
100
AcDbSpline
 62
7
  6
BYLAYER
 70
0
 71
3
 72
23
 73
19
 74
0
 42
0.0000001
 43
0.0000001
 44
0.0000000001
 40
0.0
 40
0.0
 40
0.0
 40
0.0
 40
0.0742864627
 40
0.1447546973
 40
0.2113630555
 40
0.2743202538
 40
0.3340015066
 40
0.3909706922
 40
0.4459951555
 40
0.5000019685
 40
0.5540086904
 40
0.6090328891
 40
0.6660016596
 40
0.7256823793
 40
0.7886389618
 40
0.8552466558
 40
0.9257142089
 40
1.0
 40
1.0
 40
1.0
 40
1.0
 10
23.3972599292
 20
36.7712212325
 30
0.0
 10
23.3972599292
 20
36.5742806748
 30
0.0
 10
23.3813644014
 20
36.190258491
 30
0.0
 10
23.3057982964
 20
35.6341441728
 30
0.0
 10
23.1795188792
 20
35.117961946
 30
0.0
 10
23.003532584
 20
34.6467558258
 30
0.0
 10
22.7792466623
 20
34.2250039615
 30
0.0
 10
22.5083505781
 20
33.8570808526
 30
0.0
 10
22.1932632733
 20
33.5470292514
 30
0.0
 10
21.8371153075
 20
33.2984355729
 30
0.0
 10
21.4437580943
 20
33.1142897231
 30
0.0
 10
21.0177066161
 20
32.9964323359
 30
0.0
 10
20.5636320693
 20
32.9457814932
 30
0.0
 10
20.086245061
 20
32.9624107907
 30
0.0
 10
19.590178755
 20
33.0455961712
 30
0.0
 10
19.080014952
 20
33.1943173389
 30
0.0
 10
18.5606250919
 20
33.406923949
 30
0.0
 10
18.2201056554
 20
33.5851638807
 30
0.0
 10
18.0495507069
 20
33.6836315985
 30
0.0
  0
SPLINE
  5
2F7
100
AcDbEntity
  8
1
100
AcDbSpline
 62
7
  6
BYLAYER
 70
0
 71
3
 72
9
 73
5
 74
0
 42
0.0000001
 43
0.0000001
 44
0.0000000001
 40
0.0
 40
0.0
 40
0.0
 40
0.0
 40
0.2431574819
 40
1.0
 40
1.0
 40
1.0
 40
1.0
 10
10.4443326952
 20
48.6616698681
 30
0.0
 10
10.4102497651
 20
48.5764782008
 30
0.0
 10
10.2774879063
 20
48.223178993
 30
0.0
 10
10.1739137557
 20
47.8591204116
 30
0.0
 10
10.1102880693
 20
47.5806999887
 30
0.0
  0
SPLINE
  5
2F8
100
AcDbEntity
  8
1
100
AcDbSpline
 62
7
  6
BYLAYER
 70
0
 71
3
 72
19
 73
15
 74
0
 42
0.0000001
 43
0.0000001
 44
0.0000000001
 40
0.0
 40
0.0
 40
0.0
 40
0.0
 40
0.0558576304
 40
0.1142175872
 40
0.1748417962
 40
0.2374324057
 40
0.3670529739
 40
0.5000407689
 40
0.6330212444
 40
0.7626212174
 40
0.8251990229
 40
0.885809185
 40
0.9441559409
 40
1.0
 40
1.0
 40
1.0
 40
1.0
 10
27.2734630564
 20
35.100418632
 30
0.0
 10
27.2734630564
 20
35.438302675
 30
0.0
 10
27.2434619045
 20
36.1294620844
 30
0.0
 10
27.1161466532
 20
37.1802918447
 30
0.0
 10
26.9067574996
 20
38.2594190549
 30
0.0
 10
26.5162747171
 20
39.7390840528
 30
0.0
 10
25.8352108195
 20
41.5901051125
 30
0.0
 10
24.7544703473
 20
43.7306232597
 30
0.0
 10
23.4410275406
 20
45.7366357286
 30
0.0
 10
22.1785921476
 20
47.2516954831
 30
0.0
 10
21.0925520435
 20
48.3294350172
 30
0.0
 10
20.2628475541
 20
49.0501404089
 30
0.0
 10
19.4166353003
 20
49.6856351071
 30
0.0
 10
18.8332046754
 20
50.0570986925
 30
0.0
 10
18.5406579508
 20
50.2259968017
 30
0.0
  0
SPLINE
  5
2F9
100
AcDbEntity
  8
1
100
AcDbSpline
 62
7
  6
BYLAYER
 70
0
 71
3
 72
26
 73
22
 74
0
 42
0.0000001
 43
0.0000001
 44
0.0000000001
 40
0.0
 40
0.0
 40
0.0
 40
0.0
 40
0.0213308772
 40
0.0428902358
 40
0.0648942593
 40
0.0875378457
 40
0.1109858318
 40
0.1353714771
 40
0.1872692622
 40
0.2437034476
 40
0.3046474931
 40
0.3697311015
 40
0.4383239649
 40
0.5096057758
 40
0.5826252535
 40
0.6563519451
 40
0.7297244265
 40
0.8016962443
 40
0.8712851554
 40
0.9376195399
 40
1.0
 40
1.0
 40
1.0
 40
1.0
 10
15.0469290906
 20
54.5217992701
 30
0.0
 10
15.2213870734
 20
54.6225217637
 30
0.0
 10
15.585562585
 20
54.8027901703
 30
0.0
 10
16.1662358277
 20
55.0034638884
 30
0.0
 10
16.7792069353
 20
55.1342572423
 30
0.0
 10
17.420840926
 20
55.1943923612
 30
0.0
 10
18.0875890602
 20
55.1839248798
 30
0.0
 10
19.02434765
 20
55.0737258983
 30
0.0
 10
20.2424276726
 20
54.7502824483
 30
0.0
 10
21.7093190343
 20
54.1018589663
 30
0.0
 10
23.1830159354
 20
53.2003162573
 30
0.0
 10
24.633029113
 20
52.0651071365
 30
0.0
 10
26.0294157059
 20
50.7202774911
 30
0.0
 10
27.3427408213
 20
49.1943377082
 30
0.0
 10
28.5451552603
 20
47.5197256429
 30
0.0
 10
29.6110444121
 20
45.7321297868
 30
0.0
 10
30.5176675483
 20
43.8696739508
 30
0.0
 10
31.2457005908
 20
41.9720949683
 30
0.0
 10
31.7796193109
 20
40.0796184807
 30
0.0
 10
32.1080399829
 20
38.2327121004
 30
0.0
 10
32.1878456176
 20
37.0163321378
 30
0.0
 10
32.1878456176
 20
36.4272184209
 30
0.0
  0
SPLINE
  5
2FA
100
AcDbEntity
  8
1
100
AcDbSpline
 62
7
  6
BYLAYER
 70
0
 71
3
 72
15
 73
11
 74
0
 42
0.0000001
 43
0.0000001
 44
0.0000000001
 40
0.0
 40
0.0
 40
0.0
 40
0.0
 40
0.1080128009
 40
0.2180620984
 40
0.3319998672
 40
0.4513592489
 40
0.5772785455
 40
0.7104931115
 40
0.8514153353
 40
1.0
 40
1.0
 40
1.0
 40
1.0
 10
26.0092817829
 20
28.057472554
 30
0.0
 10
26.2420991928
 20
28.1918888785
 30
0.0
 10
26.6897297271
 20
28.5042264104
 30
0.0
 10
27.2811830195
 20
29.0863084252
 30
0.0
 10
27.7898471278
 20
29.7771690432
 30
0.0
 10
28.2110252066
 20
30.569032593
 30
0.0
 10
28.5414247641
 20
31.4538111051
 30
0.0
 10
28.7785332755
 20
32.422983583
 30
0.0
 10
28.9204569554
 20
33.467153675
 30
0.0
 10
28.9502792605
 20
34.1882061695
 30
0.0
 10
28.9502792605
 20
34.5580197706
 30
0.0
  0
SPLINE
  5
2FB
100
AcDbEntity
  8
1
100
AcDbSpline
 62
7
  6
BYLAYER
 70
0
 71
3
 72
23
 73
19
 74
0
 42
0.0000001
 43
0.0000001
 44
0.0000000001
 40
0.0
 40
0.0
 40
0.0
 40
0.0
 40
0.0742858834
 40
0.144752917
 40
0.2113609383
 40
0.2743182705
 40
0.3339996617
 40
0.3909691267
 40
0.4459938971
 40
0.5000010253
 40
0.5540080609
 40
0.6090325697
 40
0.6660016515
 40
0.7256826546
 40
0.7886395113
 40
0.8552472793
 40
0.9257144224
 40
1.0
 40
1.0
 40
1.0
 40
1.0
 10
25.5120242971
 20
35.6889541234
 30
0.0
 10
25.5120242975
 20
35.4185577119
 30
0.0
 10
25.4901991971
 20
34.8913033037
 30
0.0
 10
25.3864422984
 20
34.127769366
 30
0.0
 10
25.2130646451
 20
33.419058109
 30
0.0
 10
24.9714390297
 20
32.7720932803
 30
0.0
 10
24.6634964402
 20
32.1930271877
 30
0.0
 10
24.2915605832
 20
31.6878646743
 30
0.0
 10
23.8589468144
 20
31.2621607323
 30
0.0
 10
23.3699572737
 20
30.9208366855
 30
0.0
 10
22.8298773626
 20
30.6680014868
 30
0.0
 10
22.2449076619
 20
30.5061813165
 30
0.0
 10
21.6214619753
 20
30.4366372391
 30
0.0
 10
20.9660085453
 20
30.4594701074
 30
0.0
 10
20.2849095797
 20
30.5736848949
 30
0.0
 10
19.5844577899
 20
30.777880425
 30
0.0
 10
18.8713395653
 20
31.0697873497
 30
0.0
 10
18.4038103997
 20
31.3145099444
 30
0.0
 10
18.1696398778
 20
31.4497052997
 30
0.0
  0
SPLINE
  5
2FC
100
AcDbEntity
  8
1
100
AcDbSpline
 62
7
  6
BYLAYER
 70
0
 71
3
 72
19
 73
15
 74
0
 42
0.0000001
 43
0.0000001
 44
0.0000000001
 40
0.0
 40
0.0
 40
0.0
 40
0.0
 40
0.0558395244
 40
0.114207385
 40
0.1748214099
 40
0.2374037116
 40
0.3670139084
 40
0.4999969361
 40
0.6329804243
 40
0.7625920155
 40
0.8251750998
 40
0.8857903022
 40
0.9441596132
 40
1.0
 40
1.0
 40
1.0
 40
1.0
 10
18.1696398778
 20
48.4062663893
 30
0.0
 10
18.4155878039
 20
48.2642715004
 30
0.0
 10
18.9061733105
 20
47.951871106
 30
0.0
 10
19.6177659251
 20
47.4175372534
 30
0.0
 10
20.3154593105
 20
46.8114569504
 30
0.0
 10
21.2286065039
 20
45.9052054465
 30
0.0
 10
22.2900806287
 20
44.6312918804
 30
0.0
 10
23.3943707244
 20
42.9446022227
 30
0.0
 10
24.3029638253
 20
41.1449172959
 30
0.0
 10
24.8754884042
 20
39.5886899081
 30
0.0
 10
25.2037671383
 20
38.3447419714
 30
0.0
 10
25.3798132287
 20
37.4374661183
 30
0.0
 10
25.4867665246
 20
36.5540242776
 30
0.0
 10
25.5120242966
 20
35.972953106
 30
0.0
 10
25.5120242971
 20
35.6889541234
 30
0.0
  0
ENDSEC
  0
SECTION
  2
OBJECTS
  0
DICTIONARY
  5
C
100
AcDbDictionary
280
0
281
1
  3
ACAD_GROUP
350
D
  3
ACAD_MLINESTYLE
350
17
  3
ACAD_LAYOUT
350
1A
  3
ACAD_PLOTSETTINGS
350
19
  3
ACAD_PLOTSTYLENAME
350
E
  0
DICTIONARY
  5
D
102
{ACAD_REACTORS
330
C
102
}
100
AcDbDictionary
280
0
281
1
  0
ACDBDICTIONARYWDFLT
  5
E
102
{ACAD_REACTORS
330
C
102
}
100
AcDbDictionary
281
1
  3
Normal
350
F
100
AcDbDictionaryWithDefault
340
F
  0
DICTIONARY
  5
17
102
{ACAD_REACTORS
330
C
102
}
100
AcDbDictionary
280
0
281
1
  3
Standard
350
18
  0
DICTIONARY
  5
19
102
{ACAD_REACTORS
330
C
102
}
100
AcDbDictionary
281
1
  0
DICTIONARY
  5
1A
102
{ACAD_REACTORS
330
C
102
}
100
AcDbDictionary
281
1
  3
Model
350
2FD
  3
Layout1
350
2FE
  0
ACDBPLACEHOLDER
  5
F
102
{ACAD_REACTORS
330
E
102
}
  0
MLINESTYLE
  5
18
102
{ACAD_REACTORS
330
17
102
}
100
AcDbMlineStyle
  2
STANDARD
 70
0
  3

 62
256
 51
90.0
 52
90.0
 71
2
 49
0.5
 62
256
  6
BYLAYER
 49
-0.5
 62
256
  6
BYLAYER
  0
LAYOUT
  5
2FD
102
{ACAD_REACTORS
330
1A
102
}
100
AcDbPlotSettings
  1

  2
none_device
  4

  6

 40
0.0
 41
0.0
 42
0.0
 43
0.0
 44
210.0
 45
297.0
 46
0.0
 47
0.0
 48
0.0
 49
0.0
140
0.0
141
0.0
142
1.0
143
1.0
 70
1024
 72
1
 73
0
 74
0
  7

 75
0
147
1.0
148
0.0
149
0.0
100
AcDbLayout
  1
Model
 70
0
 71
0
 10
0.0
 20
0.0
 11
210.0
 21
297.0
 12
0.0
 22
0.0
 32
0.0
 14
0.0
 24
0.0
 34
0.0
 15
0.0
 25
0.0
 35
0.0
146
0.0
 13
0.0
 23
0.0
 33
0.0
 16
1.0
 26
0.0
 36
0.0
 17
0.0
 27
1.0
 37
0.0
 76
0
330
211
345
0
346
0
  0
LAYOUT
  5
2FE
102
{ACAD_REACTORS
330
1A
102
}
100
AcDbPlotSettings
  1

  2
none_device
  4

  6

 40
0.0
 41
0.0
 42
0.0
 43
0.0
 44
210.0
 45
297.0
 46
0.0
 47
0.0
 48
0.0
 49
0.0
140
0.0
141
0.0
142
1.0
143
1.0
 70
0
 72
1
 73
0
 74
0
  7

 75
0
147
1.0
148
0.0
149
0.0
100
AcDbLayout
  1
Layout1
 70
0
 71
1
 10
0.0
 20
0.0
 11
210.0
 21
297.0
 12
0.0
 22
0.0
 32
0.0
 14
0.0
 24
0.0
 34
0.0
 15
0.0
 25
0.0
 35
0.0
146
0.0
 13
0.0
 23
0.0
 33
0.0
 16
1.0
 26
0.0
 36
0.0
 17
0.0
 27
1.0
 37
0.0
 76
0
330
212
345
0
346
0
  0
ENDSEC
  0
EOF
