999
DXF file: C:\Users\sesa63760\OneDrive - Schneider Electric\Documents\7-Dev\_Creo\CAD\MCADPP0000311_3D-CAD\drw0001_6.dxf
999
Pro/ENGINEER 2019471 by Parametric Technology Corporation
  0
SECTION
  2
HEADER
  9
$ACADVER
  1
AC1024
  9
$DWGCODEPAGE
  3
ANSI_1252
  9
$EXTMAX
 10
727.3135249867
 20
1028.6291281955
 30
0.0
  9
$EXTMIN
 10
0.0
 20
0.0
 30
0.0
  9
$LIMMIN
 10
0.0
 20
0.0
  9
$LIMMAX
 10
727.3135249867
 20
1028.6291281955
  9
$VIEWCTR
 10
363.6567624934
 20
514.3145640978
  9
$VIEWSIZE
 40
1028.6291281955
  9
$CLAYER
  8
0
  9
$LTSCALE
 40
67.0513802083
  9
$CELTYPE
  6
BYLAYER
  9
$DIMSCALE
 40
1.0
  9
$DIMASZ
 40
8.6584943451
  9
$DIMEXO
 40
1.0
  9
$DIMDLI
 40
46.3264081439
  9
$DIMEXE
 40
1.0
  9
$DIMCEN
 40
10.9720440341
  9
$DIMLFAC
 40
1.0
  9
$DIMBLK
  1
_FILLED
  9
$DIMALT
 70
0
  9
$DIMALTF
 40
0.0393700787
  9
$DIMTXT
 40
12.1218920831
  9
$DIMTOL
 70
1
  9
$DIMLIM
 70
0
  9
$DIMTFAC
 40
1.0
  9
$DIMTP
 40
0.01
  9
$DIMTM
 40
0.01
  9
$DIMGAP
 40
0.625
  9
$DIMDSEP
 70
46
  9
$AUNITS
 70
0
  9
$PDMODE
 70
3
  9
$PDSIZE
 40
0.3125
  9
$HANDSEED
  5
297
  9
$TILEMODE
 70
1
  9
$MEASUREMENT
 70
1
  9
$INSUNITS
 70
4
  0
ENDSEC
  0
SECTION
  2
CLASSES
  0
CLASS
  1
ACDBDICTIONARYWDFLT
  2
AcDbDictionaryWithDefault
  3
AutoCAD 2000
 90
0
 91
1
280
0
281
0
  0
CLASS
  1
ACDBPLACEHOLDER
  2
AcDbPlaceHolder
  3
AutoCAD 2000
 90
0
 91
1
280
0
281
0
  0
CLASS
  1
LAYOUT
  2
AcDbLayout
  3
AutoCAD 2000
 90
0
 91
0
280
0
281
0
  0
ENDSEC
  0
SECTION
  2
TABLES
  0
TABLE
  2
VPORT
  5
8
100
AcDbSymbolTable
 70
2
  0
VPORT
  5
1F4
100
AcDbSymbolTableRecord
100
AcDbViewportTableRecord
  2
*ACTIVE
 70
0
 10
0.0
 20
0.0
 11
1.0
 21
1.0
 12
363.6567624934
 22
514.3145640978
 13
0.0
 23
0.0
 14
1.0
 24
1.0
 15
0.0
 25
0.0
 16
0.0
 26
0.0
 36
1.0
 17
0.0
 27
0.0
 37
0.0
 40
1028.6291281955
 41
0.7070707071
 42
50.0
 43
0.0
 44
0.0
 50
0.0
 51
0.0
 71
0
 72
100
 73
1
 74
1
 75
0
 76
0
 77
0
 78
0
  0
ENDTAB
  0
TABLE
  2
LTYPE
  5
5
100
AcDbSymbolTable
 70
6
  0
LTYPE
  5
14
100
AcDbSymbolTableRecord
100
AcDbLinetypeTableRecord
  2
BYBLOCK
 70
0
  3

 72
65
 73
0
 40
0.0
  0
LTYPE
  5
15
100
AcDbSymbolTableRecord
100
AcDbLinetypeTableRecord
  2
BYLAYER
 70
0
  3

 72
65
 73
0
 40
0.0
  0
LTYPE
  5
16
100
AcDbSymbolTableRecord
100
AcDbLinetypeTableRecord
  2
CONTINUOUS
 70
64
  3
Solid line
 72
65
 73
0
 40
0.0
  0
LTYPE
  5
1F5
100
AcDbSymbolTableRecord
100
AcDbLinetypeTableRecord
  2
CENTER
 70
64
  3
____ _ ____ _ ____ _ ____ _ ____ _ ____ _ ____
 72
65
 73
4
 40
0.6
 49
0.375
 74
0
 49
-0.075
 74
0
 49
0.075
 74
0
 49
-0.075
 74
0
  0
LTYPE
  5
1F6
100
AcDbSymbolTableRecord
100
AcDbLinetypeTableRecord
  2
HIDDEN
 70
64
  3
- - - - - - - - - - - - - - - - - - - -
 72
65
 73
2
 40
0.2
 49
0.1
 74
0
 49
-0.1
 74
0
  0
LTYPE
  5
1F7
100
AcDbSymbolTableRecord
100
AcDbLinetypeTableRecord
  2
PHANTOM
 70
64
  3
_____ _ _ _____ _ _ _____ _ _ _____
 72
65
 73
6
 40
0.8
 49
0.45
 74
0
 49
-0.05
 74
0
 49
0.1
 74
0
 49
-0.05
 74
0
 49
0.1
 74
0
 49
-0.05
 74
0
  0
LTYPE
  5
1F8
100
AcDbSymbolTableRecord
100
AcDbLinetypeTableRecord
  2
DOT
 70
64
  3
. . . . . . . . . . . . . . . . . . . .
 72
65
 73
2
 40
0.2
 49
0.1
 74
0
 49
-0.1
 74
0
  0
LTYPE
  5
1F9
100
AcDbSymbolTableRecord
100
AcDbLinetypeTableRecord
  2
DASHED
 70
64
  3
- - - - - - - - - - - - - - - - - - - -
 72
65
 73
2
 40
0.2
 49
0.1
 74
0
 49
-0.1
 74
0
  0
ENDTAB
  0
TABLE
  2
LAYER
  5
2
100
AcDbSymbolTable
 70
36
  0
LAYER
  5
10
100
AcDbSymbolTableRecord
100
AcDbLayerTableRecord
  2
0
 70
0
 62
7
  6
CONTINUOUS
370
-3
390
F
  0
LAYER
  5
1FA
100
AcDbSymbolTableRecord
100
AcDbLayerTableRecord
  2
DEFAULT_1
 70
0
 62
7
  6
CENTER
370
-3
390
F
  0
LAYER
  5
1FB
100
AcDbSymbolTableRecord
100
AcDbLayerTableRecord
  2
DEFAULT_2
 70
0
 62
8
  6
HIDDEN
370
-3
390
F
  0
LAYER
  5
1FC
100
AcDbSymbolTableRecord
100
AcDbLayerTableRecord
  2
DEFAULT_3
 70
0
 62
7
  6
PHANTOM
370
-3
390
F
  0
LAYER
  5
1FD
100
AcDbSymbolTableRecord
100
AcDbLayerTableRecord
  2
00_COMPONENTS
 70
0
 62
7
  6
CONTINUOUS
370
-3
390
F
  0
LAYER
  5
1FE
100
AcDbSymbolTableRecord
100
AcDbLayerTableRecord
  2
01_1_DEFAULT_DATUMS
 70
0
 62
7
  6
CONTINUOUS
370
-3
390
F
  0
LAYER
  5
1FF
100
AcDbSymbolTableRecord
100
AcDbLayerTableRecord
  2
01_PLANES
 70
0
 62
7
  6
CONTINUOUS
370
-3
390
F
  0
LAYER
  5
200
100
AcDbSymbolTableRecord
100
AcDbLayerTableRecord
  2
02_COORD_SYS
 70
0
 62
7
  6
CONTINUOUS
370
-3
390
F
  0
LAYER
  5
201
100
AcDbSymbolTableRecord
100
AcDbLayerTableRecord
  2
03_AXES
 70
0
 62
7
  6
CONTINUOUS
370
-3
390
F
  0
LAYER
  5
202
100
AcDbSymbolTableRecord
100
AcDbLayerTableRecord
  2
04_POINTS
 70
0
 62
7
  6
CONTINUOUS
370
-3
390
F
  0
LAYER
  5
203
100
AcDbSymbolTableRecord
100
AcDbLayerTableRecord
  2
05_CURVES
 70
0
 62
7
  6
CONTINUOUS
370
-3
390
F
  0
LAYER
  5
204
100
AcDbSymbolTableRecord
100
AcDbLayerTableRecord
  2
06_SURFS
 70
0
 62
7
  6
CONTINUOUS
370
-3
390
F
  0
LAYER
  5
205
100
AcDbSymbolTableRecord
100
AcDbLayerTableRecord
  2
07_COSMETICS
 70
0
 62
7
  6
CONTINUOUS
370
-3
390
F
  0
LAYER
  5
206
100
AcDbSymbolTableRecord
100
AcDbLayerTableRecord
  2
10_NOTES
 70
0
 62
7
  6
CONTINUOUS
370
-3
390
F
  0
LAYER
  5
207
100
AcDbSymbolTableRecord
100
AcDbLayerTableRecord
  2
11_NOTES_PUB
 70
0
 62
7
  6
CONTINUOUS
370
-3
390
F
  0
LAYER
  5
208
100
AcDbSymbolTableRecord
100
AcDbLayerTableRecord
  2
13_REF_GTOL
 70
0
 62
7
  6
CONTINUOUS
370
-3
390
F
  0
LAYER
  5
209
100
AcDbSymbolTableRecord
100
AcDbLayerTableRecord
  2
16_MISC
 70
0
 62
7
  6
CONTINUOUS
370
-3
390
F
  0
LAYER
  5
20A
100
AcDbSymbolTableRecord
100
AcDbLayerTableRecord
  2
17_NO_PRINT
 70
0
 62
7
  6
CONTINUOUS
370
-3
390
F
  0
LAYER
  5
20B
100
AcDbSymbolTableRecord
100
AcDbLayerTableRecord
  2
18_DATUM_CAMS_JOINTS
 70
0
 62
7
  6
CONTINUOUS
370
-3
390
F
  0
LAYER
  5
20C
100
AcDbSymbolTableRecord
100
AcDbLayerTableRecord
  2
19_DATUM_FUNCTIONAL
 70
0
 62
7
  6
CONTINUOUS
370
-3
390
F
  0
LAYER
  5
20D
100
AcDbSymbolTableRecord
100
AcDbLayerTableRecord
  2
20_DATUM_KINEMATIC_SCHEME
 70
0
 62
7
  6
CONTINUOUS
370
-3
390
F
  0
ENDTAB
  0
TABLE
  2
STYLE
  5
3
100
AcDbSymbolTable
 70
1
  0
STYLE
  5
11
100
AcDbSymbolTableRecord
100
AcDbTextStyleTableRecord
  2
STANDARD
 70
0
 40
0.0
 41
0.8
 50
0.0
 71
0
 42
0.2
  3
txt
  4

  0
STYLE
  5
20E
100
AcDbSymbolTableRecord
100
AcDbTextStyleTableRecord
  2
TEXTSTYLE_1
 70
0
 40
0.0
 41
0.8
 50
0.0
 71
0
 42
0.2
  3
gdt
  4

  0
ENDTAB
  0
TABLE
  2
VIEW
  5
6
100
AcDbSymbolTable
 70
0
  0
ENDTAB
  0
TABLE
  2
UCS
  5
7
100
AcDbSymbolTable
 70
0
  0
ENDTAB
  0
TABLE
  2
APPID
  5
9
100
AcDbSymbolTable
 70
1
  0
APPID
  5
20F
100
AcDbSymbolTableRecord
100
AcDbRegAppTableRecord
  2
ACAD
 70
0
  0
ENDTAB
  0
TABLE
  2
BLOCK_RECORD
  5
1
100
AcDbSymbolTable
 70
0
  0
BLOCK_RECORD
  5
210
100
AcDbSymbolTableRecord
100
AcDbBlockTableRecord
  2
*Model_Space
  0
BLOCK_RECORD
  5
211
100
AcDbSymbolTableRecord
100
AcDbBlockTableRecord
  2
*Paper_Space
  0
BLOCK_RECORD
  5
212
100
AcDbSymbolTableRecord
100
AcDbBlockTableRecord
  2
_FILLED
  0
ENDTAB
  0
TABLE
  2
DIMSTYLE
  5
A
100
AcDbSymbolTable
 70
1
100
AcDbDimStyleTable
 71
0
  0
DIMSTYLE
105
213
100
AcDbSymbolTableRecord
100
AcDbDimStyleTableRecord
  2
STANDARD
 70
0
  3

  4

 40
1.0
 41
8.6584943451
 42
1.0
 43
0.38
 44
1.0
 45
0.0
 46
0.0
 47
0.01
 48
0.01
140
12.1218920831
141
0.09
142
0.0
143
25.4
144
1.0
145
0.0
146
1.0
147
0.625
 71
1
 72
0
 73
0
 74
0
 75
0
 76
0
 77
1
 78
8
 79
2
170
0
171
1
172
0
173
0
174
0
175
0
176
0
177
0
178
0
270
2
179
2
271
2
272
2
273
2
274
2
275
0
280
0
281
0
282
0
283
1
284
8
285
0
286
0
287
3
288
0
340
11
278
46
341
212
342
212
343
212
344
212
  0
ENDTAB
  0
ENDSEC
  0
SECTION
  2
BLOCKS
  0
BLOCK
  5
20
100
AcDbEntity
  8
0
100
AcDbBlockBegin
  2
*Model_Space
 70
0
 10
0.0
 20
0.0
 30
0.0
  3
*Model_Space
  1

  0
ENDBLK
  5
21
100
AcDbEntity
  8
0
100
AcDbBlockEnd
  0
BLOCK
  5
1C
100
AcDbEntity
  8
0
100
AcDbBlockBegin
  2
*Paper_Space
 70
0
 10
0.0
 20
0.0
 30
0.0
  3
*Paper_Space
  1

  0
ENDBLK
  5
1D
100
AcDbEntity
  8
0
100
AcDbBlockEnd
  0
BLOCK
  5
214
100
AcDbEntity
  8
0
100
AcDbBlockBegin
  2
_FILLED
 70
64
 10
0.0
 20
0.0
  3
_FILLED
  1

  0
SOLID
  5
215
100
AcDbEntity
  8
0
  6
BYBLOCK
 62
0
100
AcDbTrace
 10
0.0
 20
0.0
 11
-1.0
 21
0.25
 12
-1.0
 22
-0.25
 13
-1.0
 23
-0.25
  0
ENDBLK
  5
216
100
AcDbEntity
  8
0
  6
BYBLOCK
 62
0
100
AcDbBlockEnd
  0
ENDSEC
  0
SECTION
  2
ENTITIES
  0
LINE
  5
217
100
AcDbEntity
  8
0
100
AcDbLine
 62
7
  6
CONTINUOUS
 10
82.2631148169
 20
537.9315316927
 11
82.7849638997
 21
478.1335497234
  0
LINE
  5
218
100
AcDbEntity
  8
0
100
AcDbLine
 62
7
  6
CONTINUOUS
 10
84.6161553762
 20
530.4839681935
 11
84.5885707813
 21
533.6448496886
  0
LINE
  5
219
100
AcDbEntity
  8
0
100
AcDbLine
 62
7
  6
CONTINUOUS
 10
85.2456882794
 20
478.2032460502
 11
84.8292598185
 21
525.9212212594
  0
LINE
  5
21A
100
AcDbEntity
  8
0
100
AcDbLine
 62
7
  6
CONTINUOUS
 10
85.1210244134
 20
532.7891521491
 11
85.1486090083
 21
529.6282706539
  0
LINE
  5
21B
100
AcDbEntity
  8
0
100
AcDbLine
 62
7
  6
CONTINUOUS
 10
85.8760928518
 20
528.9596716701
 11
85.8485082569
 21
532.1205531652
  0
LINE
  5
21C
100
AcDbEntity
  8
0
100
AcDbLine
 62
7
  6
CONTINUOUS
 10
86.8776092118
 20
531.5409639676
 11
86.9051938068
 21
528.3800824724
  0
LINE
  5
21D
100
AcDbEntity
  8
0
100
AcDbLine
 62
7
  6
CONTINUOUS
 10
111.0507850531
 20
482.9735480689
 11
111.0359087509
 21
484.2638036458
  0
LINE
  5
21E
100
AcDbEntity
  8
0
100
AcDbLine
 62
7
  6
CONTINUOUS
 10
98.655755188
 20
538.0541576272
 11
98.6833397829
 21
534.893276132
  0
LINE
  5
21F
100
AcDbEntity
  8
0
100
AcDbLine
 62
7
  6
CONTINUOUS
 10
102.0588423506
 20
482.3569255747
 11
102.1085893422
 21
476.6564849631
  0
LINE
  5
220
100
AcDbEntity
  8
0
100
AcDbLine
 62
7
  6
CONTINUOUS
 10
101.7545246241
 20
517.2282830699
 11
101.5578309509
 21
539.7671455643
  0
LINE
  5
221
100
AcDbEntity
  8
0
100
AcDbLine
 62
7
  6
CONTINUOUS
 10
112.9900002605
 20
470.812632323
 11
112.3355100981
 21
545.8097765528
  0
LINE
  5
222
100
AcDbEntity
  8
0
100
AcDbLine
 62
7
  6
CONTINUOUS
 10
110.9262828721
 20
497.2392647605
 11
110.9455911933
 21
494.6131706519
  0
LINE
  5
223
100
AcDbEntity
  8
0
100
AcDbLine
 62
7
  6
CONTINUOUS
 10
129.4446736931
 20
470.9562300825
 11
128.7901835307
 21
545.9533743124
  0
LINE
  5
224
100
AcDbEntity
  8
0
100
AcDbLine
 62
7
  6
CONTINUOUS
 10
131.3578403042
 20
478.6232173343
 11
130.8368661349
 21
538.3209441412
  0
LINE
  5
225
100
AcDbEntity
  8
0
100
AcDbLine
 62
7
  6
CONTINUOUS
 10
136.9309393469
 20
484.0220567522
 11
136.5033391075
 21
533.0201909823
  0
LINE
  5
226
100
AcDbEntity
  8
0
100
AcDbLine
 62
7
  6
CONTINUOUS
 10
85.1486090083
 20
529.6282706539
 11
85.8760928518
 21
528.9596716701
  0
LINE
  5
227
100
AcDbEntity
  8
0
100
AcDbLine
 62
7
  6
CONTINUOUS
 10
85.8485082569
 20
532.1205531652
 11
85.1210244134
 21
532.7891521491
  0
LINE
  5
228
100
AcDbEntity
  8
0
100
AcDbLine
 62
7
  6
CONTINUOUS
 10
96.3665632886
 20
540.157958763
 11
98.655755188
 21
538.0541576272
  0
LINE
  5
229
100
AcDbEntity
  8
0
100
AcDbLine
 62
7
  6
CONTINUOUS
 10
84.5885707813
 20
533.6448496886
 11
96.3665632886
 21
540.157958763
  0
LINE
  5
22A
100
AcDbEntity
  8
0
100
AcDbLine
 62
7
  6
CONTINUOUS
 10
98.655755188
 20
538.0541576272
 11
86.8776092118
 21
531.5409639676
  0
LINE
  5
22B
100
AcDbEntity
  8
0
100
AcDbLine
 62
7
  6
CONTINUOUS
 10
86.9051938068
 20
528.3800824724
 11
98.6833397829
 21
534.893276132
  0
LINE
  5
22C
100
AcDbEntity
  8
0
100
AcDbLine
 62
7
  6
CONTINUOUS
 10
657.6407299764
 20
440.2041163125
 11
643.1401778398
 21
440.2041163125
  0
LINE
  5
22D
100
AcDbEntity
  8
0
100
AcDbLine
 62
7
  6
CONTINUOUS
 10
643.0703655558
 20
448.203811697
 11
608.0690328123
 21
448.203811697
  0
LINE
  5
22E
100
AcDbEntity
  8
0
100
AcDbLine
 62
7
  6
CONTINUOUS
 10
129.4446736931
 20
470.9562300825
 11
112.9900002605
 21
470.812632323
  0
LINE
  5
22F
100
AcDbEntity
  8
0
100
AcDbLine
 62
7
  6
CONTINUOUS
 10
590.164054728
 20
506.2694133673
 11
593.1630262851
 21
506.4003512932
  0
LINE
  5
230
100
AcDbEntity
  8
0
100
AcDbLine
 62
7
  6
CONTINUOUS
 10
131.3578403042
 20
478.6232173343
 11
129.3779156965
 21
478.605938794
  0
LINE
  5
231
100
AcDbEntity
  8
0
100
AcDbLine
 62
7
  6
CONTINUOUS
 10
112.9027349055
 20
480.8122515536
 11
110.1568796825
 21
480.7882888381
  0
LINE
  5
232
100
AcDbEntity
  8
0
100
AcDbLine
 62
7
  6
CONTINUOUS
 10
136.9309393469
 20
484.0220567522
 11
131.3111533393
 21
483.9730136227
  0
LINE
  5
233
100
AcDbEntity
  8
0
100
AcDbLine
 62
7
  6
CONTINUOUS
 10
602.7443563793
 20
494.553670207
 11
604.2642985024
 21
494.566934541
  0
LINE
  5
234
100
AcDbEntity
  8
0
100
AcDbLine
 62
7
  6
CONTINUOUS
 10
584.26102656
 20
495.1313619269
 11
586.2609504061
 21
495.1488149979
  0
LINE
  5
235
100
AcDbEntity
  8
0
100
AcDbLine
 62
7
  6
CONTINUOUS
 10
593.2357169455
 20
498.07082665
 11
602.7129408516
 21
498.15353313
  0
LINE
  5
236
100
AcDbEntity
  8
0
100
AcDbLine
 62
7
  6
CONTINUOUS
 10
593.2354135746
 20
498.105589512
 11
596.2352993438
 21
498.1317691185
  0
LINE
  5
237
100
AcDbEntity
  8
0
100
AcDbLine
 62
7
  6
CONTINUOUS
 10
607.6161730956
 20
500.0963953385
 11
604.2163025572
 21
500.0667251178
  0
LINE
  5
238
100
AcDbEntity
  8
0
100
AcDbLine
 62
7
  6
CONTINUOUS
 10
596.2142947904
 20
500.5386525394
 11
593.2144090212
 21
500.5124729329
  0
LINE
  5
239
100
AcDbEntity
  8
0
100
AcDbLine
 62
7
  6
CONTINUOUS
 10
572.213487538
 20
500.5264340778
 11
584.2130306148
 21
500.6311525038
  0
LINE
  5
23A
100
AcDbEntity
  8
0
100
AcDbLine
 62
7
  6
CONTINUOUS
 10
596.2047532112
 20
501.6320092105
 11
593.2048674421
 21
501.605829604
  0
LINE
  5
23B
100
AcDbEntity
  8
0
100
AcDbLine
 62
7
  6
CONTINUOUS
 10
593.1925262572
 20
503.0199893174
 11
596.1924120264
 21
503.0461689239
  0
LINE
  5
23C
100
AcDbEntity
  8
0
100
AcDbLine
 62
7
  6
CONTINUOUS
 10
586.1867748544
 20
503.648491344
 11
590.1866225467
 21
503.683397486
  0
LINE
  5
23D
100
AcDbEntity
  8
0
100
AcDbLine
 62
7
  6
CONTINUOUS
 10
596.1775595642
 20
504.7480925124
 11
593.1776737951
 21
504.7219129059
  0
LINE
  5
23E
100
AcDbEntity
  8
0
100
AcDbLine
 62
7
  6
CONTINUOUS
 10
136.761066206
 20
503.4875906598
 11
572.1544871274
 21
507.2872114812
  0
LINE
  5
23F
100
AcDbEntity
  8
0
100
AcDbLine
 62
7
  6
CONTINUOUS
 10
596.118667139
 20
511.4964960255
 11
593.1187813698
 21
511.470316419
  0
LINE
  5
240
100
AcDbEntity
  8
0
100
AcDbLine
 62
7
  6
CONTINUOUS
 10
593.1013282988
 20
513.4702402652
 11
596.101214068
 21
513.4964198717
  0
LINE
  5
241
100
AcDbEntity
  8
0
100
AcDbLine
 62
7
  6
CONTINUOUS
 10
136.673800851
 20
513.4872098905
 11
572.0672217725
 21
517.2868307118
  0
LINE
  5
242
100
AcDbEntity
  8
0
100
AcDbLine
 62
7
  6
CONTINUOUS
 10
593.0424358735
 20
520.2186437783
 11
596.0423216427
 21
520.2448233848
  0
LINE
  5
243
100
AcDbEntity
  8
0
100
AcDbLine
 62
7
  6
CONTINUOUS
 10
586.0317825534
 20
521.4088499012
 11
590.0316302456
 21
521.4437560432
  0
LINE
  5
244
100
AcDbEntity
  8
0
100
AcDbLine
 62
7
  6
CONTINUOUS
 10
596.0274691806
 20
521.9467469733
 11
593.0275834114
 21
521.9205673668
  0
LINE
  5
245
100
AcDbEntity
  8
0
100
AcDbLine
 62
7
  6
CONTINUOUS
 10
593.0152422265
 20
523.3347270802
 11
596.0151279957
 21
523.3609066867
  0
LINE
  5
246
100
AcDbEntity
  8
0
100
AcDbLine
 62
7
  6
CONTINUOUS
 10
593.0057006474
 20
524.4280837513
 11
596.0055864166
 21
524.4542633578
  0
LINE
  5
247
100
AcDbEntity
  8
0
100
AcDbLine
 62
7
  6
CONTINUOUS
 10
572.006136024
 20
524.2865641734
 11
584.0056791007
 21
524.3912825994
  0
LINE
  5
248
100
AcDbEntity
  8
0
100
AcDbLine
 62
7
  6
CONTINUOUS
 10
607.3980097081
 20
525.0954434151
 11
603.9981391697
 21
525.0657731944
  0
LINE
  5
249
100
AcDbEntity
  8
0
100
AcDbLine
 62
7
  6
CONTINUOUS
 10
595.9845818632
 20
526.8611467787
 11
592.984696094
 21
526.8349671722
  0
LINE
  5
24A
100
AcDbEntity
  8
0
100
AcDbLine
 62
7
  6
CONTINUOUS
 10
592.9843927231
 20
526.8697300342
 11
602.4616166292
 21
526.9524365143
  0
LINE
  5
24B
100
AcDbEntity
  8
0
100
AcDbLine
 62
7
  6
CONTINUOUS
 10
583.9576831555
 20
529.8910731762
 11
585.9576070016
 21
529.9085262472
  0
LINE
  5
24C
100
AcDbEntity
  8
0
100
AcDbLine
 62
7
  6
CONTINUOUS
 10
602.4302011014
 20
530.5522994373
 11
603.9501432245
 21
530.5655637713
  0
LINE
  5
24D
100
AcDbEntity
  8
0
100
AcDbLine
 62
7
  6
CONTINUOUS
 10
136.5033391075
 20
533.0201909823
 11
130.8835530998
 21
532.9711478528
  0
LINE
  5
24E
100
AcDbEntity
  8
0
100
AcDbLine
 62
7
  6
CONTINUOUS
 10
590.0541980643
 20
518.8577401619
 11
593.0549980455
 21
518.7791614489
  0
LINE
  5
24F
100
AcDbEntity
  8
0
100
AcDbLine
 62
7
  6
CONTINUOUS
 10
112.4227754531
 20
535.8101573221
 11
109.2006362223
 21
535.7820381391
  0
LINE
  5
250
100
AcDbEntity
  8
0
100
AcDbLine
 62
7
  6
CONTINUOUS
 10
130.8368661349
 20
538.3209441412
 11
128.8569415273
 21
538.3036656009
  0
LINE
  5
251
100
AcDbEntity
  8
0
100
AcDbLine
 62
7
  6
CONTINUOUS
 10
128.7901835307
 20
545.9533743124
 11
112.3355100981
 21
545.8097765528
  0
LINE
  5
252
100
AcDbEntity
  8
0
100
AcDbLine
 62
7
  6
CONTINUOUS
 10
607.0009998186
 20
570.588270749
 11
641.9970016895
 21
571.1991282339
  0
LINE
  5
253
100
AcDbEntity
  8
0
100
AcDbLine
 62
7
  6
CONTINUOUS
 10
641.9362967177
 20
578.1552290179
 11
646.9357255564
 21
578.2424943728
  0
LINE
  5
254
100
AcDbEntity
  8
0
100
AcDbLine
 62
7
  6
CONTINUOUS
 10
656.3886768606
 20
583.6751927485
 11
646.8890385915
 21
583.5922906612
  0
LINE
  5
255
100
AcDbEntity
  8
0
100
AcDbLine
 62
7
  6
CONTINUOUS
 10
646.8475875478
 20
588.3421097958
 11
656.347225817
 21
588.425011883
  0
LINE
  5
256
100
AcDbEntity
  8
0
100
AcDbLine
 62
7
  6
CONTINUOUS
 10
572.006136024
 20
524.2865641734
 11
572.213487538
 21
500.5264340778
  0
LINE
  5
257
100
AcDbEntity
  8
0
100
AcDbLine
 62
7
  6
CONTINUOUS
 10
583.9576831555
 20
529.8910731762
 11
584.26102656
 21
495.1313619269
  0
LINE
  5
258
100
AcDbEntity
  8
0
100
AcDbLine
 62
7
  6
CONTINUOUS
 10
586.2609504061
 20
495.1488149979
 11
585.9576070016
 21
529.9085262472
  0
LINE
  5
259
100
AcDbEntity
  8
0
100
AcDbLine
 62
7
  6
CONTINUOUS
 10
590.1866225467
 20
503.683397486
 11
590.0316302456
 21
521.4437560432
  0
LINE
  5
25A
100
AcDbEntity
  8
0
100
AcDbLine
 62
7
  6
CONTINUOUS
 10
593.2357169455
 20
498.07082665
 11
592.9843927231
 21
526.8697300342
  0
LINE
  5
25B
100
AcDbEntity
  8
0
100
AcDbLine
 62
7
  6
CONTINUOUS
 10
595.9845818632
 20
526.8611467787
 11
596.0151279957
 21
523.3609066867
  0
LINE
  5
25C
100
AcDbEntity
  8
0
100
AcDbLine
 62
7
  6
CONTINUOUS
 10
596.0274691806
 20
521.9467469733
 11
596.101214068
 21
513.4964198717
  0
LINE
  5
25D
100
AcDbEntity
  8
0
100
AcDbLine
 62
7
  6
CONTINUOUS
 10
596.118667139
 20
511.4964960255
 11
596.1924120264
 21
503.0461689239
  0
LINE
  5
25E
100
AcDbEntity
  8
0
100
AcDbLine
 62
7
  6
CONTINUOUS
 10
596.2047532112
 20
501.6320092105
 11
596.2352993438
 21
498.1317691185
  0
LINE
  5
25F
100
AcDbEntity
  8
0
100
AcDbLine
 62
7
  6
CONTINUOUS
 10
602.4302011014
 20
530.5522994373
 11
602.7443563793
 21
494.553670207
  0
LINE
  5
260
100
AcDbEntity
  8
0
100
AcDbLine
 62
7
  6
CONTINUOUS
 10
604.2642985024
 20
494.566934541
 11
603.9501432245
 21
530.5655637713
  0
LINE
  5
261
100
AcDbEntity
  8
0
100
AcDbLine
 62
7
  6
CONTINUOUS
 10
608.0690328123
 20
448.203811697
 11
607.0009998186
 21
570.588270749
  0
LINE
  5
262
100
AcDbEntity
  8
0
100
AcDbLine
 62
7
  6
CONTINUOUS
 10
643.1401778398
 20
440.2041163125
 11
641.9362967177
 21
578.1552290179
  0
LINE
  5
263
100
AcDbEntity
  8
0
100
AcDbLine
 62
7
  6
CONTINUOUS
 10
646.9357255564
 20
578.2424943728
 11
646.8475875478
 21
588.3421097958
  0
LINE
  5
264
100
AcDbEntity
  8
0
100
AcDbLine
 62
7
  6
CONTINUOUS
 10
657.6407299764
 20
440.2041163125
 11
656.347225817
 21
588.425011883
  0
ARC
  5
265
100
AcDbEntity
  8
0
100
AcDbCircle
 62
7
  6
CONTINUOUS
 10
86.4195584825
 20
599.0988772635
 40
61.2262482941
100
AcDbArc
 50
269.0372229957
 51
276.0604139498
  0
ARC
  5
266
100
AcDbEntity
  8
0
100
AcDbCircle
 62
7
  6
CONTINUOUS
 10
87.4012323389
 20
594.6241879564
 40
56.6542530113
100
AcDbArc
 50
280.4866692191
 51
284.4702378042
  0
ARC
  5
267
100
AcDbEntity
  8
0
100
AcDbCircle
 62
7
  6
CONTINUOUS
 10
89.6702233435
 20
525.7792216616
 40
11.1013363519
100
AcDbArc
 50
86.3498348074
 51
90.5040201403
  0
ARC
  5
268
100
AcDbEntity
  8
0
100
AcDbCircle
 62
7
  6
CONTINUOUS
 10
93.1630156193
 20
530.8214207166
 40
7.1569451129
100
AcDbArc
 50
36.6144185931
 51
38.4916917403
  0
ARC
  5
269
100
AcDbEntity
  8
0
100
AcDbCircle
 62
7
  6
CONTINUOUS
 10
94.6827129418
 20
531.5961273152
 40
5.4370395246
100
AcDbArc
 50
8.7506363473
 51
11.9515073483
  0
SPLINE
  5
26A
100
AcDbEntity
  8
0
100
AcDbSpline
 62
7
  6
CONTINUOUS
 70
0
 71
3
 72
11
 73
7
 74
0
 42
0.0000001
 43
0.0000001
 44
0.0000000001
 40
0.0
 40
0.0
 40
0.0
 40
0.0
 40
0.2196021314
 40
0.4607165951
 40
0.7223604558
 40
1.0
 40
1.0
 40
1.0
 40
1.0
 10
100.1086782302
 20
532.7881493094
 30
0.0
 10
100.1142434166
 20
532.1504421121
 30
0.0
 10
99.881147502
 20
530.8054957561
 30
0.0
 10
98.940269114
 20
528.9060593087
 30
0.0
 10
97.4714837076
 20
527.1555114443
 30
0.0
 10
96.2174088276
 20
526.1937705048
 30
0.0
 10
95.5297230519
 20
525.7728596435
 30
0.0
  0
SPLINE
  5
26B
100
AcDbEntity
  8
0
100
AcDbSpline
 62
7
  6
CONTINUOUS
 70
0
 71
3
 72
13
 73
9
 74
0
 42
0.0000001
 43
0.0000001
 44
0.0000000001
 40
0.0
 40
0.0
 40
0.0
 40
0.0
 40
0.3356978666
 40
0.6265682064
 40
0.7487691848
 40
0.8523429792
 40
0.9360009846
 40
1.0
 40
1.0
 40
1.0
 40
1.0
 10
101.6075626654
 20
534.0684555384
 30
0.0
 10
102.4599868608
 20
534.2506312704
 30
0.0
 10
104.0459656796
 20
534.6146657993
 30
0.0
 10
105.9301192819
 20
535.0946185371
 30
0.0
 10
107.2302199882
 20
535.4251630716
 30
0.0
 10
108.0119917297
 20
535.6115115337
 30
0.0
 10
108.6519548301
 20
535.7377877936
 30
0.0
 10
109.0344595917
 20
535.780579701
 30
0.0
 10
109.2006331706
 20
535.7820357522
 30
0.0
  0
SPLINE
  5
26C
100
AcDbEntity
  8
0
100
AcDbSpline
 62
7
  6
CONTINUOUS
 70
0
 71
3
 72
12
 73
8
 74
0
 42
0.0000001
 43
0.0000001
 44
0.0000000001
 40
0.0
 40
0.0
 40
0.0
 40
0.0
 40
0.2511447765
 40
0.3813936816
 40
0.511991004
 40
0.7658786891
 40
1.0
 40
1.0
 40
1.0
 40
1.0
 10
92.5590506664
 20
512.0880340313
 30
0.0
 10
92.1296532717
 20
511.7724660193
 30
0.0
 10
91.3907942589
 20
511.4014754505
 30
0.0
 10
90.3331261124
 20
511.1419350828
 30
0.0
 10
89.2412678188
 20
511.0451181556
 30
0.0
 10
87.9197289735
 20
511.2321471976
 30
0.0
 10
86.9743042557
 20
511.7158541125
 30
0.0
 10
86.5869122306
 20
512.0268221337
 30
0.0
  0
SPLINE
  5
26D
100
AcDbEntity
  8
0
100
AcDbSpline
 62
7
  6
CONTINUOUS
 70
0
 71
3
 72
12
 73
8
 74
0
 42
0.0000001
 43
0.0000001
 44
0.0000000001
 40
0.0
 40
0.0
 40
0.0
 40
0.0
 40
0.2511447765
 40
0.3813936816
 40
0.511991004
 40
0.7658786891
 40
1.0
 40
1.0
 40
1.0
 40
1.0
 10
92.6295446312
 20
504.0102257659
 30
0.0
 10
92.2001472365
 20
503.6946577538
 30
0.0
 10
91.4612882237
 20
503.323667185
 30
0.0
 10
90.4036200772
 20
503.0641268173
 30
0.0
 10
89.3117617835
 20
502.9673098902
 30
0.0
 10
87.9902229383
 20
503.1543389322
 30
0.0
 10
87.0447982204
 20
503.638045847
 30
0.0
 10
86.6574061954
 20
503.9490138683
 30
0.0
  0
SPLINE
  5
26E
100
AcDbEntity
  8
0
100
AcDbSpline
 62
7
  6
CONTINUOUS
 70
0
 71
3
 72
11
 73
7
 74
0
 42
0.0000001
 43
0.0000001
 44
0.0000000001
 40
0.0
 40
0.0
 40
0.0
 40
0.0
 40
0.2231596002
 40
0.4632241545
 40
0.7227068844
 40
1.0
 40
1.0
 40
1.0
 40
1.0
 10
83.1349419036
 20
532.6400252886
 30
0.0
 10
83.1381073947
 20
532.277295942
 30
0.0
 10
83.272480826
 20
531.5219894272
 30
0.0
 10
83.8044775782
 20
530.4600880338
 30
0.0
 10
84.6329545677
 20
529.4928604006
 30
0.0
 10
85.3358606025
 20
528.9635504175
 30
0.0
 10
85.720702735
 20
528.7289018725
 30
0.0
  0
SPLINE
  5
26F
100
AcDbEntity
  8
0
100
AcDbSpline
 62
7
  6
CONTINUOUS
 70
0
 71
3
 72
9
 73
5
 74
0
 42
0.0000001
 43
0.0000001
 44
0.0000000001
 40
0.0
 40
0.0
 40
0.0
 40
0.0
 40
0.2466714784
 40
1.0
 40
1.0
 40
1.0
 40
1.0
 10
85.720702735
 20
528.7289018725
 30
0.0
 10
85.8053915268
 20
528.6772648502
 30
0.0
 10
86.1532251086
 20
528.4753951144
 30
0.0
 10
86.5184925732
 20
528.3037144164
 30
0.0
 10
86.8000816449
 20
528.1920468759
 30
0.0
  0
SPLINE
  5
270
100
AcDbEntity
  8
0
100
AcDbSpline
 62
7
  6
CONTINUOUS
 70
0
 71
3
 72
9
 73
5
 74
0
 42
0.0000001
 43
0.0000001
 44
0.0000000001
 40
0.0
 40
0.0
 40
0.0
 40
0.0
 40
0.2468720173
 40
1.0
 40
1.0
 40
1.0
 40
1.0
 10
86.8000816449
 20
528.1920468759
 30
0.0
 10
87.0227921521
 20
528.1037283398
 30
0.0
 10
87.9419447652
 20
527.7902271342
 30
0.0
 10
88.9221286922
 20
527.657970759
 30
0.0
 10
89.6529931358
 20
527.6643489164
 30
0.0
  0
SPLINE
  5
271
100
AcDbEntity
  8
0
100
AcDbSpline
 62
7
  6
CONTINUOUS
 70
0
 71
3
 72
9
 73
5
 74
0
 42
0.0000001
 43
0.0000001
 44
0.0000000001
 40
0.0
 40
0.0
 40
0.0
 40
0.0
 40
0.5062773159
 40
1.0
 40
1.0
 40
1.0
 40
1.0
 10
89.6529931358
 20
527.6643489164
 30
0.0
 10
90.2488783065
 20
527.6695491275
 30
0.0
 10
91.4287515729
 20
527.8176208232
 30
0.0
 10
92.5423906308
 20
528.2356209845
 30
0.0
 10
93.0576192638
 20
528.5044186837
 30
0.0
  0
SPLINE
  5
272
100
AcDbEntity
  8
0
100
AcDbSpline
 62
7
  6
CONTINUOUS
 70
0
 71
3
 72
19
 73
15
 74
0
 42
0.0000001
 43
0.0000001
 44
0.0000000001
 40
0.0
 40
0.0
 40
0.0
 40
0.0
 40
0.051735291
 40
0.1070568849
 40
0.1665628348
 40
0.2301257028
 40
0.3664261333
 40
0.5091951207
 40
0.6498019421
 40
0.7802445124
 40
0.8402042565
 40
0.8963172147
 40
0.9491722124
 40
1.0
 40
1.0
 40
1.0
 40
1.0
 10
94.0601023387
 20
509.679961673
 30
0.0
 10
94.0583527755
 20
509.8804417543
 30
0.0
 10
93.9941707168
 20
510.2962950835
 30
0.0
 10
93.7379675943
 20
510.8946501478
 30
0.0
 10
93.3338052039
 20
511.4614139686
 30
0.0
 10
92.6042010259
 20
512.1596051677
 30
0.0
 10
91.4223402809
 20
512.8169901604
 30
0.0
 10
89.8085115549
 20
513.1590869546
 30
0.0
 10
88.1866078334
 20
513.0127639529
 30
0.0
 10
86.9851290863
 20
512.4842663742
 30
0.0
 10
86.2539880221
 20
511.8600840125
 30
0.0
 10
85.8549588795
 20
511.3336880914
 30
0.0
 10
85.6083165019
 20
510.7585678184
 30
0.0
 10
85.5538940425
 20
510.3542734717
 30
0.0
 10
85.5556129161
 20
510.1573100685
 30
0.0
  0
SPLINE
  5
273
100
AcDbEntity
  8
0
100
AcDbSpline
 62
7
  6
CONTINUOUS
 70
0
 71
3
 72
19
 73
15
 74
0
 42
0.0000001
 43
0.0000001
 44
0.0000000001
 40
0.0
 40
0.0
 40
0.0
 40
0.0
 40
0.051735291
 40
0.1070568849
 40
0.1665628348
 40
0.2301257028
 40
0.3664261333
 40
0.5091951207
 40
0.6498019421
 40
0.7802445124
 40
0.8402042565
 40
0.8963172147
 40
0.9491722124
 40
1.0
 40
1.0
 40
1.0
 40
1.0
 10
94.1305963034
 20
501.6021534075
 30
0.0
 10
94.1288467403
 20
501.8026334888
 30
0.0
 10
94.0646646816
 20
502.218486818
 30
0.0
 10
93.8084615591
 20
502.8168418824
 30
0.0
 10
93.4042991686
 20
503.3836057032
 30
0.0
 10
92.6746949906
 20
504.0817969022
 30
0.0
 10
91.4928342457
 20
504.7391818949
 30
0.0
 10
89.8790055197
 20
505.0812786891
 30
0.0
 10
88.2571017982
 20
504.9349556875
 30
0.0
 10
87.0556230511
 20
504.4064581087
 30
0.0
 10
86.3244819869
 20
503.782275747
 30
0.0
 10
85.9254528442
 20
503.255879826
 30
0.0
 10
85.6788104666
 20
502.680759553
 30
0.0
 10
85.6243880072
 20
502.2764652063
 30
0.0
 10
85.6261068808
 20
502.079501803
 30
0.0
  0
SPLINE
  5
274
100
AcDbEntity
  8
0
100
AcDbSpline
 62
7
  6
CONTINUOUS
 70
0
 71
3
 72
19
 73
15
 74
0
 42
0.0000001
 43
0.0000001
 44
0.0000000001
 40
0.0
 40
0.0
 40
0.0
 40
0.0
 40
0.051735291
 40
0.1070568849
 40
0.1665628348
 40
0.2301257028
 40
0.3664261333
 40
0.5091951207
 40
0.6498019421
 40
0.7802445124
 40
0.8402042565
 40
0.8963172147
 40
0.9491722124
 40
1.0
 40
1.0
 40
1.0
 40
1.0
 10
94.2010902682
 20
493.5243451421
 30
0.0
 10
94.199340705
 20
493.7248252234
 30
0.0
 10
94.1351586464
 20
494.1406785526
 30
0.0
 10
93.8789555238
 20
494.7390336169
 30
0.0
 10
93.4747931334
 20
495.3057974377
 30
0.0
 10
92.7451889554
 20
496.0039886368
 30
0.0
 10
91.5633282104
 20
496.6613736295
 30
0.0
 10
89.9494994844
 20
497.0034704236
 30
0.0
 10
88.327595763
 20
496.857147422
 30
0.0
 10
87.1261170158
 20
496.3286498433
 30
0.0
 10
86.3949759517
 20
495.7044674816
 30
0.0
 10
85.995946809
 20
495.1780715605
 30
0.0
 10
85.7493044314
 20
494.6029512875
 30
0.0
 10
85.694881972
 20
494.1986569408
 30
0.0
 10
85.6966008456
 20
494.0016935376
 30
0.0
  0
SPLINE
  5
275
100
AcDbEntity
  8
0
100
AcDbSpline
 62
7
  6
CONTINUOUS
 70
0
 71
3
 72
13
 73
9
 74
0
 42
0.0000001
 43
0.0000001
 44
0.0000000001
 40
0.0
 40
0.0
 40
0.0
 40
0.0
 40
0.3317307761
 40
0.6224636898
 40
0.7456930438
 40
0.8505609596
 40
0.9353541628
 40
1.0
 40
1.0
 40
1.0
 40
1.0
 10
102.0588423506
 20
482.3569255747
 30
0.0
 10
102.9571214615
 20
482.1954640848
 30
0.0
 10
104.6383838892
 20
481.8681461002
 30
0.0
 10
106.6422526445
 20
481.4278231456
 30
0.0
 10
108.0357748842
 20
481.1188427719
 30
0.0
 10
108.8786441625
 20
480.9429149658
 30
0.0
 10
109.5681182433
 20
480.8244790346
 30
0.0
 10
109.9790240088
 20
480.7867449507
 30
0.0
 10
110.1568742387
 20
480.7882904635
 30
0.0
  0
SPLINE
  5
276
100
AcDbEntity
  8
0
100
AcDbSpline
 62
7
  6
CONTINUOUS
 70
0
 71
3
 72
11
 73
7
 74
0
 42
0.0000001
 43
0.0000001
 44
0.0000000001
 40
0.0
 40
0.0
 40
0.0
 40
0.0
 40
0.2562686836
 40
0.5107279167
 40
0.7602857846
 40
1.0
 40
1.0
 40
1.0
 40
1.0
 10
85.2456882794
 20
478.2032460502
 30
0.0
 10
86.6949625748
 20
478.2443469102
 30
0.0
 10
89.5865724596
 20
478.2404630738
 30
0.0
 10
93.8818610118
 20
477.9678918158
 30
0.0
 10
98.0604327149
 20
477.4541421713
 30
0.0
 10
100.7843282259
 20
476.9490737245
 30
0.0
 10
102.1085893422
 20
476.6564849631
 30
0.0
  0
SPLINE
  5
277
100
AcDbEntity
  8
0
100
AcDbSpline
 62
7
  6
CONTINUOUS
 70
0
 71
3
 72
11
 73
7
 74
0
 42
0.0000001
 43
0.0000001
 44
0.0000000001
 40
0.0
 40
0.0
 40
0.0
 40
0.0
 40
0.2774624899
 40
0.5340121697
 40
0.7723932152
 40
1.0
 40
1.0
 40
1.0
 40
1.0
 10
93.5848425805
 20
527.9403785142
 30
0.0
 10
93.9618441735
 20
528.1499717629
 30
0.0
 10
94.6518424368
 20
528.6245464637
 30
0.0
 10
95.4681016387
 20
529.5218353972
 30
0.0
 10
95.9816482904
 20
530.5380765179
 30
0.0
 10
96.0961701473
 20
531.2683034533
 30
0.0
 10
96.0930795123
 20
531.6221299223
 30
0.0
  0
SPLINE
  5
278
100
AcDbEntity
  8
0
100
AcDbSpline
 62
7
  6
CONTINUOUS
 70
0
 71
3
 72
11
 73
7
 74
0
 42
0.0000001
 43
0.0000001
 44
0.0000000001
 40
0.0
 40
0.0
 40
0.0
 40
0.0
 40
0.2552690458
 40
0.5092488134
 40
0.7594019193
 40
1.0
 40
1.0
 40
1.0
 40
1.0
 10
89.9603833836
 20
492.4409153501
 30
0.0
 10
89.5348859105
 20
492.4372020899
 30
0.0
 10
88.6781453078
 20
492.5841427814
 30
0.0
 10
87.5508205266
 20
493.1995179172
 30
0.0
 10
86.6524217767
 20
494.07395935
 30
0.0
 10
86.209180467
 20
494.7718661538
 30
0.0
 10
86.0373696112
 20
495.134259314
 30
0.0
  0
SPLINE
  5
279
100
AcDbEntity
  8
0
100
AcDbSpline
 62
7
  6
CONTINUOUS
 70
0
 71
3
 72
11
 73
7
 74
0
 42
0.0000001
 43
0.0000001
 44
0.0000000001
 40
0.0
 40
0.0
 40
0.0
 40
0.0
 40
0.2552690458
 40
0.5092488134
 40
0.7594019193
 40
1.0
 40
1.0
 40
1.0
 40
1.0
 10
89.8898894189
 20
500.5187236156
 30
0.0
 10
89.4643919457
 20
500.5150103554
 30
0.0
 10
88.6076513431
 20
500.6619510468
 30
0.0
 10
87.4803265618
 20
501.2773261827
 30
0.0
 10
86.581927812
 20
502.1517676155
 30
0.0
 10
86.1386865022
 20
502.8496744192
 30
0.0
 10
85.9668756465
 20
503.2120675794
 30
0.0
  0
SPLINE
  5
27A
100
AcDbEntity
  8
0
100
AcDbSpline
 62
7
  6
CONTINUOUS
 70
0
 71
3
 72
11
 73
7
 74
0
 42
0.0000001
 43
0.0000001
 44
0.0000000001
 40
0.0
 40
0.0
 40
0.0
 40
0.0
 40
0.2552690458
 40
0.5092488134
 40
0.7594019193
 40
1.0
 40
1.0
 40
1.0
 40
1.0
 10
89.8193954541
 20
508.596531881
 30
0.0
 10
89.393897981
 20
508.5928186208
 30
0.0
 10
88.5371573783
 20
508.7397593123
 30
0.0
 10
87.4098325971
 20
509.3551344481
 30
0.0
 10
86.5114338472
 20
510.229575881
 30
0.0
 10
86.0681925375
 20
510.9274826847
 30
0.0
 10
85.8963816817
 20
511.2898758449
 30
0.0
  0
SPLINE
  5
27B
100
AcDbEntity
  8
0
100
AcDbSpline
 62
7
  6
CONTINUOUS
 70
0
 71
3
 72
9
 73
5
 74
0
 42
0.0000001
 43
0.0000001
 44
0.0000000001
 40
0.0
 40
0.0
 40
0.0
 40
0.0
 40
0.2430017161
 40
1.0
 40
1.0
 40
1.0
 40
1.0
 10
85.8760928518
 20
528.9596716701
 30
0.0
 10
85.9535353123
 20
528.9033058601
 30
0.0
 10
86.2792800307
 20
528.6811106749
 30
0.0
 10
86.6309638035
 20
528.4976870187
 30
0.0
 10
86.9051938068
 20
528.3800824724
 30
0.0
  0
SPLINE
  5
27C
100
AcDbEntity
  8
0
100
AcDbSpline
 62
7
  6
CONTINUOUS
 70
0
 71
3
 72
11
 73
7
 74
0
 42
0.0000001
 43
0.0000001
 44
0.0000000001
 40
0.0
 40
0.0
 40
0.0
 40
0.0
 40
0.2425792393
 40
0.4926106726
 40
0.7457391568
 40
1.0
 40
1.0
 40
1.0
 40
1.0
 10
93.5642583551
 20
511.0917781801
 30
0.0
 10
93.3864247883
 20
510.7552705558
 30
0.0
 10
92.947452467
 20
510.1103867138
 30
0.0
 10
92.0826189563
 20
509.3061924744
 30
0.0
 10
91.0187378916
 20
508.7421703257
 30
0.0
 10
90.2183163562
 20
508.600013211
 30
0.0
 10
89.8193954541
 20
508.596531881
 30
0.0
  0
SPLINE
  5
27D
100
AcDbEntity
  8
0
100
AcDbSpline
 62
7
  6
CONTINUOUS
 70
0
 71
3
 72
11
 73
7
 74
0
 42
0.0000001
 43
0.0000001
 44
0.0000000001
 40
0.0
 40
0.0
 40
0.0
 40
0.0
 40
0.2425792393
 40
0.4926106726
 40
0.7457391568
 40
1.0
 40
1.0
 40
1.0
 40
1.0
 10
93.6347523199
 20
503.0139699147
 30
0.0
 10
93.456918753
 20
502.6774622904
 30
0.0
 10
93.0179464318
 20
502.0325784483
 30
0.0
 10
92.1531129211
 20
501.2283842089
 30
0.0
 10
91.0892318563
 20
500.6643620602
 30
0.0
 10
90.288810321
 20
500.5222049455
 30
0.0
 10
89.8898894189
 20
500.5187236156
 30
0.0
  0
SPLINE
  5
27E
100
AcDbEntity
  8
0
100
AcDbSpline
 62
7
  6
CONTINUOUS
 70
0
 71
3
 72
9
 73
5
 74
0
 42
0.0000001
 43
0.0000001
 44
0.0000000001
 40
0.0
 40
0.0
 40
0.0
 40
0.0
 40
0.2433356261
 40
1.0
 40
1.0
 40
1.0
 40
1.0
 10
84.6161553762
 20
530.4839681935
 30
0.0
 10
84.647821288
 20
530.4084020672
 30
0.0
 10
84.7908258466
 20
530.1033101981
 30
0.0
 10
84.983597815
 20
529.8223867087
 30
0.0
 10
85.1486090083
 20
529.6282706539
 30
0.0
  0
SPLINE
  5
27F
100
AcDbEntity
  8
0
100
AcDbSpline
 62
7
  6
CONTINUOUS
 70
0
 71
3
 72
11
 73
7
 74
0
 42
0.0000001
 43
0.0000001
 44
0.0000000001
 40
0.0
 40
0.0
 40
0.0
 40
0.0
 40
0.2425792393
 40
0.4926106726
 40
0.7457391568
 40
1.0
 40
1.0
 40
1.0
 40
1.0
 10
93.7052462847
 20
494.9361616492
 30
0.0
 10
93.5274127178
 20
494.5996540249
 30
0.0
 10
93.0884403965
 20
493.9547701829
 30
0.0
 10
92.2236068859
 20
493.1505759435
 30
0.0
 10
91.1597258211
 20
492.5865537948
 30
0.0
 10
90.3593042857
 20
492.4443966801
 30
0.0
 10
89.9603833836
 20
492.4409153501
 30
0.0
  0
SPLINE
  5
280
100
AcDbEntity
  8
0
100
AcDbSpline
 62
7
  6
CONTINUOUS
 70
0
 71
3
 72
14
 73
10
 74
0
 42
0.0000001
 43
0.0000001
 44
0.0000000001
 40
0.0
 40
0.0
 40
0.0
 40
0.0
 40
0.2933883864
 40
0.4312505769
 40
0.5598981025
 40
0.6788490512
 40
0.789485607
 40
0.8950497323
 40
1.0
 40
1.0
 40
1.0
 40
1.0
 10
89.5725682459
 20
536.8801284841
 30
0.0
 10
88.7400556545
 20
536.8728632568
 30
0.0
 10
87.5089675371
 20
536.7291528565
 30
0.0
 10
85.9929208247
 20
536.240180485
 30
0.0
 10
85.0108211633
 20
535.7465008735
 30
0.0
 10
84.1976115153
 20
535.1246495461
 30
0.0
 10
83.5866296069
 20
534.3827197717
 30
0.0
 10
83.2104903447
 20
533.53979686
 30
0.0
 10
83.132343002
 20
532.9378299167
 30
0.0
 10
83.1349419036
 20
532.6400252886
 30
0.0
  0
SPLINE
  5
281
100
AcDbEntity
  8
0
100
AcDbSpline
 62
7
  6
CONTINUOUS
 70
0
 71
3
 72
9
 73
5
 74
0
 42
0.0000001
 43
0.0000001
 44
0.0000000001
 40
0.0
 40
0.0
 40
0.0
 40
0.0
 40
0.2578720444
 40
1.0
 40
1.0
 40
1.0
 40
1.0
 10
85.1210244134
 20
532.7891521491
 30
0.0
 10
85.0647932744
 20
532.8553014001
 30
0.0
 10
84.8557822416
 20
533.1192736937
 30
0.0
 10
84.6851375259
 20
533.4144070961
 30
0.0
 10
84.5885707813
 20
533.6448496886
 30
0.0
  0
SPLINE
  5
282
100
AcDbEntity
  8
0
100
AcDbSpline
 62
7
  6
CONTINUOUS
 70
0
 71
3
 72
15
 73
11
 74
0
 42
0.0000001
 43
0.0000001
 44
0.0000000001
 40
0.0
 40
0.0
 40
0.0
 40
0.0
 40
0.1250384214
 40
0.2204600785
 40
0.3047737127
 40
0.3987089498
 40
0.5131211089
 40
0.6512327013
 40
0.8135969357
 40
1.0
 40
1.0
 40
1.0
 40
1.0
 10
110.1568742387
 20
480.7882904635
 30
0.0
 10
110.2705384557
 20
480.7892782018
 30
0.0
 10
110.4715949169
 20
480.8033587694
 30
0.0
 10
110.7383257289
 20
480.9038233589
 30
0.0
 10
110.9080554812
 20
481.0980756538
 30
0.0
 10
110.9909004181
 20
481.3548928166
 30
0.0
 10
111.032309055
 20
481.6674010945
 30
0.0
 10
111.0500179939
 20
482.044463569
 30
0.0
 10
111.05414384
 20
482.4870356425
 30
0.0
 10
111.0521312062
 20
482.804100106
 30
0.0
 10
111.0506529972
 20
482.97354684
 30
0.0
  0
SPLINE
  5
283
100
AcDbEntity
  8
0
100
AcDbSpline
 62
7
  6
CONTINUOUS
 70
0
 71
3
 72
9
 73
5
 74
0
 42
0.0000001
 43
0.0000001
 44
0.0000000001
 40
0.0
 40
0.0
 40
0.0
 40
0.0
 40
0.2571574909
 40
1.0
 40
1.0
 40
1.0
 40
1.0
 10
86.8776092118
 20
531.5409639676
 30
0.0
 10
86.784455539
 20
531.5809132631
 30
0.0
 10
86.4263248209
 20
531.745551424
 30
0.0
 10
86.0852349766
 20
531.9482537162
 30
0.0
 10
85.8485082569
 20
532.1205531652
 30
0.0
  0
SPLINE
  5
284
100
AcDbEntity
  8
0
100
AcDbSpline
 62
7
  6
CONTINUOUS
 70
0
 71
3
 72
10
 73
6
 74
0
 42
0.0000001
 43
0.0000001
 44
0.0000000001
 40
0.0
 40
0.0
 40
0.0
 40
0.0
 40
0.2105070893
 40
0.4512530336
 40
1.0
 40
1.0
 40
1.0
 40
1.0
 10
86.7364188425
 20
510.0776063514
 30
0.0
 10
86.9425259204
 20
510.0073931191
 30
0.0
 10
87.3977431766
 20
509.8964364558
 30
0.0
 10
88.4232440124
 20
509.7563104264
 30
0.0
 10
89.2418886062
 20
509.7295500232
 30
0.0
 10
89.809464529
 20
509.7345031833
 30
0.0
  0
SPLINE
  5
285
100
AcDbEntity
  8
0
100
AcDbSpline
 62
7
  6
CONTINUOUS
 70
0
 71
3
 72
10
 73
6
 74
0
 42
0.0000001
 43
0.0000001
 44
0.0000000001
 40
0.0
 40
0.0
 40
0.0
 40
0.0
 40
0.2105070893
 40
0.4512530336
 40
1.0
 40
1.0
 40
1.0
 40
1.0
 10
86.8069128073
 20
501.999798086
 30
0.0
 10
87.0130198852
 20
501.9295848537
 30
0.0
 10
87.4682371413
 20
501.8186281904
 30
0.0
 10
88.4937379772
 20
501.6785021609
 30
0.0
 10
89.312382571
 20
501.6517417578
 30
0.0
 10
89.8799584937
 20
501.6566949178
 30
0.0
  0
SPLINE
  5
286
100
AcDbEntity
  8
0
100
AcDbSpline
 62
7
  6
CONTINUOUS
 70
0
 71
3
 72
9
 73
5
 74
0
 42
0.0000001
 43
0.0000001
 44
0.0000000001
 40
0.0
 40
0.0
 40
0.0
 40
0.0
 40
0.5001189468
 40
1.0
 40
1.0
 40
1.0
 40
1.0
 10
98.7935907146
 20
536.1048370328
 30
0.0
 10
99.2015760906
 20
535.6576364914
 30
0.0
 10
99.8774227498
 20
534.6161189242
 30
0.0
 10
100.103398194
 20
533.3931815259
 30
0.0
 10
100.1086782302
 20
532.7881493094
 30
0.0
  0
SPLINE
  5
287
100
AcDbEntity
  8
0
100
AcDbSpline
 62
7
  6
CONTINUOUS
 70
0
 71
3
 72
9
 73
5
 74
0
 42
0.0000001
 43
0.0000001
 44
0.0000000001
 40
0.0
 40
0.0
 40
0.0
 40
0.0
 40
0.5108141458
 40
1.0
 40
1.0
 40
1.0
 40
1.0
 10
98.9076622068
 20
535.0900152081
 30
0.0
 10
99.1740944617
 20
534.7313907795
 30
0.0
 10
99.6303607907
 20
533.9771994786
 30
0.0
 10
99.9133244206
 20
533.1406289738
 30
0.0
 10
100.0018949447
 20
532.7220498757
 30
0.0
  0
SPLINE
  5
288
100
AcDbEntity
  8
0
100
AcDbSpline
 62
7
  6
CONTINUOUS
 70
0
 71
3
 72
15
 73
11
 74
0
 42
0.0000001
 43
0.0000001
 44
0.0000000001
 40
0.0
 40
0.0
 40
0.0
 40
0.0
 40
0.1255915451
 40
0.251228088
 40
0.3773842108
 40
0.5043068102
 40
0.6314333252
 40
0.7574409562
 40
0.8807968762
 40
1.0
 40
1.0
 40
1.0
 40
1.0
 10
101.7545246241
 20
517.2282830699
 30
0.0
 10
102.6293787091
 20
516.779202936
 30
0.0
 10
104.3242127767
 20
515.7649387105
 30
0.0
 10
106.5891862806
 20
513.842084518
 30
0.0
 10
108.4346553057
 20
511.4915373191
 30
0.0
 10
109.733119366
 20
508.7880803745
 30
0.0
 10
110.48607081
 20
505.8935616696
 30
0.0
 10
110.8005748933
 20
502.9565352563
 30
0.0
 10
110.8966213372
 20
500.0717392876
 30
0.0
 10
110.9180130357
 20
498.1725899769
 30
0.0
 10
110.9261586582
 20
497.2392636744
 30
0.0
  0
SPLINE
  5
289
100
AcDbEntity
  8
0
100
AcDbSpline
 62
7
  6
CONTINUOUS
 70
0
 71
3
 72
9
 73
5
 74
0
 42
0.0000001
 43
0.0000001
 44
0.0000000001
 40
0.0
 40
0.0
 40
0.0
 40
0.0
 40
0.4927595125
 40
1.0
 40
1.0
 40
1.0
 40
1.0
 10
96.0930795123
 20
531.6221299223
 30
0.0
 10
96.0906802651
 20
531.8968039557
 30
0.0
 10
96.0145533036
 20
532.4557223654
 30
0.0
 10
95.804785535
 20
532.9783866359
 30
0.0
 10
95.6714406878
 20
533.2277268912
 30
0.0
  0
SPLINE
  5
28A
100
AcDbEntity
  8
0
100
AcDbSpline
 62
7
  6
CONTINUOUS
 70
0
 71
3
 72
20
 73
16
 74
0
 42
0.0000001
 43
0.0000001
 44
0.0000000001
 40
0.0
 40
0.0
 40
0.0
 40
0.0
 40
0.0523525507
 40
0.1065641611
 40
0.1642991425
 40
0.2264988559
 40
0.363481894
 40
0.510804044
 40
0.6552038915
 40
0.7225596107
 40
0.785282815
 40
0.8432280287
 40
0.8971211621
 40
0.9486246277
 40
1.0
 40
1.0
 40
1.0
 40
1.0
 10
85.5556129161
 20
510.1573100685
 30
0.0
 10
85.5573249799
 20
509.9611269799
 30
0.0
 10
85.6182768554
 20
509.5601681909
 30
0.0
 10
85.8758301306
 20
508.9935389684
 30
0.0
 10
86.2854468406
 20
508.478177449
 30
0.0
 10
87.0316903702
 20
507.8610737222
 30
0.0
 10
88.2357474259
 20
507.3175625816
 30
0.0
 10
89.8314139414
 20
507.0434413699
 30
0.0
 10
91.190745789
 20
507.1260676252
 30
0.0
 10
92.1853125604
 20
507.4016998274
 30
0.0
 10
92.828402412
 20
507.6987281443
 30
0.0
 10
93.361809699
 20
508.0859784586
 30
0.0
 10
93.7633918429
 20
508.5570725816
 30
0.0
 10
94.0106994529
 20
509.0987873134
 30
0.0
 10
94.0617824463
 20
509.4874404094
 30
0.0
 10
94.0601023387
 20
509.679961673
 30
0.0
  0
SPLINE
  5
28B
100
AcDbEntity
  8
0
100
AcDbSpline
 62
7
  6
CONTINUOUS
 70
0
 71
3
 72
20
 73
16
 74
0
 42
0.0000001
 43
0.0000001
 44
0.0000000001
 40
0.0
 40
0.0
 40
0.0
 40
0.0
 40
0.0523525507
 40
0.1065641611
 40
0.1642991425
 40
0.2264988559
 40
0.363481894
 40
0.510804044
 40
0.6552038915
 40
0.7225596107
 40
0.785282815
 40
0.8432280287
 40
0.8971211621
 40
0.9486246277
 40
1.0
 40
1.0
 40
1.0
 40
1.0
 10
85.6261068808
 20
502.079501803
 30
0.0
 10
85.6278189447
 20
501.8833187144
 30
0.0
 10
85.6887708202
 20
501.4823599255
 30
0.0
 10
85.9463240954
 20
500.915730703
 30
0.0
 10
86.3559408054
 20
500.4003691835
 30
0.0
 10
87.102184335
 20
499.7832654567
 30
0.0
 10
88.3062413907
 20
499.2397543162
 30
0.0
 10
89.9019079062
 20
498.9656331045
 30
0.0
 10
91.2612397538
 20
499.0482593597
 30
0.0
 10
92.2558065251
 20
499.3238915619
 30
0.0
 10
92.8988963767
 20
499.6209198788
 30
0.0
 10
93.4323036638
 20
500.0081701932
 30
0.0
 10
93.8338858076
 20
500.4792643162
 30
0.0
 10
94.0811934177
 20
501.020979048
 30
0.0
 10
94.1322764111
 20
501.409632144
 30
0.0
 10
94.1305963034
 20
501.6021534075
 30
0.0
  0
SPLINE
  5
28C
100
AcDbEntity
  8
0
100
AcDbSpline
 62
7
  6
CONTINUOUS
 70
0
 71
3
 72
10
 73
6
 74
0
 42
0.0000001
 43
0.0000001
 44
0.0000000001
 40
0.0
 40
0.0
 40
0.0
 40
0.0
 40
0.2478185892
 40
0.4976429922
 40
1.0
 40
1.0
 40
1.0
 40
1.0
 10
101.7047776325
 20
522.9287236815
 30
0.0
 10
100.4145087716
 20
523.538157518
 30
0.0
 10
97.7122314311
 20
524.5333560694
 30
0.0
 10
92.084722398
 20
525.7924648286
 30
0.0
 10
87.7194222717
 20
526.0400725053
 30
0.0
 10
84.8292598185
 20
525.9212212594
 30
0.0
  0
SPLINE
  5
28D
100
AcDbEntity
  8
0
100
AcDbSpline
 62
7
  6
CONTINUOUS
 70
0
 71
3
 72
20
 73
16
 74
0
 42
0.0000001
 43
0.0000001
 44
0.0000000001
 40
0.0
 40
0.0
 40
0.0
 40
0.0
 40
0.0523525507
 40
0.1065641611
 40
0.1642991425
 40
0.2264988559
 40
0.363481894
 40
0.510804044
 40
0.6552038915
 40
0.7225596107
 40
0.785282815
 40
0.8432280287
 40
0.8971211621
 40
0.9486246277
 40
1.0
 40
1.0
 40
1.0
 40
1.0
 10
85.6966008456
 20
494.0016935376
 30
0.0
 10
85.6983129095
 20
493.805510449
 30
0.0
 10
85.759264785
 20
493.40455166
 30
0.0
 10
86.0168180601
 20
492.8379224375
 30
0.0
 10
86.4264347702
 20
492.3225609181
 30
0.0
 10
87.1726782998
 20
491.7054571913
 30
0.0
 10
88.3767353555
 20
491.1619460507
 30
0.0
 10
89.972401871
 20
490.887824839
 30
0.0
 10
91.3317337185
 20
490.9704510943
 30
0.0
 10
92.3263004899
 20
491.2460832965
 30
0.0
 10
92.9693903415
 20
491.5431116134
 30
0.0
 10
93.5027976286
 20
491.9303619277
 30
0.0
 10
93.9043797724
 20
492.4014560507
 30
0.0
 10
94.1516873824
 20
492.9431707825
 30
0.0
 10
94.2027703758
 20
493.3318238785
 30
0.0
 10
94.2010902682
 20
493.5243451421
 30
0.0
  0
SPLINE
  5
28E
100
AcDbEntity
  8
0
100
AcDbSpline
 62
7
  6
CONTINUOUS
 70
0
 71
3
 72
10
 73
6
 74
0
 42
0.0000001
 43
0.0000001
 44
0.0000000001
 40
0.0
 40
0.0
 40
0.0
 40
0.0
 40
0.5546763791
 40
0.7938816205
 40
1.0
 40
1.0
 40
1.0
 40
1.0
 10
89.8799584937
 20
501.6566949178
 30
0.0
 10
90.4852477064
 20
501.6619771968
 30
0.0
 10
91.3536324033
 20
501.7070162106
 30
0.0
 10
92.4305267584
 20
501.8889234463
 30
0.0
 10
92.8989923958
 20
502.0281418281
 30
0.0
 10
93.1062290164
 20
502.1155981973
 30
0.0
  0
SPLINE
  5
28F
100
AcDbEntity
  8
0
100
AcDbSpline
 62
7
  6
CONTINUOUS
 70
0
 71
3
 72
10
 73
6
 74
0
 42
0.0000001
 43
0.0000001
 44
0.0000000001
 40
0.0
 40
0.0
 40
0.0
 40
0.0
 40
0.5546763791
 40
0.7938816205
 40
1.0
 40
1.0
 40
1.0
 40
1.0
 10
89.809464529
 20
509.7345031833
 30
0.0
 10
90.4147537416
 20
509.7397854622
 30
0.0
 10
91.2831384385
 20
509.7848244761
 30
0.0
 10
92.3600327936
 20
509.9667317117
 30
0.0
 10
92.828498431
 20
510.1059500936
 30
0.0
 10
93.0357350516
 20
510.1934064627
 30
0.0
  0
ELLIPSE
  5
290
100
AcDbEntity
  8
0
100
AcDbEllipse
 62
7
  6
CONTINUOUS
 10
266.3397936164
 20
509.6523236348
 30
0.0
 11
759.5754294903
 21
-18.3091672745
 31
0.0
 40
0.0323407027
 41
1.8121124829
 42
1.8163544155
  0
ELLIPSE
  5
291
100
AcDbEntity
  8
0
100
AcDbEllipse
 62
7
  6
CONTINUOUS
 10
89.0391761346
 20
508.1050445868
 30
0.0
 11
-23.4960730067
 21
33.604381391
 31
0.0
 40
0.3903087076
 41
-1.3052660578
 42
-1.211555628
  0
ELLIPSE
  5
292
100
AcDbEntity
  8
0
100
AcDbEllipse
 62
7
  6
CONTINUOUS
 10
110.9697787092
 20
508.296430056
 30
0.0
 11
-0.1339036618
 21
27.4998785931
 31
0.0
 40
0.0038069789
 41
-4.1916063281
 42
-3.6492031112
  0
ELLIPSE
  5
293
100
AcDbEntity
  8
0
100
AcDbEllipse
 62
7
  6
CONTINUOUS
 10
315.9863991554
 20
510.0855829976
 30
0.0
 11
957.6322218985
 21
33.2853195524
 31
0.0
 40
0.0256491185
 41
-1.8176799471
 42
-1.8150314779
  0
ELLIPSE
  5
294
100
AcDbEntity
  8
0
100
AcDbEllipse
 62
7
  6
CONTINUOUS
 10
315.9863991554
 20
510.0855829976
 30
0.0
 11
957.6322218985
 21
33.2853195524
 31
0.0
 40
0.0256491185
 41
1.8136965351
 42
1.8163450043
  0
ENDSEC
  0
SECTION
  2
OBJECTS
  0
DICTIONARY
  5
C
100
AcDbDictionary
280
0
281
1
  3
ACAD_GROUP
350
D
  3
ACAD_MLINESTYLE
350
17
  3
ACAD_LAYOUT
350
1A
  3
ACAD_PLOTSETTINGS
350
19
  3
ACAD_PLOTSTYLENAME
350
E
  0
DICTIONARY
  5
D
102
{ACAD_REACTORS
330
C
102
}
100
AcDbDictionary
280
0
281
1
  0
ACDBDICTIONARYWDFLT
  5
E
102
{ACAD_REACTORS
330
C
102
}
100
AcDbDictionary
281
1
  3
Normal
350
F
100
AcDbDictionaryWithDefault
340
F
  0
DICTIONARY
  5
17
102
{ACAD_REACTORS
330
C
102
}
100
AcDbDictionary
280
0
281
1
  3
Standard
350
18
  0
DICTIONARY
  5
19
102
{ACAD_REACTORS
330
C
102
}
100
AcDbDictionary
281
1
  0
DICTIONARY
  5
1A
102
{ACAD_REACTORS
330
C
102
}
100
AcDbDictionary
281
1
  3
Model
350
295
  3
Layout1
350
296
  0
ACDBPLACEHOLDER
  5
F
102
{ACAD_REACTORS
330
E
102
}
  0
MLINESTYLE
  5
18
102
{ACAD_REACTORS
330
17
102
}
100
AcDbMlineStyle
  2
STANDARD
 70
0
  3

 62
256
 51
90.0
 52
90.0
 71
2
 49
0.5
 62
256
  6
BYLAYER
 49
-0.5
 62
256
  6
BYLAYER
  0
LAYOUT
  5
295
102
{ACAD_REACTORS
330
1A
102
}
100
AcDbPlotSettings
  1

  2
none_device
  4

  6

 40
0.0
 41
0.0
 42
0.0
 43
0.0
 44
210.0
 45
297.0
 46
0.0
 47
0.0
 48
0.0
 49
0.0
140
0.0
141
0.0
142
1.0
143
1.0
 70
1024
 72
1
 73
0
 74
0
  7

 75
0
147
1.0
148
0.0
149
0.0
100
AcDbLayout
  1
Model
 70
0
 71
0
 10
0.0
 20
0.0
 11
210.0
 21
297.0
 12
0.0
 22
0.0
 32
0.0
 14
0.0
 24
0.0
 34
0.0
 15
0.0
 25
0.0
 35
0.0
146
0.0
 13
0.0
 23
0.0
 33
0.0
 16
1.0
 26
0.0
 36
0.0
 17
0.0
 27
1.0
 37
0.0
 76
0
330
210
345
0
346
0
  0
LAYOUT
  5
296
102
{ACAD_REACTORS
330
1A
102
}
100
AcDbPlotSettings
  1

  2
none_device
  4

  6

 40
0.0
 41
0.0
 42
0.0
 43
0.0
 44
210.0
 45
297.0
 46
0.0
 47
0.0
 48
0.0
 49
0.0
140
0.0
141
0.0
142
1.0
143
1.0
 70
0
 72
1
 73
0
 74
0
  7

 75
0
147
1.0
148
0.0
149
0.0
100
AcDbLayout
  1
Layout1
 70
0
 71
1
 10
0.0
 20
0.0
 11
210.0
 21
297.0
 12
0.0
 22
0.0
 32
0.0
 14
0.0
 24
0.0
 34
0.0
 15
0.0
 25
0.0
 35
0.0
146
0.0
 13
0.0
 23
0.0
 33
0.0
 16
1.0
 26
0.0
 36
0.0
 17
0.0
 27
1.0
 37
0.0
 76
0
330
211
345
0
346
0
  0
ENDSEC
  0
EOF
