999
DXF file: C:\Users\sesa63760\Dev\_Creo\CAD\MCADID0002084_3D-CAD\drw0001_6.dxf
999
Pro/ENGINEER 2019471 by Parametric Technology Corporation
  0
SECTION
  2
HEADER
  9
$ACADVER
  1
AC1024
  9
$DWGCODEPAGE
  3
ANSI_1252
  9
$EXTMAX
 10
101.1250417803
 20
143.0197019464
 30
0.0
  9
$EXTMIN
 10
0.0
 20
0.0
 30
0.0
  9
$LIMMIN
 10
0.0
 20
0.0
  9
$LIMMAX
 10
101.1250417803
 20
143.0197019464
  9
$VIEWCTR
 10
50.5625208901
 20
71.5098509732
  9
$VIEWSIZE
 40
143.0197019464
  9
$CLAYER
  8
0
  9
$LTSCALE
 40
9.3227657565
  9
$CELTYPE
  6
BYLAYER
  9
$DIMSCALE
 40
1.0
  9
$DIMASZ
 40
1.203869545
  9
$DIMEXO
 40
1.0
  9
$DIMDLI
 40
6.4411836136
  9
$DIMEXE
 40
1.0
  9
$DIMCEN
 40
1.5255434874
  9
$DIMLFAC
 40
1.0
  9
$DIMBLK
  1
_FILLED
  9
$DIMALT
 70
0
  9
$DIMALTF
 40
0.0393700787
  9
$DIMTXT
 40
1.685417363
  9
$DIMTOL
 70
1
  9
$DIMLIM
 70
0
  9
$DIMTFAC
 40
1.0
  9
$DIMTP
 40
0.01
  9
$DIMTM
 40
0.01
  9
$DIMGAP
 40
0.625
  9
$DIMDSEP
 70
46
  9
$AUNITS
 70
0
  9
$PDMODE
 70
3
  9
$PDSIZE
 40
0.3125
  9
$HANDSEED
  5
2FD
  9
$TILEMODE
 70
1
  9
$MEASUREMENT
 70
1
  9
$INSUNITS
 70
4
  0
ENDSEC
  0
SECTION
  2
CLASSES
  0
CLASS
  1
ACDBDICTIONARYWDFLT
  2
AcDbDictionaryWithDefault
  3
AutoCAD 2000
 90
0
 91
1
280
0
281
0
  0
CLASS
  1
ACDBPLACEHOLDER
  2
AcDbPlaceHolder
  3
AutoCAD 2000
 90
0
 91
1
280
0
281
0
  0
CLASS
  1
LAYOUT
  2
AcDbLayout
  3
AutoCAD 2000
 90
0
 91
0
280
0
281
0
  0
ENDSEC
  0
SECTION
  2
TABLES
  0
TABLE
  2
VPORT
  5
8
100
AcDbSymbolTable
 70
2
  0
VPORT
  5
1F4
100
AcDbSymbolTableRecord
100
AcDbViewportTableRecord
  2
*ACTIVE
 70
0
 10
0.0
 20
0.0
 11
1.0
 21
1.0
 12
50.5625208901
 22
71.5098509732
 13
0.0
 23
0.0
 14
1.0
 24
1.0
 15
0.0
 25
0.0
 16
0.0
 26
0.0
 36
1.0
 17
0.0
 27
0.0
 37
0.0
 40
143.0197019464
 41
0.7070707071
 42
50.0
 43
0.0
 44
0.0
 50
0.0
 51
0.0
 71
0
 72
100
 73
1
 74
1
 75
0
 76
0
 77
0
 78
0
  0
ENDTAB
  0
TABLE
  2
LTYPE
  5
5
100
AcDbSymbolTable
 70
6
  0
LTYPE
  5
14
100
AcDbSymbolTableRecord
100
AcDbLinetypeTableRecord
  2
BYBLOCK
 70
0
  3

 72
65
 73
0
 40
0.0
  0
LTYPE
  5
15
100
AcDbSymbolTableRecord
100
AcDbLinetypeTableRecord
  2
BYLAYER
 70
0
  3

 72
65
 73
0
 40
0.0
  0
LTYPE
  5
16
100
AcDbSymbolTableRecord
100
AcDbLinetypeTableRecord
  2
CONTINUOUS
 70
64
  3
Solid line
 72
65
 73
0
 40
0.0
  0
LTYPE
  5
1F5
100
AcDbSymbolTableRecord
100
AcDbLinetypeTableRecord
  2
CENTER
 70
64
  3
____ _ ____ _ ____ _ ____ _ ____ _ ____ _ ____
 72
65
 73
4
 40
0.6
 49
0.375
 74
0
 49
-0.075
 74
0
 49
0.075
 74
0
 49
-0.075
 74
0
  0
LTYPE
  5
1F6
100
AcDbSymbolTableRecord
100
AcDbLinetypeTableRecord
  2
HIDDEN
 70
64
  3
- - - - - - - - - - - - - - - - - - - -
 72
65
 73
2
 40
0.2
 49
0.1
 74
0
 49
-0.1
 74
0
  0
LTYPE
  5
1F7
100
AcDbSymbolTableRecord
100
AcDbLinetypeTableRecord
  2
PHANTOM
 70
64
  3
_____ _ _ _____ _ _ _____ _ _ _____
 72
65
 73
6
 40
0.8
 49
0.45
 74
0
 49
-0.05
 74
0
 49
0.1
 74
0
 49
-0.05
 74
0
 49
0.1
 74
0
 49
-0.05
 74
0
  0
LTYPE
  5
1F8
100
AcDbSymbolTableRecord
100
AcDbLinetypeTableRecord
  2
DOT
 70
64
  3
. . . . . . . . . . . . . . . . . . . .
 72
65
 73
2
 40
0.2
 49
0.1
 74
0
 49
-0.1
 74
0
  0
LTYPE
  5
1F9
100
AcDbSymbolTableRecord
100
AcDbLinetypeTableRecord
  2
DASHED
 70
64
  3
- - - - - - - - - - - - - - - - - - - -
 72
65
 73
2
 40
0.2
 49
0.1
 74
0
 49
-0.1
 74
0
  0
ENDTAB
  0
TABLE
  2
LAYER
  5
2
100
AcDbSymbolTable
 70
36
  0
LAYER
  5
10
100
AcDbSymbolTableRecord
100
AcDbLayerTableRecord
  2
0
 70
0
 62
7
  6
CONTINUOUS
370
-3
390
F
  0
LAYER
  5
1FA
100
AcDbSymbolTableRecord
100
AcDbLayerTableRecord
  2
DEFAULT_1
 70
0
 62
7
  6
CENTER
370
-3
390
F
  0
LAYER
  5
1FB
100
AcDbSymbolTableRecord
100
AcDbLayerTableRecord
  2
DEFAULT_2
 70
0
 62
8
  6
HIDDEN
370
-3
390
F
  0
LAYER
  5
1FC
100
AcDbSymbolTableRecord
100
AcDbLayerTableRecord
  2
DEFAULT_3
 70
0
 62
7
  6
PHANTOM
370
-3
390
F
  0
LAYER
  5
1FD
100
AcDbSymbolTableRecord
100
AcDbLayerTableRecord
  2
00_COMPONENTS
 70
0
 62
7
  6
CONTINUOUS
370
-3
390
F
  0
LAYER
  5
1FE
100
AcDbSymbolTableRecord
100
AcDbLayerTableRecord
  2
01_1_DEFAULT_DATUMS
 70
0
 62
7
  6
CONTINUOUS
370
-3
390
F
  0
LAYER
  5
1FF
100
AcDbSymbolTableRecord
100
AcDbLayerTableRecord
  2
01_PLANES
 70
0
 62
7
  6
CONTINUOUS
370
-3
390
F
  0
LAYER
  5
200
100
AcDbSymbolTableRecord
100
AcDbLayerTableRecord
  2
02_COORD_SYS
 70
0
 62
7
  6
CONTINUOUS
370
-3
390
F
  0
LAYER
  5
201
100
AcDbSymbolTableRecord
100
AcDbLayerTableRecord
  2
03_AXES
 70
0
 62
7
  6
CONTINUOUS
370
-3
390
F
  0
LAYER
  5
202
100
AcDbSymbolTableRecord
100
AcDbLayerTableRecord
  2
04_POINTS
 70
0
 62
7
  6
CONTINUOUS
370
-3
390
F
  0
LAYER
  5
203
100
AcDbSymbolTableRecord
100
AcDbLayerTableRecord
  2
05_CURVES
 70
0
 62
7
  6
CONTINUOUS
370
-3
390
F
  0
LAYER
  5
204
100
AcDbSymbolTableRecord
100
AcDbLayerTableRecord
  2
06_SURFS
 70
0
 62
7
  6
CONTINUOUS
370
-3
390
F
  0
LAYER
  5
205
100
AcDbSymbolTableRecord
100
AcDbLayerTableRecord
  2
07_COSMETICS
 70
0
 62
7
  6
CONTINUOUS
370
-3
390
F
  0
LAYER
  5
206
100
AcDbSymbolTableRecord
100
AcDbLayerTableRecord
  2
10_NOTES
 70
0
 62
7
  6
CONTINUOUS
370
-3
390
F
  0
LAYER
  5
207
100
AcDbSymbolTableRecord
100
AcDbLayerTableRecord
  2
11_NOTES_PUB
 70
0
 62
7
  6
CONTINUOUS
370
-3
390
F
  0
LAYER
  5
208
100
AcDbSymbolTableRecord
100
AcDbLayerTableRecord
  2
13_REF_GTOL
 70
0
 62
7
  6
CONTINUOUS
370
-3
390
F
  0
LAYER
  5
209
100
AcDbSymbolTableRecord
100
AcDbLayerTableRecord
  2
16_MISC
 70
0
 62
7
  6
CONTINUOUS
370
-3
390
F
  0
LAYER
  5
20A
100
AcDbSymbolTableRecord
100
AcDbLayerTableRecord
  2
17_NO_PRINT
 70
0
 62
7
  6
CONTINUOUS
370
-3
390
F
  0
LAYER
  5
20B
100
AcDbSymbolTableRecord
100
AcDbLayerTableRecord
  2
18_DATUM_CAMS_JOINTS
 70
0
 62
7
  6
CONTINUOUS
370
-3
390
F
  0
LAYER
  5
20C
100
AcDbSymbolTableRecord
100
AcDbLayerTableRecord
  2
19_DATUM_FUNCTIONAL
 70
0
 62
7
  6
CONTINUOUS
370
-3
390
F
  0
LAYER
  5
20D
100
AcDbSymbolTableRecord
100
AcDbLayerTableRecord
  2
20_DATUM_KINEMATIC_SCHEME
 70
0
 62
7
  6
CONTINUOUS
370
-3
390
F
  0
ENDTAB
  0
TABLE
  2
STYLE
  5
3
100
AcDbSymbolTable
 70
1
  0
STYLE
  5
11
100
AcDbSymbolTableRecord
100
AcDbTextStyleTableRecord
  2
STANDARD
 70
0
 40
0.0
 41
0.8
 50
0.0
 71
0
 42
0.2
  3
txt
  4

  0
STYLE
  5
20E
100
AcDbSymbolTableRecord
100
AcDbTextStyleTableRecord
  2
TEXTSTYLE_1
 70
0
 40
0.0
 41
0.8
 50
0.0
 71
0
 42
0.2
  3
gdt
  4

  0
ENDTAB
  0
TABLE
  2
VIEW
  5
6
100
AcDbSymbolTable
 70
0
  0
ENDTAB
  0
TABLE
  2
UCS
  5
7
100
AcDbSymbolTable
 70
0
  0
ENDTAB
  0
TABLE
  2
APPID
  5
9
100
AcDbSymbolTable
 70
1
  0
APPID
  5
20F
100
AcDbSymbolTableRecord
100
AcDbRegAppTableRecord
  2
ACAD
 70
0
  0
ENDTAB
  0
TABLE
  2
BLOCK_RECORD
  5
1
100
AcDbSymbolTable
 70
0
  0
BLOCK_RECORD
  5
210
100
AcDbSymbolTableRecord
100
AcDbBlockTableRecord
  2
*Model_Space
  0
BLOCK_RECORD
  5
211
100
AcDbSymbolTableRecord
100
AcDbBlockTableRecord
  2
*Paper_Space
  0
BLOCK_RECORD
  5
212
100
AcDbSymbolTableRecord
100
AcDbBlockTableRecord
  2
_FILLED
  0
ENDTAB
  0
TABLE
  2
DIMSTYLE
  5
A
100
AcDbSymbolTable
 70
1
100
AcDbDimStyleTable
 71
0
  0
DIMSTYLE
105
213
100
AcDbSymbolTableRecord
100
AcDbDimStyleTableRecord
  2
STANDARD
 70
0
  3

  4

 40
1.0
 41
1.203869545
 42
1.0
 43
0.38
 44
1.0
 45
0.0
 46
0.0
 47
0.01
 48
0.01
140
1.685417363
141
0.09
142
0.0
143
25.4
144
1.0
145
0.0
146
1.0
147
0.625
 71
1
 72
0
 73
0
 74
0
 75
0
 76
0
 77
1
 78
8
 79
2
170
0
171
1
172
0
173
0
174
0
175
0
176
0
177
0
178
0
270
2
179
2
271
2
272
2
273
2
274
2
275
0
280
0
281
0
282
0
283
1
284
8
285
0
286
0
287
3
288
0
340
11
278
46
341
212
342
212
343
212
344
212
  0
ENDTAB
  0
ENDSEC
  0
SECTION
  2
BLOCKS
  0
BLOCK
  5
20
100
AcDbEntity
  8
0
100
AcDbBlockBegin
  2
*Model_Space
 70
0
 10
0.0
 20
0.0
 30
0.0
  3
*Model_Space
  1

  0
ENDBLK
  5
21
100
AcDbEntity
  8
0
100
AcDbBlockEnd
  0
BLOCK
  5
1C
100
AcDbEntity
  8
0
100
AcDbBlockBegin
  2
*Paper_Space
 70
0
 10
0.0
 20
0.0
 30
0.0
  3
*Paper_Space
  1

  0
ENDBLK
  5
1D
100
AcDbEntity
  8
0
100
AcDbBlockEnd
  0
BLOCK
  5
214
100
AcDbEntity
  8
0
100
AcDbBlockBegin
  2
_FILLED
 70
64
 10
0.0
 20
0.0
  3
_FILLED
  1

  0
SOLID
  5
215
100
AcDbEntity
  8
0
  6
BYBLOCK
 62
0
100
AcDbTrace
 10
0.0
 20
0.0
 11
-1.0
 21
0.25
 12
-1.0
 22
-0.25
 13
-1.0
 23
-0.25
  0
ENDBLK
  5
216
100
AcDbEntity
  8
0
  6
BYBLOCK
 62
0
100
AcDbBlockEnd
  0
ENDSEC
  0
SECTION
  2
ENTITIES
  0
LINE
  5
217
100
AcDbEntity
  8
0
100
AcDbLine
 62
7
  6
CONTINUOUS
 10
12.9377967877
 20
73.1098509732
 11
12.937787487
 21
67.2598509042
  0
LINE
  5
218
100
AcDbEntity
  8
0
100
AcDbLine
 62
7
  6
CONTINUOUS
 10
17.4377967877
 20
67.2598508698
 11
17.4377967877
 21
73.1098509732
  0
LINE
  5
219
100
AcDbEntity
  8
0
100
AcDbLine
 62
7
  6
CONTINUOUS
 10
18.4751573919
 20
72.85652141
 11
18.4751573919
 21
73.1098509732
  0
LINE
  5
21A
100
AcDbEntity
  8
0
100
AcDbLine
 62
7
  6
CONTINUOUS
 10
63.7889938182
 20
40.1950294622
 11
64.0271001155
 21
40.2158878091
  0
LINE
  5
21B
100
AcDbEntity
  8
0
100
AcDbLine
 62
7
  6
CONTINUOUS
 10
63.7889938182
 20
40.1950294622
 11
64.0276126991
 21
40.213679037
  0
LINE
  5
21C
100
AcDbEntity
  8
0
100
AcDbLine
 62
7
  6
CONTINUOUS
 10
38.8478076026
 20
40.2136920144
 11
39.0865856355
 21
40.1950298309
  0
LINE
  5
21D
100
AcDbEntity
  8
0
100
AcDbLine
 62
7
  6
CONTINUOUS
 10
38.8483235954
 20
40.2159153989
 11
39.0865856355
 21
40.1950298309
  0
LINE
  5
21E
100
AcDbEntity
  8
0
100
AcDbLine
 62
7
  6
CONTINUOUS
 10
34.7057413298
 20
38.7598509732
 11
33.8196346662
 21
40.2946327354
  0
LINE
  5
21F
100
AcDbEntity
  8
0
100
AcDbLine
 62
7
  6
CONTINUOUS
 10
34.0653032179
 20
40.1654856342
 11
34.9571392929
 21
38.6172295438
  0
LINE
  5
220
100
AcDbEntity
  8
0
100
AcDbLine
 62
7
  6
CONTINUOUS
 10
25.2827744385
 20
65.4777306272
 11
25.2827744385
 21
70.2598509732
  0
LINE
  5
221
100
AcDbEntity
  8
0
100
AcDbLine
 62
7
  6
CONTINUOUS
 10
26.2127619365
 20
71.3367108622
 11
26.2127619365
 21
70.2598509732
  0
LINE
  5
222
100
AcDbEntity
  8
0
100
AcDbLine
 62
7
  6
CONTINUOUS
 10
26.4377921373
 20
65.1822333919
 11
26.4377921373
 21
70.2598509732
  0
LINE
  5
223
100
AcDbEntity
  8
0
100
AcDbLine
 62
7
  6
CONTINUOUS
 10
26.4377967877
 20
59.2598509732
 11
26.4377967877
 21
62.7315947104
  0
LINE
  5
224
100
AcDbEntity
  8
0
100
AcDbLine
 62
7
  6
CONTINUOUS
 10
26.4377967877
 20
73.788107236
 11
26.4377967877
 21
77.2598509732
  0
LINE
  5
225
100
AcDbEntity
  8
0
100
AcDbLine
 62
7
  6
CONTINUOUS
 10
64.0389443661
 20
40.0807378581
 11
63.8906637146
 21
40.1437218959
  0
LINE
  5
226
100
AcDbEntity
  8
0
100
AcDbLine
 62
7
  6
CONTINUOUS
 10
28.0361433075
 20
70.2598509732
 11
28.0361433075
 21
70.8761998398
  0
LINE
  5
227
100
AcDbEntity
  8
0
100
AcDbLine
 62
7
  6
CONTINUOUS
 10
18.0171330173
 20
70.234767351
 11
17.9382183545
 21
70.2803335236
  0
LINE
  5
228
100
AcDbEntity
  8
0
100
AcDbLine
 62
7
  6
CONTINUOUS
 10
17.9382183545
 20
66.2393684228
 11
18.0171350737
 21
66.2849310112
  0
LINE
  5
229
100
AcDbEntity
  8
0
100
AcDbLine
 62
7
  6
CONTINUOUS
 10
70.6587648431
 20
59.7320518412
 11
76.4377967877
 21
59.7320516249
  0
LINE
  5
22A
100
AcDbEntity
  8
0
100
AcDbLine
 62
7
  6
CONTINUOUS
 10
32.2167930911
 20
59.7320522223
 11
26.4377967877
 21
59.7320516249
  0
LINE
  5
22B
100
AcDbEntity
  8
0
100
AcDbLine
 62
7
  6
CONTINUOUS
 10
32.2168452419
 20
76.7876501116
 11
32.2736870878
 21
76.7003749968
  0
LINE
  5
22C
100
AcDbEntity
  8
0
100
AcDbLine
 62
7
  6
CONTINUOUS
 10
31.9569217173
 20
77.1900307135
 11
32.0432039425
 21
77.0559627295
  0
LINE
  5
22D
100
AcDbEntity
  8
0
100
AcDbLine
 62
7
  6
CONTINUOUS
 10
32.2736481201
 20
59.8194154256
 11
32.216827441
 21
59.7320928578
  0
LINE
  5
22E
100
AcDbEntity
  8
0
100
AcDbLine
 62
7
  6
CONTINUOUS
 10
76.4377967877
 20
62.7315947104
 11
71.6725579748
 21
62.7315947104
  0
LINE
  5
22F
100
AcDbEntity
  8
0
100
AcDbLine
 62
7
  6
CONTINUOUS
 10
31.2030356006
 20
62.7315947104
 11
26.4377967877
 21
62.7315947104
  0
LINE
  5
230
100
AcDbEntity
  8
0
100
AcDbLine
 62
7
  6
CONTINUOUS
 10
26.4377921373
 20
63.2598509732
 11
27.2466250085
 21
63.2598509732
  0
LINE
  5
231
100
AcDbEntity
  8
0
100
AcDbLine
 62
7
  6
CONTINUOUS
 10
75.6290188743
 20
63.2598509732
 11
76.4377921373
 21
63.2598509732
  0
LINE
  5
232
100
AcDbEntity
  8
0
100
AcDbLine
 62
7
  6
CONTINUOUS
 10
11.437797917
 20
67.2598508698
 11
17.853062326
 21
67.2598508698
  0
LINE
  5
233
100
AcDbEntity
  8
0
100
AcDbLine
 62
7
  6
CONTINUOUS
 10
85.0225312813
 20
67.2598508698
 11
91.437786358
 21
67.2598508698
  0
LINE
  5
234
100
AcDbEntity
  8
0
100
AcDbLine
 62
7
  6
CONTINUOUS
 10
48.4377967877
 20
86.6163212221
 11
48.4377967877
 21
105.2598509732
  0
LINE
  5
235
100
AcDbEntity
  8
0
100
AcDbLine
 62
7
  6
CONTINUOUS
 10
89.9377967877
 20
70.2598509732
 11
85.4377967877
 21
70.2598509732
  0
LINE
  5
236
100
AcDbEntity
  8
0
100
AcDbLine
 62
7
  6
CONTINUOUS
 10
54.7146808089
 20
70.2598509732
 11
48.1609127664
 21
70.2598509732
  0
LINE
  5
237
100
AcDbEntity
  8
0
100
AcDbLine
 62
7
  6
CONTINUOUS
 10
17.4377967877
 20
70.2598509732
 11
12.9377967877
 21
70.2598509732
  0
LINE
  5
238
100
AcDbEntity
  8
0
100
AcDbLine
 62
7
  6
CONTINUOUS
 10
24.1872829548
 20
70.2598509732
 11
28.6863863782
 21
70.2598509732
  0
LINE
  5
239
100
AcDbEntity
  8
0
100
AcDbLine
 62
7
  6
CONTINUOUS
 10
74.1872829548
 20
70.2598509732
 11
78.6863863782
 21
70.2598509732
  0
LINE
  5
23A
100
AcDbEntity
  8
0
100
AcDbLine
 62
7
  6
CONTINUOUS
 10
54.4377967877
 20
105.2598509732
 11
54.4377967877
 21
86.6163212221
  0
LINE
  5
23B
100
AcDbEntity
  8
0
100
AcDbLine
 62
7
  6
CONTINUOUS
 10
91.4377910087
 20
73.1098509732
 11
84.2442240931
 21
73.1098509732
  0
LINE
  5
23C
100
AcDbEntity
  8
0
100
AcDbLine
 62
7
  6
CONTINUOUS
 10
18.6313694823
 20
73.1098509732
 11
11.4378108828
 21
73.1098509732
  0
LINE
  5
23D
100
AcDbEntity
  8
0
100
AcDbLine
 62
7
  6
CONTINUOUS
 10
19.0386001966
 20
73.2598509732
 11
18.7788970244
 21
73.2598509732
  0
LINE
  5
23E
100
AcDbEntity
  8
0
100
AcDbLine
 62
7
  6
CONTINUOUS
 10
83.8369933788
 20
73.2598509732
 11
84.0964515514
 21
73.2598509732
  0
LINE
  5
23F
100
AcDbEntity
  8
0
100
AcDbLine
 62
7
  6
CONTINUOUS
 10
26.4377967877
 20
73.788107236
 11
31.2030356006
 21
73.788107236
  0
LINE
  5
240
100
AcDbEntity
  8
0
100
AcDbLine
 62
7
  6
CONTINUOUS
 10
71.6725579748
 20
73.788107236
 11
76.4377967877
 21
73.788107236
  0
LINE
  5
241
100
AcDbEntity
  8
0
100
AcDbLine
 62
7
  6
CONTINUOUS
 10
70.6588004818
 20
76.7876497241
 11
76.4377967877
 21
76.7876503215
  0
LINE
  5
242
100
AcDbEntity
  8
0
100
AcDbLine
 62
7
  6
CONTINUOUS
 10
32.2168287323
 20
76.7876501052
 11
26.4377967877
 21
76.7876503215
  0
LINE
  5
243
100
AcDbEntity
  8
0
100
AcDbLine
 62
7
  6
CONTINUOUS
 10
76.6628324003
 20
77.2598509732
 11
70.9634209775
 21
77.2598509732
  0
LINE
  5
244
100
AcDbEntity
  8
0
100
AcDbLine
 62
7
  6
CONTINUOUS
 10
31.9121725979
 20
77.2598509732
 11
26.2127611751
 21
77.2598509732
  0
LINE
  5
245
100
AcDbEntity
  8
0
100
AcDbLine
 62
7
  6
CONTINUOUS
 10
70.6587483335
 20
59.7320518348
 11
70.6019064876
 21
59.8193269495
  0
LINE
  5
246
100
AcDbEntity
  8
0
100
AcDbLine
 62
7
  6
CONTINUOUS
 10
70.60194545
 20
76.7002865326
 11
70.658766132
 21
76.7876090929
  0
LINE
  5
247
100
AcDbEntity
  8
0
100
AcDbLine
 62
7
  6
CONTINUOUS
 10
84.8584514184
 20
66.284935101
 11
84.9373752208
 21
66.2393684228
  0
LINE
  5
248
100
AcDbEntity
  8
0
100
AcDbLine
 62
7
  6
CONTINUOUS
 10
84.9373752208
 20
70.2803335236
 11
84.8584433092
 21
70.2347971342
  0
LINE
  5
249
100
AcDbEntity
  8
0
100
AcDbLine
 62
7
  6
CONTINUOUS
 10
25.7195867175
 20
89.7619857984
 11
48.4314418307
 21
91.3506977978
  0
LINE
  5
24A
100
AcDbEntity
  8
0
100
AcDbLine
 62
7
  6
CONTINUOUS
 10
54.4377967877
 20
91.3511198154
 11
77.1559929738
 21
89.7619979958
  0
LINE
  5
24B
100
AcDbEntity
  8
0
100
AcDbLine
 62
7
  6
CONTINUOUS
 10
74.8394502497
 20
70.8719928034
 11
74.8394502497
 21
70.2598509732
  0
LINE
  5
24C
100
AcDbEntity
  8
0
100
AcDbLine
 62
7
  6
CONTINUOUS
 10
38.9848569624
 20
40.1437040557
 11
38.8364661458
 21
40.0806459085
  0
LINE
  5
24D
100
AcDbEntity
  8
0
100
AcDbLine
 62
7
  6
CONTINUOUS
 10
48.4377967877
 20
95.2598509732
 11
54.4377967877
 21
95.2598509732
  0
LINE
  5
24E
100
AcDbEntity
  8
0
100
AcDbLine
 62
7
  6
CONTINUOUS
 10
76.4377921373
 20
70.2598509732
 11
76.4377921373
 21
65.1822333919
  0
LINE
  5
24F
100
AcDbEntity
  8
0
100
AcDbLine
 62
7
  6
CONTINUOUS
 10
76.4377967877
 20
77.2598509732
 11
76.4377967877
 21
73.788107236
  0
LINE
  5
250
100
AcDbEntity
  8
0
100
AcDbLine
 62
7
  6
CONTINUOUS
 10
76.4377967877
 20
62.7315947104
 11
76.4377967877
 21
59.2598509732
  0
LINE
  5
251
100
AcDbEntity
  8
0
100
AcDbLine
 62
7
  6
CONTINUOUS
 10
76.6628316389
 20
71.3382262155
 11
76.6628316389
 21
70.2598509732
  0
LINE
  5
252
100
AcDbEntity
  8
0
100
AcDbLine
 62
7
  6
CONTINUOUS
 10
77.5928098186
 20
65.4784879063
 11
77.5928098186
 21
70.2598509732
  0
LINE
  5
253
100
AcDbEntity
  8
0
100
AcDbLine
 62
7
  6
CONTINUOUS
 10
67.9184408635
 20
38.6173726082
 11
68.8102738833
 21
40.1656271932
  0
LINE
  5
254
100
AcDbEntity
  8
0
100
AcDbLine
 62
7
  6
CONTINUOUS
 10
69.0559445376
 20
40.2946239524
 11
68.1698429449
 21
38.7598509732
  0
LINE
  5
255
100
AcDbEntity
  8
0
100
AcDbLine
 62
7
  6
CONTINUOUS
 10
84.4001149213
 20
73.1098509732
 11
84.4001149213
 21
72.8570599738
  0
LINE
  5
256
100
AcDbEntity
  8
0
100
AcDbLine
 62
7
  6
CONTINUOUS
 10
85.4377967877
 20
67.2598508698
 11
85.4377967877
 21
73.1098509732
  0
LINE
  5
257
100
AcDbEntity
  8
0
100
AcDbLine
 62
7
  6
CONTINUOUS
 10
69.1979287919
 20
40.4909223829
 11
69.055947767
 21
40.2946315064
  0
LINE
  5
258
100
AcDbEntity
  8
0
100
AcDbLine
 62
7
  6
CONTINUOUS
 10
54.4377967877
 20
105.2598509732
 11
48.4377967877
 21
105.2598509732
  0
LINE
  5
259
100
AcDbEntity
  8
0
100
AcDbLine
 62
7
  6
CONTINUOUS
 10
89.9377967877
 20
67.2598509042
 11
89.9377967877
 21
73.1098509732
  0
ARC
  5
25A
100
AcDbEntity
  8
0
100
AcDbCircle
 62
7
  6
CONTINUOUS
 10
-108.6062899616
 20
67.9805261259
 40
187.0349119234
100
AcDbArc
 50
2.8029524337
 51
6.6876534068
  0
ARC
  5
25B
100
AcDbEntity
  8
0
100
AcDbCircle
 62
7
  6
CONTINUOUS
 10
-88.4968510709
 20
68.2598509732
 40
180.0
100
AcDbArc
 50
1.5439898655
 51
6.5127003917
  0
ARC
  5
25C
100
AcDbEntity
  8
0
100
AcDbCircle
 62
7
  6
CONTINUOUS
 10
51.4377967877
 20
-79.2401490268
 40
180.0
100
AcDbArc
 50
90.9619921971
 51
99.5280854595
  0
ARC
  5
25D
100
AcDbEntity
  8
0
100
AcDbCircle
 62
7
  6
CONTINUOUS
 10
51.4377967877
 20
-79.2401490268
 40
180.0
100
AcDbArc
 50
80.4719145405
 51
89.038002938
  0
ARC
  5
25E
100
AcDbEntity
  8
0
100
AcDbCircle
 62
7
  6
CONTINUOUS
 10
5.0640770936
 20
17.0777836232
 40
78.2435278996
100
AcDbArc
 50
32.6839716721
 51
33.0347478523
  0
ARC
  5
25F
100
AcDbEntity
  8
0
100
AcDbCircle
 62
7
  6
CONTINUOUS
 10
23.4588565113
 20
53.0919801605
 40
11.0
100
AcDbArc
 50
186.5123635314
 51
260.4704746011
  0
ARC
  5
260
100
AcDbEntity
  8
0
100
AcDbCircle
 62
7
  6
CONTINUOUS
 10
26.2127611751
 20
68.2598509732
 40
9.0
100
AcDbArc
 50
90.0
 51
167.1604950985
  0
ARC
  5
261
100
AcDbEntity
  8
0
100
AcDbCircle
 62
7
  6
CONTINUOUS
 10
26.4377967877
 20
68.2598509732
 40
8.9301797403
100
AcDbArc
 50
145.9511767752
 51
167.329557558
  0
ARC
  5
262
100
AcDbEntity
  8
0
100
AcDbCircle
 62
7
  6
CONTINUOUS
 10
26.4377967877
 20
68.2598509732
 40
8.9301797403
100
AcDbArc
 50
169.1134091223
 51
186.5180650809
  0
ARC
  5
263
100
AcDbEntity
  8
0
100
AcDbCircle
 62
7
  6
CONTINUOUS
 10
26.4377967877
 20
68.2598509732
 40
8.7364285196
100
AcDbArc
 50
166.6280876895
 51
193.3719123105
  0
ARC
  5
264
100
AcDbEntity
  8
0
100
AcDbCircle
 62
7
  6
CONTINUOUS
 10
26.4377967877
 20
68.2598509732
 40
8.6491531949
100
AcDbArc
 50
166.8008282036
 51
193.1991718131
  0
ARC
  5
265
100
AcDbEntity
  8
0
100
AcDbCircle
 62
7
  6
CONTINUOUS
 10
26.4377967877
 20
68.2598509732
 40
8.5277993483
100
AcDbArc
 50
90.0
 51
270.0
  0
ARC
  5
266
100
AcDbEntity
  8
0
100
AcDbCircle
 62
7
  6
CONTINUOUS
 10
26.4377967877
 20
68.2598509732
 40
5.5282562628
100
AcDbArc
 50
90.0
 51
270.0
  0
CIRCLE
  5
267
100
AcDbEntity
  8
0
100
AcDbCircle
 62
7
  6
CONTINUOUS
 10
26.4377967877
 20
68.2598509732
 40
5.1
  0
CIRCLE
  5
268
100
AcDbEntity
  8
0
100
AcDbCircle
 62
7
  6
CONTINUOUS
 10
26.4377967877
 20
68.2598509732
 40
3.1
  0
ARC
  5
269
100
AcDbEntity
  8
0
100
AcDbCircle
 62
7
  6
CONTINUOUS
 10
38.3903501162
 20
31.1383898584
 40
9.083362345
100
AcDbArc
 50
84.7801322419
 51
85.6039932999
  0
ARC
  5
26A
100
AcDbEntity
  8
0
100
AcDbCircle
 62
7
  6
CONTINUOUS
 10
38.5980773726
 20
33.4332457931
 40
6.7791250615
100
AcDbArc
 50
84.3239392129
 51
84.7639437299
  0
ARC
  5
26B
100
AcDbEntity
  8
0
100
AcDbCircle
 62
7
  6
CONTINUOUS
 10
36.4377921373
 20
39.7598509732
 40
2.0
100
AcDbArc
 50
210.0
 51
352.0739781958
  0
ARC
  5
26C
100
AcDbEntity
  8
0
100
AcDbCircle
 62
7
  6
CONTINUOUS
 10
32.466049716
 20
39.4388087839
 40
1.6046574944
100
AcDbArc
 50
40.7961048566
 51
51.1501124725
  0
ARC
  5
26D
100
AcDbEntity
  8
0
100
AcDbCircle
 62
7
  6
CONTINUOUS
 10
32.8422480062
 20
39.7017688502
 40
1.2367612158
100
AcDbArc
 50
67.2539250417
 51
69.4141930823
  0
ARC
  5
26E
100
AcDbEntity
  8
0
100
AcDbCircle
 62
7
  6
CONTINUOUS
 10
39.282384302
 20
39.0694196668
 40
1.1818313285
100
AcDbArc
 50
153.2735821145
 51
156.2246103009
  0
ARC
  5
26F
100
AcDbEntity
  8
0
100
AcDbCircle
 62
7
  6
CONTINUOUS
 10
39.2122775644
 20
39.1264439772
 40
1.0754049646
100
AcDbArc
 50
102.6616011002
 51
104.594434092
  0
ARC
  5
270
100
AcDbEntity
  8
0
100
AcDbCircle
 62
7
  6
CONTINUOUS
 10
39.2110435649
 20
39.3737466876
 40
0.8
100
AcDbArc
 50
86.1223664231
 51
172.0739781958
  0
ARC
  5
271
100
AcDbEntity
  8
0
100
AcDbCircle
 62
7
  6
CONTINUOUS
 10
33.1299711724
 20
39.889164947
 40
0.8
100
AcDbArc
 50
30.0
 51
84.1882550285
  0
ARC
  5
272
100
AcDbEntity
  8
0
100
AcDbCircle
 62
7
  6
CONTINUOUS
 10
39.2138749575
 20
39.4668888886
 40
0.7139579054
100
AcDbArc
 50
95.1505599411
 51
100.9567169648
  0
ARC
  5
273
100
AcDbEntity
  8
0
100
AcDbCircle
 62
7
  6
CONTINUOUS
 10
51.4377967877
 20
68.2598509732
 40
21.5
100
AcDbArc
 50
24.7465245869
 51
81.8100424436
  0
ARC
  5
274
100
AcDbEntity
  8
0
100
AcDbCircle
 62
7
  6
CONTINUOUS
 10
51.4377967877
 20
68.2598509732
 40
21.5
100
AcDbArc
 50
98.1899599097
 51
155.2534754131
  0
ARC
  5
275
100
AcDbEntity
  8
0
100
AcDbCircle
 62
7
  6
CONTINUOUS
 10
51.5125848287
 20
68.2760763177
 40
21.0154941816
100
AcDbArc
 50
187.7529770813
 51
203.7281035939
  0
ARC
  5
276
100
AcDbEntity
  8
0
100
AcDbCircle
 62
7
  6
CONTINUOUS
 10
51.3630087466
 20
68.2436256286
 40
21.0154941813
100
AcDbArc
 50
7.7529770813
 51
23.7286115098
  0
ARC
  5
277
100
AcDbEntity
  8
0
100
AcDbCircle
 62
7
  6
CONTINUOUS
 10
51.4462179741
 20
68.2615740317
 40
20.9677704843
100
AcDbArc
 50
7.8451918574
 51
15.2821633915
  0
ARC
  5
278
100
AcDbEntity
  8
0
100
AcDbCircle
 62
7
  6
CONTINUOUS
 10
51.4293756013
 20
68.2581279147
 40
20.9677704843
100
AcDbArc
 50
187.8451918574
 51
195.2821633915
  0
ARC
  5
279
100
AcDbEntity
  8
0
100
AcDbCircle
 62
7
  6
CONTINUOUS
 10
51.4207449906
 20
68.2633399405
 40
20.9589796185
100
AcDbArc
 50
164.7162747619
 51
172.1563699891
  0
ARC
  5
27A
100
AcDbEntity
  8
0
100
AcDbCircle
 62
7
  6
CONTINUOUS
 10
51.4548485878
 20
68.2563620052
 40
20.9589796154
100
AcDbArc
 50
344.7162747614
 51
352.1563699897
  0
ARC
  5
27B
100
AcDbEntity
  8
0
100
AcDbCircle
 62
7
  6
CONTINUOUS
 10
51.4377967877
 20
68.2598509732
 40
20.9405240236
100
AcDbArc
 50
98.2366999388
 51
156.2296794329
  0
ARC
  5
27C
100
AcDbEntity
  8
0
100
AcDbCircle
 62
7
  6
CONTINUOUS
 10
51.4377967877
 20
68.2598509732
 40
20.9405240236
100
AcDbArc
 50
23.7700560819
 51
81.7633000612
  0
ARC
  5
27D
100
AcDbEntity
  8
0
100
AcDbCircle
 62
7
  6
CONTINUOUS
 10
51.4377967877
 20
68.2598509732
 40
20.9405240236
100
AcDbArc
 50
203.7700560465
 51
336.2296794329
  0
ARC
  5
27E
100
AcDbEntity
  8
0
100
AcDbCircle
 62
7
  6
CONTINUOUS
 10
51.4149406393
 20
68.2711472204
 40
20.915034584
100
AcDbArc
 50
156.2327623152
 51
172.2856401538
  0
ARC
  5
27F
100
AcDbEntity
  8
0
100
AcDbCircle
 62
7
  6
CONTINUOUS
 10
51.4606529433
 20
68.2485547239
 40
20.9150345776
100
AcDbArc
 50
336.2327622037
 51
352.2856401566
  0
ARC
  5
280
100
AcDbEntity
  8
0
100
AcDbCircle
 62
7
  6
CONTINUOUS
 10
51.4377967877
 20
68.2598509732
 40
18.6
100
AcDbArc
 50
43.1505359657
 51
62.0911860941
  0
ARC
  5
281
100
AcDbEntity
  8
0
100
AcDbCircle
 62
7
  6
CONTINUOUS
 10
51.4377967877
 20
68.2598509732
 40
18.6
100
AcDbArc
 50
297.3025016752
 51
311.8918633955
  0
ARC
  5
282
100
AcDbEntity
  8
0
100
AcDbCircle
 62
7
  6
CONTINUOUS
 10
51.4377967877
 20
68.2598509732
 40
18.6
100
AcDbArc
 50
244.8771638193
 51
295.1226514208
  0
ARC
  5
283
100
AcDbEntity
  8
0
100
AcDbCircle
 62
7
  6
CONTINUOUS
 10
51.4377967877
 20
68.2598509732
 40
18.6
100
AcDbArc
 50
228.1079871143
 51
242.6975684249
  0
ARC
  5
284
100
AcDbEntity
  8
0
100
AcDbCircle
 62
7
  6
CONTINUOUS
 10
51.4377967877
 20
68.2598509732
 40
18.6
100
AcDbArc
 50
117.9087916294
 51
136.8494356844
  0
ARC
  5
285
100
AcDbEntity
  8
0
100
AcDbCircle
 62
7
  6
CONTINUOUS
 10
51.4377967877
 20
68.2598509732
 40
18.6
100
AcDbArc
 50
64.0694036666
 51
115.9305930608
  0
ARC
  5
286
100
AcDbEntity
  8
0
100
AcDbCircle
 62
7
  6
CONTINUOUS
 10
51.4380176067
 20
68.25985097
 40
18.5997980869
100
AcDbArc
 50
315.173036691
 51
41.3964259903
  0
ARC
  5
287
100
AcDbEntity
  8
0
100
AcDbCircle
 62
7
  6
CONTINUOUS
 10
51.4375759687
 20
68.2598509764
 40
18.5997980869
100
AcDbArc
 50
138.6035468948
 51
224.826850194
  0
CIRCLE
  5
288
100
AcDbEntity
  8
0
100
AcDbCircle
 62
7
  6
CONTINUOUS
 10
51.4377967877
 20
68.2598509732
 40
18.5
  0
CIRCLE
  5
289
100
AcDbEntity
  8
0
100
AcDbCircle
 62
7
  6
CONTINUOUS
 10
51.4377967877
 20
68.2598509732
 40
18.0825239128
  0
CIRCLE
  5
28A
100
AcDbEntity
  8
0
100
AcDbCircle
 62
7
  6
CONTINUOUS
 10
51.4377967877
 20
68.2598509732
 40
16.2501885835
  0
CIRCLE
  5
28B
100
AcDbEntity
  8
0
100
AcDbCircle
 62
7
  6
CONTINUOUS
 10
51.4377967877
 20
68.2598509732
 40
14.4178532541
  0
CIRCLE
  5
28C
100
AcDbEntity
  8
0
100
AcDbCircle
 62
7
  6
CONTINUOUS
 10
51.4377967877
 20
68.2598509732
 40
12.5855179248
  0
CIRCLE
  5
28D
100
AcDbEntity
  8
0
100
AcDbCircle
 62
7
  6
CONTINUOUS
 10
51.4377967877
 20
68.2598509732
 40
10.7531825955
  0
CIRCLE
  5
28E
100
AcDbEntity
  8
0
100
AcDbCircle
 62
7
  6
CONTINUOUS
 10
51.4377967877
 20
68.2598509732
 40
8.0
  0
CIRCLE
  5
28F
100
AcDbEntity
  8
0
100
AcDbCircle
 62
7
  6
CONTINUOUS
 10
51.4377967877
 20
68.2598509732
 40
5.0
  0
ARC
  5
290
100
AcDbEntity
  8
0
100
AcDbCircle
 62
7
  6
CONTINUOUS
 10
51.4377967877
 20
43.2598509732
 40
5.0
100
AcDbArc
 50
221.299872792
 51
318.7001272083
  0
CIRCLE
  5
291
100
AcDbEntity
  8
0
100
AcDbCircle
 62
7
  6
CONTINUOUS
 10
51.4377967877
 20
68.2598509732
 40
4.0
  0
ARC
  5
292
100
AcDbEntity
  8
0
100
AcDbCircle
 62
7
  6
CONTINUOUS
 10
-108.584951255
 20
72.2408674562
 40
187.0180128258
100
AcDbArc
 50
353.3475095403
 51
357.3024960031
  0
ARC
  5
293
100
AcDbEntity
  8
0
100
AcDbCircle
 62
7
  6
CONTINUOUS
 10
-88.4927500172
 20
72.2598509732
 40
180.0
100
AcDbArc
 50
353.4875419578
 51
358.4082457394
  0
ARC
  5
294
100
AcDbEntity
  8
0
100
AcDbCircle
 62
7
  6
CONTINUOUS
 10
5.0754439791
 20
119.4287271141
 40
78.2268376655
100
AcDbArc
 50
326.9688272901
 51
327.3196643832
  0
ARC
  5
295
100
AcDbEntity
  8
0
100
AcDbCircle
 62
7
  6
CONTINUOUS
 10
23.4630470785
 20
87.4284244317
 40
11.0
100
AcDbArc
 50
99.5280710091
 51
173.4872960422
  0
ARC
  5
296
100
AcDbEntity
  8
0
100
AcDbCircle
 62
7
  6
CONTINUOUS
 10
26.4377921373
 20
72.2598509732
 40
9.0
100
AcDbArc
 50
260.8604873755
 51
270.0
  0
ARC
  5
297
100
AcDbEntity
  8
0
100
AcDbCircle
 62
7
  6
CONTINUOUS
 10
26.4377921373
 20
72.2598509732
 40
9.0
100
AcDbArc
 50
192.8395884069
 51
193.6091698555
  0
ARC
  5
298
100
AcDbEntity
  8
0
100
AcDbCircle
 62
7
  6
CONTINUOUS
 10
51.4377921373
 20
219.7598509732
 40
180.0
100
AcDbArc
 50
266.1223666032
 51
268.8726043475
  0
ARC
  5
299
100
AcDbEntity
  8
0
100
AcDbCircle
 62
7
  6
CONTINUOUS
 10
51.4377921373
 20
219.7598509732
 40
180.0
100
AcDbArc
 50
271.1273986125
 51
273.8776333945
  0
ARC
  5
29A
100
AcDbEntity
  8
0
100
AcDbCircle
 62
7
  6
CONTINUOUS
 10
51.4377921373
 20
219.7598509732
 40
180.0
100
AcDbArc
 50
275.8117355783
 51
279.5295250584
  0
ARC
  5
29B
100
AcDbEntity
  8
0
100
AcDbCircle
 62
7
  6
CONTINUOUS
 10
51.4377921373
 20
219.7598509732
 40
180.0
100
AcDbArc
 50
260.4704749416
 51
264.1882644217
  0
ARC
  5
29C
100
AcDbEntity
  8
0
100
AcDbCircle
 62
7
  6
CONTINUOUS
 10
97.8001483378
 20
17.0909760533
 40
78.2268359469
100
AcDbArc
 50
146.9688275384
 51
147.3196646383
  0
ARC
  5
29D
100
AcDbEntity
  8
0
100
AcDbCircle
 62
7
  6
CONTINUOUS
 10
64.4579454537
 20
31.4755014261
 40
8.7451533113
100
AcDbArc
 50
94.3870677974
 51
95.2421074236
  0
ARC
  5
29E
100
AcDbEntity
  8
0
100
AcDbCircle
 62
7
  6
CONTINUOUS
 10
64.297867333
 20
33.2003745214
 40
7.0128692455
100
AcDbArc
 50
95.2272662419
 51
95.6534691106
  0
ARC
  5
29F
100
AcDbEntity
  8
0
100
AcDbCircle
 62
7
  6
CONTINUOUS
 10
70.5534374722
 20
39.0137170904
 40
2.0998770188
100
AcDbArc
 50
132.2052746569
 51
132.6907960309
  0
ARC
  5
2A0
100
AcDbEntity
  8
0
100
AcDbCircle
 62
7
  6
CONTINUOUS
 10
66.4377921373
 20
39.7598509732
 40
2.0
100
AcDbArc
 50
187.9260218042
 51
330.0
  0
ARC
  5
2A1
100
AcDbEntity
  8
0
100
AcDbCircle
 62
7
  6
CONTINUOUS
 10
70.0949322027
 20
39.6042971394
 40
1.3499247307
100
AcDbArc
 50
111.58310972
 51
113.5452586038
  0
ARC
  5
2A2
100
AcDbEntity
  8
0
100
AcDbCircle
 62
7
  6
CONTINUOUS
 10
63.6233173764
 20
39.3078467527
 40
0.8776128104
100
AcDbArc
 50
72.2752235773
 51
75.3882037006
  0
ARC
  5
2A3
100
AcDbEntity
  8
0
100
AcDbCircle
 62
7
  6
CONTINUOUS
 10
69.7456131023
 20
39.889164947
 40
0.8
100
AcDbArc
 50
95.8117449713
 51
150.0
  0
ARC
  5
2A4
100
AcDbEntity
  8
0
100
AcDbCircle
 62
7
  6
CONTINUOUS
 10
63.6645407097
 20
39.3737466876
 40
0.8
100
AcDbArc
 50
7.9260218042
 51
93.8776335769
  0
ARC
  5
2A5
100
AcDbEntity
  8
0
100
AcDbCircle
 62
7
  6
CONTINUOUS
 10
63.6517271262
 20
39.4177647611
 40
0.7640830019
100
AcDbArc
 50
75.3703599266
 51
78.9488784957
  0
ARC
  5
2A6
100
AcDbEntity
  8
0
100
AcDbCircle
 62
7
  6
CONTINUOUS
 10
63.6617954882
 20
39.4675926735
 40
0.7132491961
100
AcDbArc
 50
78.9754203968
 51
84.9218160542
  0
ARC
  5
2A7
100
AcDbEntity
  8
0
100
AcDbCircle
 62
7
  6
CONTINUOUS
 10
79.4167277634
 20
53.0919801605
 40
11.0
100
AcDbArc
 50
279.5295198268
 51
353.4876395608
  0
ARC
  5
2A8
100
AcDbEntity
  8
0
100
AcDbCircle
 62
7
  6
CONTINUOUS
 10
76.6628324003
 20
68.2598509732
 40
9.0
100
AcDbArc
 50
12.8395064712
 51
90.0
  0
ARC
  5
2A9
100
AcDbEntity
  8
0
100
AcDbCircle
 62
7
  6
CONTINUOUS
 10
76.4377967877
 20
68.2598509732
 40
8.9301797403
100
AcDbArc
 50
12.6704435016
 51
34.0488232248
  0
ARC
  5
2AA
100
AcDbEntity
  8
0
100
AcDbCircle
 62
7
  6
CONTINUOUS
 10
76.4377967877
 20
68.2598509732
 40
8.9301797403
100
AcDbArc
 50
353.4819349191
 51
10.886028566
  0
ARC
  5
2AB
100
AcDbEntity
  8
0
100
AcDbCircle
 62
7
  6
CONTINUOUS
 10
76.4377967877
 20
68.2598509732
 40
8.7364285196
100
AcDbArc
 50
346.6280876895
 51
13.3719123105
  0
ARC
  5
2AC
100
AcDbEntity
  8
0
100
AcDbCircle
 62
7
  6
CONTINUOUS
 10
76.4377967877
 20
68.2598509732
 40
8.6491531949
100
AcDbArc
 50
346.8008278236
 51
13.1991716744
  0
ARC
  5
2AD
100
AcDbEntity
  8
0
100
AcDbCircle
 62
7
  6
CONTINUOUS
 10
76.4377967877
 20
68.2598509732
 40
8.5277993483
100
AcDbArc
 50
270.0
 51
90.0
  0
ARC
  5
2AE
100
AcDbEntity
  8
0
100
AcDbCircle
 62
7
  6
CONTINUOUS
 10
76.4377967877
 20
68.2598509732
 40
5.5282562628
100
AcDbArc
 50
270.0
 51
90.0
  0
CIRCLE
  5
2AF
100
AcDbEntity
  8
0
100
AcDbCircle
 62
7
  6
CONTINUOUS
 10
76.4377967877
 20
68.2598509732
 40
5.1
  0
CIRCLE
  5
2B0
100
AcDbEntity
  8
0
100
AcDbCircle
 62
7
  6
CONTINUOUS
 10
76.4377967877
 20
68.2598509732
 40
3.1
  0
ARC
  5
2B1
100
AcDbEntity
  8
0
100
AcDbCircle
 62
7
  6
CONTINUOUS
 10
210.5636735013
 20
68.0656760685
 40
186.1130470301
100
AcDbArc
 50
173.3054668307
 51
177.2093653658
  0
ARC
  5
2B2
100
AcDbEntity
  8
0
100
AcDbCircle
 62
7
  6
CONTINUOUS
 10
191.3724446463
 20
68.2598509732
 40
180.0
100
AcDbArc
 50
173.4872996083
 51
178.4560101345
  0
ARC
  5
2B3
100
AcDbEntity
  8
0
100
AcDbCircle
 62
7
  6
CONTINUOUS
 10
211.8462707134
 20
72.2719874371
 40
187.4048277184
100
AcDbArc
 50
182.7014536515
 51
186.6482618467
  0
ARC
  5
2B4
100
AcDbEntity
  8
0
100
AcDbCircle
 62
7
  6
CONTINUOUS
 10
191.3683342918
 20
72.2598509732
 40
180.0
100
AcDbArc
 50
181.5917542606
 51
186.5124580422
  0
ARC
  5
2B5
100
AcDbEntity
  8
0
100
AcDbCircle
 62
7
  6
CONTINUOUS
 10
103.8215620121
 20
123.3133229213
 40
85.3924824506
100
AcDbArc
 50
212.799641874
 51
213.0140766847
  0
ARC
  5
2B6
100
AcDbEntity
  8
0
100
AcDbCircle
 62
7
  6
CONTINUOUS
 10
62.2362786966
 20
85.2137868419
 40
44.9611729472
100
AcDbArc
 50
278.6398787259
 51
278.8544552388
  0
ARC
  5
2B7
100
AcDbEntity
  8
0
100
AcDbCircle
 62
7
  6
CONTINUOUS
 10
62.6450112704
 20
82.6080230057
 40
42.3235491416
100
AcDbArc
 50
278.8507062635
 51
279.4560124481
  0
ARC
  5
2B8
100
AcDbEntity
  8
0
100
AcDbCircle
 62
7
  6
CONTINUOUS
 10
79.4125464968
 20
87.4284244317
 40
11.0
100
AcDbArc
 50
6.5127039578
 51
80.4719289909
  0
ARC
  5
2B9
100
AcDbEntity
  8
0
100
AcDbCircle
 62
7
  6
CONTINUOUS
 10
76.4377921373
 20
72.2598509732
 40
9.0
100
AcDbArc
 50
270.0
 51
279.1410669114
  0
ARC
  5
2BA
100
AcDbEntity
  8
0
100
AcDbCircle
 62
7
  6
CONTINUOUS
 10
76.4377921373
 20
72.2598509732
 40
9.0
100
AcDbArc
 50
346.3920715408
 51
347.1604115931
  0
SPLINE
  5
2BB
100
AcDbEntity
  8
0
100
AcDbSpline
 62
7
  6
CONTINUOUS
 70
0
 71
3
 72
21
 73
17
 74
0
 42
0.0000001
 43
0.0000001
 44
0.0000000001
 40
0.0
 40
0.0
 40
0.0
 40
0.0
 40
0.2010995465
 40
0.389483398
 40
0.5597036546
 40
0.7069384274
 40
0.7705871785
 40
0.8269685056
 40
0.8757140404
 40
0.9165083489
 40
0.9491421493
 40
0.9623771445
 40
0.9735647802
 40
0.9827526832
 40
0.9900513537
 40
1.0
 40
1.0
 40
1.0
 40
1.0
 10
77.1565449008
 20
89.7622356815
 30
0.0
 10
78.050433508
 20
89.7670321803
 30
0.0
 10
79.7818130387
 20
89.7568900114
 30
0.0
 10
82.2692135357
 20
89.7002038809
 30
0.0
 10
84.5158094155
 20
89.6041404462
 30
0.0
 10
86.2063305137
 20
89.4911783455
 30
0.0
 10
87.3893699754
 20
89.3819015515
 30
0.0
 10
88.1348924301
 20
89.2975351083
 30
0.0
 10
88.7773906804
 20
89.2077683009
 30
0.0
 10
89.3123106832
 20
89.1132938326
 30
0.0
 10
89.6880556645
 20
89.0269668111
 30
0.0
 10
89.9308786213
 20
88.9530202986
 30
0.0
 10
90.0708310793
 20
88.9010519577
 30
0.0
 10
90.1826339012
 20
88.8475735189
 30
0.0
 10
90.2801945842
 20
88.7854879358
 30
0.0
 10
90.3364036832
 20
88.720010793
 30
0.0
 10
90.341502764
 20
88.6760833274
 30
0.0
  0
SPLINE
  5
2BC
100
AcDbEntity
  8
0
100
AcDbSpline
 62
7
  6
CONTINUOUS
 70
0
 71
3
 72
19
 73
15
 74
0
 42
0.0000001
 43
0.0000001
 44
0.0000000001
 40
0.0
 40
0.0
 40
0.0
 40
0.0
 40
0.0171556766
 40
0.0379323336
 40
0.0645340295
 40
0.098339139
 40
0.1401488183
 40
0.1900032995
 40
0.2476676555
 40
0.3128357395
 40
0.4633463225
 40
0.6338976827
 40
0.8156905642
 40
1.0
 40
1.0
 40
1.0
 40
1.0
 10
76.5126964162
 20
99.0047635777
 30
0.0
 10
76.5665883843
 20
98.997181427
 30
0.0
 10
76.682044019
 20
98.9495001565
 30
0.0
 10
76.8289407237
 20
98.8023866349
 30
0.0
 10
76.9621259471
 20
98.580149477
 30
0.0
 10
77.0820133619
 20
98.2778360877
 30
0.0
 10
77.187119029
 20
97.8933908032
 30
0.0
 10
77.2769944854
 20
97.4279482347
 30
0.0
 10
77.3499170627
 20
96.8847725242
 30
0.0
 10
77.4256629396
 20
96.020719418
 30
0.0
 10
77.4615743904
 20
94.7950990799
 30
0.0
 10
77.4303320269
 20
93.1997847837
 30
0.0
 10
77.3274078167
 20
91.5000779643
 30
0.0
 10
77.219545509
 20
90.3435139562
 30
0.0
 10
77.1565449008
 20
89.7622356815
 30
0.0
  0
SPLINE
  5
2BD
100
AcDbEntity
  8
0
100
AcDbSpline
 62
7
  6
CONTINUOUS
 70
0
 71
3
 72
21
 73
17
 74
0
 42
0.0000001
 43
0.0000001
 44
0.0000000001
 40
0.0
 40
0.0
 40
0.0
 40
0.0
 40
0.0099464142
 40
0.0172450611
 40
0.0264331386
 40
0.0376209351
 40
0.050856084
 40
0.0834901793
 40
0.1242846862
 40
0.17303053
 40
0.2294120786
 40
0.2930610529
 40
0.4402961136
 40
0.6105166393
 40
0.7989003956
 40
1.0
 40
1.0
 40
1.0
 40
1.0
 10
12.5340798139
 20
88.6760489654
 30
0.0
 10
12.5391778015
 20
88.7199665132
 30
0.0
 10
12.5953970222
 20
88.7854234777
 30
0.0
 10
12.6929466307
 20
88.8475035767
 30
0.0
 10
12.8047503979
 20
88.9009850256
 30
0.0
 10
12.9447032213
 20
88.9529571818
 30
0.0
 10
13.18752811
 20
89.0269062708
 30
0.0
 10
13.5632752319
 20
89.1132342777
 30
0.0
 10
14.0981976761
 20
89.20771148
 30
0.0
 10
14.740697656
 20
89.2974832226
 30
0.0
 10
15.4862218174
 20
89.3818559668
 30
0.0
 10
16.6692622576
 20
89.4911413177
 30
0.0
 10
18.3597839543
 20
89.604113826
 30
0.0
 10
20.6063780489
 20
89.7001997071
 30
0.0
 10
23.0937761624
 20
89.7569019601
 30
0.0
 10
24.8251533327
 20
89.7670457206
 30
0.0
 10
25.719041078
 20
89.762251793
 30
0.0
  0
SPLINE
  5
2BE
100
AcDbEntity
  8
0
100
AcDbSpline
 62
7
  6
CONTINUOUS
 70
0
 71
3
 72
19
 73
15
 74
0
 42
0.0000001
 43
0.0000001
 44
0.0000000001
 40
0.0
 40
0.0
 40
0.0
 40
0.0
 40
0.0171164556
 40
0.0378385712
 40
0.0643665914
 40
0.0980820207
 40
0.1397918124
 40
0.1895450692
 40
0.2471167756
 40
0.3122109061
 40
0.4626612465
 40
0.6332944738
 40
0.8153264147
 40
1.0
 40
1.0
 40
1.0
 40
1.0
 10
26.3629329395
 20
99.0047420269
 30
0.0
 10
26.3091611655
 20
98.997183775
 30
0.0
 10
26.1939645557
 20
98.9497161
 30
0.0
 10
26.0472671619
 20
98.803154067
 30
0.0
 10
25.9142086731
 20
98.5816353668
 30
0.0
 10
25.7943741603
 20
98.2801868478
 30
0.0
 10
25.6892448042
 20
97.896688202
 30
0.0
 10
25.5992840857
 20
97.4321924037
 30
0.0
 10
25.5262286506
 20
96.8898702257
 30
0.0
 10
25.4502338259
 20
96.0265275008
 30
0.0
 10
25.4140235456
 20
94.8010322025
 30
0.0
 10
25.4450190917
 20
93.2048234426
 30
0.0
 10
25.547936781
 20
91.5028718204
 30
0.0
 10
25.6559481508
 20
90.3443542037
 30
0.0
 10
25.7190787738
 20
89.7619056154
 30
0.0
  0
SPLINE
  5
2BF
100
AcDbEntity
  8
0
100
AcDbSpline
 62
7
  6
CONTINUOUS
 70
0
 71
3
 72
11
 73
7
 74
0
 42
0.0000001
 43
0.0000001
 44
0.0000000001
 40
0.0
 40
0.0
 40
0.0
 40
0.0
 40
0.2482788698
 40
0.4980352794
 40
0.7487778479
 40
1.0
 40
1.0
 40
1.0
 40
1.0
 10
25.7016283165
 20
50.5754080038
 30
0.0
 10
27.8175494199
 20
50.2775603334
 30
0.0
 10
32.0722823591
 20
49.7502895667
 30
0.0
 10
38.4932016065
 20
49.1865920531
 30
0.0
 10
44.9552246399
 20
48.8489316118
 30
0.0
 10
49.2756796191
 20
48.7721740061
 30
0.0
 10
51.4377921373
 20
48.7724560152
 30
0.0
  0
SPLINE
  5
2C0
100
AcDbEntity
  8
0
100
AcDbSpline
 62
7
  6
CONTINUOUS
 70
0
 71
3
 72
16
 73
12
 74
0
 42
0.0000001
 43
0.0000001
 44
0.0000000001
 40
0.0
 40
0.0
 40
0.0
 40
0.0
 40
0.0400358357
 40
0.0668935088
 40
0.0995377113
 40
0.1837416962
 40
0.2944084847
 40
0.4319720096
 40
0.596068196
 40
0.7857598061
 40
1.0
 40
1.0
 40
1.0
 40
1.0
 10
12.5298388757
 20
51.8443870581
 30
0.0
 10
12.5346962549
 20
51.8018982642
 30
0.0
 10
12.577399895
 20
51.7367169966
 30
0.0
 10
12.6594032852
 20
51.6701797766
 30
0.0
 10
12.7912634289
 20
51.5900696659
 30
0.0
 10
13.0168159983
 20
51.4974637167
 30
0.0
 10
13.3570925679
 20
51.3950440957
 30
0.0
 10
13.7864942838
 20
51.2959715606
 30
0.0
 10
14.3026881531
 20
51.2004671615
 30
0.0
 10
14.9026535396
 20
51.1093837108
 30
0.0
 10
15.330756909
 20
51.0552520905
 30
0.0
 10
15.5580595903
 20
51.0287070227
 30
0.0
  0
SPLINE
  5
2C1
100
AcDbEntity
  8
0
100
AcDbSpline
 62
7
  6
CONTINUOUS
 70
0
 71
3
 72
11
 73
7
 74
0
 42
0.0000001
 43
0.0000001
 44
0.0000000001
 40
0.0
 40
0.0
 40
0.0
 40
0.0
 40
0.2004376905
 40
0.4398235145
 40
0.709566542
 40
1.0
 40
1.0
 40
1.0
 40
1.0
 10
15.5580595903
 20
51.0287070227
 30
0.0
 10
16.2321877633
 20
50.9499803753
 30
0.0
 10
17.7160615747
 20
50.8171466673
 30
0.0
 10
20.1150133501
 20
50.6790253057
 30
0.0
 10
22.8213361273
 20
50.5928076789
 30
0.0
 10
24.7182473135
 20
50.5743484741
 30
0.0
 10
25.7016946621
 20
50.5750610441
 30
0.0
  0
SPLINE
  5
2C2
100
AcDbEntity
  8
0
100
AcDbSpline
 62
7
  6
CONTINUOUS
 70
0
 71
3
 72
9
 73
5
 74
0
 42
0.0000001
 43
0.0000001
 44
0.0000000001
 40
0.0
 40
0.0
 40
0.0
 40
0.0
 40
0.2790272971
 40
1.0
 40
1.0
 40
1.0
 40
1.0
 10
63.7889940044
 20
40.1950276535
 30
0.0
 10
63.8155247437
 20
40.1916075916
 30
0.0
 10
63.9102341266
 20
40.1764898323
 30
0.0
 10
64.0028103056
 20
40.1487966036
 30
0.0
 10
64.0669612792
 20
40.1230642972
 30
0.0
  0
SPLINE
  5
2C3
100
AcDbEntity
  8
0
100
AcDbSpline
 62
7
  6
CONTINUOUS
 70
0
 71
3
 72
9
 73
5
 74
0
 42
0.0000001
 43
0.0000001
 44
0.0000000001
 40
0.0
 40
0.0
 40
0.0
 40
0.0
 40
0.2633065794
 40
1.0
 40
1.0
 40
1.0
 40
1.0
 10
64.0669612792
 20
40.1230642972
 30
0.0
 10
64.0779775034
 20
40.1186454577
 30
0.0
 10
64.119588857
 20
40.1013083529
 30
0.0
 10
64.1602812777
 20
40.0817310775
 30
0.0
 10
64.1894801385
 20
40.0659114815
 30
0.0
  0
SPLINE
  5
2C4
100
AcDbEntity
  8
0
100
AcDbSpline
 62
7
  6
CONTINUOUS
 70
0
 71
3
 72
10
 73
6
 74
0
 42
0.0000001
 43
0.0000001
 44
0.0000000001
 40
0.0
 40
0.0
 40
0.0
 40
0.0
 40
0.5692225705
 40
0.7962467712
 40
1.0
 40
1.0
 40
1.0
 40
1.0
 10
64.1894801385
 20
40.0659114815
 30
0.0
 10
64.3074115856
 20
39.9964802884
 30
0.0
 10
64.4635446795
 20
39.8778114646
 30
0.0
 10
64.6071194066
 20
39.6836511777
 30
0.0
 10
64.6546785313
 20
39.5912083417
 30
0.0
 10
64.67448917
 20
39.5464066675
 30
0.0
  0
SPLINE
  5
2C5
100
AcDbEntity
  8
0
100
AcDbSpline
 62
7
  6
CONTINUOUS
 70
0
 71
3
 72
9
 73
5
 74
0
 42
0.0000001
 43
0.0000001
 44
0.0000000001
 40
0.0
 40
0.0
 40
0.0
 40
0.0
 40
0.2656946566
 40
1.0
 40
1.0
 40
1.0
 40
1.0
 10
64.67448917
 20
39.5464066675
 30
0.0
 10
64.6859906386
 20
39.5203961456
 30
0.0
 10
64.7260309147
 20
39.4211138264
 30
0.0
 10
64.7525083298
 20
39.3162262894
 30
0.0
 10
64.7627448152
 20
39.2382956745
 30
0.0
  0
SPLINE
  5
2C6
100
AcDbEntity
  8
0
100
AcDbSpline
 62
7
  6
CONTINUOUS
 70
0
 71
3
 72
14
 73
10
 74
0
 42
0.0000001
 43
0.0000001
 44
0.0000000001
 40
0.0
 40
0.0
 40
0.0
 40
0.0
 40
0.2859506122
 40
0.4147774545
 40
0.5382833909
 40
0.657480402
 40
0.7725221353
 40
0.8856568418
 40
1.0
 40
1.0
 40
1.0
 40
1.0
 10
64.7627448152
 20
39.2382956745
 30
0.0
 10
64.8036889755
 20
39.0101765552
 30
0.0
 10
64.911282878
 20
38.6816518567
 30
0.0
 10
65.1672890949
 20
38.3252562648
 30
0.0
 10
65.3880016116
 20
38.1177986098
 30
0.0
 10
65.6316293015
 20
37.958207886
 30
0.0
 10
65.890009253
 20
37.8431826639
 30
0.0
 10
66.1603336536
 20
37.774457259
 30
0.0
 10
66.3451164192
 20
37.7598509732
 30
0.0
 10
66.4377921373
 20
37.7598509732
 30
0.0
  0
SPLINE
  5
2C7
100
AcDbEntity
  8
0
100
AcDbSpline
 62
7
  6
CONTINUOUS
 70
0
 71
3
 72
11
 73
7
 74
0
 42
0.0000001
 43
0.0000001
 44
0.0000000001
 40
0.0
 40
0.0
 40
0.0
 40
0.0
 40
0.2400348696
 40
0.4823934982
 40
0.7339629581
 40
1.0
 40
1.0
 40
1.0
 40
1.0
 10
66.4377921373
 20
37.7598509732
 30
0.0
 10
66.5807690682
 20
37.7598509732
 30
0.0
 10
66.8695531561
 20
37.7958466929
 30
0.0
 10
67.2793215345
 20
37.9607571553
 30
0.0
 10
67.6474577277
 20
38.2330894991
 30
0.0
 10
67.8381087372
 20
38.481040779
 30
0.0
 10
67.9186075588
 20
38.6175367168
 30
0.0
  0
SPLINE
  5
2C8
100
AcDbEntity
  8
0
100
AcDbSpline
 62
7
  6
CONTINUOUS
 70
0
 71
3
 72
11
 73
7
 74
0
 42
0.0000001
 43
0.0000001
 44
0.0000000001
 40
0.0
 40
0.0
 40
0.0
 40
0.0
 40
0.2913381742
 40
0.5612297703
 40
0.8002305391
 40
1.0
 40
1.0
 40
1.0
 40
1.0
 10
77.1738464356
 20
50.5750632038
 30
0.0
 10
78.1604624502
 20
50.5758150126
 30
0.0
 10
80.0611434945
 20
50.5922895004
 30
0.0
 10
82.7700107789
 20
50.6795524704
 30
0.0
 10
85.1661476851
 20
50.8175794103
 30
0.0
 10
86.6466055284
 20
50.9503294125
 30
0.0
 10
87.318558704
 20
51.0287951371
 30
0.0
  0
SPLINE
  5
2C9
100
AcDbEntity
  8
0
100
AcDbSpline
 62
7
  6
CONTINUOUS
 70
0
 71
3
 72
16
 73
12
 74
0
 42
0.0000001
 43
0.0000001
 44
0.0000000001
 40
0.0
 40
0.0
 40
0.0
 40
0.0
 40
0.2144898154
 40
0.4041804733
 40
0.5681419598
 40
0.7056375545
 40
0.8163982197
 40
0.9006435974
 40
0.9332694451
 40
0.9600939193
 40
1.0
 40
1.0
 40
1.0
 40
1.0
 10
87.318558704
 20
51.0287951371
 30
0.0
 10
87.5460578684
 20
51.0553608079
 30
0.0
 10
87.974295177
 20
51.1095155022
 30
0.0
 10
88.5741915647
 20
51.2006465122
 30
0.0
 10
89.0900039228
 20
51.2961503112
 30
0.0
 10
89.5191576908
 20
51.3951746857
 30
0.0
 10
89.8594460373
 20
51.4974225916
 30
0.0
 10
90.0850299507
 20
51.5901427411
 30
0.0
 10
90.2167011459
 20
51.6704649698
 30
0.0
 10
90.2983762977
 20
51.7370461592
 30
0.0
 10
90.3409111568
 20
51.8020455663
 30
0.0
 10
90.3457451188
 20
51.8443845933
 30
0.0
  0
SPLINE
  5
2CA
100
AcDbEntity
  8
0
100
AcDbSpline
 62
7
  6
CONTINUOUS
 70
0
 71
3
 72
9
 73
5
 74
0
 42
0.0000001
 43
0.0000001
 44
0.0000000001
 40
0.0
 40
0.0
 40
0.0
 40
0.0
 40
0.2410279691
 40
1.0
 40
1.0
 40
1.0
 40
1.0
 10
68.8104719277
 20
40.1658137191
 30
0.0
 10
68.8203412921
 20
40.1816394848
 30
0.0
 10
68.8616600601
 20
40.2470528787
 30
0.0
 10
68.9058984803
 20
40.3107325389
 30
0.0
 10
68.9422420159
 20
40.3568667091
 30
0.0
  0
SPLINE
  5
2CB
100
AcDbEntity
  8
0
100
AcDbSpline
 62
7
  6
CONTINUOUS
 70
0
 71
3
 72
9
 73
5
 74
0
 42
0.0000001
 43
0.0000001
 44
0.0000000001
 40
0.0
 40
0.0
 40
0.0
 40
0.0
 40
0.2356614669
 40
1.0
 40
1.0
 40
1.0
 40
1.0
 10
68.9422420159
 20
40.3568667091
 30
0.0
 10
68.9555841033
 20
40.3738030397
 30
0.0
 10
69.0137858527
 20
40.4444213517
 30
0.0
 10
69.0782324324
 20
40.5097638764
 30
0.0
 10
69.1296334886
 20
40.5571760987
 30
0.0
  0
SPLINE
  5
2CC
100
AcDbEntity
  8
0
100
AcDbSpline
 62
7
  6
CONTINUOUS
 70
0
 71
3
 72
9
 73
5
 74
0
 42
0.0000001
 43
0.0000001
 44
0.0000000001
 40
0.0
 40
0.0
 40
0.0
 40
0.0
 40
0.2203060292
 40
1.0
 40
1.0
 40
1.0
 40
1.0
 10
69.142763641
 20
40.5691857774
 30
0.0
 10
69.1697385145
 20
40.5936475447
 30
0.0
 10
69.2951154122
 20
40.7012594571
 30
0.0
 10
69.4375288229
 20
40.7903457858
 30
0.0
 10
69.5556732606
 20
40.8418336325
 30
0.0
  0
SPLINE
  5
2CD
100
AcDbEntity
  8
0
100
AcDbSpline
 62
7
  6
CONTINUOUS
 70
0
 71
3
 72
9
 73
5
 74
0
 42
0.0000001
 43
0.0000001
 44
0.0000000001
 40
0.0
 40
0.0
 40
0.0
 40
0.0
 40
0.2449732733
 40
1.0
 40
1.0
 40
1.0
 40
1.0
 10
63.7249287664
 20
40.1780422529
 30
0.0
 10
63.7153327667
 20
40.1788994136
 30
0.0
 10
63.6761001345
 20
40.1816328973
 30
0.0
 10
63.6366297846
 20
40.1813756967
 30
0.0
 10
63.607021308
 20
40.1791318901
 30
0.0
  0
SPLINE
  5
2CE
100
AcDbEntity
  8
0
100
AcDbSpline
 62
7
  6
CONTINUOUS
 70
0
 71
3
 72
9
 73
5
 74
0
 42
0.0000001
 43
0.0000001
 44
0.0000000001
 40
0.0
 40
0.0
 40
0.0
 40
0.0
 40
0.7551426535
 40
1.0
 40
1.0
 40
1.0
 40
1.0
 10
39.2685569359
 20
40.1791320322
 30
0.0
 10
39.238725293
 20
40.1813927654
 30
0.0
 10
39.198961366
 20
40.1816323988
 30
0.0
 10
39.1594419139
 20
40.1788384456
 30
0.0
 10
39.1497806673
 20
40.1779639991
 30
0.0
  0
SPLINE
  5
2CF
100
AcDbEntity
  8
0
100
AcDbSpline
 62
7
  6
CONTINUOUS
 70
0
 71
3
 72
9
 73
5
 74
0
 42
0.0000001
 43
0.0000001
 44
0.0000000001
 40
0.0
 40
0.0
 40
0.0
 40
0.0
 40
0.2648975196
 40
1.0
 40
1.0
 40
1.0
 40
1.0
 10
39.0781748426
 20
40.1678320886
 30
0.0
 10
39.0698314497
 20
40.1662175783
 30
0.0
 10
39.0384430911
 20
40.1595653968
 30
0.0
 10
39.0074851962
 20
40.1509567061
 30
0.0
 10
38.9850203514
 20
40.1437818217
 30
0.0
  0
SPLINE
  5
2D0
100
AcDbEntity
  8
0
100
AcDbSpline
 62
7
  6
CONTINUOUS
 70
0
 71
3
 72
10
 73
6
 74
0
 42
0.0000001
 43
0.0000001
 44
0.0000000001
 40
0.0
 40
0.0
 40
0.0
 40
0.0
 40
0.2500905419
 40
0.5110328302
 40
1.0
 40
1.0
 40
1.0
 40
1.0
 10
38.1128394594
 20
39.2382956745
 30
0.0
 10
38.1481343694
 20
39.2369063978
 30
0.0
 10
38.2211181516
 20
39.2479882505
 30
0.0
 10
38.3493735977
 20
39.3122392773
 30
0.0
 10
38.4091629375
 20
39.4156612838
 30
0.0
 10
38.4186860142
 20
39.4840621977
 30
0.0
  0
SPLINE
  5
2D1
100
AcDbEntity
  8
0
100
AcDbSpline
 62
7
  6
CONTINUOUS
 70
0
 71
3
 72
10
 73
6
 74
0
 42
0.0000001
 43
0.0000001
 44
0.0000000001
 40
0.0
 40
0.0
 40
0.0
 40
0.0
 40
0.2500906139
 40
0.5110329308
 40
1.0
 40
1.0
 40
1.0
 40
1.0
 10
64.7627448152
 20
39.2382956746
 30
0.0
 10
64.727449895
 20
39.2369063974
 30
0.0
 10
64.6544660982
 20
39.2479882589
 30
0.0
 10
64.5262106574
 20
39.312239299
 30
0.0
 10
64.4664213353
 20
39.4156612976
 30
0.0
 10
64.4568982605
 20
39.4840621977
 30
0.0
  0
SPLINE
  5
2D2
100
AcDbEntity
  8
0
100
AcDbSpline
 62
7
  6
CONTINUOUS
 70
0
 71
3
 72
9
 73
5
 74
0
 42
0.0000001
 43
0.0000001
 44
0.0000000001
 40
0.0
 40
0.0
 40
0.0
 40
0.0
 40
0.4874846987
 40
1.0
 40
1.0
 40
1.0
 40
1.0
 10
38.836470463
 20
40.0806377617
 30
0.0
 10
38.814355712
 20
40.0689200409
 30
0.0
 10
38.7636224434
 20
40.0540177021
 30
0.0
 10
38.7113417906
 20
40.0592038116
 30
0.0
 10
38.6858654556
 20
40.0657839628
 30
0.0
  0
SPLINE
  5
2D3
100
AcDbEntity
  8
0
100
AcDbSpline
 62
7
  6
CONTINUOUS
 70
0
 71
3
 72
9
 73
5
 74
0
 42
0.0000001
 43
0.0000001
 44
0.0000000001
 40
0.0
 40
0.0
 40
0.0
 40
0.0
 40
0.2362828769
 40
1.0
 40
1.0
 40
1.0
 40
1.0
 10
38.1128394594
 20
39.2382956745
 30
0.0
 10
38.1161098674
 20
39.2633293119
 30
0.0
 10
38.1339148043
 20
39.3687454843
 30
0.0
 10
38.1679026987
 20
39.4712237345
 30
0.0
 10
38.2008515491
 20
39.5458776328
 30
0.0
  0
SPLINE
  5
2D4
100
AcDbEntity
  8
0
100
AcDbSpline
 62
7
  6
CONTINUOUS
 70
0
 71
3
 72
9
 73
5
 74
0
 42
0.0000001
 43
0.0000001
 44
0.0000000001
 40
0.0
 40
0.0
 40
0.0
 40
0.0
 40
0.2323106165
 40
1.0
 40
1.0
 40
1.0
 40
1.0
 10
38.2268149614
 20
39.6009256933
 30
0.0
 10
38.2363880631
 20
39.619905182
 30
0.0
 10
38.2799227176
 20
39.7004035237
 30
0.0
 10
38.3349379404
 20
39.774743909
 30
0.0
 10
38.3824870939
 20
39.8264504263
 30
0.0
  0
SPLINE
  5
2D5
100
AcDbEntity
  8
0
100
AcDbSpline
 62
7
  6
CONTINUOUS
 70
0
 71
3
 72
9
 73
5
 74
0
 42
0.0000001
 43
0.0000001
 44
0.0000000001
 40
0.0
 40
0.0
 40
0.0
 40
0.0
 40
0.2232043064
 40
1.0
 40
1.0
 40
1.0
 40
1.0
 10
38.3824870939
 20
39.8264504263
 30
0.0
 10
38.4019874059
 20
39.8476557084
 30
0.0
 10
38.4933522979
 20
39.9389770415
 30
0.0
 10
38.5995600025
 20
40.0147617858
 30
0.0
 10
38.685865456
 20
40.0657839716
 30
0.0
  0
SPLINE
  5
2D6
100
AcDbEntity
  8
0
100
AcDbSpline
 62
7
  6
CONTINUOUS
 70
0
 71
3
 72
9
 73
5
 74
0
 42
0.0000001
 43
0.0000001
 44
0.0000000001
 40
0.0
 40
0.0
 40
0.0
 40
0.0
 40
0.2247637895
 40
1.0
 40
1.0
 40
1.0
 40
1.0
 10
38.685865456
 20
40.0657839716
 30
0.0
 10
38.7039854443
 20
40.0756121058
 30
0.0
 10
38.7859322888
 20
40.1167940234
 30
0.0
 10
38.8725010348
 20
40.1492187261
 30
0.0
 10
38.9413020215
 20
40.1671495518
 30
0.0
  0
SPLINE
  5
2D7
100
AcDbEntity
  8
0
100
AcDbSpline
 62
7
  6
CONTINUOUS
 70
0
 71
3
 72
9
 73
5
 74
0
 42
0.0000001
 43
0.0000001
 44
0.0000000001
 40
0.0
 40
0.0
 40
0.0
 40
0.0
 40
0.241264128
 40
1.0
 40
1.0
 40
1.0
 40
1.0
 10
38.9765570077
 20
40.1756968814
 30
0.0
 10
38.9853240035
 20
40.177668501
 30
0.0
 10
39.0217594086
 20
40.1854016715
 30
0.0
 10
39.0585596044
 20
40.1914025326
 30
0.0
 10
39.0865854473
 20
40.1950279796
 30
0.0
  0
SPLINE
  5
2D8
100
AcDbEntity
  8
0
100
AcDbSpline
 62
7
  6
CONTINUOUS
 70
0
 71
3
 72
10
 73
6
 74
0
 42
0.0000001
 43
0.0000001
 44
0.0000000001
 40
0.0
 40
0.0
 40
0.0
 40
0.0
 40
0.290697932
 40
0.6651787723
 40
1.0
 40
1.0
 40
1.0
 40
1.0
 10
33.3204389914
 20
40.8423440063
 30
0.0
 10
33.366218881
 20
40.8231408517
 30
0.0
 10
33.468336601
 20
40.7724486937
 30
0.0
 10
33.6087481294
 20
40.6744148346
 30
0.0
 10
33.7020467202
 20
40.5969838112
 30
0.0
 10
33.744291856
 20
40.5584500754
 30
0.0
  0
SPLINE
  5
2D9
100
AcDbEntity
  8
0
100
AcDbSpline
 62
7
  6
CONTINUOUS
 70
0
 71
3
 72
9
 73
5
 74
0
 42
0.0000001
 43
0.0000001
 44
0.0000000001
 40
0.0
 40
0.0
 40
0.0
 40
0.0
 40
0.2642795668
 40
1.0
 40
1.0
 40
1.0
 40
1.0
 10
33.744291856
 20
40.5584500754
 30
0.0
 10
33.7619215746
 20
40.5423691963
 30
0.0
 10
33.8274847678
 20
40.4802831874
 30
0.0
 10
33.8886126614
 20
40.4134689073
 30
0.0
 10
33.9303544884
 20
40.3617925128
 30
0.0
  0
SPLINE
  5
2DA
100
AcDbEntity
  8
0
100
AcDbSpline
 62
7
  6
CONTINUOUS
 70
0
 71
3
 72
9
 73
5
 74
0
 42
0.0000001
 43
0.0000001
 44
0.0000000001
 40
0.0
 40
0.0
 40
0.0
 40
0.0
 40
0.2627459759
 40
1.0
 40
1.0
 40
1.0
 40
1.0
 10
33.9303544884
 20
40.3617925128
 30
0.0
 10
33.9434740328
 20
40.3455505128
 30
0.0
 10
33.9922109823
 20
40.2827798302
 30
0.0
 10
34.0361283249
 20
40.2162531318
 30
0.0
 10
34.0653428345
 20
40.1654720022
 30
0.0
  0
SPLINE
  5
2DB
100
AcDbEntity
  8
0
100
AcDbSpline
 62
7
  6
CONTINUOUS
 70
0
 71
3
 72
11
 73
7
 74
0
 42
0.0000001
 43
0.0000001
 44
0.0000000001
 40
0.0
 40
0.0
 40
0.0
 40
0.0
 40
0.2659864018
 40
0.5175560189
 40
0.7599398114
 40
1.0
 40
1.0
 40
1.0
 40
1.0
 10
34.9577404747
 20
38.6164481836
 30
0.0
 10
35.0382283694
 20
38.4801179223
 30
0.0
 10
35.2288174978
 20
38.232452925
 30
0.0
 10
35.5967828627
 20
37.960492041
 30
0.0
 10
36.0063096146
 20
37.7958018279
 30
0.0
 10
36.2949066928
 20
37.7598509732
 30
0.0
 10
36.4377921373
 20
37.7598509732
 30
0.0
  0
SPLINE
  5
2DC
100
AcDbEntity
  8
0
100
AcDbSpline
 62
7
  6
CONTINUOUS
 70
0
 71
3
 72
9
 73
5
 74
0
 42
0.0000001
 43
0.0000001
 44
0.0000000001
 40
0.0
 40
0.0
 40
0.0
 40
0.0
 40
0.4874640883
 40
1.0
 40
1.0
 40
1.0
 40
1.0
 10
64.0389443652
 20
40.0807378562
 30
0.0
 10
64.0610497744
 20
40.0690305527
 30
0.0
 10
64.1117622802
 20
40.0541415993
 30
0.0
 10
64.1640128477
 20
40.0593428502
 30
0.0
 10
64.1894801385
 20
40.0659114811
 30
0.0
  0
SPLINE
  5
2DD
100
AcDbEntity
  8
0
100
AcDbSpline
 62
7
  6
CONTINUOUS
 70
0
 71
3
 72
14
 73
10
 74
0
 42
0.0000001
 43
0.0000001
 44
0.0000000001
 40
0.0
 40
0.0
 40
0.0
 40
0.0
 40
0.114332033
 40
0.2274794281
 40
0.3425188827
 40
0.4616978767
 40
0.5852054097
 40
0.714065856
 40
1.0
 40
1.0
 40
1.0
 40
1.0
 10
36.4377921373
 20
37.7598509732
 30
0.0
 10
36.5304595457
 20
37.7598509732
 30
0.0
 10
36.7152439832
 20
37.7744635516
 30
0.0
 10
36.9855729211
 20
37.8431750742
 30
0.0
 10
37.2439514787
 20
37.9581986423
 30
0.0
 10
37.4875456907
 20
38.1178195024
 30
0.0
 10
37.708252206
 20
38.3252985456
 30
0.0
 10
37.9644483582
 20
38.6815499612
 30
0.0
 10
38.0722372291
 20
39.0101272086
 30
0.0
 10
38.1128394594
 20
39.2382956745
 30
0.0
  0
SPLINE
  5
2DE
100
AcDbEntity
  8
0
100
AcDbSpline
 62
7
  6
CONTINUOUS
 70
0
 71
3
 72
9
 73
5
 74
0
 42
0.0000001
 43
0.0000001
 44
0.0000000001
 40
0.0
 40
0.0
 40
0.0
 40
0.0
 40
0.2523330497
 40
1.0
 40
1.0
 40
1.0
 40
1.0
 10
34.9571413756
 20
38.617301898
 30
0.0
 10
34.9322590975
 20
38.6172767668
 30
0.0
 10
34.8343780211
 20
38.6321473872
 30
0.0
 10
34.7426046478
 20
38.6960018342
 30
0.0
 10
34.7057413304
 20
38.7598509721
 30
0.0
  0
SPLINE
  5
2DF
100
AcDbEntity
  8
0
100
AcDbSpline
 62
7
  6
CONTINUOUS
 70
0
 71
3
 72
13
 73
9
 74
0
 42
0.0000001
 43
0.0000001
 44
0.0000000001
 40
0.0
 40
0.0
 40
0.0
 40
0.0
 40
0.4449131479
 40
0.7600375352
 40
0.8686029528
 40
0.94443942
 40
0.9876767203
 40
1.0
 40
1.0
 40
1.0
 40
1.0
 10
69.7701760451
 20
40.8813733866
 30
0.0
 10
69.7535627017
 20
40.8527011705
 30
0.0
 10
69.7253716721
 20
40.8039645198
 30
0.0
 10
69.6936968313
 20
40.7465760049
 30
0.0
 10
69.6763466159
 20
40.7149146658
 30
0.0
 10
69.6686781719
 20
40.6978133431
 30
0.0
 10
69.6649933851
 20
40.6920043101
 30
0.0
 10
69.6637282223
 20
40.6849809246
 30
0.0
 10
69.6646325418
 20
40.685137945
 30
0.0
  0
SPLINE
  5
2E0
100
AcDbEntity
  8
0
100
AcDbSpline
 62
7
  6
CONTINUOUS
 70
0
 71
3
 72
8
 73
4
 74
0
 42
0.0000001
 43
0.0000001
 44
0.0000000001
 40
0.0
 40
0.0
 40
0.0
 40
0.0
 40
1.0
 40
1.0
 40
1.0
 40
1.0
 10
69.5983623364
 20
40.8595652989
 30
0.0
 10
69.655316754
 20
40.8690238746
 30
0.0
 10
69.7126259238
 20
40.8769292081
 30
0.0
 10
69.7701917813
 20
40.8813385596
 30
0.0
  0
SPLINE
  5
2E1
100
AcDbEntity
  8
0
100
AcDbSpline
 62
7
  6
CONTINUOUS
 70
0
 71
3
 72
9
 73
5
 74
0
 42
0.0000001
 43
0.0000001
 44
0.0000000001
 40
0.0
 40
0.0
 40
0.0
 40
0.0
 40
0.5018836666
 40
1.0
 40
1.0
 40
1.0
 40
1.0
 10
64.0276126991
 20
40.213679037
 30
0.0
 10
64.8604564622
 20
40.2797374232
 30
0.0
 10
66.5183524895
 20
40.4315071673
 30
0.0
 10
68.1707260442
 20
40.63825834
 30
0.0
 10
68.9905033038
 20
40.7628304659
 30
0.0
  0
SPLINE
  5
2E2
100
AcDbEntity
  8
0
100
AcDbSpline
 62
7
  6
CONTINUOUS
 70
0
 71
3
 72
9
 73
5
 74
0
 42
0.0000001
 43
0.0000001
 44
0.0000000001
 40
0.0
 40
0.0
 40
0.0
 40
0.0
 40
0.2580686871
 40
1.0
 40
1.0
 40
1.0
 40
1.0
 10
34.0653062041
 20
40.1655445337
 30
0.0
 10
34.0408543998
 20
40.1646933608
 30
0.0
 10
33.9464621509
 20
40.1751964231
 30
0.0
 10
33.8548235194
 20
40.2336997209
 30
0.0
 10
33.8196466577
 20
40.294611968
 30
0.0
  0
SPLINE
  5
2E3
100
AcDbEntity
  8
0
100
AcDbSpline
 62
7
  6
CONTINUOUS
 70
0
 71
3
 72
8
 73
4
 74
0
 42
0.0000001
 43
0.0000001
 44
0.0000000001
 40
0.0
 40
0.0
 40
0.0
 40
0.0
 40
1.0
 40
1.0
 40
1.0
 40
1.0
 10
33.2771406536
 20
40.8595753655
 30
0.0
 10
33.2202222699
 20
40.8690612239
 30
0.0
 10
33.1629553911
 20
40.8771551519
 30
0.0
 10
33.1054037428
 20
40.8813374572
 30
0.0
  0
SPLINE
  5
2E4
100
AcDbEntity
  8
0
100
AcDbSpline
 62
7
  6
CONTINUOUS
 70
0
 71
3
 72
9
 73
5
 74
0
 42
0.0000001
 43
0.0000001
 44
0.0000000001
 40
0.0
 40
0.0
 40
0.0
 40
0.0
 40
0.3165790661
 40
1.0
 40
1.0
 40
1.0
 40
1.0
 10
33.1054443776
 20
40.8813700028
 30
0.0
 10
33.1485785874
 20
40.8723847404
 30
0.0
 10
33.2815621623
 20
40.8276377882
 30
0.0
 10
33.3984873641
 20
40.7480930355
 30
0.0
 10
33.4726227104
 20
40.6885033391
 30
0.0
  0
SPLINE
  5
2E5
100
AcDbEntity
  8
0
100
AcDbSpline
 62
7
  6
CONTINUOUS
 70
0
 71
3
 72
9
 73
5
 74
0
 42
0.0000001
 43
0.0000001
 44
0.0000000001
 40
0.0
 40
0.0
 40
0.0
 40
0.0
 40
0.2701256617
 40
1.0
 40
1.0
 40
1.0
 40
1.0
 10
33.6808387838
 20
40.4872424704
 30
0.0
 10
33.6948106255
 20
40.4710408918
 30
0.0
 10
33.7452593315
 20
40.4099948873
 30
0.0
 10
33.7907285592
 20
40.3446903378
 30
0.0
 10
33.819636292
 20
40.2946313828
 30
0.0
  0
SPLINE
  5
2E6
100
AcDbEntity
  8
0
100
AcDbSpline
 62
7
  6
CONTINUOUS
 70
0
 71
3
 72
9
 73
5
 74
0
 42
0.0000001
 43
0.0000001
 44
0.0000000001
 40
0.0
 40
0.0
 40
0.0
 40
0.0
 40
0.2825989072
 40
1.0
 40
1.0
 40
1.0
 40
1.0
 10
63.610437373
 20
40.1719265584
 30
0.0
 10
63.6096788642
 20
40.1718745929
 30
0.0
 10
63.608388243
 20
40.1752801626
 30
0.0
 10
63.607579416
 20
40.1772857975
 30
0.0
 10
63.6070182865
 20
40.1791324795
 30
0.0
  0
SPLINE
  5
2E7
100
AcDbEntity
  8
0
100
AcDbSpline
 62
7
  6
CONTINUOUS
 70
0
 71
3
 72
9
 73
5
 74
0
 42
0.0000001
 43
0.0000001
 44
0.0000000001
 40
0.0
 40
0.0
 40
0.0
 40
0.0
 40
0.7177414021
 40
1.0
 40
1.0
 40
1.0
 40
1.0
 10
39.2685598429
 20
40.1791326004
 30
0.0
 10
39.2679980957
 20
40.1772861476
 30
0.0
 10
39.267185465
 20
40.1752858576
 30
0.0
 10
39.2659041388
 20
40.171874597
 30
0.0
 10
39.2651469331
 20
40.1719266915
 30
0.0
  0
SPLINE
  5
2E8
100
AcDbEntity
  8
0
100
AcDbSpline
 62
7
  6
CONTINUOUS
 70
0
 71
3
 72
19
 73
15
 74
0
 42
0.0000001
 43
0.0000001
 44
0.0000000001
 40
0.0
 40
0.0
 40
0.0
 40
0.0
 40
0.0171554369
 40
0.0379145436
 40
0.0644726373
 40
0.0981972931
 40
0.1398819047
 40
0.1895747619
 40
0.2470534643
 40
0.3120244106
 40
0.4621788979
 40
0.6326161415
 40
0.8147551191
 40
1.0
 40
1.0
 40
1.0
 40
1.0
 10
26.3459548944
 20
41.5173204038
 30
0.0
 10
26.2931422665
 20
41.5247550323
 30
0.0
 10
26.1800452903
 20
41.5714312334
 30
0.0
 10
26.0361453452
 20
41.7153786049
 30
0.0
 10
25.9056809037
 20
41.9326842249
 30
0.0
 10
25.788184451
 20
42.2281088477
 30
0.0
 10
25.6850514561
 20
42.6036423149
 30
0.0
 10
25.596707336
 20
43.0582257681
 30
0.0
 10
25.5247932694
 20
43.5887660731
 30
0.0
 10
25.4495921482
 20
44.4331414806
 30
0.0
 10
25.4125436517
 20
45.6321057951
 30
0.0
 10
25.4403407668
 20
47.1951700214
 30
0.0
 10
25.537876354
 20
48.8647052397
 30
0.0
 10
25.6411568126
 20
50.002354218
 30
0.0
 10
25.7016719207
 20
50.5750610276
 30
0.0
  0
SPLINE
  5
2E9
100
AcDbEntity
  8
0
100
AcDbSpline
 62
7
  6
CONTINUOUS
 70
0
 71
3
 72
9
 73
5
 74
0
 42
0.0000001
 43
0.0000001
 44
0.0000000001
 40
0.0
 40
0.0
 40
0.0
 40
0.0
 40
0.4976147484
 40
1.0
 40
1.0
 40
1.0
 40
1.0
 10
33.2771405258
 20
40.8595741681
 30
0.0
 10
34.1948930728
 20
40.7066468036
 30
0.0
 10
36.0494962466
 20
40.4611486672
 30
0.0
 10
37.9114223443
 20
40.2879642878
 30
0.0
 10
38.8478076026
 20
40.2136920144
 30
0.0
  0
SPLINE
  5
2EA
100
AcDbEntity
  8
0
100
AcDbSpline
 62
7
  6
CONTINUOUS
 70
0
 71
3
 72
13
 73
9
 74
0
 42
0.0000001
 43
0.0000001
 44
0.0000000001
 40
0.0
 40
0.0
 40
0.0
 40
0.0
 40
0.0123228044
 40
0.055623422
 40
0.1315092295
 40
0.2401019992
 40
0.5552075523
 40
1.0
 40
1.0
 40
1.0
 40
1.0
 10
33.2109876297
 20
40.6851341246
 30
0.0
 10
33.2118915785
 20
40.6849758327
 30
0.0
 10
33.2105236604
 20
40.6920218028
 30
0.0
 10
33.2069060344
 20
40.6978018187
 30
0.0
 10
33.1991721327
 20
40.714921378
 30
0.0
 10
33.181850752
 20
40.7465711345
 30
0.0
 10
33.1501782974
 20
40.8039631341
 30
0.0
 10
33.1220329045
 20
40.852698451
 30
0.0
 10
33.1054443776
 20
40.8813700028
 30
0.0
  0
SPLINE
  5
2EB
100
AcDbEntity
  8
0
100
AcDbSpline
 62
7
  6
CONTINUOUS
 70
0
 71
3
 72
19
 73
15
 74
0
 42
0.0000001
 43
0.0000001
 44
0.0000000001
 40
0.0
 40
0.0
 40
0.0
 40
0.0
 40
0.0171175221
 40
0.0378244511
 40
0.0643120138
 40
0.0979505957
 40
0.139539094
 40
0.1891343019
 40
0.2465233451
 40
0.3114223606
 40
0.461516816
 40
0.632031249
 40
0.8144006864
 40
1.0
 40
1.0
 40
1.0
 40
1.0
 10
76.5296292708
 20
41.5173203884
 30
0.0
 10
76.5823269775
 20
41.5247388048
 30
0.0
 10
76.695173744
 20
41.5712262776
 30
0.0
 10
76.8388765854
 20
41.7146626134
 30
0.0
 10
76.9692150915
 20
41.9312965162
 30
0.0
 10
77.0866560964
 20
42.2259083882
 30
0.0
 10
77.1898064439
 20
42.600549017
 30
0.0
 10
77.2782265013
 20
43.0542365357
 30
0.0
 10
77.3502620796
 20
43.5839659023
 30
0.0
 10
77.4256942245
 20
44.4276585901
 30
0.0
 10
77.4630229916
 20
45.6264875739
 30
0.0
 10
77.4354596039
 20
47.1903806907
 30
0.0
 10
77.3379343316
 20
48.8620373664
 30
0.0
 10
77.2345165765
 20
50.0015398502
 30
0.0
 10
77.1738806854
 20
50.5753616548
 30
0.0
  0
SPLINE
  5
2EC
100
AcDbEntity
  8
0
100
AcDbSpline
 62
7
  6
CONTINUOUS
 70
0
 71
3
 72
9
 73
5
 74
0
 42
0.0000001
 43
0.0000001
 44
0.0000000001
 40
0.0
 40
0.0
 40
0.0
 40
0.0
 40
0.2523353381
 40
1.0
 40
1.0
 40
1.0
 40
1.0
 10
67.9184428971
 20
38.617301898
 30
0.0
 10
67.9433272998
 20
38.6172767645
 30
0.0
 10
68.041215578
 20
38.6321496195
 30
0.0
 10
68.1329959734
 20
38.6960141
 30
0.0
 10
68.1698550413
 20
38.7598719274
 30
0.0
  0
SPLINE
  5
2ED
100
AcDbEntity
  8
0
100
AcDbSpline
 62
7
  6
CONTINUOUS
 70
0
 71
3
 72
10
 73
6
 74
0
 42
0.0000001
 43
0.0000001
 44
0.0000000001
 40
0.0
 40
0.0
 40
0.0
 40
0.0
 40
0.3217234467
 40
0.5779819753
 40
1.0
 40
1.0
 40
1.0
 40
1.0
 10
69.7701764746
 20
40.8813387993
 30
0.0
 10
69.6962856298
 20
40.8668509671
 30
0.0
 10
69.5699576897
 20
40.8103353868
 30
0.0
 10
69.3780607302
 20
40.6765154216
 30
0.0
 10
69.2626701083
 20
40.5655022284
 30
0.0
 10
69.1979135841
 20
40.4909210925
 30
0.0
  0
SPLINE
  5
2EE
100
AcDbEntity
  8
0
100
AcDbSpline
 62
7
  6
CONTINUOUS
 70
0
 71
3
 72
9
 73
5
 74
0
 42
0.0000001
 43
0.0000001
 44
0.0000000001
 40
0.0
 40
0.0
 40
0.0
 40
0.0
 40
0.2580697411
 40
1.0
 40
1.0
 40
1.0
 40
1.0
 10
68.8102780779
 20
40.1655445328
 30
0.0
 10
68.834731725
 20
40.1646932964
 30
0.0
 10
68.9291304421
 20
40.1751979965
 30
0.0
 10
69.0207761673
 20
40.2337105477
 30
0.0
 10
69.0559486162
 20
40.2946310168
 30
0.0
  0
SPLINE
  5
2EF
100
AcDbEntity
  8
0
100
AcDbSpline
 62
7
  6
CONTINUOUS
 70
0
 71
3
 72
25
 73
21
 74
0
 42
0.0000001
 43
0.0000001
 44
0.0000000001
 40
0.0
 40
0.0
 40
0.0
 40
0.0
 40
0.0014760667
 40
0.005189484
 40
0.0112717076
 40
0.0197310575
 40
0.0305476723
 40
0.0436964755
 40
0.0591506769
 40
0.0768818777
 40
0.1189905716
 40
0.1695937893
 40
0.2282328987
 40
0.2943164609
 40
0.3672066834
 40
0.4461829808
 40
0.5304144334
 40
0.6190676367
 40
0.8061391138
 40
1.0
 40
1.0
 40
1.0
 40
1.0
 10
83.9660056106
 20
63.9134656352
 30
0.0
 10
83.964923162
 20
63.9140906949
 30
0.0
 10
83.9662412289
 20
63.9198620528
 30
0.0
 10
83.9687122051
 20
63.9277143227
 30
0.0
 10
83.9749242362
 20
63.942673494
 30
0.0
 10
83.983628976
 20
63.9619533971
 30
0.0
 10
83.9954166298
 20
63.9868907731
 30
0.0
 10
84.0099577334
 20
64.0168890944
 30
0.0
 10
84.0272672566
 20
64.0521181376
 30
0.0
 10
84.0555456649
 20
64.1092573406
 30
0.0
 10
84.0970526276
 20
64.1930717947
 30
0.0
 10
84.153159591
 20
64.3083049905
 30
0.0
 10
84.2167576744
 20
64.4424673883
 30
0.0
 10
84.2863033335
 20
64.5946809278
 30
0.0
 10
84.3601183663
 20
64.7638524844
 30
0.0
 10
84.4365060843
 20
64.9486307895
 30
0.0
 10
84.5137786517
 20
65.1474407158
 30
0.0
 10
84.6175121079
 20
65.4340899988
 30
0.0
 10
84.7388259896
 20
65.8129732308
 30
0.0
 10
84.8209666147
 20
66.1251073321
 30
0.0
 10
84.8584514185
 20
66.2849351013
 30
0.0
  0
SPLINE
  5
2F0
100
AcDbEntity
  8
0
100
AcDbSpline
 62
7
  6
CONTINUOUS
 70
0
 71
3
 72
25
 73
21
 74
0
 42
0.0000001
 43
0.0000001
 44
0.0000000001
 40
0.0
 40
0.0
 40
0.0
 40
0.0
 40
0.0014760666
 40
0.0051894833
 40
0.011271706
 40
0.0197310545
 40
0.0305476674
 40
0.0436964685
 40
0.0591506677
 40
0.0768818663
 40
0.1189905548
 40
0.1695937653
 40
0.2282328654
 40
0.2943164206
 40
0.3672066441
 40
0.4461829442
 40
0.5304143881
 40
0.6190675745
 40
0.8061390961
 40
1.0
 40
1.0
 40
1.0
 40
1.0
 10
18.9095879637
 20
72.6062363114
 30
0.0
 10
18.9106704116
 20
72.6056112521
 30
0.0
 10
18.9093523472
 20
72.5998398983
 30
0.0
 10
18.9068813733
 20
72.5919876334
 30
0.0
 10
18.9006693489
 20
72.5770284727
 30
0.0
 10
18.8919646175
 20
72.5577485828
 30
0.0
 10
18.8801769743
 20
72.5328112245
 30
0.0
 10
18.8656358819
 20
72.5028129249
 30
0.0
 10
18.8483263697
 20
72.4675839076
 30
0.0
 10
18.8200479751
 20
72.410444748
 30
0.0
 10
18.7785410312
 20
72.3266303584
 30
0.0
 10
18.722434112
 20
72.2113972436
 30
0.0
 10
18.6588361158
 20
72.0772349209
 30
0.0
 10
18.5892905198
 20
71.9250214732
 30
0.0
 10
18.5154754073
 20
71.7558500712
 30
0.0
 10
18.4390875549
 20
71.5710719501
 30
0.0
 10
18.361815124
 20
71.3722621186
 30
0.0
 10
18.2580827944
 20
71.0856125887
 30
0.0
 10
18.1367678246
 20
70.7067300481
 30
0.0
 10
18.0546220025
 20
70.3945973944
 30
0.0
 10
18.0171372013
 20
70.2347697062
 30
0.0
  0
SPLINE
  5
2F1
100
AcDbEntity
  8
0
100
AcDbSpline
 62
7
  6
CONTINUOUS
 70
0
 71
3
 72
25
 73
21
 74
0
 42
0.0000001
 43
0.0000001
 44
0.0000000001
 40
0.0
 40
0.0
 40
0.0
 40
0.0
 40
0.1938595032
 40
0.3809379041
 40
0.4695943978
 40
0.5538267659
 40
0.6328035901
 40
0.7056959341
 40
0.7717771916
 40
0.8304155653
 40
0.8810163119
 40
0.9231216508
 40
0.9408531075
 40
0.9563067077
 40
0.9694539656
 40
0.980269047
 40
0.9887278051
 40
0.9948108639
 40
0.9985242522
 40
1.0
 40
1.0
 40
1.0
 40
1.0
 10
18.0171421568
 20
66.2849351012
 30
0.0
 10
18.0546267109
 20
66.1251083964
 30
0.0
 10
18.1367689576
 20
65.8129696765
 30
0.0
 10
18.2580870882
 20
65.4340797722
 30
0.0
 10
18.3618227244
 20
65.1474211317
 30
0.0
 10
18.4390955593
 20
64.94860686
 30
0.0
 10
18.515488559
 20
64.7638273796
 30
0.0
 10
18.5893012189
 20
64.5946544064
 30
0.0
 10
18.6588461353
 20
64.4424412593
 30
0.0
 10
18.7224457154
 20
64.3082846612
 30
0.0
 10
18.7785490903
 20
64.1930558521
 30
0.0
 10
18.8200508288
 20
64.1092440193
 30
0.0
 10
18.8483325713
 20
64.0521099324
 30
0.0
 10
18.8656417017
 20
64.0168824472
 30
0.0
 10
18.8801795079
 20
63.986885984
 30
0.0
 10
18.8919637731
 20
63.9619503903
 30
0.0
 10
18.9006672772
 20
63.9426712713
 30
0.0
 10
18.9068825272
 20
63.9277128732
 30
0.0
 10
18.9093576875
 20
63.9198622977
 30
0.0
 10
18.9106713547
 20
63.9140891205
 30
0.0
 10
18.9095884036
 20
63.9134654714
 30
0.0
  0
SPLINE
  5
2F2
100
AcDbEntity
  8
0
100
AcDbSpline
 62
7
  6
CONTINUOUS
 70
0
 71
3
 72
25
 73
21
 74
0
 42
0.0000001
 43
0.0000001
 44
0.0000000001
 40
0.0
 40
0.0
 40
0.0
 40
0.0
 40
0.193859521
 40
0.380937968
 40
0.4695944448
 40
0.5538268032
 40
0.6328036296
 40
0.7056959748
 40
0.7717772255
 40
0.8304155895
 40
0.8810163286
 40
0.9231216622
 40
0.9408531166
 40
0.9563067147
 40
0.9694539704
 40
0.98026905
 40
0.9887278067
 40
0.9948108645
 40
0.9985242522
 40
1.0
 40
1.0
 40
1.0
 40
1.0
 10
84.8584563727
 20
70.2347697054
 30
0.0
 10
84.8209718212
 20
70.3945963294
 30
0.0
 10
84.7388244445
 20
70.706733622
 30
0.0
 10
84.6175051347
 20
71.0856228089
 30
0.0
 10
84.5137706266
 20
71.3722816966
 30
0.0
 10
84.4364979566
 20
71.5710958833
 30
0.0
 10
84.3601048314
 20
71.7558751825
 30
0.0
 10
84.2862920803
 20
71.9250479961
 30
0.0
 10
84.2167472213
 20
72.0772610487
 30
0.0
 10
84.1531477297
 20
72.2114175721
 30
0.0
 10
84.097044402
 20
72.3266463012
 30
0.0
 10
84.0555426832
 20
72.4104580695
 30
0.0
 10
84.0272609538
 20
72.4675921128
 30
0.0
 10
84.009951834
 20
72.502819572
 30
0.0
 10
83.9954140387
 20
72.5328160136
 30
0.0
 10
83.9836297839
 20
72.5577515895
 30
0.0
 10
83.9749262883
 20
72.5770306953
 30
0.0
 10
83.968711045
 20
72.5919890829
 30
0.0
 10
83.9662358869
 20
72.5998396534
 30
0.0
 10
83.9649222222
 20
72.6056128266
 30
0.0
 10
83.9660051726
 20
72.6062364753
 30
0.0
  0
SPLINE
  5
2F3
100
AcDbEntity
  8
0
100
AcDbSpline
 62
7
  6
CONTINUOUS
 70
0
 71
3
 72
25
 73
21
 74
0
 42
0.0000001
 43
0.0000001
 44
0.0000000001
 40
0.0
 40
0.0
 40
0.0
 40
0.0
 40
0.1878118416
 40
0.3693975104
 40
0.5387048515
 40
0.6169653587
 40
0.6899801776
 40
0.7570106692
 40
0.8173163095
 40
0.8701624761
 40
0.9148204959
 40
0.9338654176
 40
0.950624635
 40
0.9650282124
 40
0.9770069261
 40
0.9865057167
 40
0.9934994381
 40
0.9979758053
 40
0.9992796731
 40
1.0
 40
1.0
 40
1.0
 40
1.0
 10
71.6725579748
 20
62.7315947104
 30
0.0
 10
71.620330344
 20
62.5402493563
 30
0.0
 10
71.51272995
 20
62.1652150471
 30
0.0
 10
71.3424659329
 20
61.6223201602
 30
0.0
 10
71.1969280287
 20
61.1930600768
 30
0.0
 10
71.0833164033
 20
60.8741253354
 30
0.0
 10
71.0039970034
 20
60.6576472839
 30
0.0
 10
70.9296946206
 20
60.4595335114
 30
0.0
 10
70.8618139018
 20
60.2817643327
 30
0.0
 10
70.8017573618
 20
60.12630051
 30
0.0
 10
70.7572905958
 20
60.0115281381
 30
0.0
 10
70.726819073
 20
59.9322038808
 30
0.0
 10
70.7079776152
 20
59.8826424327
 30
0.0
 10
70.6920250536
 20
59.8399596872
 30
0.0
 10
70.679106949
 20
59.8043502578
 30
0.0
 10
70.6692540168
 20
59.7759013736
 30
0.0
 10
70.6626570277
 20
59.7548473244
 30
0.0
 10
70.6590975591
 20
59.7416666168
 30
0.0
 10
70.6582664948
 20
59.7349795317
 30
0.0
 10
70.6583487324
 20
59.732688741
 30
0.0
 10
70.6587644087
 20
59.7320516249
 30
0.0
  0
SPLINE
  5
2F4
100
AcDbEntity
  8
0
100
AcDbSpline
 62
7
  6
CONTINUOUS
 70
0
 71
3
 72
24
 73
20
 74
0
 42
0.0000001
 43
0.0000001
 44
0.0000000001
 40
0.0
 40
0.0
 40
0.0
 40
0.0
 40
0.1940892928
 40
0.3813409795
 40
0.5542775607
 40
0.6332358381
 40
0.7060770288
 40
0.7720887986
 40
0.8306472939
 40
0.8811713739
 40
0.9232129217
 40
0.940917676
 40
0.9563499955
 40
0.9694818455
 40
0.9802866554
 40
0.9887389585
 40
0.9948170245
 40
0.9985266556
 40
1.0
 40
1.0
 40
1.0
 40
1.0
 10
84.9373752194
 20
66.2393684178
 30
0.0
 10
84.8994575411
 20
66.0798598484
 30
0.0
 10
84.81559071
 20
65.7686019771
 30
0.0
 10
84.6674397348
 20
65.3241867357
 30
0.0
 10
84.5304681568
 20
64.9792197911
 30
0.0
 10
84.4190385244
 20
64.7285303443
 30
0.0
 10
84.3401514991
 20
64.5622865174
 30
0.0
 10
84.2651042521
 20
64.4133519815
 30
0.0
 10
84.1956280898
 20
64.2827634015
 30
0.0
 10
84.1332988181
 20
64.171345831
 30
0.0
 10
84.0861157994
 20
64.0910170847
 30
0.0
 10
84.0530125644
 20
64.03682759
 30
0.0
 10
84.0322346785
 20
64.0037040285
 30
0.0
 10
84.014194423
 20
63.9758176579
 30
0.0
 10
83.9988600769
 20
63.9530065034
 30
0.0
 10
83.9866844923
 20
63.9357950657
 30
0.0
 10
83.9769130749
 20
63.9229396041
 30
0.0
 10
83.9714014611
 20
63.9168702659
 30
0.0
 10
83.9670834032
 20
63.912843264
 30
0.0
 10
83.9660056106
 20
63.9134656352
 30
0.0
  0
SPLINE
  5
2F5
100
AcDbEntity
  8
0
100
AcDbSpline
 62
7
  6
CONTINUOUS
 70
0
 71
3
 72
25
 73
21
 74
0
 42
0.0000001
 43
0.0000001
 44
0.0000000001
 40
0.0
 40
0.0
 40
0.0
 40
0.0
 40
0.1878266778
 40
0.369429586
 40
0.5387330572
 40
0.6169910103
 40
0.6900011987
 40
0.7570255008
 40
0.817324973
 40
0.8701662204
 40
0.9148216448
 40
0.9338663576
 40
0.9506256558
 40
0.9650291612
 40
0.9770072606
 40
0.9865054932
 40
0.9934990263
 40
0.9979755231
 40
0.9992795422
 40
1.0
 40
1.0
 40
1.0
 40
1.0
 10
71.6725579748
 20
73.788107236
 30
0.0
 10
71.6203190387
 20
73.9794610921
 30
0.0
 10
71.5113690887
 20
74.3541357925
 30
0.0
 10
71.3414020135
 20
74.8971221625
 30
0.0
 10
71.1964042166
 20
75.326570958
 30
0.0
 10
71.0828855099
 20
75.6455184468
 30
0.0
 10
71.0036791738
 20
75.8620171179
 30
0.0
 10
70.9294914109
 20
76.0601496065
 30
0.0
 10
70.861702028
 20
76.2379295346
 30
0.0
 10
70.8017035347
 20
76.3933962628
 30
0.0
 10
70.7572650894
 20
76.5081678593
 30
0.0
 10
70.7268050929
 20
76.587491398
 30
0.0
 10
70.7079690697
 20
76.6370534023
 30
0.0
 10
70.692021692
 20
76.6797363008
 30
0.0
 10
70.6791109805
 20
76.715346134
 30
0.0
 10
70.6692678822
 20
76.7437961695
 30
0.0
 10
70.6626802912
 20
76.7648520764
 30
0.0
 10
70.6591277868
 20
76.778034304
 30
0.0
 10
70.6583003697
 20
76.7847223101
 30
0.0
 10
70.6583835287
 20
76.7870131049
 30
0.0
 10
70.6587992725
 20
76.7876503215
 30
0.0
  0
SPLINE
  5
2F6
100
AcDbEntity
  8
0
100
AcDbSpline
 62
7
  6
CONTINUOUS
 70
0
 71
3
 72
24
 73
20
 74
0
 42
0.0000001
 43
0.0000001
 44
0.0000000001
 40
0.0
 40
0.0
 40
0.0
 40
0.0
 40
0.1940880074
 40
0.3813391341
 40
0.5542756797
 40
0.6332341064
 40
0.7060755193
 40
0.7720875423
 40
0.8306463086
 40
0.8811706539
 40
0.9232124437
 40
0.9409173068
 40
0.9563497232
 40
0.9694816568
 40
0.9802865364
 40
0.9887388946
 40
0.994817
 40
0.9985266533
 40
1.0
 40
1.0
 40
1.0
 40
1.0
 10
17.9382012771
 20
70.2802725625
 30
0.0
 10
17.9761195864
 20
70.4397840772
 30
0.0
 10
18.059987303
 20
70.7510484024
 30
0.0
 10
18.2081388199
 20
71.1954741145
 30
0.0
 10
18.3451118274
 20
71.5404500811
 30
0.0
 10
18.4565434541
 20
71.7911464562
 30
0.0
 10
18.5354321424
 20
71.9573951685
 30
0.0
 10
18.6104811365
 20
72.1063341979
 30
0.0
 10
18.6799590475
 20
72.2369267906
 30
0.0
 10
18.7422899894
 20
72.3483478359
 30
0.0
 10
18.7894743272
 20
72.4286791114
 30
0.0
 10
18.8225785146
 20
72.4828703268
 30
0.0
 10
18.8433570055
 20
72.5159949512
 30
0.0
 10
18.8613977878
 20
72.5438822199
 30
0.0
 10
18.8767325815
 20
72.5666941168
 30
0.0
 10
18.8889085202
 20
72.5839061098
 30
0.0
 10
18.8986802157
 20
72.5967620121
 30
0.0
 10
18.9041919803
 20
72.6028315247
 30
0.0
 10
18.9085101426
 20
72.606858699
 30
0.0
 10
18.9095879637
 20
72.6062363114
 30
0.0
  0
SPLINE
  5
2F7
100
AcDbEntity
  8
0
100
AcDbSpline
 62
7
  6
CONTINUOUS
 70
0
 71
3
 72
24
 73
20
 74
0
 42
0.0000001
 43
0.0000001
 44
0.0000000001
 40
0.0
 40
0.0
 40
0.0
 40
0.0
 40
0.0014745749
 40
0.0051843722
 40
0.0112612095
 40
0.0197136645
 40
0.0305197112
 40
0.0436529201
 40
0.0590857941
 40
0.0767900269
 40
0.1188339987
 40
0.1693602308
 40
0.2279189027
 40
0.2939325718
 40
0.3667717679
 40
0.4457293417
 40
0.6186622136
 40
0.8059085172
 40
1.0
 40
1.0
 40
1.0
 40
1.0
 10
18.9095884036
 20
63.9134654714
 30
0.0
 10
18.9085089771
 20
63.912843852
 30
0.0
 10
18.9041909701
 20
63.916868682
 30
0.0
 10
18.8986774453
 20
63.9229408256
 30
0.0
 10
18.8889106258
 20
63.9357964414
 30
0.0
 10
18.8767342315
 20
63.9530083618
 30
0.0
 10
18.8613976104
 20
63.9758204734
 30
0.0
 10
18.8433543703
 20
64.0037082139
 30
0.0
 10
18.8225756574
 20
64.0368326388
 30
0.0
 10
18.7894750331
 20
64.091026204
 30
0.0
 10
18.7422889045
 20
64.1713570616
 30
0.0
 10
18.6799562357
 20
64.2827774403
 30
0.0
 10
18.6104810853
 20
64.413370673
 30
0.0
 10
18.5354340407
 20
64.5623054073
 30
0.0
 10
18.4565445548
 20
64.7285474268
 30
0.0
 10
18.3451218631
 20
64.9792341519
 30
0.0
 10
18.2081489416
 20
65.3241916941
 30
0.0
 10
18.0600029577
 20
65.7686027729
 30
0.0
 10
17.9761364768
 20
66.0798579875
 30
0.0
 10
17.9382183567
 20
66.2393684149
 30
0.0
  0
SPLINE
  5
2F8
100
AcDbEntity
  8
0
100
AcDbSpline
 62
7
  6
CONTINUOUS
 70
0
 71
3
 72
25
 73
21
 74
0
 42
0.0000001
 43
0.0000001
 44
0.0000000001
 40
0.0
 40
0.0
 40
0.0
 40
0.0
 40
0.1878266778
 40
0.3694295861
 40
0.5387330573
 40
0.6169910104
 40
0.6900011988
 40
0.7570255009
 40
0.8173249731
 40
0.8701662206
 40
0.914821645
 40
0.9338663578
 40
0.950625656
 40
0.9650291614
 40
0.9770072607
 40
0.9865054933
 40
0.9934990264
 40
0.9979755231
 40
0.9992795421
 40
1.0
 40
1.0
 40
1.0
 40
1.0
 10
31.2030356006
 20
62.7315947104
 30
0.0
 10
31.2552745367
 20
62.5402408543
 30
0.0
 10
31.3642244867
 20
62.1655661539
 30
0.0
 10
31.5341915618
 20
61.6225797839
 30
0.0
 10
31.6791893587
 20
61.1931309885
 30
0.0
 10
31.7927080655
 20
60.8741834997
 30
0.0
 10
31.8719144016
 20
60.6576848285
 30
0.0
 10
31.9461021645
 20
60.45955234
 30
0.0
 10
32.0138915474
 20
60.2817724118
 30
0.0
 10
32.0738900405
 20
60.1263056835
 30
0.0
 10
32.1183284859
 20
60.0115340871
 30
0.0
 10
32.1487884827
 20
59.9322105484
 30
0.0
 10
32.167624506
 20
59.8826485442
 30
0.0
 10
32.1835718836
 20
59.8399656456
 30
0.0
 10
32.1964825948
 20
59.8043558125
 30
0.0
 10
32.2063256924
 20
59.7759057769
 30
0.0
 10
32.2129132827
 20
59.75484987
 30
0.0
 10
32.2164657865
 20
59.7416676424
 30
0.0
 10
32.2172932033
 20
59.7349796362
 30
0.0
 10
32.2172100442
 20
59.7326888415
 30
0.0
 10
32.2167943005
 20
59.7320516249
 30
0.0
  0
SPLINE
  5
2F9
100
AcDbEntity
  8
0
100
AcDbSpline
 62
7
  6
CONTINUOUS
 70
0
 71
3
 72
25
 73
21
 74
0
 42
0.0000001
 43
0.0000001
 44
0.0000000001
 40
0.0
 40
0.0
 40
0.0
 40
0.0
 40
0.1878118416
 40
0.3693975104
 40
0.5387048515
 40
0.6169653587
 40
0.6899801776
 40
0.7570106692
 40
0.8173163095
 40
0.8701624761
 40
0.9148204959
 40
0.9338654176
 40
0.950624635
 40
0.9650282124
 40
0.9770069261
 40
0.9865057167
 40
0.9934994381
 40
0.9979758053
 40
0.9992796731
 40
1.0
 40
1.0
 40
1.0
 40
1.0
 10
31.2030356006
 20
73.788107236
 30
0.0
 10
31.2552632314
 20
73.97945259
 30
0.0
 10
31.3628636254
 20
74.3544868992
 30
0.0
 10
31.5331276425
 20
74.8973817861
 30
0.0
 10
31.6786655467
 20
75.3266418696
 30
0.0
 10
31.792277172
 20
75.6455766109
 30
0.0
 10
31.871596572
 20
75.8620546625
 30
0.0
 10
31.9458989548
 20
76.060168435
 30
0.0
 10
32.0137796736
 20
76.2379376136
 30
0.0
 10
32.0738362136
 20
76.3934014364
 30
0.0
 10
32.1183029796
 20
76.5081738083
 30
0.0
 10
32.1487745024
 20
76.5874980655
 30
0.0
 10
32.1676159602
 20
76.6370595137
 30
0.0
 10
32.1835685218
 20
76.6797422592
 30
0.0
 10
32.1964866264
 20
76.7153516886
 30
0.0
 10
32.2063395586
 20
76.7438005728
 30
0.0
 10
32.2129365477
 20
76.764854622
 30
0.0
 10
32.2164960163
 20
76.7780353296
 30
0.0
 10
32.2173270806
 20
76.7847224147
 30
0.0
 10
32.217244843
 20
76.7870132054
 30
0.0
 10
32.2168291668
 20
76.7876503215
 30
0.0
  0
SPLINE
  5
2FA
100
AcDbEntity
  8
0
100
AcDbSpline
 62
7
  6
CONTINUOUS
 70
0
 71
3
 72
24
 73
20
 74
0
 42
0.0000001
 43
0.0000001
 44
0.0000000001
 40
0.0
 40
0.0
 40
0.0
 40
0.0
 40
0.0014745749
 40
0.0051843721
 40
0.0112612093
 40
0.0197136643
 40
0.0305197111
 40
0.0436529199
 40
0.059085794
 40
0.0767900268
 40
0.1188339986
 40
0.1693602308
 40
0.2279189027
 40
0.2939325719
 40
0.366771768
 40
0.4457293418
 40
0.6186622138
 40
0.8059085173
 40
1.0
 40
1.0
 40
1.0
 40
1.0
 10
83.9660051726
 20
72.6062364753
 30
0.0
 10
83.9670845991
 20
72.6068580946
 30
0.0
 10
83.9714026058
 20
72.6028332644
 30
0.0
 10
83.9769161304
 20
72.5967611207
 30
0.0
 10
83.9866829495
 20
72.5839055047
 30
0.0
 10
83.9988593437
 20
72.5666935843
 30
0.0
 10
84.0141959649
 20
72.5438814726
 30
0.0
 10
84.0322392052
 20
72.5159937321
 30
0.0
 10
84.0530179183
 20
72.4828693071
 30
0.0
 10
84.0861185427
 20
72.4286757417
 30
0.0
 10
84.1333046715
 20
72.3483448837
 30
0.0
 10
84.1956373405
 20
72.2369245046
 30
0.0
 10
84.2651124911
 20
72.1063312713
 30
0.0
 10
84.3401595359
 20
71.9573965365
 30
0.0
 10
84.4190490222
 20
71.7911545164
 30
0.0
 10
84.530471714
 20
71.5404677903
 30
0.0
 10
84.6674446358
 20
71.195510247
 30
0.0
 10
84.8155906197
 20
70.7510991669
 30
0.0
 10
84.8994571007
 20
70.4398439515
 30
0.0
 10
84.9373752208
 20
70.2803335236
 30
0.0
  0
ENDSEC
  0
SECTION
  2
OBJECTS
  0
DICTIONARY
  5
C
100
AcDbDictionary
280
0
281
1
  3
ACAD_GROUP
350
D
  3
ACAD_MLINESTYLE
350
17
  3
ACAD_LAYOUT
350
1A
  3
ACAD_PLOTSETTINGS
350
19
  3
ACAD_PLOTSTYLENAME
350
E
  0
DICTIONARY
  5
D
102
{ACAD_REACTORS
330
C
102
}
100
AcDbDictionary
280
0
281
1
  0
ACDBDICTIONARYWDFLT
  5
E
102
{ACAD_REACTORS
330
C
102
}
100
AcDbDictionary
281
1
  3
Normal
350
F
100
AcDbDictionaryWithDefault
340
F
  0
DICTIONARY
  5
17
102
{ACAD_REACTORS
330
C
102
}
100
AcDbDictionary
280
0
281
1
  3
Standard
350
18
  0
DICTIONARY
  5
19
102
{ACAD_REACTORS
330
C
102
}
100
AcDbDictionary
281
1
  0
DICTIONARY
  5
1A
102
{ACAD_REACTORS
330
C
102
}
100
AcDbDictionary
281
1
  3
Model
350
2FB
  3
Layout1
350
2FC
  0
ACDBPLACEHOLDER
  5
F
102
{ACAD_REACTORS
330
E
102
}
  0
MLINESTYLE
  5
18
102
{ACAD_REACTORS
330
17
102
}
100
AcDbMlineStyle
  2
STANDARD
 70
0
  3

 62
256
 51
90.0
 52
90.0
 71
2
 49
0.5
 62
256
  6
BYLAYER
 49
-0.5
 62
256
  6
BYLAYER
  0
LAYOUT
  5
2FB
102
{ACAD_REACTORS
330
1A
102
}
100
AcDbPlotSettings
  1

  2
none_device
  4

  6

 40
0.0
 41
0.0
 42
0.0
 43
0.0
 44
210.0
 45
297.0
 46
0.0
 47
0.0
 48
0.0
 49
0.0
140
0.0
141
0.0
142
1.0
143
1.0
 70
1024
 72
1
 73
0
 74
0
  7

 75
0
147
1.0
148
0.0
149
0.0
100
AcDbLayout
  1
Model
 70
0
 71
0
 10
0.0
 20
0.0
 11
210.0
 21
297.0
 12
0.0
 22
0.0
 32
0.0
 14
0.0
 24
0.0
 34
0.0
 15
0.0
 25
0.0
 35
0.0
146
0.0
 13
0.0
 23
0.0
 33
0.0
 16
1.0
 26
0.0
 36
0.0
 17
0.0
 27
1.0
 37
0.0
 76
0
330
210
345
0
346
0
  0
LAYOUT
  5
2FC
102
{ACAD_REACTORS
330
1A
102
}
100
AcDbPlotSettings
  1

  2
none_device
  4

  6

 40
0.0
 41
0.0
 42
0.0
 43
0.0
 44
210.0
 45
297.0
 46
0.0
 47
0.0
 48
0.0
 49
0.0
140
0.0
141
0.0
142
1.0
143
1.0
 70
0
 72
1
 73
0
 74
0
  7

 75
0
147
1.0
148
0.0
149
0.0
100
AcDbLayout
  1
Layout1
 70
0
 71
1
 10
0.0
 20
0.0
 11
210.0
 21
297.0
 12
0.0
 22
0.0
 32
0.0
 14
0.0
 24
0.0
 34
0.0
 15
0.0
 25
0.0
 35
0.0
146
0.0
 13
0.0
 23
0.0
 33
0.0
 16
1.0
 26
0.0
 36
0.0
 17
0.0
 27
1.0
 37
0.0
 76
0
330
211
345
0
346
0
  0
ENDSEC
  0
EOF
