999
DXF file: C:\Users\sesa63760\Dev\_Creo\CAD\MCADID0004883_3D-CAD\drw0001_7.dxf
999
Pro/ENGINEER 2019471 by Parametric Technology Corporation
  0
SECTION
  2
HEADER
  9
$ACADVER
  1
AC1024
  9
$DWGCODEPAGE
  3
ANSI_1252
  9
$EXTMAX
 10
327.3923037818
 20
463.0262582057
 30
0.0
  9
$EXTMIN
 10
0.0
 20
0.0
 30
0.0
  9
$LIMMIN
 10
0.0
 20
0.0
  9
$LIMMAX
 10
327.3923037818
 20
463.0262582057
  9
$VIEWCTR
 10
163.6961518909
 20
231.5131291028
  9
$VIEWSIZE
 40
463.0262582057
  9
$CLAYER
  8
0
  9
$LTSCALE
 40
30.1824523867
  9
$CELTYPE
  6
BYLAYER
  9
$DIMSCALE
 40
1.0
  9
$DIMASZ
 40
3.897527426
  9
$DIMEXO
 40
1.0
  9
$DIMDLI
 40
20.8533307399
  9
$DIMEXE
 40
1.0
  9
$DIMCEN
 40
4.9389467542
  9
$DIMLFAC
 40
1.0
  9
$DIMBLK
  1
_FILLED
  9
$DIMALT
 70
0
  9
$DIMALTF
 40
0.0393700787
  9
$DIMTXT
 40
5.4565383964
  9
$DIMTOL
 70
1
  9
$DIMLIM
 70
0
  9
$DIMTFAC
 40
1.0
  9
$DIMTP
 40
0.01
  9
$DIMTM
 40
0.01
  9
$DIMGAP
 40
0.625
  9
$DIMDSEP
 70
46
  9
$AUNITS
 70
0
  9
$PDMODE
 70
3
  9
$PDSIZE
 40
0.3125
  9
$HANDSEED
  5
3BB
  9
$TILEMODE
 70
1
  9
$MEASUREMENT
 70
1
  9
$INSUNITS
 70
4
  0
ENDSEC
  0
SECTION
  2
CLASSES
  0
CLASS
  1
ACDBDICTIONARYWDFLT
  2
AcDbDictionaryWithDefault
  3
AutoCAD 2000
 90
0
 91
1
280
0
281
0
  0
CLASS
  1
ACDBPLACEHOLDER
  2
AcDbPlaceHolder
  3
AutoCAD 2000
 90
0
 91
1
280
0
281
0
  0
CLASS
  1
LAYOUT
  2
AcDbLayout
  3
AutoCAD 2000
 90
0
 91
0
280
0
281
0
  0
ENDSEC
  0
SECTION
  2
TABLES
  0
TABLE
  2
VPORT
  5
8
100
AcDbSymbolTable
 70
2
  0
VPORT
  5
1F4
100
AcDbSymbolTableRecord
100
AcDbViewportTableRecord
  2
*ACTIVE
 70
0
 10
0.0
 20
0.0
 11
1.0
 21
1.0
 12
163.6961518909
 22
231.5131291028
 13
0.0
 23
0.0
 14
1.0
 24
1.0
 15
0.0
 25
0.0
 16
0.0
 26
0.0
 36
1.0
 17
0.0
 27
0.0
 37
0.0
 40
463.0262582057
 41
0.7070707071
 42
50.0
 43
0.0
 44
0.0
 50
0.0
 51
0.0
 71
0
 72
100
 73
1
 74
1
 75
0
 76
0
 77
0
 78
0
  0
ENDTAB
  0
TABLE
  2
LTYPE
  5
5
100
AcDbSymbolTable
 70
6
  0
LTYPE
  5
14
100
AcDbSymbolTableRecord
100
AcDbLinetypeTableRecord
  2
BYBLOCK
 70
0
  3

 72
65
 73
0
 40
0.0
  0
LTYPE
  5
15
100
AcDbSymbolTableRecord
100
AcDbLinetypeTableRecord
  2
BYLAYER
 70
0
  3

 72
65
 73
0
 40
0.0
  0
LTYPE
  5
16
100
AcDbSymbolTableRecord
100
AcDbLinetypeTableRecord
  2
CONTINUOUS
 70
64
  3
Solid line
 72
65
 73
0
 40
0.0
  0
LTYPE
  5
1F5
100
AcDbSymbolTableRecord
100
AcDbLinetypeTableRecord
  2
CENTER
 70
64
  3
____ _ ____ _ ____ _ ____ _ ____ _ ____ _ ____
 72
65
 73
4
 40
0.6
 49
0.375
 74
0
 49
-0.075
 74
0
 49
0.075
 74
0
 49
-0.075
 74
0
  0
LTYPE
  5
1F6
100
AcDbSymbolTableRecord
100
AcDbLinetypeTableRecord
  2
HIDDEN
 70
64
  3
- - - - - - - - - - - - - - - - - - - -
 72
65
 73
2
 40
0.2
 49
0.1
 74
0
 49
-0.1
 74
0
  0
LTYPE
  5
1F7
100
AcDbSymbolTableRecord
100
AcDbLinetypeTableRecord
  2
PHANTOM
 70
64
  3
_____ _ _ _____ _ _ _____ _ _ _____
 72
65
 73
6
 40
0.8
 49
0.45
 74
0
 49
-0.05
 74
0
 49
0.1
 74
0
 49
-0.05
 74
0
 49
0.1
 74
0
 49
-0.05
 74
0
  0
LTYPE
  5
1F8
100
AcDbSymbolTableRecord
100
AcDbLinetypeTableRecord
  2
DOT
 70
64
  3
. . . . . . . . . . . . . . . . . . . .
 72
65
 73
2
 40
0.2
 49
0.1
 74
0
 49
-0.1
 74
0
  0
LTYPE
  5
1F9
100
AcDbSymbolTableRecord
100
AcDbLinetypeTableRecord
  2
DASHED
 70
64
  3
- - - - - - - - - - - - - - - - - - - -
 72
65
 73
2
 40
0.2
 49
0.1
 74
0
 49
-0.1
 74
0
  0
ENDTAB
  0
TABLE
  2
LAYER
  5
2
100
AcDbSymbolTable
 70
36
  0
LAYER
  5
10
100
AcDbSymbolTableRecord
100
AcDbLayerTableRecord
  2
0
 70
0
 62
7
  6
CONTINUOUS
370
-3
390
F
  0
LAYER
  5
1FA
100
AcDbSymbolTableRecord
100
AcDbLayerTableRecord
  2
DEFAULT_1
 70
0
 62
7
  6
CENTER
370
-3
390
F
  0
LAYER
  5
1FB
100
AcDbSymbolTableRecord
100
AcDbLayerTableRecord
  2
DEFAULT_2
 70
0
 62
7
  6
HIDDEN
370
-3
390
F
  0
LAYER
  5
1FC
100
AcDbSymbolTableRecord
100
AcDbLayerTableRecord
  2
DEFAULT_3
 70
0
 62
7
  6
PHANTOM
370
-3
390
F
  0
LAYER
  5
1FD
100
AcDbSymbolTableRecord
100
AcDbLayerTableRecord
  2
00_COMPONENTS
 70
0
 62
7
  6
CONTINUOUS
370
-3
390
F
  0
LAYER
  5
1FE
100
AcDbSymbolTableRecord
100
AcDbLayerTableRecord
  2
01_1_DEFAULT_DATUMS
 70
0
 62
7
  6
CONTINUOUS
370
-3
390
F
  0
LAYER
  5
1FF
100
AcDbSymbolTableRecord
100
AcDbLayerTableRecord
  2
01_PLANES
 70
0
 62
7
  6
CONTINUOUS
370
-3
390
F
  0
LAYER
  5
200
100
AcDbSymbolTableRecord
100
AcDbLayerTableRecord
  2
02_COORD_SYS
 70
0
 62
7
  6
CONTINUOUS
370
-3
390
F
  0
LAYER
  5
201
100
AcDbSymbolTableRecord
100
AcDbLayerTableRecord
  2
03_AXES
 70
0
 62
7
  6
CONTINUOUS
370
-3
390
F
  0
LAYER
  5
202
100
AcDbSymbolTableRecord
100
AcDbLayerTableRecord
  2
04_POINTS
 70
0
 62
7
  6
CONTINUOUS
370
-3
390
F
  0
LAYER
  5
203
100
AcDbSymbolTableRecord
100
AcDbLayerTableRecord
  2
05_CURVES
 70
0
 62
7
  6
CONTINUOUS
370
-3
390
F
  0
LAYER
  5
204
100
AcDbSymbolTableRecord
100
AcDbLayerTableRecord
  2
06_SURFS
 70
0
 62
7
  6
CONTINUOUS
370
-3
390
F
  0
LAYER
  5
205
100
AcDbSymbolTableRecord
100
AcDbLayerTableRecord
  2
07_COSMETICS
 70
0
 62
7
  6
CONTINUOUS
370
-3
390
F
  0
LAYER
  5
206
100
AcDbSymbolTableRecord
100
AcDbLayerTableRecord
  2
10_NOTES
 70
0
 62
7
  6
CONTINUOUS
370
-3
390
F
  0
LAYER
  5
207
100
AcDbSymbolTableRecord
100
AcDbLayerTableRecord
  2
11_NOTES_PUB
 70
0
 62
7
  6
CONTINUOUS
370
-3
390
F
  0
LAYER
  5
208
100
AcDbSymbolTableRecord
100
AcDbLayerTableRecord
  2
13_REF_GTOL
 70
0
 62
7
  6
CONTINUOUS
370
-3
390
F
  0
LAYER
  5
209
100
AcDbSymbolTableRecord
100
AcDbLayerTableRecord
  2
16_MISC
 70
0
 62
7
  6
CONTINUOUS
370
-3
390
F
  0
LAYER
  5
20A
100
AcDbSymbolTableRecord
100
AcDbLayerTableRecord
  2
17_NO_PRINT
 70
0
 62
7
  6
CONTINUOUS
370
-3
390
F
  0
LAYER
  5
20B
100
AcDbSymbolTableRecord
100
AcDbLayerTableRecord
  2
18_DATUM_CAMS_JOINTS
 70
0
 62
7
  6
CONTINUOUS
370
-3
390
F
  0
LAYER
  5
20C
100
AcDbSymbolTableRecord
100
AcDbLayerTableRecord
  2
19_DATUM_FUNCTIONAL
 70
0
 62
7
  6
CONTINUOUS
370
-3
390
F
  0
LAYER
  5
20D
100
AcDbSymbolTableRecord
100
AcDbLayerTableRecord
  2
20_DATUM_KINEMATIC_SCHEME
 70
0
 62
7
  6
CONTINUOUS
370
-3
390
F
  0
ENDTAB
  0
TABLE
  2
STYLE
  5
3
100
AcDbSymbolTable
 70
1
  0
STYLE
  5
11
100
AcDbSymbolTableRecord
100
AcDbTextStyleTableRecord
  2
STANDARD
 70
0
 40
0.0
 41
1.0
 50
0.0
 71
0
 42
0.2
  3
ARIAL.TTF
  4

  0
STYLE
  5
20E
100
AcDbSymbolTableRecord
100
AcDbTextStyleTableRecord
  2
TEXTSTYLE_1
 70
0
 40
0.0
 41
0.8
 50
0.0
 71
0
 42
0.2
  3
gdt
  4

  0
ENDTAB
  0
TABLE
  2
VIEW
  5
6
100
AcDbSymbolTable
 70
0
  0
ENDTAB
  0
TABLE
  2
UCS
  5
7
100
AcDbSymbolTable
 70
0
  0
ENDTAB
  0
TABLE
  2
APPID
  5
9
100
AcDbSymbolTable
 70
1
  0
APPID
  5
20F
100
AcDbSymbolTableRecord
100
AcDbRegAppTableRecord
  2
ACAD
 70
0
  0
ENDTAB
  0
TABLE
  2
BLOCK_RECORD
  5
1
100
AcDbSymbolTable
 70
0
  0
BLOCK_RECORD
  5
210
100
AcDbSymbolTableRecord
100
AcDbBlockTableRecord
  2
*Model_Space
  0
BLOCK_RECORD
  5
211
100
AcDbSymbolTableRecord
100
AcDbBlockTableRecord
  2
*Paper_Space
  0
BLOCK_RECORD
  5
212
100
AcDbSymbolTableRecord
100
AcDbBlockTableRecord
  2
_FILLED
  0
ENDTAB
  0
TABLE
  2
DIMSTYLE
  5
A
100
AcDbSymbolTable
 70
1
100
AcDbDimStyleTable
 71
0
  0
DIMSTYLE
105
213
100
AcDbSymbolTableRecord
100
AcDbDimStyleTableRecord
  2
STANDARD
 70
0
  3

  4

 40
1.0
 41
3.897527426
 42
1.0
 43
0.38
 44
1.0
 45
0.0
 46
0.0
 47
0.01
 48
0.01
140
5.4565383964
141
0.09
142
0.0
143
25.4
144
1.0
145
0.0
146
1.0
147
0.625
 71
1
 72
0
 73
0
 74
0
 75
0
 76
0
 77
1
 78
8
 79
2
170
0
171
1
172
0
173
0
174
0
175
0
176
0
177
0
178
0
270
2
179
2
271
2
272
2
273
2
274
2
275
0
280
0
281
0
282
0
283
1
284
8
285
0
286
0
287
3
288
0
340
11
278
46
341
212
342
212
343
212
344
212
  0
ENDTAB
  0
ENDSEC
  0
SECTION
  2
BLOCKS
  0
BLOCK
  5
20
100
AcDbEntity
  8
0
100
AcDbBlockBegin
  2
*Model_Space
 70
0
 10
0.0
 20
0.0
 30
0.0
  3
*Model_Space
  1

  0
ENDBLK
  5
21
100
AcDbEntity
  8
0
100
AcDbBlockEnd
  0
BLOCK
  5
1C
100
AcDbEntity
  8
0
100
AcDbBlockBegin
  2
*Paper_Space
 70
0
 10
0.0
 20
0.0
 30
0.0
  3
*Paper_Space
  1

  0
ENDBLK
  5
1D
100
AcDbEntity
  8
0
100
AcDbBlockEnd
  0
BLOCK
  5
214
100
AcDbEntity
  8
0
100
AcDbBlockBegin
  2
_FILLED
 70
64
 10
0.0
 20
0.0
  3
_FILLED
  1

  0
SOLID
  5
215
100
AcDbEntity
  8
0
  6
BYBLOCK
 62
0
100
AcDbTrace
 10
0.0
 20
0.0
 11
-1.0
 21
0.25
 12
-1.0
 22
-0.25
 13
-1.0
 23
-0.25
  0
ENDBLK
  5
216
100
AcDbEntity
  8
0
  6
BYBLOCK
 62
0
100
AcDbBlockEnd
  0
ENDSEC
  0
SECTION
  2
ENTITIES
  0
LINE
  5
217
100
AcDbEntity
  8
0
100
AcDbLine
 62
7
  6
BYLAYER
 10
34.762891497
 20
237.7475536588
 11
34.762891497
 21
242.7456629714
  0
LINE
  5
218
100
AcDbEntity
  8
0
100
AcDbLine
 62
7
  6
BYLAYER
 10
35.212891497
 20
255.3966083151
 11
35.212891497
 21
262.7966083151
  0
LINE
  5
219
100
AcDbEntity
  8
0
100
AcDbLine
 62
7
  6
BYLAYER
 10
37.692891497
 20
255.0266155206
 11
37.692891497
 21
257.5665456596
  0
LINE
  5
21A
100
AcDbEntity
  8
0
100
AcDbLine
 62
7
  6
BYLAYER
 10
37.762891497
 20
247.7966083151
 11
37.762891497
 21
255.0266155206
  0
LINE
  5
21B
100
AcDbEntity
  8
0
100
AcDbLine
 62
7
  6
BYLAYER
 10
37.762891497
 20
262.7966083151
 11
37.762891497
 21
268.7966806612
  0
LINE
  5
21C
100
AcDbEntity
  8
0
100
AcDbLine
 62
7
  6
BYLAYER
 10
39.662891497
 20
248.7141083156
 11
39.662891497
 21
250.5141083149
  0
LINE
  5
21D
100
AcDbEntity
  8
0
100
AcDbLine
 62
7
  6
BYLAYER
 10
39.662891497
 20
251.2141083155
 11
39.662891497
 21
252.9691083152
  0
LINE
  5
21E
100
AcDbEntity
  8
0
100
AcDbLine
 62
7
  6
BYLAYER
 10
39.662891497
 20
252.9881195733
 11
39.662891497
 21
253.0141083142
  0
LINE
  5
21F
100
AcDbEntity
  8
0
100
AcDbLine
 62
7
  6
BYLAYER
 10
39.662891497
 20
258.4965805901
 11
39.662891497
 21
261.4965805901
  0
LINE
  5
220
100
AcDbEntity
  8
0
100
AcDbLine
 62
7
  6
BYLAYER
 10
39.662891497
 20
262.7941083143
 11
39.662891497
 21
264.594108315
  0
LINE
  5
221
100
AcDbEntity
  8
0
100
AcDbLine
 62
7
  6
BYLAYER
 10
39.662891497
 20
271.200501275
 11
39.662891497
 21
282.3716083143
  0
LINE
  5
222
100
AcDbEntity
  8
0
100
AcDbLine
 62
7
  6
BYLAYER
 10
39.712891497
 20
262.7941083143
 11
39.712891497
 21
261.4965805901
  0
LINE
  5
223
100
AcDbEntity
  8
0
100
AcDbLine
 62
7
  6
BYLAYER
 10
39.712891497
 20
258.4965805901
 11
39.712891497
 21
257.5665805901
  0
LINE
  5
224
100
AcDbEntity
  8
0
100
AcDbLine
 62
7
  6
BYLAYER
 10
39.712891497
 20
253.7466083155
 11
39.712891497
 21
255.0265805901
  0
LINE
  5
225
100
AcDbEntity
  8
0
100
AcDbLine
 62
7
  6
BYLAYER
 10
39.762891497
 20
180.9966083151
 11
39.762891497
 21
284.1966083151
  0
LINE
  5
226
100
AcDbEntity
  8
0
100
AcDbLine
 62
7
  6
BYLAYER
 10
40.962891497
 20
182.1966083151
 11
40.962891497
 21
270.1966083151
  0
LINE
  5
227
100
AcDbEntity
  8
0
100
AcDbLine
 62
7
  6
BYLAYER
 10
41.962891497
 20
253.3566083151
 11
41.962891497
 21
248.3566083151
  0
LINE
  5
228
100
AcDbEntity
  8
0
100
AcDbLine
 62
7
  6
BYLAYER
 10
41.962891497
 20
243.3566083151
 11
41.962891497
 21
238.3566083151
  0
LINE
  5
229
100
AcDbEntity
  8
0
100
AcDbLine
 62
7
  6
BYLAYER
 10
41.962891497
 20
211.3566083151
 11
41.962891497
 21
206.3566083151
  0
LINE
  5
22A
100
AcDbEntity
  8
0
100
AcDbLine
 62
7
  6
BYLAYER
 10
41.962891497
 20
201.3566083151
 11
41.962891497
 21
196.3566083151
  0
LINE
  5
22B
100
AcDbEntity
  8
0
100
AcDbLine
 62
7
  6
BYLAYER
 10
42.203658443
 20
284.1966083151
 11
42.203658443
 21
284.2966083151
  0
LINE
  5
22C
100
AcDbEntity
  8
0
100
AcDbLine
 62
7
  6
BYLAYER
 10
47.898282809
 20
284.1966083151
 11
47.898282809
 21
284.2966083151
  0
LINE
  5
22D
100
AcDbEntity
  8
0
100
AcDbLine
 62
7
  6
BYLAYER
 10
48.08145868
 20
284.1966083151
 11
48.08145868
 21
284.2966083151
  0
LINE
  5
22E
100
AcDbEntity
  8
0
100
AcDbLine
 62
7
  6
BYLAYER
 10
48.16446025
 20
284.1966083151
 11
48.16446025
 21
284.2966083151
  0
LINE
  5
22F
100
AcDbEntity
  8
0
100
AcDbLine
 62
7
  6
BYLAYER
 10
48.247461817
 20
284.1966083151
 11
48.247461817
 21
284.2966083151
  0
LINE
  5
230
100
AcDbEntity
  8
0
100
AcDbLine
 62
7
  6
BYLAYER
 10
53.059961817
 20
284.1966083151
 11
53.059961817
 21
284.2966083151
  0
LINE
  5
231
100
AcDbEntity
  8
0
100
AcDbLine
 62
7
  6
BYLAYER
 10
57.028711817
 20
284.1966083151
 11
57.028711817
 21
284.2966083151
  0
LINE
  5
232
100
AcDbEntity
  8
0
100
AcDbLine
 62
7
  6
BYLAYER
 10
58.071680567
 20
284.1966083151
 11
58.071680567
 21
284.2966083151
  0
LINE
  5
233
100
AcDbEntity
  8
0
100
AcDbLine
 62
7
  6
BYLAYER
 10
58.837891497
 20
252.4376239408
 11
58.8378914969
 21
253.9333270645
  0
LINE
  5
234
100
AcDbEntity
  8
0
100
AcDbLine
 62
7
  6
BYLAYER
 10
59.212891497
 20
252.5216081714
 11
59.2128914971
 21
253.933327064
  0
LINE
  5
235
100
AcDbEntity
  8
0
100
AcDbLine
 62
7
  6
BYLAYER
 10
59.470118067
 20
284.1966083151
 11
59.470118067
 21
284.2966083151
  0
LINE
  5
236
100
AcDbEntity
  8
0
100
AcDbLine
 62
7
  6
BYLAYER
 10
61.337891498
 20
252.8716083159
 11
61.337891498
 21
252.8243427149
  0
LINE
  5
237
100
AcDbEntity
  8
0
100
AcDbLine
 62
7
  6
BYLAYER
 10
62.037891497
 20
253.419264565
 11
62.0378914971
 21
252.3884051897
  0
LINE
  5
238
100
AcDbEntity
  8
0
100
AcDbLine
 62
7
  6
BYLAYER
 10
62.366016497
 20
253.3817645652
 11
62.366016497
 21
253.4247333151
  0
LINE
  5
239
100
AcDbEntity
  8
0
100
AcDbLine
 62
7
  6
BYLAYER
 10
62.3878914971
 20
252.3884051901
 11
62.387891497
 21
252.835670813
  0
LINE
  5
23A
100
AcDbEntity
  8
0
100
AcDbLine
 62
7
  6
BYLAYER
 10
62.747461817
 20
284.1966083151
 11
62.747461817
 21
284.2966083151
  0
LINE
  5
23B
100
AcDbEntity
  8
0
100
AcDbLine
 62
7
  6
BYLAYER
 10
62.962891498
 20
252.3884051898
 11
62.9628914976
 21
252.9833270655
  0
LINE
  5
23C
100
AcDbEntity
  8
0
100
AcDbLine
 62
7
  6
BYLAYER
 10
58.1984383685
 20
253.9032489209
 11
57.9464852473
 21
252.7716083146
  0
LINE
  5
23D
100
AcDbEntity
  8
0
100
AcDbLine
 62
7
  6
BYLAYER
 10
58.2390633733
 20
252.5184833158
 11
58.5589852473
 21
253.8208270665
  0
LINE
  5
23E
100
AcDbEntity
  8
0
100
AcDbLine
 62
7
  6
BYLAYER
 10
57.0863290159
 20
253.8305927615
 11
56.8042977474
 21
252.7716083156
  0
LINE
  5
23F
100
AcDbEntity
  8
0
100
AcDbLine
 62
7
  6
BYLAYER
 10
57.0625008717
 20
252.5098895644
 11
57.3773446218
 21
253.6716083139
  0
LINE
  5
240
100
AcDbEntity
  8
0
100
AcDbLine
 62
7
  6
BYLAYER
 10
58.8034904211
 20
264.1966083151
 11
56.494089343
 21
260.1966083151
  0
LINE
  5
241
100
AcDbEntity
  8
0
100
AcDbLine
 62
7
  6
BYLAYER
 10
63.312891497
 20
252.388405183
 11
63.3128914971
 21
253.0524676868
  0
LINE
  5
242
100
AcDbEntity
  8
0
100
AcDbLine
 62
7
  6
BYLAYER
 10
64.414460249
 20
284.1966083151
 11
64.414460249
 21
284.2966083151
  0
LINE
  5
243
100
AcDbEntity
  8
0
100
AcDbLine
 62
7
  6
BYLAYER
 10
66.172272749
 20
284.1966083151
 11
66.172272749
 21
284.2966083151
  0
LINE
  5
244
100
AcDbEntity
  8
0
100
AcDbLine
 62
7
  6
BYLAYER
 10
67.9144602494
 20
284.1966083151
 11
67.9144602494
 21
284.2966083151
  0
LINE
  5
245
100
AcDbEntity
  8
0
100
AcDbLine
 62
7
  6
BYLAYER
 10
68.0814586802
 20
284.1966083151
 11
68.0814586802
 21
284.2966083151
  0
LINE
  5
246
100
AcDbEntity
  8
0
100
AcDbLine
 62
7
  6
BYLAYER
 10
64.8316414966
 20
252.9466083156
 11
65.1148446214
 21
253.7466083141
  0
LINE
  5
247
100
AcDbEntity
  8
0
100
AcDbLine
 62
7
  6
BYLAYER
 10
64.6386727439
 20
252.4083270596
 11
64.7300789962
 21
252.6466083147
  0
LINE
  5
248
100
AcDbEntity
  8
0
100
AcDbLine
 62
7
  6
BYLAYER
 10
64.7835946322
 20
253.8036395897
 11
64.2941414899
 21
252.5477801721
  0
LINE
  5
249
100
AcDbEntity
  8
0
100
AcDbLine
 62
7
  6
BYLAYER
 10
63.422292573
 20
256.1966083151
 11
65.7316936511
 21
260.1966083151
  0
LINE
  5
24A
100
AcDbEntity
  8
0
100
AcDbLine
 62
7
  6
BYLAYER
 10
57.9464852473
 20
252.7716083146
 11
57.6621102448
 21
253.8305926979
  0
LINE
  5
24B
100
AcDbEntity
  8
0
100
AcDbLine
 62
7
  6
BYLAYER
 10
57.3773446218
 20
253.6716083139
 11
57.6882821169
 21
252.5098895863
  0
LINE
  5
24C
100
AcDbEntity
  8
0
100
AcDbLine
 62
7
  6
BYLAYER
 10
56.1917977401
 20
253.8208270909
 11
56.5117196133
 21
252.5184833487
  0
LINE
  5
24D
100
AcDbEntity
  8
0
100
AcDbLine
 62
7
  6
BYLAYER
 10
56.8042977474
 20
252.7716083156
 11
56.5523446262
 21
253.9032489238
  0
LINE
  5
24E
100
AcDbEntity
  8
0
100
AcDbLine
 62
7
  6
BYLAYER
 10
65.9542977469
 20
252.5583270653
 11
65.4542977473
 21
253.8059833148
  0
LINE
  5
24F
100
AcDbEntity
  8
0
100
AcDbLine
 62
7
  6
BYLAYER
 10
65.5078133708
 20
252.6466083147
 11
65.5992196147
 21
252.4134052069
  0
LINE
  5
250
100
AcDbEntity
  8
0
100
AcDbLine
 62
7
  6
BYLAYER
 10
65.1148446214
 20
253.7466083141
 11
65.4035164967
 21
252.9466083156
  0
LINE
  5
251
100
AcDbEntity
  8
0
100
AcDbLine
 62
7
  6
BYLAYER
 10
56.494089343
 20
260.1966083151
 11
58.8034904211
 21
256.1966083151
  0
LINE
  5
252
100
AcDbEntity
  8
0
100
AcDbLine
 62
7
  6
BYLAYER
 10
65.7316936511
 20
260.1966083151
 11
63.422292573
 21
264.1966083151
  0
LINE
  5
253
100
AcDbEntity
  8
0
100
AcDbLine
 62
7
  6
BYLAYER
 10
293.762891497
 20
180.9966083151
 11
39.762891497
 21
180.9966083151
  0
LINE
  5
254
100
AcDbEntity
  8
0
100
AcDbLine
 62
7
  6
BYLAYER
 10
292.562891497
 20
182.1966083151
 11
40.962891497
 21
182.1966083151
  0
LINE
  5
255
100
AcDbEntity
  8
0
100
AcDbLine
 62
7
  6
BYLAYER
 10
185.462891497
 20
183.1966083151
 11
190.462891497
 21
183.1966083151
  0
LINE
  5
256
100
AcDbEntity
  8
0
100
AcDbLine
 62
7
  6
BYLAYER
 10
249.162891497
 20
183.1966083151
 11
254.162891497
 21
183.1966083151
  0
LINE
  5
257
100
AcDbEntity
  8
0
100
AcDbLine
 62
7
  6
BYLAYER
 10
178.9228914971
 20
192.8966083144
 11
170.0028914972
 21
192.8966083144
  0
LINE
  5
258
100
AcDbEntity
  8
0
100
AcDbLine
 62
7
  6
BYLAYER
 10
178.302891497
 20
193.1966083151
 11
170.302891497
 21
193.1966083151
  0
LINE
  5
259
100
AcDbEntity
  8
0
100
AcDbLine
 62
7
  6
BYLAYER
 10
292.562891497
 20
196.3566083151
 11
291.562891497
 21
196.3566083151
  0
LINE
  5
25A
100
AcDbEntity
  8
0
100
AcDbLine
 62
7
  6
BYLAYER
 10
41.962891497
 20
196.3566083151
 11
40.962891497
 21
196.3566083151
  0
LINE
  5
25B
100
AcDbEntity
  8
0
100
AcDbLine
 62
7
  6
BYLAYER
 10
40.962891497
 20
201.3566083151
 11
41.962891497
 21
201.3566083151
  0
LINE
  5
25C
100
AcDbEntity
  8
0
100
AcDbLine
 62
7
  6
BYLAYER
 10
291.562891497
 20
201.3566083151
 11
292.562891497
 21
201.3566083151
  0
LINE
  5
25D
100
AcDbEntity
  8
0
100
AcDbLine
 62
7
  6
BYLAYER
 10
182.0028914972
 20
202.1966083151
 11
178.9228914971
 21
202.1966083151
  0
LINE
  5
25E
100
AcDbEntity
  8
0
100
AcDbLine
 62
7
  6
BYLAYER
 10
178.922891497
 20
204.6966083151
 11
182.0028914972
 21
204.6966083151
  0
LINE
  5
25F
100
AcDbEntity
  8
0
100
AcDbLine
 62
7
  6
BYLAYER
 10
156.1034904207
 20
264.1966083151
 11
153.7940893426
 21
260.1966083151
  0
LINE
  5
260
100
AcDbEntity
  8
0
100
AcDbLine
 62
7
  6
BYLAYER
 10
292.562891497
 20
206.3566083151
 11
291.562891497
 21
206.3566083151
  0
LINE
  5
261
100
AcDbEntity
  8
0
100
AcDbLine
 62
7
  6
BYLAYER
 10
41.962891497
 20
206.3566083151
 11
40.962891497
 21
206.3566083151
  0
LINE
  5
262
100
AcDbEntity
  8
0
100
AcDbLine
 62
7
  6
BYLAYER
 10
182.0028914972
 20
207.0966083155
 11
178.922891497
 21
207.0966083155
  0
LINE
  5
263
100
AcDbEntity
  8
0
100
AcDbLine
 62
7
  6
BYLAYER
 10
178.922891497
 20
209.5966083155
 11
182.0028914972
 21
209.5966083155
  0
LINE
  5
264
100
AcDbEntity
  8
0
100
AcDbLine
 62
7
  6
BYLAYER
 10
40.962891497
 20
211.3566083151
 11
41.962891497
 21
211.3566083151
  0
LINE
  5
265
100
AcDbEntity
  8
0
100
AcDbLine
 62
7
  6
BYLAYER
 10
291.562891497
 20
211.3566083151
 11
292.562891497
 21
211.3566083151
  0
LINE
  5
266
100
AcDbEntity
  8
0
100
AcDbLine
 62
7
  6
BYLAYER
 10
156.0378914972
 20
252.9216083151
 11
156.0378914968
 21
252.6083270657
  0
LINE
  5
267
100
AcDbEntity
  8
0
100
AcDbLine
 62
7
  6
BYLAYER
 10
160.7222925733
 20
256.1966083151
 11
163.0316936515
 21
260.1966083151
  0
LINE
  5
268
100
AcDbEntity
  8
0
100
AcDbLine
 62
7
  6
BYLAYER
 10
170.302891497
 20
218.5966083151
 11
178.302891497
 21
218.5966083151
  0
LINE
  5
269
100
AcDbEntity
  8
0
100
AcDbLine
 62
7
  6
BYLAYER
 10
170.0028914972
 20
218.8966083144
 11
178.922891497
 21
218.8966083144
  0
LINE
  5
26A
100
AcDbEntity
  8
0
100
AcDbLine
 62
7
  6
BYLAYER
 10
156.3878914968
 20
252.6177020688
 11
156.3878914965
 21
252.9876239397
  0
LINE
  5
26B
100
AcDbEntity
  8
0
100
AcDbLine
 62
7
  6
BYLAYER
 10
156.7878914979
 20
253.883717691
 11
156.7878914979
 21
252.4055926906
  0
LINE
  5
26C
100
AcDbEntity
  8
0
100
AcDbLine
 62
7
  6
BYLAYER
 10
157.1628914979
 20
252.407155191
 11
157.1628914979
 21
252.9466083156
  0
LINE
  5
26D
100
AcDbEntity
  8
0
100
AcDbLine
 62
7
  6
BYLAYER
 10
157.1628914979
 20
253.2466083145
 11
157.1628914979
 21
253.8216083158
  0
LINE
  5
26E
100
AcDbEntity
  8
0
100
AcDbLine
 62
7
  6
BYLAYER
 10
158.5878914965
 20
253.8837176909
 11
158.5878914965
 21
252.4083270648
  0
LINE
  5
26F
100
AcDbEntity
  8
0
100
AcDbLine
 62
7
  6
BYLAYER
 10
158.9628914965
 20
252.4075458155
 11
158.9628914965
 21
253.0216083148
  0
LINE
  5
270
100
AcDbEntity
  8
0
100
AcDbLine
 62
7
  6
BYLAYER
 10
158.9628914965
 20
253.2966083151
 11
158.9628914965
 21
253.8216083158
  0
LINE
  5
271
100
AcDbEntity
  8
0
100
AcDbLine
 62
7
  6
BYLAYER
 10
170.0028914972
 20
192.8966083144
 11
170.0028914972
 21
218.8966083144
  0
LINE
  5
272
100
AcDbEntity
  8
0
100
AcDbLine
 62
7
  6
BYLAYER
 10
170.302891497
 20
193.1966083151
 11
170.302891497
 21
218.5966083151
  0
LINE
  5
273
100
AcDbEntity
  8
0
100
AcDbLine
 62
7
  6
BYLAYER
 10
34.762891497
 20
237.7466083151
 11
39.762891497
 21
237.7466083151
  0
LINE
  5
274
100
AcDbEntity
  8
0
100
AcDbLine
 62
7
  6
BYLAYER
 10
292.562891497
 20
238.3566083151
 11
291.562891497
 21
238.3566083151
  0
LINE
  5
275
100
AcDbEntity
  8
0
100
AcDbLine
 62
7
  6
BYLAYER
 10
41.962891497
 20
238.3566083151
 11
40.962891497
 21
238.3566083151
  0
LINE
  5
276
100
AcDbEntity
  8
0
100
AcDbLine
 62
7
  6
BYLAYER
 10
34.762891497
 20
242.7466083151
 11
39.762891497
 21
242.7466083151
  0
LINE
  5
277
100
AcDbEntity
  8
0
100
AcDbLine
 62
7
  6
BYLAYER
 10
159.5507821216
 20
252.6762958142
 11
159.7078133722
 21
252.4180926904
  0
LINE
  5
278
100
AcDbEntity
  8
0
100
AcDbLine
 62
7
  6
BYLAYER
 10
153.7940893426
 20
260.1966083151
 11
156.1034904207
 21
256.1966083151
  0
LINE
  5
279
100
AcDbEntity
  8
0
100
AcDbLine
 62
7
  6
BYLAYER
 10
178.302891497
 20
218.5966083151
 11
178.302891497
 21
193.1966083151
  0
LINE
  5
27A
100
AcDbEntity
  8
0
100
AcDbLine
 62
7
  6
BYLAYER
 10
178.922891497
 20
218.8966083144
 11
178.922891497
 21
209.5966083155
  0
LINE
  5
27B
100
AcDbEntity
  8
0
100
AcDbLine
 62
7
  6
BYLAYER
 10
178.922891497
 20
207.0966083155
 11
178.922891497
 21
204.6966083151
  0
LINE
  5
27C
100
AcDbEntity
  8
0
100
AcDbLine
 62
7
  6
BYLAYER
 10
178.9228914971
 20
202.1966083151
 11
178.9228914971
 21
192.8966083144
  0
LINE
  5
27D
100
AcDbEntity
  8
0
100
AcDbLine
 62
7
  6
BYLAYER
 10
182.0028914972
 20
209.5966083155
 11
182.0028914972
 21
207.0966083155
  0
LINE
  5
27E
100
AcDbEntity
  8
0
100
AcDbLine
 62
7
  6
BYLAYER
 10
182.0028914972
 20
204.6966083151
 11
182.0028914972
 21
202.1966083151
  0
LINE
  5
27F
100
AcDbEntity
  8
0
100
AcDbLine
 62
7
  6
BYLAYER
 10
40.962891497
 20
243.3566083151
 11
41.962891497
 21
243.3566083151
  0
LINE
  5
280
100
AcDbEntity
  8
0
100
AcDbLine
 62
7
  6
BYLAYER
 10
291.562891497
 20
243.3566083151
 11
292.562891497
 21
243.3566083151
  0
LINE
  5
281
100
AcDbEntity
  8
0
100
AcDbLine
 62
7
  6
BYLAYER
 10
37.762891497
 20
247.7966083151
 11
39.762891497
 21
247.7966083151
  0
LINE
  5
282
100
AcDbEntity
  8
0
100
AcDbLine
 62
7
  6
BYLAYER
 10
292.562891497
 20
248.3566083151
 11
291.562891497
 21
248.3566083151
  0
LINE
  5
283
100
AcDbEntity
  8
0
100
AcDbLine
 62
7
  6
BYLAYER
 10
41.962891497
 20
248.3566083151
 11
40.962891497
 21
248.3566083151
  0
LINE
  5
284
100
AcDbEntity
  8
0
100
AcDbLine
 62
7
  6
BYLAYER
 10
39.662891497
 20
248.7141083156
 11
39.762891497
 21
248.7141083156
  0
LINE
  5
285
100
AcDbEntity
  8
0
100
AcDbLine
 62
7
  6
BYLAYER
 10
39.762891497
 20
248.9261005031
 11
39.662891497
 21
248.9261005031
  0
LINE
  5
286
100
AcDbEntity
  8
0
100
AcDbLine
 62
7
  6
BYLAYER
 10
39.662891497
 20
249.4116083154
 11
39.762891497
 21
249.4116083154
  0
LINE
  5
287
100
AcDbEntity
  8
0
100
AcDbLine
 62
7
  6
BYLAYER
 10
39.662891497
 20
249.4966083151
 11
37.762891497
 21
249.4966083151
  0
LINE
  5
288
100
AcDbEntity
  8
0
100
AcDbLine
 62
7
  6
BYLAYER
 10
39.662891497
 20
249.9487958153
 11
39.762891497
 21
249.9487958153
  0
LINE
  5
289
100
AcDbEntity
  8
0
100
AcDbLine
 62
7
  6
BYLAYER
 10
39.662891497
 20
250.43746769
 11
39.762891497
 21
250.43746769
  0
LINE
  5
28A
100
AcDbEntity
  8
0
100
AcDbLine
 62
7
  6
BYLAYER
 10
39.662891497
 20
250.4691083146
 11
39.762891497
 21
250.4691083146
  0
LINE
  5
28B
100
AcDbEntity
  8
0
100
AcDbLine
 62
7
  6
BYLAYER
 10
39.662891497
 20
250.5141083149
 11
39.762891497
 21
250.5141083149
  0
LINE
  5
28C
100
AcDbEntity
  8
0
100
AcDbLine
 62
7
  6
BYLAYER
 10
39.662891497
 20
251.2141083155
 11
39.762891497
 21
251.2141083155
  0
LINE
  5
28D
100
AcDbEntity
  8
0
100
AcDbLine
 62
7
  6
BYLAYER
 10
39.762891497
 20
251.4106317526
 11
39.662891497
 21
251.4106317526
  0
LINE
  5
28E
100
AcDbEntity
  8
0
100
AcDbLine
 62
7
  6
BYLAYER
 10
39.662891497
 20
251.6802801901
 11
39.762891497
 21
251.6802801901
  0
LINE
  5
28F
100
AcDbEntity
  8
0
100
AcDbLine
 62
7
  6
BYLAYER
 10
59.0675788657
 20
252.1966083375
 11
60.0066416327
 21
252.1966083374
  0
LINE
  5
290
100
AcDbEntity
  8
0
100
AcDbLine
 62
7
  6
BYLAYER
 10
270.3675789952
 20
252.1966083149
 11
271.3066414973
 21
252.1966083148
  0
LINE
  5
291
100
AcDbEntity
  8
0
100
AcDbLine
 62
7
  6
BYLAYER
 10
275.9238290063
 20
252.1966083144
 11
276.5105477008
 21
252.1966083144
  0
LINE
  5
292
100
AcDbEntity
  8
0
100
AcDbLine
 62
7
  6
BYLAYER
 10
39.662891497
 20
252.2051630031
 11
39.762891497
 21
252.2051630031
  0
LINE
  5
293
100
AcDbEntity
  8
0
100
AcDbLine
 62
7
  6
BYLAYER
 10
39.662891497
 20
252.338053628
 11
39.762891497
 21
252.338053628
  0
LINE
  5
294
100
AcDbEntity
  8
0
100
AcDbLine
 62
7
  6
BYLAYER
 10
163.0316936515
 20
260.1966083151
 11
160.7222925733
 21
264.1966083151
  0
LINE
  5
295
100
AcDbEntity
  8
0
100
AcDbLine
 62
7
  6
BYLAYER
 10
185.462891497
 20
182.1966083151
 11
185.462891497
 21
183.1966083151
  0
LINE
  5
296
100
AcDbEntity
  8
0
100
AcDbLine
 62
7
  6
BYLAYER
 10
190.462891497
 20
183.1966083151
 11
190.462891497
 21
182.1966083151
  0
LINE
  5
297
100
AcDbEntity
  8
0
100
AcDbLine
 62
7
  6
BYLAYER
 10
276.487500872
 20
252.4966083147
 11
276.062891497
 21
252.4966083147
  0
LINE
  5
298
100
AcDbEntity
  8
0
100
AcDbLine
 62
7
  6
BYLAYER
 10
39.662891497
 20
252.5191083152
 11
39.762891497
 21
252.5191083152
  0
LINE
  5
299
100
AcDbEntity
  8
0
100
AcDbLine
 62
7
  6
BYLAYER
 10
271.3066414989
 20
252.5216083156
 11
270.512891497
 21
252.521608315
  0
LINE
  5
29A
100
AcDbEntity
  8
0
100
AcDbLine
 62
7
  6
BYLAYER
 10
60.0066423348
 20
252.521608172
 11
59.212891497
 21
252.5216081714
  0
LINE
  5
29B
100
AcDbEntity
  8
0
100
AcDbLine
 62
7
  6
BYLAYER
 10
64.7300789962
 20
252.6466083147
 11
65.5078133708
 21
252.6466083147
  0
LINE
  5
29C
100
AcDbEntity
  8
0
100
AcDbLine
 62
7
  6
BYLAYER
 10
39.662891497
 20
252.6991083158
 11
39.762891497
 21
252.6991083158
  0
LINE
  5
29D
100
AcDbEntity
  8
0
100
AcDbLine
 62
7
  6
BYLAYER
 10
39.662891497
 20
252.8348114401
 11
39.762891497
 21
252.8348114401
  0
LINE
  5
29E
100
AcDbEntity
  8
0
100
AcDbLine
 62
7
  6
BYLAYER
 10
155.731641495
 20
252.9216083149
 11
156.0378914972
 21
252.9216083151
  0
LINE
  5
29F
100
AcDbEntity
  8
0
100
AcDbLine
 62
7
  6
BYLAYER
 10
64.831641497
 20
252.9466083156
 11
65.403516497
 21
252.9466083156
  0
LINE
  5
2A0
100
AcDbEntity
  8
0
100
AcDbLine
 62
7
  6
BYLAYER
 10
157.1628914979
 20
252.9466083156
 11
157.5160164964
 21
252.9466083156
  0
LINE
  5
2A1
100
AcDbEntity
  8
0
100
AcDbLine
 62
7
  6
BYLAYER
 10
39.662891497
 20
252.9691083152
 11
39.762891497
 21
252.9691083152
  0
LINE
  5
2A2
100
AcDbEntity
  8
0
100
AcDbLine
 62
7
  6
BYLAYER
 10
39.662891497
 20
253.0141083142
 11
39.762891497
 21
253.0141083142
  0
LINE
  5
2A3
100
AcDbEntity
  8
0
100
AcDbLine
 62
7
  6
BYLAYER
 10
158.9628914965
 20
253.0216083148
 11
159.0980477479
 21
253.0216083148
  0
LINE
  5
2A4
100
AcDbEntity
  8
0
100
AcDbLine
 62
7
  6
BYLAYER
 10
276.062891497
 20
253.0466083154
 11
276.474219621
 21
253.0466083154
  0
LINE
  5
2A5
100
AcDbEntity
  8
0
100
AcDbLine
 62
7
  6
BYLAYER
 10
156.1238290056
 20
253.221608315
 11
155.6812508723
 21
253.2216083154
  0
LINE
  5
2A6
100
AcDbEntity
  8
0
100
AcDbLine
 62
7
  6
BYLAYER
 10
157.4226571229
 20
253.2466083145
 11
157.1628914979
 21
253.2466083145
  0
LINE
  5
2A7
100
AcDbEntity
  8
0
100
AcDbLine
 62
7
  6
BYLAYER
 10
159.3085946215
 20
253.2966083151
 11
158.9628914965
 21
253.2966083151
  0
LINE
  5
2A8
100
AcDbEntity
  8
0
100
AcDbLine
 62
7
  6
BYLAYER
 10
276.425000872
 20
253.3216083158
 11
276.062891497
 21
253.3216083158
  0
LINE
  5
2A9
100
AcDbEntity
  8
0
100
AcDbLine
 62
7
  6
BYLAYER
 10
40.962891497
 20
253.3566083151
 11
41.962891497
 21
253.3566083151
  0
LINE
  5
2AA
100
AcDbEntity
  8
0
100
AcDbLine
 62
7
  6
BYLAYER
 10
291.562891497
 20
253.3566083151
 11
292.562891497
 21
253.3566083151
  0
LINE
  5
2AB
100
AcDbEntity
  8
0
100
AcDbLine
 62
7
  6
BYLAYER
 10
157.1628914979
 20
253.8216083158
 11
157.4226571182
 21
253.8216083158
  0
LINE
  5
2AC
100
AcDbEntity
  8
0
100
AcDbLine
 62
7
  6
BYLAYER
 10
158.9628914965
 20
253.8216083158
 11
159.3191414816
 21
253.8216083158
  0
LINE
  5
2AD
100
AcDbEntity
  8
0
100
AcDbLine
 62
7
  6
BYLAYER
 10
276.062891497
 20
253.8216083158
 11
276.383985247
 21
253.8216083158
  0
LINE
  5
2AE
100
AcDbEntity
  8
0
100
AcDbLine
 62
7
  6
BYLAYER
 10
276.545703997
 20
254.1216083147
 11
275.923828998
 21
254.1216083147
  0
LINE
  5
2AF
100
AcDbEntity
  8
0
100
AcDbLine
 62
7
  6
BYLAYER
 10
159.4464852366
 20
254.1216083147
 11
158.8230477493
 21
254.1216083147
  0
LINE
  5
2B0
100
AcDbEntity
  8
0
100
AcDbLine
 62
7
  6
BYLAYER
 10
157.5195321139
 20
254.1216083147
 11
157.0296883726
 21
254.1216083147
  0
LINE
  5
2B1
100
AcDbEntity
  8
0
100
AcDbLine
 62
7
  6
BYLAYER
 10
37.692891497
 20
255.0265805901
 11
39.762891497
 21
255.0265805901
  0
LINE
  5
2B2
100
AcDbEntity
  8
0
100
AcDbLine
 62
7
  6
BYLAYER
 10
35.212891497
 20
255.3966083151
 11
37.692891497
 21
255.3966083151
  0
LINE
  5
2B3
100
AcDbEntity
  8
0
100
AcDbLine
 62
7
  6
BYLAYER
 10
58.8034904211
 20
256.1966083151
 11
63.422292573
 21
256.1966083151
  0
LINE
  5
2B4
100
AcDbEntity
  8
0
100
AcDbLine
 62
7
  6
BYLAYER
 10
156.1034904207
 20
256.1966083151
 11
160.7222925733
 21
256.1966083151
  0
LINE
  5
2B5
100
AcDbEntity
  8
0
100
AcDbLine
 62
7
  6
BYLAYER
 10
270.1034904211
 20
256.1966083151
 11
274.722292573
 21
256.1966083151
  0
LINE
  5
2B6
100
AcDbEntity
  8
0
100
AcDbLine
 62
7
  6
BYLAYER
 10
37.692891497
 20
257.3966083151
 11
35.212891497
 21
257.3966083151
  0
LINE
  5
2B7
100
AcDbEntity
  8
0
100
AcDbLine
 62
7
  6
BYLAYER
 10
37.692891497
 20
257.5665805901
 11
39.762891497
 21
257.5665805901
  0
LINE
  5
2B8
100
AcDbEntity
  8
0
100
AcDbLine
 62
7
  6
BYLAYER
 10
39.6618396216
 20
258.4965805901
 11
39.7639433724
 21
258.4965805901
  0
LINE
  5
2B9
100
AcDbEntity
  8
0
100
AcDbLine
 62
7
  6
BYLAYER
 10
35.212891497
 20
260.7966083155
 11
39.662891497
 21
260.7966083155
  0
LINE
  5
2BA
100
AcDbEntity
  8
0
100
AcDbLine
 62
7
  6
BYLAYER
 10
39.662891497
 20
260.9965805901
 11
39.762891497
 21
260.9965805901
  0
LINE
  5
2BB
100
AcDbEntity
  8
0
100
AcDbLine
 62
7
  6
BYLAYER
 10
39.662891497
 20
261.4965805901
 11
39.762891497
 21
261.4965805901
  0
LINE
  5
2BC
100
AcDbEntity
  8
0
100
AcDbLine
 62
7
  6
BYLAYER
 10
39.762891497
 20
262.7941083143
 11
35.212891497
 21
262.7966083151
  0
LINE
  5
2BD
100
AcDbEntity
  8
0
100
AcDbLine
 62
7
  6
BYLAYER
 10
39.662891497
 20
263.3555536272
 11
39.762891497
 21
263.3555536272
  0
LINE
  5
2BE
100
AcDbEntity
  8
0
100
AcDbLine
 62
7
  6
BYLAYER
 10
39.662891497
 20
263.9018817524
 11
39.762891497
 21
263.9018817524
  0
LINE
  5
2BF
100
AcDbEntity
  8
0
100
AcDbLine
 62
7
  6
BYLAYER
 10
39.662891497
 20
264.0105145646
 11
39.762891497
 21
264.0105145646
  0
LINE
  5
2C0
100
AcDbEntity
  8
0
100
AcDbLine
 62
7
  6
BYLAYER
 10
39.662891497
 20
264.1729364397
 11
39.762891497
 21
264.1729364397
  0
LINE
  5
2C1
100
AcDbEntity
  8
0
100
AcDbLine
 62
7
  6
BYLAYER
 10
274.722292573
 20
264.1966083151
 11
270.1034904211
 21
264.1966083151
  0
LINE
  5
2C2
100
AcDbEntity
  8
0
100
AcDbLine
 62
7
  6
BYLAYER
 10
160.7222925733
 20
264.1966083151
 11
156.1034904207
 21
264.1966083151
  0
LINE
  5
2C3
100
AcDbEntity
  8
0
100
AcDbLine
 62
7
  6
BYLAYER
 10
63.422292573
 20
264.1966083151
 11
58.8034904211
 21
264.1966083151
  0
LINE
  5
2C4
100
AcDbEntity
  8
0
100
AcDbLine
 62
7
  6
BYLAYER
 10
39.662891497
 20
264.594108315
 11
39.762891497
 21
264.594108315
  0
LINE
  5
2C5
100
AcDbEntity
  8
0
100
AcDbLine
 62
7
  6
BYLAYER
 10
37.762891497
 20
267.0966806612
 11
39.762891497
 21
267.0966806612
  0
LINE
  5
2C6
100
AcDbEntity
  8
0
100
AcDbLine
 62
7
  6
BYLAYER
 10
39.762891497
 20
268.7966806612
 11
37.762891497
 21
268.7966806612
  0
LINE
  5
2C7
100
AcDbEntity
  8
0
100
AcDbLine
 62
7
  6
BYLAYER
 10
40.962891497
 20
270.1966083151
 11
292.562891497
 21
270.1966083151
  0
LINE
  5
2C8
100
AcDbEntity
  8
0
100
AcDbLine
 62
7
  6
BYLAYER
 10
39.662891497
 20
271.1981181841
 11
39.762891497
 21
271.1981181841
  0
LINE
  5
2C9
100
AcDbEntity
  8
0
100
AcDbLine
 62
7
  6
BYLAYER
 10
39.662891497
 20
272.0980181873
 11
39.762891497
 21
272.0980181873
  0
LINE
  5
2CA
100
AcDbEntity
  8
0
100
AcDbLine
 62
7
  6
BYLAYER
 10
39.762891497
 20
272.2296811299
 11
39.662891497
 21
272.2296811299
  0
LINE
  5
2CB
100
AcDbEntity
  8
0
100
AcDbLine
 62
7
  6
BYLAYER
 10
39.662891497
 20
272.6708705011
 11
39.762891497
 21
272.6708705011
  0
LINE
  5
2CC
100
AcDbEntity
  8
0
100
AcDbLine
 62
7
  6
BYLAYER
 10
39.762891497
 20
273.4466083155
 11
39.662891497
 21
273.4466083155
  0
LINE
  5
2CD
100
AcDbEntity
  8
0
100
AcDbLine
 62
7
  6
BYLAYER
 10
39.762891497
 20
275.3716083158
 11
39.662891497
 21
275.3716083158
  0
LINE
  5
2CE
100
AcDbEntity
  8
0
100
AcDbLine
 62
7
  6
BYLAYER
 10
39.762891497
 20
277.0559833151
 11
39.662891497
 21
277.0559833151
  0
LINE
  5
2CF
100
AcDbEntity
  8
0
100
AcDbLine
 62
7
  6
BYLAYER
 10
39.762891497
 20
278.4450458146
 11
39.662891497
 21
278.4450458146
  0
LINE
  5
2D0
100
AcDbEntity
  8
0
100
AcDbLine
 62
7
  6
BYLAYER
 10
39.762891497
 20
278.8100848783
 11
39.662891497
 21
278.8100848783
  0
LINE
  5
2D1
100
AcDbEntity
  8
0
100
AcDbLine
 62
7
  6
BYLAYER
 10
39.762891497
 20
279.2995380025
 11
39.662891497
 21
279.2995380025
  0
LINE
  5
2D2
100
AcDbEntity
  8
0
100
AcDbLine
 62
7
  6
BYLAYER
 10
39.762891497
 20
280.446608315
 11
39.662891497
 21
280.446608315
  0
LINE
  5
2D3
100
AcDbEntity
  8
0
100
AcDbLine
 62
7
  6
BYLAYER
 10
39.762891497
 20
281.0591083146
 11
39.662891497
 21
281.0591083146
  0
LINE
  5
2D4
100
AcDbEntity
  8
0
100
AcDbLine
 62
7
  6
BYLAYER
 10
39.762891497
 20
281.6743426896
 11
39.662891497
 21
281.6743426896
  0
LINE
  5
2D5
100
AcDbEntity
  8
0
100
AcDbLine
 62
7
  6
BYLAYER
 10
39.762891497
 20
282.2841083142
 11
39.662891497
 21
282.2841083142
  0
LINE
  5
2D6
100
AcDbEntity
  8
0
100
AcDbLine
 62
7
  6
BYLAYER
 10
39.762891497
 20
282.3716083143
 11
39.662891497
 21
282.3716083143
  0
LINE
  5
2D7
100
AcDbEntity
  8
0
100
AcDbLine
 62
7
  6
BYLAYER
 10
293.762891497
 20
284.1966083151
 11
39.762891497
 21
284.1966083151
  0
LINE
  5
2D8
100
AcDbEntity
  8
0
100
AcDbLine
 62
7
  6
BYLAYER
 10
42.203658443
 20
284.2966083151
 11
68.0814586802
 21
284.2966083151
  0
LINE
  5
2D9
100
AcDbEntity
  8
0
100
AcDbLine
 62
7
  6
BYLAYER
 10
270.1034904211
 20
264.1966083151
 11
267.794089343
 21
260.1966083151
  0
LINE
  5
2DA
100
AcDbEntity
  8
0
100
AcDbLine
 62
7
  6
BYLAYER
 10
274.722292573
 20
256.1966083151
 11
277.0316936511
 21
260.1966083151
  0
LINE
  5
2DB
100
AcDbEntity
  8
0
100
AcDbLine
 62
7
  6
BYLAYER
 10
249.162891497
 20
182.1966083151
 11
249.162891497
 21
183.1966083151
  0
LINE
  5
2DC
100
AcDbEntity
  8
0
100
AcDbLine
 62
7
  6
BYLAYER
 10
254.162891497
 20
183.1966083151
 11
254.162891497
 21
182.1966083151
  0
LINE
  5
2DD
100
AcDbEntity
  8
0
100
AcDbLine
 62
7
  6
BYLAYER
 10
269.4984383685
 20
253.9032489209
 11
269.2464852473
 21
252.7716083146
  0
LINE
  5
2DE
100
AcDbEntity
  8
0
100
AcDbLine
 62
7
  6
BYLAYER
 10
269.5390633733
 20
252.5184833158
 11
269.8589852473
 21
253.8208270665
  0
LINE
  5
2DF
100
AcDbEntity
  8
0
100
AcDbLine
 62
7
  6
BYLAYER
 10
268.3863290159
 20
253.8305927616
 11
268.1042977474
 21
252.7716083156
  0
LINE
  5
2E0
100
AcDbEntity
  8
0
100
AcDbLine
 62
7
  6
BYLAYER
 10
268.3625008717
 20
252.5098895644
 11
268.6773446218
 21
253.6716083139
  0
LINE
  5
2E1
100
AcDbEntity
  8
0
100
AcDbLine
 62
7
  6
BYLAYER
 10
267.794089343
 20
260.1966083151
 11
270.1034904211
 21
256.1966083151
  0
LINE
  5
2E2
100
AcDbEntity
  8
0
100
AcDbLine
 62
7
  6
BYLAYER
 10
270.137891497
 20
252.4376239408
 11
270.1378914969
 21
253.9333270645
  0
LINE
  5
2E3
100
AcDbEntity
  8
0
100
AcDbLine
 62
7
  6
BYLAYER
 10
270.512891497
 20
252.521608315
 11
270.5128914971
 21
253.933327064
  0
LINE
  5
2E4
100
AcDbEntity
  8
0
100
AcDbLine
 62
7
  6
BYLAYER
 10
272.637891497
 20
252.8716083156
 11
272.637891497
 21
252.8243426909
  0
LINE
  5
2E5
100
AcDbEntity
  8
0
100
AcDbLine
 62
7
  6
BYLAYER
 10
273.337891497
 20
253.419264565
 11
273.3378914971
 21
252.3884051897
  0
LINE
  5
2E6
100
AcDbEntity
  8
0
100
AcDbLine
 62
7
  6
BYLAYER
 10
273.666016497
 20
253.3817645652
 11
273.666016497
 21
253.4247333151
  0
LINE
  5
2E7
100
AcDbEntity
  8
0
100
AcDbLine
 62
7
  6
BYLAYER
 10
273.6878914971
 20
252.3884051901
 11
273.687891497
 21
252.835670813
  0
LINE
  5
2E8
100
AcDbEntity
  8
0
100
AcDbLine
 62
7
  6
BYLAYER
 10
274.262891498
 20
252.3884051898
 11
274.2628914976
 21
252.9833270655
  0
LINE
  5
2E9
100
AcDbEntity
  8
0
100
AcDbLine
 62
7
  6
BYLAYER
 10
274.612891497
 20
252.388405183
 11
274.6128914971
 21
253.0524676868
  0
LINE
  5
2EA
100
AcDbEntity
  8
0
100
AcDbLine
 62
7
  6
BYLAYER
 10
275.687891497
 20
253.8825458154
 11
275.687891497
 21
252.4356708151
  0
LINE
  5
2EB
100
AcDbEntity
  8
0
100
AcDbLine
 62
7
  6
BYLAYER
 10
276.062891497
 20
252.4966083147
 11
276.062891497
 21
253.0466083154
  0
LINE
  5
2EC
100
AcDbEntity
  8
0
100
AcDbLine
 62
7
  6
BYLAYER
 10
276.062891497
 20
253.3216083158
 11
276.062891497
 21
253.8216083158
  0
LINE
  5
2ED
100
AcDbEntity
  8
0
100
AcDbLine
 62
7
  6
BYLAYER
 10
277.0316936511
 20
260.1966083151
 11
274.722292573
 21
264.1966083151
  0
LINE
  5
2EE
100
AcDbEntity
  8
0
100
AcDbLine
 62
7
  6
BYLAYER
 10
269.2464852473
 20
252.7716083146
 11
268.9621102448
 21
253.8305926979
  0
LINE
  5
2EF
100
AcDbEntity
  8
0
100
AcDbLine
 62
7
  6
BYLAYER
 10
268.6773446218
 20
253.6716083139
 11
268.9882821169
 21
252.5098895863
  0
LINE
  5
2F0
100
AcDbEntity
  8
0
100
AcDbLine
 62
7
  6
BYLAYER
 10
267.4917977401
 20
253.8208270909
 11
267.8117196133
 21
252.5184833487
  0
LINE
  5
2F1
100
AcDbEntity
  8
0
100
AcDbLine
 62
7
  6
BYLAYER
 10
268.1042977474
 20
252.7716083156
 11
267.8523446262
 21
253.9032489238
  0
LINE
  5
2F2
100
AcDbEntity
  8
0
100
AcDbLine
 62
7
  6
BYLAYER
 10
291.562891497
 20
196.3566083151
 11
291.562891497
 21
201.3566083151
  0
LINE
  5
2F3
100
AcDbEntity
  8
0
100
AcDbLine
 62
7
  6
BYLAYER
 10
291.562891497
 20
206.3566083151
 11
291.562891497
 21
211.3566083151
  0
LINE
  5
2F4
100
AcDbEntity
  8
0
100
AcDbLine
 62
7
  6
BYLAYER
 10
291.562891497
 20
238.3566083151
 11
291.562891497
 21
243.3566083151
  0
LINE
  5
2F5
100
AcDbEntity
  8
0
100
AcDbLine
 62
7
  6
BYLAYER
 10
291.562891497
 20
248.3566083151
 11
291.562891497
 21
253.3566083151
  0
LINE
  5
2F6
100
AcDbEntity
  8
0
100
AcDbLine
 62
7
  6
BYLAYER
 10
292.562891497
 20
270.1966083151
 11
292.562891497
 21
182.1966083151
  0
LINE
  5
2F7
100
AcDbEntity
  8
0
100
AcDbLine
 62
7
  6
BYLAYER
 10
293.762891497
 20
180.9966083151
 11
293.762891497
 21
284.1966083151
  0
ARC
  5
2F8
100
AcDbEntity
  8
0
100
AcDbCircle
 62
7
  6
BYLAYER
 10
38.451882259
 20
253.0245884885
 40
23.2387919747
100
AcDbArc
 50
359.1133111967
 51
0.1168916267
  0
CIRCLE
  5
2F9
100
AcDbEntity
  8
0
100
AcDbCircle
 62
7
  6
BYLAYER
 10
61.112891497
 20
260.1966083151
 40
5.75
  0
CIRCLE
  5
2FA
100
AcDbEntity
  8
0
100
AcDbCircle
 62
7
  6
BYLAYER
 10
61.112891497
 20
260.1966083151
 40
5.0999999996
  0
CIRCLE
  5
2FB
100
AcDbEntity
  8
0
100
AcDbCircle
 62
7
  6
BYLAYER
 10
61.112891497
 20
260.1966083151
 40
3.05
  0
CIRCLE
  5
2FC
100
AcDbEntity
  8
0
100
AcDbCircle
 62
7
  6
BYLAYER
 10
61.112891497
 20
260.1966083151
 40
2.45
  0
CIRCLE
  5
2FD
100
AcDbEntity
  8
0
100
AcDbCircle
 62
7
  6
BYLAYER
 10
61.112891497
 20
260.1966083151
 40
0.4499999993
  0
ARC
  5
2FE
100
AcDbEntity
  8
0
100
AcDbCircle
 62
7
  6
BYLAYER
 10
249.7518822593
 20
253.0245884885
 40
23.2387919741
100
AcDbArc
 50
359.1133112039
 51
0.1168916358
  0
ARC
  5
2FF
100
AcDbEntity
  8
0
100
AcDbCircle
 62
7
  6
BYLAYER
 10
276.778450097
 20
252.7341092105
 40
0.5095074253
100
AcDbArc
 50
293.0727519887
 51
0.9224074302
  0
ARC
  5
300
100
AcDbEntity
  8
0
100
AcDbCircle
 62
7
  6
BYLAYER
 10
276.730404175
 20
253.6344674536
 40
0.465691051
100
AcDbArc
 50
359.9535591783
 51
59.7731537473
  0
ARC
  5
301
100
AcDbEntity
  8
0
100
AcDbCircle
 62
7
  6
BYLAYER
 10
159.4956862405
 20
253.568250207
 40
0.242279981
100
AcDbArc
 50
358.5769440924
 51
68.1293952248
  0
ARC
  5
302
100
AcDbEntity
  8
0
100
AcDbCircle
 62
7
  6
BYLAYER
 10
276.576939302
 20
253.5760768832
 40
0.2332365175
100
AcDbArc
 50
328.6727946636
 51
0.7255145997
  0
CIRCLE
  5
303
100
AcDbEntity
  8
0
100
AcDbCircle
 62
7
  6
BYLAYER
 10
272.412891497
 20
260.1966083151
 40
5.75
  0
CIRCLE
  5
304
100
AcDbEntity
  8
0
100
AcDbCircle
 62
7
  6
BYLAYER
 10
158.412891497
 20
260.1966083151
 40
5.75
  0
CIRCLE
  5
305
100
AcDbEntity
  8
0
100
AcDbCircle
 62
7
  6
BYLAYER
 10
158.412891497
 20
260.1966083151
 40
5.1
  0
CIRCLE
  5
306
100
AcDbEntity
  8
0
100
AcDbCircle
 62
7
  6
BYLAYER
 10
272.412891497
 20
260.1966083151
 40
5.0999999996
  0
CIRCLE
  5
307
100
AcDbEntity
  8
0
100
AcDbCircle
 62
7
  6
BYLAYER
 10
158.412891497
 20
260.1966083151
 40
3.05
  0
CIRCLE
  5
308
100
AcDbEntity
  8
0
100
AcDbCircle
 62
7
  6
BYLAYER
 10
272.412891497
 20
260.1966083151
 40
3.05
  0
CIRCLE
  5
309
100
AcDbEntity
  8
0
100
AcDbCircle
 62
7
  6
BYLAYER
 10
158.412891497
 20
260.1966083151
 40
2.45
  0
CIRCLE
  5
30A
100
AcDbEntity
  8
0
100
AcDbCircle
 62
7
  6
BYLAYER
 10
272.412891497
 20
260.1966083151
 40
2.45
  0
CIRCLE
  5
30B
100
AcDbEntity
  8
0
100
AcDbCircle
 62
7
  6
BYLAYER
 10
158.412891497
 20
260.1966083151
 40
0.4499999993
  0
CIRCLE
  5
30C
100
AcDbEntity
  8
0
100
AcDbCircle
 62
7
  6
BYLAYER
 10
272.412891497
 20
260.1966083151
 40
0.4499999993
  0
SPLINE
  5
30D
100
AcDbEntity
  8
0
100
AcDbSpline
 62
7
  6
BYLAYER
 70
0
 71
3
 72
9
 73
5
 74
0
 42
0.0000001
 43
0.0000001
 44
0.0000000001
 40
0.0
 40
0.0
 40
0.0
 40
0.0
 40
0.8078637646
 40
1.0
 40
1.0
 40
1.0
 40
1.0
 10
269.8589852473
 20
253.8208270665
 30
0.0
 10
269.8701157155
 20
253.8687001052
 30
0.0
 10
269.8835796127
 20
253.9201804119
 30
0.0
 10
269.8873274937
 20
253.9818051841
 30
0.0
 10
269.887891497
 20
253.9934833143
 30
0.0
  0
SPLINE
  5
30E
100
AcDbEntity
  8
0
100
AcDbSpline
 62
7
  6
BYLAYER
 70
0
 71
3
 72
10
 73
6
 74
0
 42
0.0000001
 43
0.0000001
 44
0.0000000001
 40
0.0
 40
0.0
 40
0.0
 40
0.0
 40
0.3066472442
 40
0.9157857095
 40
1.0
 40
1.0
 40
1.0
 40
1.0
 10
269.887891497
 20
253.9934833143
 30
0.0
 10
269.8868362237
 20
254.0123948361
 30
0.0
 10
269.8815408198
 20
254.0694644579
 30
0.0
 10
269.8403264122
 20
254.1216492997
 30
0.0
 10
269.8038980592
 20
254.1449516287
 30
0.0
 10
269.79937055
 20
254.1475758067
 30
0.0
  0
SPLINE
  5
30F
100
AcDbEntity
  8
0
100
AcDbSpline
 62
7
  6
BYLAYER
 70
0
 71
3
 72
9
 73
5
 74
0
 42
0.0000001
 43
0.0000001
 44
0.0000000001
 40
0.0
 40
0.0
 40
0.0
 40
0.0
 40
0.4205199729
 40
1.0
 40
1.0
 40
1.0
 40
1.0
 10
269.79937055
 20
254.1475758067
 30
0.0
 10
269.7874111829
 20
254.1545075448
 30
0.0
 10
269.7572636945
 20
254.1675713747
 30
0.0
 10
269.7243990697
 20
254.1708248384
 30
0.0
 10
269.705469623
 20
254.1716083157
 30
0.0
  0
SPLINE
  5
310
100
AcDbEntity
  8
0
100
AcDbSpline
 62
7
  6
BYLAYER
 70
0
 71
3
 72
12
 73
8
 74
0
 42
0.0000001
 43
0.0000001
 44
0.0000000001
 40
0.0
 40
0.0
 40
0.0
 40
0.0
 40
0.2982715185
 40
0.4603941061
 40
0.6606738297
 40
0.8613427161
 40
1.0
 40
1.0
 40
1.0
 40
1.0
 10
269.705469623
 20
254.1716083157
 30
0.0
 10
269.6682176997
 20
254.1704456995
 30
0.0
 10
269.6076620242
 20
254.1579702898
 30
0.0
 10
269.553400905
 20
254.0924527016
 30
0.0
 10
269.5264008915
 20
254.0273052765
 30
0.0
 10
269.5110464003
 20
253.961547468
 30
0.0
 10
269.5019787503
 20
253.9201933391
 30
0.0
 10
269.4984383691
 20
253.9032489208
 30
0.0
  0
SPLINE
  5
311
100
AcDbEntity
  8
0
100
AcDbSpline
 62
7
  6
BYLAYER
 70
0
 71
3
 72
13
 73
9
 74
0
 42
0.0000001
 43
0.0000001
 44
0.0000000001
 40
0.0
 40
0.0
 40
0.0
 40
0.0
 40
0.200229422
 40
0.4004482554
 40
0.6000848316
 40
0.7001712047
 40
0.861723777
 40
1.0
 40
1.0
 40
1.0
 40
1.0
 10
268.9621102449
 20
253.8305926979
 30
0.0
 10
268.9535724488
 20
253.862164128
 30
0.0
 10
268.9348593403
 20
253.9247098529
 30
0.0
 10
268.9106326588
 20
254.0203269293
 30
0.0
 10
268.8666596462
 20
254.0906108393
 30
0.0
 10
268.8113581583
 20
254.1427302356
 30
0.0
 10
268.7490403499
 20
254.1680807285
 30
0.0
 10
268.6999353794
 20
254.1708012384
 30
0.0
 10
268.677344621
 20
254.1716083157
 30
0.0
  0
SPLINE
  5
312
100
AcDbEntity
  8
0
100
AcDbSpline
 62
7
  6
BYLAYER
 70
0
 71
3
 72
14
 73
10
 74
0
 42
0.0000001
 43
0.0000001
 44
0.0000000001
 40
0.0
 40
0.0
 40
0.0
 40
0.0
 40
0.1000808821
 40
0.2001617643
 40
0.3000974723
 40
0.4618386646
 40
0.6615522176
 40
0.8616970605
 40
1.0
 40
1.0
 40
1.0
 40
1.0
 10
268.677344621
 20
254.1716083157
 30
0.0
 10
268.6608317944
 20
254.1712254902
 30
0.0
 10
268.6277996875
 20
254.1701358427
 30
0.0
 10
268.5793120776
 20
254.1581737196
 30
0.0
 10
268.5255770562
 20
254.1314739359
 30
0.0
 10
268.4703318962
 20
254.0765298387
 30
0.0
 10
268.4308720265
 20
253.9918480799
 30
0.0
 10
268.4065539929
 20
253.9065143671
 30
0.0
 10
268.3921272355
 20
253.8526365485
 30
0.0
 10
268.3863290149
 20
253.8305927618
 30
0.0
  0
SPLINE
  5
313
100
AcDbEntity
  8
0
100
AcDbSpline
 62
7
  6
BYLAYER
 70
0
 71
3
 72
12
 73
8
 74
0
 42
0.0000001
 43
0.0000001
 44
0.0000000001
 40
0.0
 40
0.0
 40
0.0
 40
0.0
 40
0.39523899
 40
0.5969767164
 40
0.6977282266
 40
0.8605649753
 40
1.0
 40
1.0
 40
1.0
 40
1.0
 10
267.8523446257
 20
253.9032489237
 30
0.0
 10
267.8415344534
 20
253.9512902693
 30
0.0
 10
267.8215010594
 20
254.0263594708
 30
0.0
 10
267.790273886
 20
254.1084743036
 30
0.0
 10
267.7486714143
 20
254.1503417748
 30
0.0
 10
267.7004160103
 20
254.1691139868
 30
0.0
 10
267.6626802504
 20
254.1710953157
 30
0.0
 10
267.645313372
 20
254.1716083157
 30
0.0
  0
SPLINE
  5
314
100
AcDbEntity
  8
0
100
AcDbSpline
 62
7
  6
BYLAYER
 70
0
 71
3
 72
12
 73
8
 74
0
 42
0.0000001
 43
0.0000001
 44
0.0000000001
 40
0.0
 40
0.0
 40
0.0
 40
0.0
 40
0.2000045452
 40
0.400024278
 40
0.6000547825
 40
0.8000648755
 40
1.0
 40
1.0
 40
1.0
 40
1.0
 10
267.645313372
 20
254.1716083157
 30
0.0
 10
267.626379592
 20
254.1708122654
 30
0.0
 10
267.5882480849
 20
254.1674681523
 30
0.0
 10
267.5363797235
 20
254.1414833055
 30
0.0
 10
267.4951175638
 20
254.1016405918
 30
0.0
 10
267.4673862458
 20
254.0505794062
 30
0.0
 10
267.4636491464
 20
254.0124192848
 30
0.0
 10
267.462891498
 20
253.9934833143
 30
0.0
  0
SPLINE
  5
315
100
AcDbEntity
  8
0
100
AcDbSpline
 62
7
  6
BYLAYER
 70
0
 71
3
 72
9
 73
5
 74
0
 42
0.0000001
 43
0.0000001
 44
0.0000000001
 40
0.0
 40
0.0
 40
0.0
 40
0.0
 40
0.8001957969
 40
1.0
 40
1.0
 40
1.0
 40
1.0
 10
267.462891498
 20
253.9934833143
 30
0.0
 10
267.4650497897
 20
253.946690788
 30
0.0
 10
267.4751816175
 20
253.8890739423
 30
0.0
 10
267.4890651352
 20
253.8321978337
 30
0.0
 10
267.4917977398
 20
253.8208270909
 30
0.0
  0
SPLINE
  5
316
100
AcDbEntity
  8
0
100
AcDbSpline
 62
7
  6
BYLAYER
 70
0
 71
3
 72
12
 73
8
 74
0
 42
0.0000001
 43
0.0000001
 44
0.0000000001
 40
0.0
 40
0.0
 40
0.0
 40
0.0
 40
0.3921757975
 40
0.5968945778
 40
0.6977467491
 40
0.8605999912
 40
1.0
 40
1.0
 40
1.0
 40
1.0
 10
267.8117196135
 20
252.5184833488
 30
0.0
 10
267.8270412231
 20
252.4570825305
 30
0.0
 10
267.8498266976
 20
252.3549656016
 30
0.0
 10
267.8986729673
 20
252.2563106691
 30
0.0
 10
267.9534470248
 20
252.2025474901
 30
0.0
 10
268.014310836
 20
252.1748988983
 30
0.0
 10
268.0634421847
 20
252.1721166746
 30
0.0
 10
268.085938373
 20
252.1716083158
 30
0.0
  0
SPLINE
  5
317
100
AcDbEntity
  8
0
100
AcDbSpline
 62
7
  6
BYLAYER
 70
0
 71
3
 72
14
 73
10
 74
0
 42
0.0000001
 43
0.0000001
 44
0.0000000001
 40
0.0
 40
0.0
 40
0.0
 40
0.0
 40
0.1000574019
 40
0.2001148037
 40
0.3001425975
 40
0.4001703913
 40
0.5996976886
 40
0.799842407
 40
1.0
 40
1.0
 40
1.0
 40
1.0
 10
268.085938373
 20
252.1716083158
 30
0.0
 10
268.1019557547
 20
252.1721129553
 30
0.0
 10
268.134055063
 20
252.1733224733
 30
0.0
 10
268.1808537576
 20
252.1862540168
 30
0.0
 10
268.2229954885
 20
252.2101874915
 30
0.0
 10
268.269811424
 20
252.2545150207
 30
0.0
 10
268.3104425289
 20
252.3247521772
 30
0.0
 10
268.3356447207
 20
252.4177058263
 30
0.0
 10
268.3536813602
 20
252.4790993625
 30
0.0
 10
268.3625008717
 20
252.5098895644
 30
0.0
  0
SPLINE
  5
318
100
AcDbEntity
  8
0
100
AcDbSpline
 62
7
  6
BYLAYER
 70
0
 71
3
 72
14
 73
10
 74
0
 42
0.0000001
 43
0.0000001
 44
0.0000000001
 40
0.0
 40
0.0
 40
0.0
 40
0.0
 40
0.2001399017
 40
0.4002677171
 40
0.5002934721
 40
0.6003192271
 40
0.7003603358
 40
0.861832605
 40
1.0
 40
1.0
 40
1.0
 40
1.0
 10
268.988282117
 20
252.5098895864
 30
0.0
 10
268.9970661573
 20
252.4790604742
 30
0.0
 10
269.0147496315
 20
252.4174357357
 30
0.0
 10
269.0371809479
 20
252.3405065976
 30
0.0
 10
269.0625907531
 20
252.2812734553
 30
0.0
 10
269.0923466249
 20
252.2430422333
 30
0.0
 10
269.1347049767
 20
252.2031662102
 30
0.0
 10
269.1944125176
 20
252.1753852503
 30
0.0
 10
269.2427005454
 20
252.1722854397
 30
0.0
 10
269.264844622
 20
252.1716083157
 30
0.0
  0
SPLINE
  5
319
100
AcDbEntity
  8
0
100
AcDbSpline
 62
7
  6
BYLAYER
 70
0
 71
3
 72
13
 73
9
 74
0
 42
0.0000001
 43
0.0000001
 44
0.0000000001
 40
0.0
 40
0.0
 40
0.0
 40
0.0
 40
0.1000696937
 40
0.2001393874
 40
0.3000952018
 40
0.4617787869
 40
0.6615517661
 40
1.0
 40
1.0
 40
1.0
 40
1.0
 10
269.264844622
 20
252.1716083157
 30
0.0
 10
269.281157702
 20
252.172085255
 30
0.0
 10
269.3137868158
 20
252.1732443344
 30
0.0
 10
269.3618526025
 20
252.1850473498
 30
0.0
 10
269.4134606985
 20
252.2146586203
 30
0.0
 10
269.4648409596
 20
252.2720932007
 30
0.0
 10
269.5048582962
 20
252.3799563276
 30
0.0
 10
269.5256485765
 20
252.4649916519
 30
0.0
 10
269.5390633733
 20
252.5184833158
 30
0.0
  0
SPLINE
  5
31A
100
AcDbEntity
  8
0
100
AcDbSpline
 62
7
  6
BYLAYER
 70
0
 71
3
 72
11
 73
7
 74
0
 42
0.0000001
 43
0.0000001
 44
0.0000000001
 40
0.0
 40
0.0
 40
0.0
 40
0.0
 40
0.4003847384
 40
0.5009347828
 40
0.8610598671
 40
1.0
 40
1.0
 40
1.0
 40
1.0
 10
270.137891497
 20
252.4376239404
 30
0.0
 10
270.1396284204
 20
252.3864358424
 30
0.0
 10
270.1446344593
 20
252.3194364743
 30
0.0
 10
270.2072945563
 20
252.226588523
 30
0.0
 10
270.2865119402
 20
252.1986595547
 30
0.0
 10
270.3498052588
 20
252.1971335805
 30
0.0
 10
270.3675789952
 20
252.1966083148
 30
0.0
  0
SPLINE
  5
31B
100
AcDbEntity
  8
0
100
AcDbSpline
 62
7
  6
BYLAYER
 70
0
 71
3
 72
11
 73
7
 74
0
 42
0.0000001
 43
0.0000001
 44
0.0000000001
 40
0.0
 40
0.0
 40
0.0
 40
0.0
 40
0.2007810266
 40
0.5991536175
 40
0.7995178356
 40
1.0
 40
1.0
 40
1.0
 40
1.0
 10
271.3066414973
 20
252.1966083148
 30
0.0
 10
271.3257929006
 20
252.1971997266
 30
0.0
 10
271.3828638508
 20
252.1990360609
 30
0.0
 10
271.457381909
 20
252.2328103308
 30
0.0
 10
271.498129197
 20
252.3002099479
 30
0.0
 10
271.502227307
 20
252.3388037918
 30
0.0
 10
271.503125872
 20
252.3579364406
 30
0.0
  0
SPLINE
  5
31C
100
AcDbEntity
  8
0
100
AcDbSpline
 62
7
  6
BYLAYER
 70
0
 71
3
 72
11
 73
7
 74
0
 42
0.0000001
 43
0.0000001
 44
0.0000000001
 40
0.0
 40
0.0
 40
0.0
 40
0.0
 40
0.3082969414
 40
0.6166367567
 40
0.9250021247
 40
1.0
 40
1.0
 40
1.0
 40
1.0
 10
271.503125872
 20
252.3579364406
 30
0.0
 10
271.502233882
 20
252.3771001309
 30
0.0
 10
271.4974528335
 20
252.4157087503
 30
0.0
 10
271.4664640281
 20
252.466022039
 30
0.0
 10
271.4317008838
 20
252.4925223285
 30
0.0
 10
271.4100768614
 20
252.5026760062
 30
0.0
 10
271.4057736439
 20
252.504494744
 30
0.0
  0
SPLINE
  5
31D
100
AcDbEntity
  8
0
100
AcDbSpline
 62
7
  6
BYLAYER
 70
0
 71
3
 72
9
 73
5
 74
0
 42
0.0000001
 43
0.0000001
 44
0.0000000001
 40
0.0
 40
0.0
 40
0.0
 40
0.0
 40
0.430846121
 40
1.0
 40
1.0
 40
1.0
 40
1.0
 10
271.4057736439
 20
252.504494744
 30
0.0
 10
271.3923619109
 20
252.5101631598
 30
0.0
 10
271.3595899572
 20
252.5195400951
 30
0.0
 10
271.3258312866
 20
252.5211017402
 30
0.0
 10
271.306641499
 20
252.5216083158
 30
0.0
  0
SPLINE
  5
31E
100
AcDbEntity
  8
0
100
AcDbSpline
 62
7
  6
BYLAYER
 70
0
 71
3
 72
12
 73
8
 74
0
 42
0.0000001
 43
0.0000001
 44
0.0000000001
 40
0.0
 40
0.0
 40
0.0
 40
0.0
 40
0.2002149106
 40
0.4005065509
 40
0.6003566977
 40
0.8001388446
 40
1.0
 40
1.0
 40
1.0
 40
1.0
 10
270.512891497
 20
253.933327064
 30
0.0
 10
270.5124136004
 20
253.9563213375
 30
0.0
 10
270.5104456421
 20
254.0022510554
 30
0.0
 10
270.4927808268
 20
254.069866491
 30
0.0
 10
270.4530842934
 20
254.1279399852
 30
0.0
 10
270.392609208
 20
254.1651444563
 30
0.0
 10
270.3464024354
 20
254.1706972615
 30
0.0
 10
270.323438372
 20
254.1716083145
 30
0.0
  0
SPLINE
  5
31F
100
AcDbEntity
  8
0
100
AcDbSpline
 62
7
  6
BYLAYER
 70
0
 71
3
 72
12
 73
8
 74
0
 42
0.0000001
 43
0.0000001
 44
0.0000000001
 40
0.0
 40
0.0
 40
0.0
 40
0.0
 40
0.1999877156
 40
0.3998096861
 40
0.5996129923
 40
0.7997723306
 40
1.0
 40
1.0
 40
1.0
 40
1.0
 10
270.323438372
 20
254.1716083145
 30
0.0
 10
270.3007425687
 20
254.1702548245
 30
0.0
 10
270.2546262507
 20
254.1655624274
 30
0.0
 10
270.1959443392
 20
254.1262882708
 30
0.0
 10
270.1578654239
 20
254.068390771
 30
0.0
 10
270.1401617434
 20
254.0016074632
 30
0.0
 10
270.1384734287
 20
253.9560789557
 30
0.0
 10
270.137891497
 20
253.9333270641
 30
0.0
  0
SPLINE
  5
320
100
AcDbEntity
  8
0
100
AcDbSpline
 62
7
  6
BYLAYER
 70
0
 71
3
 72
9
 73
5
 74
0
 42
0.0000001
 43
0.0000001
 44
0.0000000001
 40
0.0
 40
0.0
 40
0.0
 40
0.0
 40
0.5618577598
 40
1.0
 40
1.0
 40
1.0
 40
1.0
 10
273.337891497
 20
252.3884051897
 30
0.0
 10
273.3385960954
 20
252.3676065496
 30
0.0
 10
273.3402802354
 20
252.3304615918
 30
0.0
 10
273.3496920601
 20
252.2944849028
 30
0.0
 10
273.3557609671
 20
252.279346727
 30
0.0
  0
SPLINE
  5
321
100
AcDbEntity
  8
0
100
AcDbSpline
 62
7
  6
BYLAYER
 70
0
 71
3
 72
10
 73
6
 74
0
 42
0.0000001
 43
0.0000001
 44
0.0000000001
 40
0.0
 40
0.0
 40
0.0
 40
0.0
 40
0.0687214058
 40
0.6877939395
 40
1.0
 40
1.0
 40
1.0
 40
1.0
 10
273.3557609671
 20
252.279346727
 30
0.0
 10
273.3574710984
 20
252.2750810054
 30
0.0
 10
273.3761326869
 20
252.2328842698
 30
0.0
 10
273.4272641435
 20
252.180062833
 30
0.0
 10
273.4901672047
 20
252.1726692322
 30
0.0
 10
273.510938373
 20
252.1716083149
 30
0.0
  0
SPLINE
  5
322
100
AcDbEntity
  8
0
100
AcDbSpline
 62
7
  6
BYLAYER
 70
0
 71
3
 72
12
 73
8
 74
0
 42
0.0000001
 43
0.0000001
 44
0.0000000001
 40
0.0
 40
0.0
 40
0.0
 40
0.0
 40
0.1999626028
 40
0.3997794763
 40
0.5996256248
 40
0.79978595
 40
1.0
 40
1.0
 40
1.0
 40
1.0
 10
273.510938373
 20
252.1716083149
 30
0.0
 10
273.5319902364
 20
252.1727376764
 30
0.0
 10
273.5745143186
 20
252.177309646
 30
0.0
 10
273.6301211635
 20
252.2111879722
 30
0.0
 10
273.6679088755
 20
252.2633898205
 30
0.0
 10
273.6854057454
 20
252.325136379
 30
0.0
 10
273.6872559987
 20
252.3673178257
 30
0.0
 10
273.687891497
 20
252.3884051901
 30
0.0
  0
SPLINE
  5
323
100
AcDbEntity
  8
0
100
AcDbSpline
 62
7
  6
BYLAYER
 70
0
 71
3
 72
11
 73
7
 74
0
 42
0.0000001
 43
0.0000001
 44
0.0000000001
 40
0.0
 40
0.0
 40
0.0
 40
0.0
 40
0.4000241464
 40
0.6000501897
 40
0.8000572178
 40
1.0
 40
1.0
 40
1.0
 40
1.0
 10
273.687891497
 20
252.835670813
 30
0.0
 10
273.6880866687
 20
252.8756964235
 30
0.0
 10
273.6888659803
 20
252.9357519368
 30
0.0
 10
273.6937274511
 20
253.0156722876
 30
0.0
 10
273.7003383497
 20
253.0754057961
 30
0.0
 10
273.7091699604
 20
253.1145287971
 30
0.0
 10
273.714844622
 20
253.1337176906
 30
0.0
  0
SPLINE
  5
324
100
AcDbEntity
  8
0
100
AcDbSpline
 62
7
  6
BYLAYER
 70
0
 71
3
 72
12
 73
8
 74
0
 42
0.0000001
 43
0.0000001
 44
0.0000000001
 40
0.0
 40
0.0
 40
0.0
 40
0.0
 40
0.2000203472
 40
0.4000411739
 40
0.600026524
 40
0.8000129763
 40
1.0
 40
1.0
 40
1.0
 40
1.0
 10
273.714844622
 20
253.1337176906
 30
0.0
 10
273.724933057
 20
253.1576168181
 30
0.0
 10
273.7467139662
 20
253.2049451276
 30
0.0
 10
273.797405234
 20
253.2652552944
 30
0.0
 10
273.8610947784
 20
253.3106641462
 30
0.0
 10
273.933631522
 20
253.3414966255
 30
0.0
 10
273.985805182
 20
253.3455389983
 30
0.0
 10
274.011719622
 20
253.3466083156
 30
0.0
  0
SPLINE
  5
325
100
AcDbEntity
  8
0
100
AcDbSpline
 62
7
  6
BYLAYER
 70
0
 71
3
 72
14
 73
10
 74
0
 42
0.0000001
 43
0.0000001
 44
0.0000000001
 40
0.0
 40
0.0
 40
0.0
 40
0.0
 40
0.203021795
 40
0.3029260454
 40
0.3837658846
 40
0.5143636332
 40
0.6147160111
 40
0.7150683891
 40
1.0
 40
1.0
 40
1.0
 40
1.0
 10
274.011719622
 20
253.3466083156
 30
0.0
 10
274.046121767
 20
253.3457195743
 30
0.0
 10
274.0964912546
 20
253.3417197302
 30
0.0
 10
274.1569936867
 20
253.3151070939
 30
0.0
 10
274.1981107184
 20
253.2809481164
 30
0.0
 10
274.2238806746
 20
253.2336977231
 30
0.0
 10
274.2419492002
 20
253.1804477795
 30
0.0
 10
274.259200477
 20
253.1002782272
 30
0.0
 10
274.2624193323
 20
253.0316146667
 30
0.0
 10
274.2628914978
 20
252.9833270877
 30
0.0
  0
SPLINE
  5
326
100
AcDbEntity
  8
0
100
AcDbSpline
 62
7
  6
BYLAYER
 70
0
 71
3
 72
12
 73
8
 74
0
 42
0.0000001
 43
0.0000001
 44
0.0000000001
 40
0.0
 40
0.0
 40
0.0
 40
0.0
 40
0.2002214722
 40
0.4003404566
 40
0.6002776444
 40
0.8000886122
 40
1.0
 40
1.0
 40
1.0
 40
1.0
 10
274.2628914979
 20
252.3884051944
 30
0.0
 10
274.2636031412
 20
252.3674158466
 30
0.0
 10
274.26544833
 20
252.3253772228
 30
0.0
 10
274.283660798
 20
252.2641559026
 30
0.0
 10
274.3210474806
 20
252.2122016045
 30
0.0
 10
274.3756733641
 20
252.1772445142
 30
0.0
 10
274.4180957314
 20
252.1726259552
 30
0.0
 10
274.439063373
 20
252.1716083149
 30
0.0
  0
SPLINE
  5
327
100
AcDbEntity
  8
0
100
AcDbSpline
 62
7
  6
BYLAYER
 70
0
 71
3
 72
12
 73
8
 74
0
 42
0.0000001
 43
0.0000001
 44
0.0000000001
 40
0.0
 40
0.0
 40
0.0
 40
0.0
 40
0.1999439989
 40
0.3997425271
 40
0.5996111947
 40
0.7997783937
 40
1.0
 40
1.0
 40
1.0
 40
1.0
 10
274.439063373
 20
252.1716083149
 30
0.0
 10
274.4599456964
 20
252.1727254101
 30
0.0
 10
274.5022475743
 20
252.1772574816
 30
0.0
 10
274.5565906459
 20
252.2122331484
 30
0.0
 10
274.593628602
 20
252.264235217
 30
0.0
 10
274.6103361231
 20
252.3256749869
 30
0.0
 10
274.6122145128
 20
252.3674893458
 30
0.0
 10
274.6128914978
 20
252.388405183
 30
0.0
  0
SPLINE
  5
328
100
AcDbEntity
  8
0
100
AcDbSpline
 62
7
  6
BYLAYER
 70
0
 71
3
 72
10
 73
6
 74
0
 42
0.0000001
 43
0.0000001
 44
0.0000000001
 40
0.0
 40
0.0
 40
0.0
 40
0.0
 40
0.6114344954
 40
0.8057365955
 40
1.0
 40
1.0
 40
1.0
 40
1.0
 10
274.6128914971
 20
253.0524676868
 30
0.0
 10
274.6122584537
 20
253.1243063705
 30
0.0
 10
274.6140311306
 20
253.2084381122
 30
0.0
 10
274.5862038513
 20
253.3247796758
 30
0.0
 10
274.567845226
 20
253.3665186694
 30
0.0
 10
274.557422746
 20
253.3868426896
 30
0.0
  0
SPLINE
  5
329
100
AcDbEntity
  8
0
100
AcDbSpline
 62
7
  6
BYLAYER
 70
0
 71
3
 72
11
 73
7
 74
0
 42
0.0000001
 43
0.0000001
 44
0.0000000001
 40
0.0
 40
0.0
 40
0.0
 40
0.0
 40
0.1988678686
 40
0.3977918934
 40
0.8009884733
 40
1.0
 40
1.0
 40
1.0
 40
1.0
 10
274.557422746
 20
253.3868426896
 30
0.0
 10
274.5410965927
 20
253.4166777864
 30
0.0
 10
274.5051043431
 20
253.4749038459
 30
0.0
 10
274.3993776434
 20
253.5653650179
 30
0.0
 10
274.2719720294
 20
253.6147619049
 30
0.0
 10
274.1683698387
 20
253.6205111625
 30
0.0
 10
274.134375872
 20
253.621608316
 30
0.0
  0
SPLINE
  5
32A
100
AcDbEntity
  8
0
100
AcDbSpline
 62
7
  6
BYLAYER
 70
0
 71
3
 72
10
 73
6
 74
0
 42
0.0000001
 43
0.0000001
 44
0.0000000001
 40
0.0
 40
0.0
 40
0.0
 40
0.0
 40
0.1966873102
 40
0.6007434494
 40
1.0
 40
1.0
 40
1.0
 40
1.0
 10
274.134375872
 20
253.621608316
 30
0.0
 10
274.0978818137
 20
253.620708751
 30
0.0
 10
273.9853762125
 20
253.6144981578
 30
0.0
 10
273.8151518735
 20
253.5471304912
 30
0.0
 10
273.7126979937
 20
253.4392880262
 30
0.0
 10
273.666016497
 20
253.3817645652
 30
0.0
  0
SPLINE
  5
32B
100
AcDbEntity
  8
0
100
AcDbSpline
 62
7
  6
BYLAYER
 70
0
 71
3
 72
12
 73
8
 74
0
 42
0.0000001
 43
0.0000001
 44
0.0000000001
 40
0.0
 40
0.0
 40
0.0
 40
0.0
 40
0.3992616581
 40
0.5993684838
 40
0.6996262166
 40
0.7998839495
 40
1.0
 40
1.0
 40
1.0
 40
1.0
 10
273.666016497
 20
253.4247333151
 30
0.0
 10
273.6647290287
 20
253.4631047431
 30
0.0
 10
273.6569362895
 20
253.5226020831
 30
0.0
 10
273.6152749236
 20
253.5774125265
 30
0.0
 10
273.5843597355
 20
253.6007235859
 30
0.0
 10
273.5490472608
 20
253.6169486839
 30
0.0
 10
273.5200053277
 20
253.6207098597
 30
0.0
 10
273.500782121
 20
253.621608316
 30
0.0
  0
SPLINE
  5
32C
100
AcDbEntity
  8
0
100
AcDbSpline
 62
7
  6
BYLAYER
 70
0
 71
3
 72
11
 73
7
 74
0
 42
0.0000001
 43
0.0000001
 44
0.0000000001
 40
0.0
 40
0.0
 40
0.0
 40
0.0
 40
0.2005374436
 40
0.4008861604
 40
0.7991995087
 40
1.0
 40
1.0
 40
1.0
 40
1.0
 10
273.500782121
 20
253.621608316
 30
0.0
 10
273.4811412244
 20
253.6207429433
 30
0.0
 10
273.4415013249
 20
253.6170551286
 30
0.0
 10
273.3717900374
 20
253.5753714684
 30
0.0
 10
273.3403099975
 20
253.4972975512
 30
0.0
 10
273.3384569637
 20
253.4389245761
 30
0.0
 10
273.337891497
 20
253.419264565
 30
0.0
  0
SPLINE
  5
32D
100
AcDbEntity
  8
0
100
AcDbSpline
 62
7
  6
BYLAYER
 70
0
 71
3
 72
11
 73
7
 74
0
 42
0.0000001
 43
0.0000001
 44
0.0000000001
 40
0.0
 40
0.0
 40
0.0
 40
0.0
 40
0.2004427499
 40
0.4609856498
 40
0.8612554179
 40
1.0
 40
1.0
 40
1.0
 40
1.0
 10
155.5078133724
 20
253.0696551902
 30
0.0
 10
155.5087716408
 20
253.0492733372
 30
0.0
 10
155.5121450658
 20
253.0006796529
 30
0.0
 10
155.5791145909
 20
252.9340242664
 30
0.0
 10
155.6630431512
 20
252.9231195944
 30
0.0
 10
155.717534851
 20
252.9218511383
 30
0.0
 10
155.731641495
 20
252.9216083148
 30
0.0
  0
SPLINE
  5
32E
100
AcDbEntity
  8
0
100
AcDbSpline
 62
7
  6
BYLAYER
 70
0
 71
3
 72
10
 73
6
 74
0
 42
0.0000001
 43
0.0000001
 44
0.0000000001
 40
0.0
 40
0.0
 40
0.0
 40
0.0
 40
0.3901084487
 40
0.8048944821
 40
1.0
 40
1.0
 40
1.0
 40
1.0
 10
156.0378914968
 20
252.6083270657
 30
0.0
 10
155.9755020423
 20
252.5764102545
 30
0.0
 10
155.8386799392
 20
252.5140724258
 30
0.0
 10
155.6830134758
 20
252.477075912
 30
0.0
 10
155.5709846769
 20
252.4723181444
 30
0.0
 10
155.5359383719
 20
252.4716083156
 30
0.0
  0
SPLINE
  5
32F
100
AcDbEntity
  8
0
100
AcDbSpline
 62
7
  6
BYLAYER
 70
0
 71
3
 72
11
 73
7
 74
0
 42
0.0000001
 43
0.0000001
 44
0.0000000001
 40
0.0
 40
0.0
 40
0.0
 40
0.0
 40
0.1974071538
 40
0.5274053474
 40
0.8922011122
 40
1.0
 40
1.0
 40
1.0
 40
1.0
 10
155.5359383719
 20
252.4716083156
 30
0.0
 10
155.4655749716
 20
252.4730492651
 30
0.0
 10
155.2746549693
 20
252.4929699546
 30
0.0
 10
155.0186262431
 20
252.6914225394
 30
0.0
 10
154.9429142736
 20
252.9745646692
 30
0.0
 10
154.938446945
 20
253.1429525272
 30
0.0
 10
154.937891497
 20
253.1813739399
 30
0.0
  0
SPLINE
  5
330
100
AcDbEntity
  8
0
100
AcDbSpline
 62
7
  6
BYLAYER
 70
0
 71
3
 72
12
 73
8
 74
0
 42
0.0000001
 43
0.0000001
 44
0.0000000001
 40
0.0
 40
0.0
 40
0.0
 40
0.0
 40
0.2085179629
 40
0.3871923689
 40
0.7304600964
 40
0.8918175258
 40
1.0
 40
1.0
 40
1.0
 40
1.0
 10
154.937891497
 20
253.1813739399
 30
0.0
 10
154.9388463605
 20
253.2527019544
 30
0.0
 10
154.9460289272
 20
253.3703793914
 30
0.0
 10
155.0267864102
 20
253.6290268391
 30
0.0
 10
155.1813831289
 20
253.7982050499
 30
0.0
 10
155.3974522486
 20
253.8668169595
 30
0.0
 10
155.4884014262
 20
253.8705278389
 30
0.0
 10
155.5253914972
 20
253.8716083159
 30
0.0
  0
SPLINE
  5
331
100
AcDbEntity
  8
0
100
AcDbSpline
 62
7
  6
BYLAYER
 70
0
 71
3
 72
13
 73
9
 74
0
 42
0.0000001
 43
0.0000001
 44
0.0000000001
 40
0.0
 40
0.0
 40
0.0
 40
0.0
 40
0.2035556544
 40
0.401729508
 40
0.6031077752
 40
0.70232635
 40
0.8015449247
 40
1.0
 40
1.0
 40
1.0
 40
1.0
 10
155.5253914972
 20
253.8716083159
 30
0.0
 10
155.5667654084
 20
253.8708628331
 30
0.0
 10
155.6441225271
 20
253.8680186669
 30
0.0
 10
155.7645731023
 20
253.8289106864
 30
0.0
 10
155.8470697336
 20
253.7731019029
 30
0.0
 10
155.9011360048
 20
253.7115741898
 30
0.0
 10
155.9489034263
 20
253.6466787492
 30
0.0
 10
155.9827928099
 20
253.596498766
 30
0.0
 10
156.0046883715
 20
253.5626239395
 30
0.0
  0
SPLINE
  5
332
100
AcDbEntity
  8
0
100
AcDbSpline
 62
7
  6
BYLAYER
 70
0
 71
3
 72
10
 73
6
 74
0
 42
0.0000001
 43
0.0000001
 44
0.0000000001
 40
0.0
 40
0.0
 40
0.0
 40
0.0
 40
0.3996265539
 40
0.7995366497
 40
1.0
 40
1.0
 40
1.0
 40
1.0
 10
156.0046883715
 20
253.5626239395
 30
0.0
 10
156.0188162234
 20
253.5451972643
 30
0.0
 10
156.0499310368
 20
253.5124815511
 30
0.0
 10
156.103201663
 20
253.4894970369
 30
0.0
 10
156.1368189509
 20
253.4872355644
 30
0.0
 10
156.1480477477
 20
253.4864520644
 30
0.0
  0
SPLINE
  5
333
100
AcDbEntity
  8
0
100
AcDbSpline
 62
7
  6
BYLAYER
 70
0
 71
3
 72
11
 73
7
 74
0
 42
0.0000001
 43
0.0000001
 44
0.0000000001
 40
0.0
 40
0.0
 40
0.0
 40
0.0
 40
0.2004641094
 40
0.400967963
 40
0.7994925423
 40
1.0
 40
1.0
 40
1.0
 40
1.0
 10
156.1480477477
 20
253.4864520644
 30
0.0
 10
156.1668743029
 20
253.4872597732
 30
0.0
 10
156.2049338902
 20
253.4907811852
 30
0.0
 10
156.2722535394
 20
253.5262653565
 30
0.0
 10
156.3232784131
 20
253.5885028152
 30
0.0
 10
156.3289598705
 20
253.6453804958
 30
0.0
 10
156.3300789973
 20
253.6641864398
 30
0.0
  0
SPLINE
  5
334
100
AcDbEntity
  8
0
100
AcDbSpline
 62
7
  6
BYLAYER
 70
0
 71
3
 72
15
 73
11
 74
0
 42
0.0000001
 43
0.0000001
 44
0.0000000001
 40
0.0
 40
0.0
 40
0.0
 40
0.0
 40
0.0497254544
 40
0.0994509096
 40
0.1781169809
 40
0.2567830523
 40
0.4547831445
 40
0.6441626861
 40
0.8429517052
 40
1.0
 40
1.0
 40
1.0
 40
1.0
 10
156.3300789973
 20
253.6641864398
 30
0.0
 10
156.3291135837
 20
253.6811300313
 30
0.0
 10
156.3260903038
 20
253.7150646221
 30
0.0
 10
156.3067012347
 20
253.7730163235
 30
0.0
 10
156.2765074125
 20
253.8369517074
 30
0.0
 10
156.2046837414
 20
253.9360718188
 30
0.0
 10
156.0907507245
 20
254.0381331592
 30
0.0
 10
155.9026108383
 20
254.1248480326
 30
0.0
 10
155.7193253862
 20
254.1665320641
 30
0.0
 10
155.6027693509
 20
254.170697987
 30
0.0
 10
155.549219622
 20
254.1716083148
 30
0.0
  0
SPLINE
  5
335
100
AcDbEntity
  8
0
100
AcDbSpline
 62
7
  6
BYLAYER
 70
0
 71
3
 72
13
 73
9
 74
0
 42
0.0000001
 43
0.0000001
 44
0.0000000001
 40
0.0
 40
0.0
 40
0.0
 40
0.0
 40
0.2014576273
 40
0.3448530227
 40
0.4825882687
 40
0.7554222726
 40
0.9063346138
 40
1.0
 40
1.0
 40
1.0
 40
1.0
 10
155.549219622
 20
254.1716083148
 30
0.0
 10
155.4399509807
 20
254.1693537338
 30
0.0
 10
155.2561093836
 20
254.1534323498
 30
0.0
 10
155.0178860918
 20
254.0663853209
 30
0.0
 10
154.7670620504
 20
253.8990982264
 30
0.0
 10
154.6019490093
 20
253.6320395844
 30
0.0
 10
154.543720849
 20
253.355108961
 30
0.0
 10
154.5390227745
 20
253.2224116035
 30
0.0
 10
154.5378914966
 20
253.171608315
 30
0.0
  0
SPLINE
  5
336
100
AcDbEntity
  8
0
100
AcDbSpline
 62
7
  6
BYLAYER
 70
0
 71
3
 72
14
 73
10
 74
0
 42
0.0000001
 43
0.0000001
 44
0.0000000001
 40
0.0
 40
0.0
 40
0.0
 40
0.0
 40
0.202754629
 40
0.3499007068
 40
0.4942103615
 40
0.6425083533
 40
0.78885266
 40
0.9388335519
 40
1.0
 40
1.0
 40
1.0
 40
1.0
 10
154.5378914966
 20
253.171608315
 30
0.0
 10
154.5401888545
 20
253.0637194602
 30
0.0
 10
154.5564268991
 20
252.882659527
 30
0.0
 10
154.649683325
 20
252.6373012601
 30
0.0
 10
154.7891339093
 20
252.4421634389
 30
0.0
 10
154.9661664514
 20
252.3032240316
 30
0.0
 10
155.1842717865
 20
252.2091836398
 30
0.0
 10
155.3860629458
 20
252.1744429641
 30
0.0
 10
155.4971397992
 20
252.1723150303
 30
0.0
 10
155.529688372
 20
252.1716083148
 30
0.0
  0
SPLINE
  5
337
100
AcDbEntity
  8
0
100
AcDbSpline
 62
7
  6
BYLAYER
 70
0
 71
3
 72
10
 73
6
 74
0
 42
0.0000001
 43
0.0000001
 44
0.0000000001
 40
0.0
 40
0.0
 40
0.0
 40
0.0
 40
0.4007557944
 40
0.8035300135
 40
1.0
 40
1.0
 40
1.0
 40
1.0
 10
155.529688372
 20
252.1716083148
 30
0.0
 10
155.628378956
 20
252.1733520126
 30
0.0
 10
155.8213139931
 20
252.1875996616
 30
0.0
 10
156.0486263678
 20
252.2631412634
 30
0.0
 10
156.1816216038
 20
252.3294646986
 30
0.0
 10
156.2246102474
 20
252.3516864394
 30
0.0
  0
SPLINE
  5
338
100
AcDbEntity
  8
0
100
AcDbSpline
 62
7
  6
BYLAYER
 70
0
 71
3
 72
10
 73
6
 74
0
 42
0.0000001
 43
0.0000001
 44
0.0000000001
 40
0.0
 40
0.0
 40
0.0
 40
0.0
 40
0.4072323184
 40
0.8012042544
 40
1.0
 40
1.0
 40
1.0
 40
1.0
 10
156.2246102474
 20
252.3516864394
 30
0.0
 10
156.2639262619
 20
252.3749343326
 30
0.0
 10
156.3416630358
 20
252.4177631757
 30
0.0
 10
156.3870714141
 20
252.529043274
 30
0.0
 10
156.3877261674
 20
252.595405846
 30
0.0
 10
156.3878914964
 20
252.6177020688
 30
0.0
  0
SPLINE
  5
339
100
AcDbEntity
  8
0
100
AcDbSpline
 62
7
  6
BYLAYER
 70
0
 71
3
 72
13
 73
9
 74
0
 42
0.0000001
 43
0.0000001
 44
0.0000000001
 40
0.0
 40
0.0
 40
0.0
 40
0.0
 40
0.2002099661
 40
0.3998499116
 40
0.4999524121
 40
0.661441395
 40
0.8616244612
 40
1.0
 40
1.0
 40
1.0
 40
1.0
 10
156.3878914964
 20
252.9876239397
 30
0.0
 10
156.3870931421
 20
253.0151703725
 30
0.0
 10
156.3852598684
 20
253.0703765388
 30
0.0
 10
156.3607383089
 20
253.1368390788
 30
0.0
 10
156.3169153736
 20
253.1840123263
 30
0.0
 10
156.2584285975
 20
253.2124159609
 30
0.0
 10
156.1893388289
 20
253.2197251702
 30
0.0
 10
156.1428775117
 20
253.2215344499
 30
0.0
 10
156.1238290056
 20
253.2216083155
 30
0.0
  0
SPLINE
  5
33A
100
AcDbEntity
  8
0
100
AcDbSpline
 62
7
  6
BYLAYER
 70
0
 71
3
 72
12
 73
8
 74
0
 42
0.0000001
 43
0.0000001
 44
0.0000000001
 40
0.0
 40
0.0
 40
0.0
 40
0.0
 40
0.2001503511
 40
0.4002299961
 40
0.6002335322
 40
0.8001373849
 40
1.0
 40
1.0
 40
1.0
 40
1.0
 10
155.6812508723
 20
253.2216083155
 30
0.0
 10
155.6639959477
 20
253.2209652855
 30
0.0
 10
155.629381025
 20
253.2189535684
 30
0.0
 10
155.5799818271
 20
253.2006916342
 30
0.0
 10
155.539362569
 20
253.1673597781
 30
0.0
 10
155.5123088411
 20
253.1216772808
 30
0.0
 10
155.5084679568
 20
253.0869064414
 30
0.0
 10
155.5078133724
 20
253.0696551902
 30
0.0
  0
SPLINE
  5
33B
100
AcDbEntity
  8
0
100
AcDbSpline
 62
7
  6
BYLAYER
 70
0
 71
3
 72
14
 73
10
 74
0
 42
0.0000001
 43
0.0000001
 44
0.0000000001
 40
0.0
 40
0.0
 40
0.0
 40
0.0
 40
0.1000777827
 40
0.1810876606
 40
0.2620975385
 40
0.3622234937
 40
0.4623494489
 40
0.8615485453
 40
1.0
 40
1.0
 40
1.0
 40
1.0
 10
160.8378914972
 20
253.6712176903
 30
0.0
 10
160.838601316
 20
253.686488721
 30
0.0
 10
160.8409943473
 20
253.7143588274
 30
0.0
 10
160.8570014163
 20
253.7515722201
 30
0.0
 10
160.8797896561
 20
253.7847039275
 30
0.0
 10
160.9109970509
 20
253.8145526794
 30
0.0
 10
160.9857551311
 20
253.8679356887
 30
0.0
 10
161.0836848712
 20
253.8934926316
 30
0.0
 10
161.1655755997
 20
253.895916354
 30
0.0
 10
161.1867196229
 20
253.8966083145
 30
0.0
  0
SPLINE
  5
33C
100
AcDbEntity
  8
0
100
AcDbSpline
 62
7
  6
BYLAYER
 70
0
 71
3
 72
12
 73
8
 74
0
 42
0.0000001
 43
0.0000001
 44
0.0000000001
 40
0.0
 40
0.0
 40
0.0
 40
0.0
 40
0.1971321575
 40
0.394042494
 40
0.4925956396
 40
0.5911487852
 40
1.0
 40
1.0
 40
1.0
 40
1.0
 10
161.1867196229
 20
253.8966083145
 30
0.0
 10
161.219125647
 20
253.8960376792
 30
0.0
 10
161.2839128062
 20
253.8930872519
 30
0.0
 10
161.3635594651
 20
253.8736630833
 30
0.0
 10
161.4206216976
 20
253.8421893211
 30
0.0
 10
161.494564762
 20
253.7732493037
 30
0.0
 10
161.5331030257
 20
253.7070726417
 30
0.0
 10
161.5625008722
 20
253.6466083145
 30
0.0
  0
SPLINE
  5
33D
100
AcDbEntity
  8
0
100
AcDbSpline
 62
7
  6
BYLAYER
 70
0
 71
3
 72
11
 73
7
 74
0
 42
0.0000001
 43
0.0000001
 44
0.0000000001
 40
0.0
 40
0.0
 40
0.0
 40
0.0
 40
0.4001023328
 40
0.6000114818
 40
0.7998187298
 40
1.0
 40
1.0
 40
1.0
 40
1.0
 10
161.5625008722
 20
253.6466083145
 30
0.0
 10
161.5785940308
 20
253.6210441577
 30
0.0
 10
161.6032314118
 20
253.5828914823
 30
0.0
 10
161.647596249
 20
253.5406138485
 30
0.0
 10
161.6912857623
 20
253.5248251773
 30
0.0
 10
161.7216163444
 20
253.5237877151
 30
0.0
 10
161.7367196218
 20
253.5231708149
 30
0.0
  0
SPLINE
  5
33E
100
AcDbEntity
  8
0
100
AcDbSpline
 62
7
  6
BYLAYER
 70
0
 71
3
 72
11
 73
7
 74
0
 42
0.0000001
 43
0.0000001
 44
0.0000000001
 40
0.0
 40
0.0
 40
0.0
 40
0.0
 40
0.2004830942
 40
0.5989523517
 40
0.7994934183
 40
1.0
 40
1.0
 40
1.0
 40
1.0
 10
161.7367196218
 20
253.5231708149
 30
0.0
 10
161.7549568212
 20
253.5242251989
 30
0.0
 10
161.8104005746
 20
253.5298117881
 30
0.0
 10
161.8679520282
 20
253.5830704453
 30
0.0
 10
161.9011463345
 20
253.6485393854
 30
0.0
 10
161.9048821555
 20
253.6853981343
 30
0.0
 10
161.9058602476
 20
253.703639566
 30
0.0
  0
SPLINE
  5
33F
100
AcDbEntity
  8
0
100
AcDbSpline
 62
7
  6
BYLAYER
 70
0
 71
3
 72
16
 73
12
 74
0
 42
0.0000001
 43
0.0000001
 44
0.0000000001
 40
0.0
 40
0.0
 40
0.0
 40
0.0
 40
0.0497872398
 40
0.0995744795
 40
0.1800901827
 40
0.2606058858
 40
0.361580271
 40
0.4599718693
 40
0.656563625
 40
0.857742863
 40
1.0
 40
1.0
 40
1.0
 40
1.0
 10
161.9058602476
 20
253.703639566
 30
0.0
 10
161.9053526595
 20
253.7189800325
 30
0.0
 10
161.9040179744
 20
253.7497214245
 30
0.0
 10
161.8905758676
 20
253.8038356404
 30
0.0
 10
161.8667023507
 20
253.8643930328
 30
0.0
 10
161.8212992017
 20
253.9326099544
 30
0.0
 10
161.7651197356
 20
253.9932534317
 30
0.0
 10
161.6678448614
 20
254.0696344129
 30
0.0
 10
161.5271663075
 20
254.1343165706
 30
0.0
 10
161.3662588535
 20
254.1675536021
 30
0.0
 10
161.2598406789
 20
254.1708736149
 30
0.0
 10
161.2160164976
 20
254.1716083149
 30
0.0
  0
SPLINE
  5
340
100
AcDbEntity
  8
0
100
AcDbSpline
 62
7
  6
BYLAYER
 70
0
 71
3
 72
17
 73
13
 74
0
 42
0.0000001
 43
0.0000001
 44
0.0000000001
 40
0.0
 40
0.0
 40
0.0
 40
0.0
 40
0.2040967396
 40
0.4030015855
 40
0.4797722341
 40
0.5565428827
 40
0.6291979653
 40
0.7018530479
 40
0.7750346865
 40
0.8482163251
 40
0.9241081628
 40
1.0
 40
1.0
 40
1.0
 40
1.0
 10
161.2160164976
 20
254.1716083149
 30
0.0
 10
161.146607507
 20
254.1699830957
 30
0.0
 10
161.016841158
 20
254.1642360869
 30
0.0
 10
160.8551236969
 20
254.1208954998
 30
0.0
 10
160.7470565278
 20
254.0691111176
 30
0.0
 10
160.6821226991
 20
254.0274042303
 30
0.0
 10
160.6246805954
 20
253.978015061
 30
0.0
 10
160.5764312402
 20
253.9211322518
 30
0.0
 10
160.5371362198
 20
253.8575337018
 30
0.0
 10
160.5084828796
 20
253.787267225
 30
0.0
 10
160.4912686067
 20
253.7123792452
 30
0.0
 10
160.4881672425
 20
253.6607104865
 30
0.0
 10
160.4878914976
 20
253.6348895648
 30
0.0
  0
SPLINE
  5
341
100
AcDbEntity
  8
0
100
AcDbSpline
 62
7
  6
BYLAYER
 70
0
 71
3
 72
14
 73
10
 74
0
 42
0.0000001
 43
0.0000001
 44
0.0000000001
 40
0.0
 40
0.0
 40
0.0
 40
0.0
 40
0.101289292
 40
0.2025785839
 40
0.2956750709
 40
0.3887715579
 40
0.5815360845
 40
0.7757644772
 40
1.0
 40
1.0
 40
1.0
 40
1.0
 10
160.4878914976
 20
253.6348895648
 30
0.0
 10
160.488348817
 20
253.60333882
 30
0.0
 10
160.4923041532
 20
253.5401911875
 30
0.0
 10
160.5155349268
 20
253.4503135255
 30
0.0
 10
160.5571420347
 20
253.3704509737
 30
0.0
 10
160.6325480589
 20
253.2780547179
 30
0.0
 10
160.7516006411
 20
253.1916747625
 30
0.0
 10
160.9412004086
 20
253.1175019941
 30
0.0
 10
161.0712644787
 20
253.0837037827
 30
0.0
 10
161.1390633718
 20
253.066920816
 30
0.0
  0
SPLINE
  5
342
100
AcDbEntity
  8
0
100
AcDbSpline
 62
7
  6
BYLAYER
 70
0
 71
3
 72
14
 73
10
 74
0
 42
0.0000001
 43
0.0000001
 44
0.0000000001
 40
0.0
 40
0.0
 40
0.0
 40
0.0
 40
0.2001823843
 40
0.3827096094
 40
0.5522204086
 40
0.7222536675
 40
0.8132792397
 40
0.9602405624
 40
1.0
 40
1.0
 40
1.0
 40
1.0
 10
161.1390633718
 20
253.066920816
 30
0.0
 10
161.1793095965
 20
253.057735651
 30
0.0
 10
161.2562369089
 20
253.0400777693
 30
0.0
 10
161.366410159
 20
253.0111962958
 30
0.0
 10
161.468016216
 20
252.9745703892
 30
0.0
 10
161.5427407284
 20
252.9240423055
 30
0.0
 10
161.5960915837
 20
252.8576321679
 30
0.0
 10
161.6110038633
 20
252.8002882626
 30
0.0
 10
161.6125151805
 20
252.7618416917
 30
0.0
 10
161.6128914976
 20
252.7536395649
 30
0.0
  0
SPLINE
  5
343
100
AcDbEntity
  8
0
100
AcDbSpline
 62
7
  6
BYLAYER
 70
0
 71
3
 72
15
 73
11
 74
0
 42
0.0000001
 43
0.0000001
 44
0.0000000001
 40
0.0
 40
0.0
 40
0.0
 40
0.0
 40
0.0999930921
 40
0.1809449729
 40
0.2618968538
 40
0.4616154
 40
0.6615013313
 40
0.7615963817
 40
0.8616914321
 40
1.0
 40
1.0
 40
1.0
 40
1.0
 10
161.6128914976
 20
252.7536395649
 30
0.0
 10
161.6125100567
 20
252.7354094294
 30
0.0
 10
161.6094861691
 20
252.7023677737
 30
0.0
 10
161.5936856901
 20
252.6569668279
 30
0.0
 10
161.5597767953
 20
252.6000384335
 30
0.0
 10
161.4933131681
 20
252.5402928058
 30
0.0
 10
161.4100933355
 20
252.501470895
 30
0.0
 10
161.3394782271
 20
252.4829158293
 30
0.0
 10
161.2784184696
 20
252.473559361
 30
0.0
 10
161.2349639394
 20
252.4719141379
 30
0.0
 10
161.2097664964
 20
252.4716083156
 30
0.0
  0
SPLINE
  5
344
100
AcDbEntity
  8
0
100
AcDbSpline
 62
7
  6
BYLAYER
 70
0
 71
3
 72
15
 73
11
 74
0
 42
0.0000001
 43
0.0000001
 44
0.0000000001
 40
0.0
 40
0.0
 40
0.0
 40
0.0
 40
0.2047510556
 40
0.3038636424
 40
0.4029762293
 40
0.6035961281
 40
0.7026811566
 40
0.801766185
 40
0.900883093
 40
1.0
 40
1.0
 40
1.0
 40
1.0
 10
161.2097664964
 20
252.4716083156
 30
0.0
 10
161.1717470257
 20
252.4721728024
 30
0.0
 10
161.1197089977
 20
252.4749246737
 30
0.0
 10
161.0455563713
 20
252.4915823871
 30
0.0
 10
160.9770529565
 20
252.5203597597
 30
0.0
 10
160.9161768042
 20
252.5615144816
 30
0.0
 10
160.8693939439
 20
252.619748198
 30
0.0
 10
160.8405369535
 20
252.6667433564
 30
0.0
 10
160.8148451667
 20
252.7156802689
 30
0.0
 10
160.8004516186
 20
252.7495510044
 30
0.0
 10
160.7933602469
 20
252.7665301904
 30
0.0
  0
SPLINE
  5
345
100
AcDbEntity
  8
0
100
AcDbSpline
 62
7
  6
BYLAYER
 70
0
 71
3
 72
11
 73
7
 74
0
 42
0.0000001
 43
0.0000001
 44
0.0000000001
 40
0.0
 40
0.0
 40
0.0
 40
0.0
 40
0.200349054
 40
0.5999850716
 40
0.7999899104
 40
1.0
 40
1.0
 40
1.0
 40
1.0
 10
160.7933602469
 20
252.7665301904
 30
0.0
 10
160.7872713974
 20
252.7819791389
 30
0.0
 10
160.7682705254
 20
252.8276939591
 30
0.0
 10
160.7303360016
 20
252.8849340456
 30
0.0
 10
160.6710668436
 20
252.9180217448
 30
0.0
 10
160.637686039
 20
252.921771285
 30
0.0
 10
160.6210946222
 20
252.922389566
 30
0.0
  0
SPLINE
  5
346
100
AcDbEntity
  8
0
100
AcDbSpline
 62
7
  6
BYLAYER
 70
0
 71
3
 72
12
 73
8
 74
0
 42
0.0000001
 43
0.0000001
 44
0.0000000001
 40
0.0
 40
0.0
 40
0.0
 40
0.0
 40
0.1999585877
 40
0.3999280661
 40
0.5999856332
 40
0.7999775731
 40
1.0
 40
1.0
 40
1.0
 40
1.0
 10
160.6210946222
 20
252.922389566
 30
0.0
 10
160.6030198072
 20
252.9216196152
 30
0.0
 10
160.5665938122
 20
252.9182796986
 30
0.0
 10
160.5176404536
 20
252.892042084
 30
0.0
 10
160.4801544973
 20
252.8520672644
 30
0.0
 10
160.4554369531
 20
252.8026272643
 30
0.0
 10
160.4520900001
 20
252.7662343478
 30
0.0
 10
160.4511727472
 20
252.7481708145
 30
0.0
  0
SPLINE
  5
347
100
AcDbEntity
  8
0
100
AcDbSpline
 62
7
  6
BYLAYER
 70
0
 71
3
 72
10
 73
6
 74
0
 42
0.0000001
 43
0.0000001
 44
0.0000000001
 40
0.0
 40
0.0
 40
0.0
 40
0.0
 40
0.2494290349
 40
0.4988580698
 40
1.0
 40
1.0
 40
1.0
 40
1.0
 10
160.4511727472
 20
252.7481708145
 30
0.0
 10
160.4521276529
 20
252.7292702218
 30
0.0
 10
160.4539050146
 20
252.6914538346
 30
0.0
 10
160.4702009409
 20
252.6168783692
 30
0.0
 10
160.4914971356
 20
252.5649261511
 30
0.0
 10
160.5089338657
 20
252.5318343994
 30
0.0
  0
SPLINE
  5
348
100
AcDbEntity
  8
0
100
AcDbSpline
 62
7
  6
BYLAYER
 70
0
 71
3
 72
10
 73
6
 74
0
 42
0.0000001
 43
0.0000001
 44
0.0000000001
 40
0.0
 40
0.0
 40
0.0
 40
0.0
 40
0.3378450324
 40
0.6689369359
 40
1.0
 40
1.0
 40
1.0
 40
1.0
 10
160.5089338657
 20
252.5318343994
 30
0.0
 10
160.5266394599
 20
252.4982323925
 30
0.0
 10
160.5682657396
 20
252.4349578448
 30
0.0
 10
160.6448842882
 20
252.3488008359
 30
0.0
 10
160.7071410836
 20
252.3053810949
 30
0.0
 10
160.7386727469
 20
252.2844989402
 30
0.0
  0
SPLINE
  5
349
100
AcDbEntity
  8
0
100
AcDbSpline
 62
7
  6
BYLAYER
 70
0
 71
3
 72
10
 73
6
 74
0
 42
0.0000001
 43
0.0000001
 44
0.0000000001
 40
0.0
 40
0.0
 40
0.0
 40
0.0
 40
0.1955515361
 40
0.6047523737
 40
1.0
 40
1.0
 40
1.0
 40
1.0
 10
160.7386727469
 20
252.2844989402
 30
0.0
 10
160.7672925131
 20
252.2680786967
 30
0.0
 10
160.859715285
 20
252.2208402295
 30
0.0
 10
161.0114460307
 20
252.1813680643
 30
0.0
 10
161.1477990019
 20
252.1728668409
 30
0.0
 10
161.2144539976
 20
252.1716083149
 30
0.0
  0
SPLINE
  5
34A
100
AcDbEntity
  8
0
100
AcDbSpline
 62
7
  6
BYLAYER
 70
0
 71
3
 72
14
 73
10
 74
0
 42
0.0000001
 43
0.0000001
 44
0.0000000001
 40
0.0
 40
0.0
 40
0.0
 40
0.0
 40
0.1924206073
 40
0.3789722373
 40
0.5458176371
 40
0.7031702639
 40
0.7891604804
 40
0.8751506968
 40
1.0
 40
1.0
 40
1.0
 40
1.0
 10
161.2144539976
 20
252.1716083149
 30
0.0
 10
161.2856040226
 20
252.1722782816
 30
0.0
 10
161.4379043901
 20
252.18198226
 30
0.0
 10
161.6373176042
 20
252.2463659729
 30
0.0
 10
161.7944122963
 20
252.3442680076
 30
0.0
 10
161.8925685293
 20
252.4579639376
 30
0.0
 10
161.9477991394
 20
252.5673946681
 30
0.0
 10
161.9807048705
 20
252.6731987972
 30
0.0
 10
161.9868828105
 20
252.7492782045
 30
0.0
 10
161.9878914976
 20
252.795436441
 30
0.0
  0
SPLINE
  5
34B
100
AcDbEntity
  8
0
100
AcDbSpline
 62
7
  6
BYLAYER
 70
0
 71
3
 72
12
 73
8
 74
0
 42
0.0000001
 43
0.0000001
 44
0.0000000001
 40
0.0
 40
0.0
 40
0.0
 40
0.0
 40
0.1965599949
 40
0.3492918185
 40
0.5036794987
 40
0.7006321145
 40
1.0
 40
1.0
 40
1.0
 40
1.0
 10
161.9878914976
 20
252.795436441
 30
0.0
 10
161.9863094264
 20
252.8652654843
 30
0.0
 10
161.9737680152
 20
252.9878457876
 30
0.0
 10
161.876368903
 20
253.1448938655
 30
0.0
 10
161.7324370953
 20
253.2541058845
 30
0.0
 10
161.5138366104
 20
253.3423999673
 30
0.0
 10
161.3729201598
 20
253.3775880165
 30
0.0
 10
161.2695321222
 20
253.4024676895
 30
0.0
  0
SPLINE
  5
34C
100
AcDbEntity
  8
0
100
AcDbSpline
 62
7
  6
BYLAYER
 70
0
 71
3
 72
16
 73
12
 74
0
 42
0.0000001
 43
0.0000001
 44
0.0000000001
 40
0.0
 40
0.0
 40
0.0
 40
0.0
 40
0.2001087568
 40
0.300169893
 40
0.4002310292
 40
0.5002877673
 40
0.6003445054
 40
0.7003108948
 40
0.8002772842
 40
0.9001127645
 40
1.0
 40
1.0
 40
1.0
 40
1.0
 10
161.2695321222
 20
253.4024676895
 30
0.0
 10
161.2340211614
 20
253.4109690062
 30
0.0
 10
161.1809551278
 20
253.4245347391
 30
0.0
 10
161.1101396645
 20
253.4423717139
 30
0.0
 10
161.0574976556
 20
253.4576324798
 30
0.0
 10
161.0059893756
 20
253.4763853328
 30
0.0
 10
160.9565868102
 20
253.5002758934
 30
0.0
 10
160.910127045
 20
253.52954147
 30
0.0
 10
160.8704392791
 20
253.5677494598
 30
0.0
 10
160.8424097274
 20
253.6160975236
 30
0.0
 10
160.8385335154
 20
253.6529808585
 30
0.0
 10
160.8378914972
 20
253.6712176903
 30
0.0
  0
SPLINE
  5
34D
100
AcDbEntity
  8
0
100
AcDbSpline
 62
7
  6
BYLAYER
 70
0
 71
3
 72
9
 73
5
 74
0
 42
0.0000001
 43
0.0000001
 44
0.0000000001
 40
0.0
 40
0.0
 40
0.0
 40
0.0
 40
0.8078637646
 40
1.0
 40
1.0
 40
1.0
 40
1.0
 10
58.5589852473
 20
253.8208270665
 30
0.0
 10
58.5701157155
 20
253.8687001052
 30
0.0
 10
58.5835796127
 20
253.9201804119
 30
0.0
 10
58.5873274937
 20
253.9818051841
 30
0.0
 10
58.587891497
 20
253.9934833143
 30
0.0
  0
SPLINE
  5
34E
100
AcDbEntity
  8
0
100
AcDbSpline
 62
7
  6
BYLAYER
 70
0
 71
3
 72
10
 73
6
 74
0
 42
0.0000001
 43
0.0000001
 44
0.0000000001
 40
0.0
 40
0.0
 40
0.0
 40
0.0
 40
0.3066472442
 40
0.9157857095
 40
1.0
 40
1.0
 40
1.0
 40
1.0
 10
58.587891497
 20
253.9934833143
 30
0.0
 10
58.5868362237
 20
254.0123948361
 30
0.0
 10
58.5815408198
 20
254.0694644579
 30
0.0
 10
58.5403264122
 20
254.1216492997
 30
0.0
 10
58.5038980592
 20
254.1449516287
 30
0.0
 10
58.49937055
 20
254.1475758067
 30
0.0
  0
SPLINE
  5
34F
100
AcDbEntity
  8
0
100
AcDbSpline
 62
7
  6
BYLAYER
 70
0
 71
3
 72
9
 73
5
 74
0
 42
0.0000001
 43
0.0000001
 44
0.0000000001
 40
0.0
 40
0.0
 40
0.0
 40
0.0
 40
0.4205199729
 40
1.0
 40
1.0
 40
1.0
 40
1.0
 10
58.49937055
 20
254.1475758067
 30
0.0
 10
58.4874111829
 20
254.1545075448
 30
0.0
 10
58.4572636945
 20
254.1675713747
 30
0.0
 10
58.4243990697
 20
254.1708248384
 30
0.0
 10
58.405469623
 20
254.1716083157
 30
0.0
  0
SPLINE
  5
350
100
AcDbEntity
  8
0
100
AcDbSpline
 62
7
  6
BYLAYER
 70
0
 71
3
 72
12
 73
8
 74
0
 42
0.0000001
 43
0.0000001
 44
0.0000000001
 40
0.0
 40
0.0
 40
0.0
 40
0.0
 40
0.2982715185
 40
0.4603941061
 40
0.6606738297
 40
0.8613427161
 40
1.0
 40
1.0
 40
1.0
 40
1.0
 10
58.405469623
 20
254.1716083157
 30
0.0
 10
58.3682176997
 20
254.1704456995
 30
0.0
 10
58.3076620242
 20
254.1579702898
 30
0.0
 10
58.253400905
 20
254.0924527016
 30
0.0
 10
58.2264008915
 20
254.0273052765
 30
0.0
 10
58.2110464003
 20
253.961547468
 30
0.0
 10
58.2019787503
 20
253.9201933391
 30
0.0
 10
58.1984383691
 20
253.9032489208
 30
0.0
  0
SPLINE
  5
351
100
AcDbEntity
  8
0
100
AcDbSpline
 62
7
  6
BYLAYER
 70
0
 71
3
 72
13
 73
9
 74
0
 42
0.0000001
 43
0.0000001
 44
0.0000000001
 40
0.0
 40
0.0
 40
0.0
 40
0.0
 40
0.200229422
 40
0.4004482554
 40
0.6000848316
 40
0.7001712047
 40
0.861723777
 40
1.0
 40
1.0
 40
1.0
 40
1.0
 10
57.6621102449
 20
253.8305926979
 30
0.0
 10
57.6535724488
 20
253.862164128
 30
0.0
 10
57.6348593403
 20
253.9247098529
 30
0.0
 10
57.6106326588
 20
254.0203269293
 30
0.0
 10
57.5666596462
 20
254.0906108393
 30
0.0
 10
57.5113581583
 20
254.1427302356
 30
0.0
 10
57.4490403499
 20
254.1680807285
 30
0.0
 10
57.3999353794
 20
254.1708012384
 30
0.0
 10
57.377344621
 20
254.1716083157
 30
0.0
  0
SPLINE
  5
352
100
AcDbEntity
  8
0
100
AcDbSpline
 62
7
  6
BYLAYER
 70
0
 71
3
 72
14
 73
10
 74
0
 42
0.0000001
 43
0.0000001
 44
0.0000000001
 40
0.0
 40
0.0
 40
0.0
 40
0.0
 40
0.1000808821
 40
0.2001617643
 40
0.3000974723
 40
0.4618386646
 40
0.6615522175
 40
0.8616970604
 40
1.0
 40
1.0
 40
1.0
 40
1.0
 10
57.377344621
 20
254.1716083157
 30
0.0
 10
57.3608317944
 20
254.1712254902
 30
0.0
 10
57.3277996875
 20
254.1701358427
 30
0.0
 10
57.2793120776
 20
254.1581737196
 30
0.0
 10
57.2255770562
 20
254.1314739359
 30
0.0
 10
57.1703318962
 20
254.0765298387
 30
0.0
 10
57.1308720265
 20
253.9918480799
 30
0.0
 10
57.1065539929
 20
253.9065143671
 30
0.0
 10
57.0921272355
 20
253.8526365485
 30
0.0
 10
57.0863290149
 20
253.8305927618
 30
0.0
  0
SPLINE
  5
353
100
AcDbEntity
  8
0
100
AcDbSpline
 62
7
  6
BYLAYER
 70
0
 71
3
 72
12
 73
8
 74
0
 42
0.0000001
 43
0.0000001
 44
0.0000000001
 40
0.0
 40
0.0
 40
0.0
 40
0.0
 40
0.3952389891
 40
0.5969767159
 40
0.6977282261
 40
0.8605649751
 40
1.0
 40
1.0
 40
1.0
 40
1.0
 10
56.5523446257
 20
253.9032489237
 30
0.0
 10
56.5415344534
 20
253.9512902691
 30
0.0
 10
56.5215010594
 20
254.0263594711
 30
0.0
 10
56.490273886
 20
254.1084743036
 30
0.0
 10
56.4486714143
 20
254.1503417748
 30
0.0
 10
56.4004160103
 20
254.1691139868
 30
0.0
 10
56.3626802504
 20
254.1710953157
 30
0.0
 10
56.345313372
 20
254.1716083157
 30
0.0
  0
SPLINE
  5
354
100
AcDbEntity
  8
0
100
AcDbSpline
 62
7
  6
BYLAYER
 70
0
 71
3
 72
12
 73
8
 74
0
 42
0.0000001
 43
0.0000001
 44
0.0000000001
 40
0.0
 40
0.0
 40
0.0
 40
0.0
 40
0.2000045452
 40
0.400024278
 40
0.6000547825
 40
0.8000648755
 40
1.0
 40
1.0
 40
1.0
 40
1.0
 10
56.345313372
 20
254.1716083157
 30
0.0
 10
56.326379592
 20
254.1708122654
 30
0.0
 10
56.2882480849
 20
254.1674681523
 30
0.0
 10
56.2363797235
 20
254.1414833055
 30
0.0
 10
56.1951175638
 20
254.1016405918
 30
0.0
 10
56.1673862458
 20
254.0505794062
 30
0.0
 10
56.1636491464
 20
254.0124192848
 30
0.0
 10
56.162891498
 20
253.9934833143
 30
0.0
  0
SPLINE
  5
355
100
AcDbEntity
  8
0
100
AcDbSpline
 62
7
  6
BYLAYER
 70
0
 71
3
 72
9
 73
5
 74
0
 42
0.0000001
 43
0.0000001
 44
0.0000000001
 40
0.0
 40
0.0
 40
0.0
 40
0.0
 40
0.8001957969
 40
1.0
 40
1.0
 40
1.0
 40
1.0
 10
56.162891498
 20
253.9934833143
 30
0.0
 10
56.1650497897
 20
253.946690788
 30
0.0
 10
56.1751816175
 20
253.8890739423
 30
0.0
 10
56.1890651352
 20
253.8321978337
 30
0.0
 10
56.1917977398
 20
253.8208270909
 30
0.0
  0
SPLINE
  5
356
100
AcDbEntity
  8
0
100
AcDbSpline
 62
7
  6
BYLAYER
 70
0
 71
3
 72
12
 73
8
 74
0
 42
0.0000001
 43
0.0000001
 44
0.0000000001
 40
0.0
 40
0.0
 40
0.0
 40
0.0
 40
0.3921757995
 40
0.5968945791
 40
0.6977467501
 40
0.8605999916
 40
1.0
 40
1.0
 40
1.0
 40
1.0
 10
56.5117196135
 20
252.5184833488
 30
0.0
 10
56.5270412231
 20
252.45708253
 30
0.0
 10
56.5498266975
 20
252.3549656024
 30
0.0
 10
56.5986729673
 20
252.2563106691
 30
0.0
 10
56.6534470248
 20
252.2025474902
 30
0.0
 10
56.714310836
 20
252.1748988983
 30
0.0
 10
56.7634421847
 20
252.1721166746
 30
0.0
 10
56.785938373
 20
252.1716083158
 30
0.0
  0
SPLINE
  5
357
100
AcDbEntity
  8
0
100
AcDbSpline
 62
7
  6
BYLAYER
 70
0
 71
3
 72
14
 73
10
 74
0
 42
0.0000001
 43
0.0000001
 44
0.0000000001
 40
0.0
 40
0.0
 40
0.0
 40
0.0
 40
0.1000574019
 40
0.2001148037
 40
0.3001425975
 40
0.4001703913
 40
0.5996976886
 40
0.799842407
 40
1.0
 40
1.0
 40
1.0
 40
1.0
 10
56.785938373
 20
252.1716083158
 30
0.0
 10
56.8019557547
 20
252.1721129553
 30
0.0
 10
56.834055063
 20
252.1733224733
 30
0.0
 10
56.8808537576
 20
252.1862540168
 30
0.0
 10
56.9229954885
 20
252.2101874915
 30
0.0
 10
56.969811424
 20
252.2545150207
 30
0.0
 10
57.0104425289
 20
252.3247521772
 30
0.0
 10
57.0356447207
 20
252.4177058263
 30
0.0
 10
57.0536813602
 20
252.4790993625
 30
0.0
 10
57.0625008717
 20
252.5098895644
 30
0.0
  0
SPLINE
  5
358
100
AcDbEntity
  8
0
100
AcDbSpline
 62
7
  6
BYLAYER
 70
0
 71
3
 72
14
 73
10
 74
0
 42
0.0000001
 43
0.0000001
 44
0.0000000001
 40
0.0
 40
0.0
 40
0.0
 40
0.0
 40
0.2001399017
 40
0.4002677171
 40
0.5002934721
 40
0.6003192271
 40
0.7003603358
 40
0.861832605
 40
1.0
 40
1.0
 40
1.0
 40
1.0
 10
57.688282117
 20
252.5098895864
 30
0.0
 10
57.6970661573
 20
252.4790604742
 30
0.0
 10
57.7147496315
 20
252.4174357357
 30
0.0
 10
57.7371809479
 20
252.3405065976
 30
0.0
 10
57.7625907531
 20
252.2812734553
 30
0.0
 10
57.7923466249
 20
252.2430422333
 30
0.0
 10
57.8347049767
 20
252.2031662102
 30
0.0
 10
57.8944125176
 20
252.1753852503
 30
0.0
 10
57.9427005454
 20
252.1722854397
 30
0.0
 10
57.964844622
 20
252.1716083157
 30
0.0
  0
SPLINE
  5
359
100
AcDbEntity
  8
0
100
AcDbSpline
 62
7
  6
BYLAYER
 70
0
 71
3
 72
13
 73
9
 74
0
 42
0.0000001
 43
0.0000001
 44
0.0000000001
 40
0.0
 40
0.0
 40
0.0
 40
0.0
 40
0.1000696937
 40
0.2001393874
 40
0.3000952018
 40
0.4617787869
 40
0.6615517661
 40
1.0
 40
1.0
 40
1.0
 40
1.0
 10
57.964844622
 20
252.1716083157
 30
0.0
 10
57.981157702
 20
252.172085255
 30
0.0
 10
58.0137868158
 20
252.1732443344
 30
0.0
 10
58.0618526025
 20
252.1850473498
 30
0.0
 10
58.1134606985
 20
252.2146586203
 30
0.0
 10
58.1648409596
 20
252.2720932007
 30
0.0
 10
58.2048582962
 20
252.3799563276
 30
0.0
 10
58.2256485765
 20
252.4649916519
 30
0.0
 10
58.2390633733
 20
252.5184833158
 30
0.0
  0
SPLINE
  5
35A
100
AcDbEntity
  8
0
100
AcDbSpline
 62
7
  6
BYLAYER
 70
0
 71
3
 72
11
 73
7
 74
0
 42
0.0000001
 43
0.0000001
 44
0.0000000001
 40
0.0
 40
0.0
 40
0.0
 40
0.0
 40
0.400384874
 40
0.5009349525
 40
0.8610601589
 40
1.0
 40
1.0
 40
1.0
 40
1.0
 10
58.837891497
 20
252.4376239404
 30
0.0
 10
58.8396284204
 20
252.3864358424
 30
0.0
 10
58.8446344593
 20
252.3194364743
 30
0.0
 10
58.9072945563
 20
252.226588523
 30
0.0
 10
58.9865118954
 20
252.1986595705
 30
0.0
 10
59.0498051728
 20
252.1971335826
 30
0.0
 10
59.0675788651
 20
252.1966083187
 30
0.0
  0
SPLINE
  5
35B
100
AcDbEntity
  8
0
100
AcDbSpline
 62
7
  6
BYLAYER
 70
0
 71
3
 72
11
 73
7
 74
0
 42
0.0000001
 43
0.0000001
 44
0.0000000001
 40
0.0
 40
0.0
 40
0.0
 40
0.0
 40
0.2007806469
 40
0.5991534271
 40
0.7995177403
 40
1.0
 40
1.0
 40
1.0
 40
1.0
 10
60.0066416333
 20
252.196608319
 30
0.0
 10
60.0257929911
 20
252.1971997296
 30
0.0
 10
60.0828638951
 20
252.199036081
 30
0.0
 10
60.157381909
 20
252.2328103308
 30
0.0
 10
60.198129197
 20
252.3002099479
 30
0.0
 10
60.202227307
 20
252.3388037918
 30
0.0
 10
60.203125872
 20
252.3579364406
 30
0.0
  0
SPLINE
  5
35C
100
AcDbEntity
  8
0
100
AcDbSpline
 62
7
  6
BYLAYER
 70
0
 71
3
 72
11
 73
7
 74
0
 42
0.0000001
 43
0.0000001
 44
0.0000000001
 40
0.0
 40
0.0
 40
0.0
 40
0.0
 40
0.3082969467
 40
0.6166367673
 40
0.9250021405
 40
1.0
 40
1.0
 40
1.0
 40
1.0
 10
60.203125872
 20
252.3579364406
 30
0.0
 10
60.202233882
 20
252.3771001309
 30
0.0
 10
60.1974528335
 20
252.4157087503
 30
0.0
 10
60.1664640281
 20
252.466022039
 30
0.0
 10
60.1317008846
 20
252.4925223278
 30
0.0
 10
60.1100768633
 20
252.5026760053
 30
0.0
 10
60.1057736468
 20
252.5044947428
 30
0.0
  0
SPLINE
  5
35D
100
AcDbEntity
  8
0
100
AcDbSpline
 62
7
  6
BYLAYER
 70
0
 71
3
 72
9
 73
5
 74
0
 42
0.0000001
 43
0.0000001
 44
0.0000000001
 40
0.0
 40
0.0
 40
0.0
 40
0.0
 40
0.4308497129
 40
1.0
 40
1.0
 40
1.0
 40
1.0
 10
60.1057736468
 20
252.5044947428
 30
0.0
 10
60.0923619129
 20
252.5101631592
 30
0.0
 10
60.0595902301
 20
252.5195400173
 30
0.0
 10
60.0258318467
 20
252.5211017143
 30
0.0
 10
60.006642338
 20
252.5216082937
 30
0.0
  0
SPLINE
  5
35E
100
AcDbEntity
  8
0
100
AcDbSpline
 62
7
  6
BYLAYER
 70
0
 71
3
 72
12
 73
8
 74
0
 42
0.0000001
 43
0.0000001
 44
0.0000000001
 40
0.0
 40
0.0
 40
0.0
 40
0.0
 40
0.2002149106
 40
0.4005065509
 40
0.6003566977
 40
0.8001388446
 40
1.0
 40
1.0
 40
1.0
 40
1.0
 10
59.212891497
 20
253.933327064
 30
0.0
 10
59.2124136004
 20
253.9563213375
 30
0.0
 10
59.2104456421
 20
254.0022510554
 30
0.0
 10
59.1927808268
 20
254.069866491
 30
0.0
 10
59.1530842934
 20
254.1279399852
 30
0.0
 10
59.092609208
 20
254.1651444563
 30
0.0
 10
59.0464024354
 20
254.1706972615
 30
0.0
 10
59.023438372
 20
254.1716083145
 30
0.0
  0
SPLINE
  5
35F
100
AcDbEntity
  8
0
100
AcDbSpline
 62
7
  6
BYLAYER
 70
0
 71
3
 72
12
 73
8
 74
0
 42
0.0000001
 43
0.0000001
 44
0.0000000001
 40
0.0
 40
0.0
 40
0.0
 40
0.0
 40
0.1999877156
 40
0.3998096861
 40
0.5996129923
 40
0.7997723306
 40
1.0
 40
1.0
 40
1.0
 40
1.0
 10
59.023438372
 20
254.1716083145
 30
0.0
 10
59.0007425687
 20
254.1702548245
 30
0.0
 10
58.9546262507
 20
254.1655624274
 30
0.0
 10
58.8959443392
 20
254.1262882708
 30
0.0
 10
58.8578654239
 20
254.068390771
 30
0.0
 10
58.8401617434
 20
254.0016074632
 30
0.0
 10
58.8384734287
 20
253.9560789557
 30
0.0
 10
58.837891497
 20
253.9333270641
 30
0.0
  0
SPLINE
  5
360
100
AcDbEntity
  8
0
100
AcDbSpline
 62
7
  6
BYLAYER
 70
0
 71
3
 72
9
 73
5
 74
0
 42
0.0000001
 43
0.0000001
 44
0.0000000001
 40
0.0
 40
0.0
 40
0.0
 40
0.0
 40
0.5618577598
 40
1.0
 40
1.0
 40
1.0
 40
1.0
 10
62.037891497
 20
252.3884051897
 30
0.0
 10
62.0385960954
 20
252.3676065496
 30
0.0
 10
62.0402802354
 20
252.3304615918
 30
0.0
 10
62.0496920601
 20
252.2944849028
 30
0.0
 10
62.0557609671
 20
252.279346727
 30
0.0
  0
SPLINE
  5
361
100
AcDbEntity
  8
0
100
AcDbSpline
 62
7
  6
BYLAYER
 70
0
 71
3
 72
10
 73
6
 74
0
 42
0.0000001
 43
0.0000001
 44
0.0000000001
 40
0.0
 40
0.0
 40
0.0
 40
0.0
 40
0.0687214058
 40
0.6877939395
 40
1.0
 40
1.0
 40
1.0
 40
1.0
 10
62.0557609671
 20
252.279346727
 30
0.0
 10
62.0574710984
 20
252.2750810054
 30
0.0
 10
62.0761326869
 20
252.2328842698
 30
0.0
 10
62.1272641435
 20
252.180062833
 30
0.0
 10
62.1901672047
 20
252.1726692322
 30
0.0
 10
62.210938373
 20
252.1716083149
 30
0.0
  0
SPLINE
  5
362
100
AcDbEntity
  8
0
100
AcDbSpline
 62
7
  6
BYLAYER
 70
0
 71
3
 72
12
 73
8
 74
0
 42
0.0000001
 43
0.0000001
 44
0.0000000001
 40
0.0
 40
0.0
 40
0.0
 40
0.0
 40
0.1999626028
 40
0.3997794763
 40
0.5996256248
 40
0.79978595
 40
1.0
 40
1.0
 40
1.0
 40
1.0
 10
62.210938373
 20
252.1716083149
 30
0.0
 10
62.2319902364
 20
252.1727376764
 30
0.0
 10
62.2745143186
 20
252.177309646
 30
0.0
 10
62.3301211635
 20
252.2111879722
 30
0.0
 10
62.3679088755
 20
252.2633898205
 30
0.0
 10
62.3854057454
 20
252.325136379
 30
0.0
 10
62.3872559987
 20
252.3673178257
 30
0.0
 10
62.387891497
 20
252.3884051901
 30
0.0
  0
SPLINE
  5
363
100
AcDbEntity
  8
0
100
AcDbSpline
 62
7
  6
BYLAYER
 70
0
 71
3
 72
11
 73
7
 74
0
 42
0.0000001
 43
0.0000001
 44
0.0000000001
 40
0.0
 40
0.0
 40
0.0
 40
0.0
 40
0.4000241464
 40
0.6000501897
 40
0.8000572178
 40
1.0
 40
1.0
 40
1.0
 40
1.0
 10
62.387891497
 20
252.835670813
 30
0.0
 10
62.3880866687
 20
252.8756964235
 30
0.0
 10
62.3888659803
 20
252.9357519368
 30
0.0
 10
62.3937274511
 20
253.0156722876
 30
0.0
 10
62.4003383497
 20
253.0754057961
 30
0.0
 10
62.4091699604
 20
253.1145287971
 30
0.0
 10
62.414844622
 20
253.1337176906
 30
0.0
  0
SPLINE
  5
364
100
AcDbEntity
  8
0
100
AcDbSpline
 62
7
  6
BYLAYER
 70
0
 71
3
 72
12
 73
8
 74
0
 42
0.0000001
 43
0.0000001
 44
0.0000000001
 40
0.0
 40
0.0
 40
0.0
 40
0.0
 40
0.2000203472
 40
0.4000411739
 40
0.600026524
 40
0.8000129763
 40
1.0
 40
1.0
 40
1.0
 40
1.0
 10
62.414844622
 20
253.1337176906
 30
0.0
 10
62.424933057
 20
253.1576168181
 30
0.0
 10
62.4467139662
 20
253.2049451276
 30
0.0
 10
62.497405234
 20
253.2652552944
 30
0.0
 10
62.5610947784
 20
253.3106641462
 30
0.0
 10
62.633631522
 20
253.3414966255
 30
0.0
 10
62.685805182
 20
253.3455389983
 30
0.0
 10
62.711719622
 20
253.3466083156
 30
0.0
  0
SPLINE
  5
365
100
AcDbEntity
  8
0
100
AcDbSpline
 62
7
  6
BYLAYER
 70
0
 71
3
 72
14
 73
10
 74
0
 42
0.0000001
 43
0.0000001
 44
0.0000000001
 40
0.0
 40
0.0
 40
0.0
 40
0.0
 40
0.2030217949
 40
0.3029260453
 40
0.3837658845
 40
0.514363633
 40
0.6147160109
 40
0.7150683888
 40
1.0
 40
1.0
 40
1.0
 40
1.0
 10
62.711719622
 20
253.3466083156
 30
0.0
 10
62.746121767
 20
253.3457195743
 30
0.0
 10
62.7964912546
 20
253.3417197302
 30
0.0
 10
62.8569936867
 20
253.3151070939
 30
0.0
 10
62.8981107184
 20
253.2809481164
 30
0.0
 10
62.9238806746
 20
253.2336977231
 30
0.0
 10
62.9419492002
 20
253.1804477795
 30
0.0
 10
62.959200477
 20
253.1002782272
 30
0.0
 10
62.9624193323
 20
253.0316146667
 30
0.0
 10
62.9628914978
 20
252.9833270877
 30
0.0
  0
SPLINE
  5
366
100
AcDbEntity
  8
0
100
AcDbSpline
 62
7
  6
BYLAYER
 70
0
 71
3
 72
12
 73
8
 74
0
 42
0.0000001
 43
0.0000001
 44
0.0000000001
 40
0.0
 40
0.0
 40
0.0
 40
0.0
 40
0.2002214722
 40
0.4003404566
 40
0.6002776444
 40
0.8000886122
 40
1.0
 40
1.0
 40
1.0
 40
1.0
 10
62.9628914979
 20
252.3884051944
 30
0.0
 10
62.9636031412
 20
252.3674158466
 30
0.0
 10
62.96544833
 20
252.3253772228
 30
0.0
 10
62.983660798
 20
252.2641559026
 30
0.0
 10
63.0210474806
 20
252.2122016045
 30
0.0
 10
63.0756733641
 20
252.1772445142
 30
0.0
 10
63.1180957314
 20
252.1726259552
 30
0.0
 10
63.139063373
 20
252.1716083149
 30
0.0
  0
SPLINE
  5
367
100
AcDbEntity
  8
0
100
AcDbSpline
 62
7
  6
BYLAYER
 70
0
 71
3
 72
12
 73
8
 74
0
 42
0.0000001
 43
0.0000001
 44
0.0000000001
 40
0.0
 40
0.0
 40
0.0
 40
0.0
 40
0.1999439989
 40
0.3997425271
 40
0.5996111947
 40
0.7997783937
 40
1.0
 40
1.0
 40
1.0
 40
1.0
 10
63.139063373
 20
252.1716083149
 30
0.0
 10
63.1599456964
 20
252.1727254101
 30
0.0
 10
63.2022475743
 20
252.1772574816
 30
0.0
 10
63.2565906459
 20
252.2122331484
 30
0.0
 10
63.293628602
 20
252.264235217
 30
0.0
 10
63.310336123
 20
252.3256749869
 30
0.0
 10
63.3122145128
 20
252.3674893458
 30
0.0
 10
63.3128914978
 20
252.388405183
 30
0.0
  0
SPLINE
  5
368
100
AcDbEntity
  8
0
100
AcDbSpline
 62
7
  6
BYLAYER
 70
0
 71
3
 72
10
 73
6
 74
0
 42
0.0000001
 43
0.0000001
 44
0.0000000001
 40
0.0
 40
0.0
 40
0.0
 40
0.0
 40
0.6114344984
 40
0.8057365969
 40
1.0
 40
1.0
 40
1.0
 40
1.0
 10
63.3128914971
 20
253.0524676868
 30
0.0
 10
63.3122584537
 20
253.1243063715
 30
0.0
 10
63.3140311307
 20
253.208438111
 30
0.0
 10
63.2862038513
 20
253.3247796758
 30
0.0
 10
63.267845226
 20
253.3665186694
 30
0.0
 10
63.257422746
 20
253.3868426896
 30
0.0
  0
SPLINE
  5
369
100
AcDbEntity
  8
0
100
AcDbSpline
 62
7
  6
BYLAYER
 70
0
 71
3
 72
11
 73
7
 74
0
 42
0.0000001
 43
0.0000001
 44
0.0000000001
 40
0.0
 40
0.0
 40
0.0
 40
0.0
 40
0.1988678686
 40
0.3977918934
 40
0.8009884733
 40
1.0
 40
1.0
 40
1.0
 40
1.0
 10
63.257422746
 20
253.3868426896
 30
0.0
 10
63.2410965927
 20
253.4166777864
 30
0.0
 10
63.2051043431
 20
253.4749038459
 30
0.0
 10
63.0993776434
 20
253.5653650179
 30
0.0
 10
62.9719720294
 20
253.614761905
 30
0.0
 10
62.8683698387
 20
253.6205111625
 30
0.0
 10
62.834375872
 20
253.621608316
 30
0.0
  0
SPLINE
  5
36A
100
AcDbEntity
  8
0
100
AcDbSpline
 62
7
  6
BYLAYER
 70
0
 71
3
 72
10
 73
6
 74
0
 42
0.0000001
 43
0.0000001
 44
0.0000000001
 40
0.0
 40
0.0
 40
0.0
 40
0.0
 40
0.1966873103
 40
0.6007434496
 40
1.0
 40
1.0
 40
1.0
 40
1.0
 10
62.834375872
 20
253.621608316
 30
0.0
 10
62.7978818137
 20
253.620708751
 30
0.0
 10
62.6853762124
 20
253.6144981578
 30
0.0
 10
62.5151518745
 20
253.5471304913
 30
0.0
 10
62.4126979937
 20
253.439288026
 30
0.0
 10
62.366016497
 20
253.3817645652
 30
0.0
  0
SPLINE
  5
36B
100
AcDbEntity
  8
0
100
AcDbSpline
 62
7
  6
BYLAYER
 70
0
 71
3
 72
12
 73
8
 74
0
 42
0.0000001
 43
0.0000001
 44
0.0000000001
 40
0.0
 40
0.0
 40
0.0
 40
0.0
 40
0.3992616581
 40
0.5993684838
 40
0.6996262166
 40
0.7998839495
 40
1.0
 40
1.0
 40
1.0
 40
1.0
 10
62.366016497
 20
253.4247333151
 30
0.0
 10
62.3647290287
 20
253.4631047431
 30
0.0
 10
62.3569362895
 20
253.5226020831
 30
0.0
 10
62.3152749236
 20
253.5774125265
 30
0.0
 10
62.2843597355
 20
253.6007235859
 30
0.0
 10
62.2490472608
 20
253.6169486839
 30
0.0
 10
62.2200053277
 20
253.6207098597
 30
0.0
 10
62.200782121
 20
253.621608316
 30
0.0
  0
SPLINE
  5
36C
100
AcDbEntity
  8
0
100
AcDbSpline
 62
7
  6
BYLAYER
 70
0
 71
3
 72
11
 73
7
 74
0
 42
0.0000001
 43
0.0000001
 44
0.0000000001
 40
0.0
 40
0.0
 40
0.0
 40
0.0
 40
0.2005374436
 40
0.4008861604
 40
0.7991995087
 40
1.0
 40
1.0
 40
1.0
 40
1.0
 10
62.200782121
 20
253.621608316
 30
0.0
 10
62.1811412244
 20
253.6207429433
 30
0.0
 10
62.1415013249
 20
253.6170551286
 30
0.0
 10
62.0717900374
 20
253.5753714684
 30
0.0
 10
62.0403099975
 20
253.4972975512
 30
0.0
 10
62.0384569637
 20
253.4389245761
 30
0.0
 10
62.037891497
 20
253.419264565
 30
0.0
  0
SPLINE
  5
36D
100
AcDbEntity
  8
0
100
AcDbSpline
 62
7
  6
BYLAYER
 70
0
 71
3
 72
10
 73
6
 74
0
 42
0.0000001
 43
0.0000001
 44
0.0000000001
 40
0.0
 40
0.0
 40
0.0
 40
0.0
 40
0.198087034
 40
0.5959105145
 40
1.0
 40
1.0
 40
1.0
 40
1.0
 10
272.589453997
 20
252.5759051894
 30
0.0
 10
272.5750743787
 20
252.5552575472
 30
0.0
 10
272.5265114688
 20
252.4965056129
 30
0.0
 10
272.4096998168
 20
252.4361272211
 30
0.0
 10
272.312220432
 20
252.4230470159
 30
0.0
 10
272.260938372
 20
252.4216083144
 30
0.0
  0
SPLINE
  5
36E
100
AcDbEntity
  8
0
100
AcDbSpline
 62
7
  6
BYLAYER
 70
0
 71
3
 72
12
 73
8
 74
0
 42
0.0000001
 43
0.0000001
 44
0.0000000001
 40
0.0
 40
0.0
 40
0.0
 40
0.0
 40
0.2001309859
 40
0.4002806845
 40
0.6002991767
 40
0.800148334
 40
1.0
 40
1.0
 40
1.0
 40
1.0
 10
272.260938372
 20
252.4216083144
 30
0.0
 10
272.2395811287
 20
252.4222527709
 30
0.0
 10
272.1968059011
 20
252.4246771757
 30
0.0
 10
272.1352457361
 20
252.4460936132
 30
0.0
 10
272.0839129895
 20
252.4852381753
 30
0.0
 10
272.0446835475
 20
252.5381511265
 30
0.0
 10
272.039222523
 20
252.581555315
 30
0.0
 10
272.037891498
 20
252.6028583148
 30
0.0
  0
SPLINE
  5
36F
100
AcDbEntity
  8
0
100
AcDbSpline
 62
7
  6
BYLAYER
 70
0
 71
3
 72
15
 73
11
 74
0
 42
0.0000001
 43
0.0000001
 44
0.0000000001
 40
0.0
 40
0.0
 40
0.0
 40
0.0
 40
0.0606860956
 40
0.1213486618
 40
0.2079373123
 40
0.3071486454
 40
0.4063599786
 40
0.6049116739
 40
0.7938035605
 40
1.0
 40
1.0
 40
1.0
 40
1.0
 10
272.037891498
 20
252.6028583148
 30
0.0
 10
272.0384672614
 20
252.6171964056
 30
0.0
 10
272.0404066615
 20
252.6459241481
 30
0.0
 10
272.0610595127
 20
252.6919657228
 30
0.0
 10
272.1058445656
 20
252.7306202564
 30
0.0
 10
272.1651064654
 20
252.7634649501
 30
0.0
 10
272.2569863773
 20
252.784531997
 30
0.0
 10
272.3684737561
 20
252.8074453421
 30
0.0
 10
272.5088202992
 20
252.8350593663
 30
0.0
 10
272.5916339937
 20
252.8565597119
 30
0.0
 10
272.637891497
 20
252.8716083156
 30
0.0
  0
SPLINE
  5
370
100
AcDbEntity
  8
0
100
AcDbSpline
 62
7
  6
BYLAYER
 70
0
 71
3
 72
12
 73
8
 74
0
 42
0.0000001
 43
0.0000001
 44
0.0000000001
 40
0.0
 40
0.0
 40
0.0
 40
0.0
 40
0.2000489965
 40
0.4001188177
 40
0.6001469073
 40
0.800114342
 40
1.0
 40
1.0
 40
1.0
 40
1.0
 10
272.637891497
 20
252.8243426909
 30
0.0
 10
272.6377412504
 20
252.8072660524
 30
0.0
 10
272.6371383026
 20
252.7731215531
 30
0.0
 10
272.633530587
 20
252.7219675938
 30
0.0
 10
272.6258362185
 20
252.6712955026
 30
0.0
 10
272.6130082441
 20
252.6215286782
 30
0.0
 10
272.5981415654
 20
252.5906034091
 30
0.0
 10
272.589453997
 20
252.5759051894
 30
0.0
  0
SPLINE
  5
371
100
AcDbEntity
  8
0
100
AcDbSpline
 62
7
  6
BYLAYER
 70
0
 71
3
 72
10
 73
6
 74
0
 42
0.0000001
 43
0.0000001
 44
0.0000000001
 40
0.0
 40
0.0
 40
0.0
 40
0.0
 40
0.2919635577
 40
0.5841179635
 40
1.0
 40
1.0
 40
1.0
 40
1.0
 10
273.055078996
 20
252.3161395644
 30
0.0
 10
273.0533914144
 20
252.3398514497
 30
0.0
 10
273.0423010605
 20
252.3862125312
 30
0.0
 10
273.0185792238
 20
252.4645642533
 30
0.0
 10
273.0041471108
 20
252.5182267727
 30
0.0
 10
272.9981340791
 20
252.5505247818
 30
0.0
  0
SPLINE
  5
372
100
AcDbEntity
  8
0
100
AcDbSpline
 62
7
  6
BYLAYER
 70
0
 71
3
 72
9
 73
5
 74
0
 42
0.0000001
 43
0.0000001
 44
0.0000000001
 40
0.0
 40
0.0
 40
0.0
 40
0.0
 40
0.3854264246
 40
1.0
 40
1.0
 40
1.0
 40
1.0
 10
272.9981340791
 20
252.5505247818
 30
0.0
 10
272.9954849575
 20
252.5647541017
 30
0.0
 10
272.9898525822
 20
252.6020643014
 30
0.0
 10
272.988388532
 20
252.6411990789
 30
0.0
 10
272.987891497
 20
252.6649676897
 30
0.0
  0
SPLINE
  5
373
100
AcDbEntity
  8
0
100
AcDbSpline
 62
7
  6
BYLAYER
 70
0
 71
3
 72
18
 73
14
 74
0
 42
0.0000001
 43
0.0000001
 44
0.0000000001
 40
0.0
 40
0.0
 40
0.0
 40
0.0
 40
0.1000857715
 40
0.1501385758
 40
0.2001913801
 40
0.2685553854
 40
0.3369193907
 40
0.4821298206
 40
0.6316567299
 40
0.7225262169
 40
0.8133957038
 40
0.9066978519
 40
1.0
 40
1.0
 40
1.0
 40
1.0
 10
272.9906258711
 20
253.0719989356
 30
0.0
 10
272.9904324144
 20
253.1042155337
 30
0.0
 10
272.9889495171
 20
253.1525602245
 30
0.0
 10
272.9823660677
 20
253.2166773495
 30
0.0
 10
272.9738504468
 20
253.2702764829
 30
0.0
 10
272.9595771234
 20
253.328735084
 30
0.0
 10
272.9290035472
 20
253.41441877
 30
0.0
 10
272.8573497666
 20
253.511180573
 30
0.0
 10
272.7454197738
 20
253.5706786475
 30
0.0
 10
272.6425439471
 20
253.5992426377
 30
0.0
 10
272.5549209599
 20
253.6128015572
 30
0.0
 10
272.4658881232
 20
253.6203779645
 30
0.0
 10
272.4058142464
 20
253.6214533514
 30
0.0
 10
272.375782123
 20
253.6216083156
 30
0.0
  0
SPLINE
  5
374
100
AcDbEntity
  8
0
100
AcDbSpline
 62
7
  6
BYLAYER
 70
0
 71
3
 72
13
 73
9
 74
0
 42
0.0000001
 43
0.0000001
 44
0.0000000001
 40
0.0
 40
0.0
 40
0.0
 40
0.0
 40
0.2031388435
 40
0.4025202618
 40
0.5949770598
 40
0.7738569712
 40
0.9281275306
 40
1.0
 40
1.0
 40
1.0
 40
1.0
 10
272.375782123
 20
253.6216083156
 30
0.0
 10
272.3204770264
 20
253.6206627539
 30
0.0
 10
272.2150609334
 20
253.6169767114
 30
0.0
 10
272.0543929151
 20
253.5812871675
 30
0.0
 10
271.9124663172
 20
253.5147682335
 30
0.0
 10
271.8060825256
 20
253.4157512256
 30
0.0
 10
271.7563532661
 20
253.3133950314
 30
0.0
 10
271.7514748194
 20
253.2517142086
 30
0.0
 10
271.750391496
 20
253.2321551894
 30
0.0
  0
SPLINE
  5
375
100
AcDbEntity
  8
0
100
AcDbSpline
 62
7
  6
BYLAYER
 70
0
 71
3
 72
12
 73
8
 74
0
 42
0.0000001
 43
0.0000001
 44
0.0000000001
 40
0.0
 40
0.0
 40
0.0
 40
0.0
 40
0.1999611927
 40
0.3998621694
 40
0.59996871
 40
0.7999958622
 40
1.0
 40
1.0
 40
1.0
 40
1.0
 10
271.750391496
 20
253.2321551894
 30
0.0
 10
271.7511384944
 20
253.2171940932
 30
0.0
 10
271.7540023044
 20
253.1869570583
 30
0.0
 10
271.7770655877
 20
253.1470776721
 30
0.0
 10
271.8110020432
 20
253.117024665
 30
0.0
 10
271.8521624041
 20
253.0971094355
 30
0.0
 10
271.8822993297
 20
253.0944830907
 30
0.0
 10
271.897266498
 20
253.0938739409
 30
0.0
  0
SPLINE
  5
376
100
AcDbEntity
  8
0
100
AcDbSpline
 62
7
  6
BYLAYER
 70
0
 71
3
 72
16
 73
12
 74
0
 42
0.0000001
 43
0.0000001
 44
0.0000000001
 40
0.0
 40
0.0
 40
0.0
 40
0.0
 40
0.0500644407
 40
0.1001288814
 40
0.1363830491
 40
0.1951285244
 40
0.2902624515
 40
0.444164298
 40
0.643863274
 40
0.8309315856
 40
1.0
 40
1.0
 40
1.0
 40
1.0
 10
271.897266498
 20
253.0938739409
 30
0.0
 10
271.9071036097
 20
253.0940564621
 30
0.0
 10
271.9267764002
 20
253.0945395467
 30
0.0
 10
271.9531836213
 20
253.0994431698
 30
0.0
 10
271.9800159135
 20
253.1106312932
 30
0.0
 10
272.0021283474
 20
253.1422370641
 30
0.0
 10
272.0360928174
 20
253.1913728364
 30
0.0
 10
272.0818032413
 20
253.2670765796
 30
0.0
 10
272.1629752563
 20
253.3403741158
 30
0.0
 10
272.2708203155
 20
253.3690747958
 30
0.0
 10
272.3406531347
 20
253.3709895691
 30
0.0
 10
272.373828998
 20
253.3716083156
 30
0.0
  0
SPLINE
  5
377
100
AcDbEntity
  8
0
100
AcDbSpline
 62
7
  6
BYLAYER
 70
0
 71
3
 72
14
 73
10
 74
0
 42
0.0000001
 43
0.0000001
 44
0.0000000001
 40
0.0
 40
0.0
 40
0.0
 40
0.0
 40
0.2000858611
 40
0.3000836491
 40
0.4000814371
 40
0.4999352442
 40
0.6616244143
 40
0.8616869733
 40
1.0
 40
1.0
 40
1.0
 40
1.0
 10
272.373828998
 20
253.3716083156
 30
0.0
 10
272.403421433
 20
253.3710689381
 30
0.0
 10
272.4480467652
 20
253.369422754
 30
0.0
 10
272.5057263363
 20
253.3555705426
 30
0.0
 10
272.5470426305
 20
253.3385310414
 30
0.0
 10
272.5884471505
 20
253.3030434737
 30
0.0
 10
272.6173077165
 20
253.2393931492
 30
0.0
 10
272.6334590986
 20
253.1670813438
 30
0.0
 10
272.6366115454
 20
253.117035709
 30
0.0
 10
272.637891497
 20
253.0966083152
 30
0.0
  0
SPLINE
  5
378
100
AcDbEntity
  8
0
100
AcDbSpline
 62
7
  6
BYLAYER
 70
0
 71
3
 72
12
 73
8
 74
0
 42
0.0000001
 43
0.0000001
 44
0.0000000001
 40
0.0
 40
0.0
 40
0.0
 40
0.0
 40
0.5941161708
 40
0.7970586637
 40
0.8985289016
 40
0.9492644508
 40
1.0
 40
1.0
 40
1.0
 40
1.0
 10
272.637891497
 20
253.0966083152
 30
0.0
 10
272.520353672
 20
253.0618003214
 30
0.0
 10
272.3508623489
 20
253.0179938795
 30
0.0
 10
272.1709599088
 20
252.9800541218
 30
0.0
 10
272.0992591612
 20
252.9644425126
 30
0.0
 10
272.0583169107
 20
252.9557085725
 30
0.0
 10
272.037940196
 20
252.9508931553
 30
0.0
 10
272.027735246
 20
252.9485614398
 30
0.0
  0
SPLINE
  5
379
100
AcDbEntity
  8
0
100
AcDbSpline
 62
7
  6
BYLAYER
 70
0
 71
3
 72
15
 73
11
 74
0
 42
0.0000001
 43
0.0000001
 44
0.0000000001
 40
0.0
 40
0.0
 40
0.0
 40
0.0
 40
0.2026666418
 40
0.4018587852
 40
0.5015616191
 40
0.6012644531
 40
0.7009305914
 40
0.8005967297
 40
0.9002983648
 40
1.0
 40
1.0
 40
1.0
 40
1.0
 10
272.027735246
 20
252.9485614398
 30
0.0
 10
271.9910810577
 20
252.9398151601
 30
0.0
 10
271.9217067516
 20
252.9193844327
 30
0.0
 10
271.8393916546
 20
252.8714160516
 30
0.0
 10
271.7846343686
 20
252.8213010835
 30
0.0
 10
271.749465628
 20
252.7779545312
 30
0.0
 10
271.7212900544
 20
252.7297769267
 30
0.0
 10
271.7017360055
 20
252.6775460537
 30
0.0
 10
271.6896370119
 20
252.623011741
 30
0.0
 10
271.6884872594
 20
252.5858375554
 30
0.0
 10
271.687891496
 20
252.5673114402
 30
0.0
  0
SPLINE
  5
37A
100
AcDbEntity
  8
0
100
AcDbSpline
 62
7
  6
BYLAYER
 70
0
 71
3
 72
11
 73
7
 74
0
 42
0.0000001
 43
0.0000001
 44
0.0000000001
 40
0.0
 40
0.0
 40
0.0
 40
0.0
 40
0.3208623367
 40
0.6417246734
 40
0.9625328164
 40
1.0
 40
1.0
 40
1.0
 40
1.0
 10
271.687891496
 20
252.5673114402
 30
0.0
 10
271.6887222394
 20
252.5448513232
 30
0.0
 10
271.6912448816
 20
252.4998738067
 30
0.0
 10
271.7095900382
 20
252.4344785264
 30
0.0
 10
271.7304173667
 20
252.3915683563
 30
0.0
 10
271.7434294519
 20
252.3701128764
 30
0.0
 10
271.7448123425
 20
252.3678827021
 30
0.0
  0
SPLINE
  5
37B
100
AcDbEntity
  8
0
100
AcDbSpline
 62
7
  6
BYLAYER
 70
0
 71
3
 72
10
 73
6
 74
0
 42
0.0000001
 43
0.0000001
 44
0.0000000001
 40
0.0
 40
0.0
 40
0.0
 40
0.0
 40
0.1286108034
 40
0.4193274659
 40
1.0
 40
1.0
 40
1.0
 40
1.0
 10
271.7448123425
 20
252.3678827021
 30
0.0
 10
271.7552702824
 20
252.3510172832
 30
0.0
 10
271.7934945638
 20
252.2985579847
 30
0.0
 10
271.9166183878
 20
252.200173378
 30
0.0
 10
272.0534561794
 20
252.1744679247
 30
0.0
 10
272.142969621
 20
252.1716083144
 30
0.0
  0
SPLINE
  5
37C
100
AcDbEntity
  8
0
100
AcDbSpline
 62
7
  6
BYLAYER
 70
0
 71
3
 72
10
 73
6
 74
0
 42
0.0000001
 43
0.0000001
 44
0.0000000001
 40
0.0
 40
0.0
 40
0.0
 40
0.0
 40
0.4032615756
 40
0.6024714247
 40
1.0
 40
1.0
 40
1.0
 40
1.0
 10
272.142969621
 20
252.1716083144
 30
0.0
 10
272.2216821094
 20
252.1739553826
 30
0.0
 10
272.3335115219
 20
252.187070825
 30
0.0
 10
272.5097084244
 20
252.2703831533
 30
0.0
 10
272.601236392
 20
252.3382015649
 30
0.0
 10
272.661719622
 20
252.3868426909
 30
0.0
  0
SPLINE
  5
37D
100
AcDbEntity
  8
0
100
AcDbSpline
 62
7
  6
BYLAYER
 70
0
 71
3
 72
12
 73
8
 74
0
 42
0.0000001
 43
0.0000001
 44
0.0000000001
 40
0.0
 40
0.0
 40
0.0
 40
0.0
 40
0.202021917
 40
0.5962089796
 40
0.7979977258
 40
0.8989988629
 40
1.0
 40
1.0
 40
1.0
 40
1.0
 10
272.661719622
 20
252.3868426909
 30
0.0
 10
272.6725963954
 20
252.3682656594
 30
0.0
 10
272.7048220385
 20
252.3143449795
 30
0.0
 10
272.7575090404
 20
252.2415242763
 30
0.0
 10
272.8133255854
 20
252.1924903475
 30
0.0
 10
272.8531919271
 20
252.1743983407
 30
0.0
 10
272.8747965814
 20
252.1724506701
 30
0.0
 10
272.885547748
 20
252.1716083144
 30
0.0
  0
SPLINE
  5
37E
100
AcDbEntity
  8
0
100
AcDbSpline
 62
7
  6
BYLAYER
 70
0
 71
3
 72
11
 73
7
 74
0
 42
0.0000001
 43
0.0000001
 44
0.0000000001
 40
0.0
 40
0.0
 40
0.0
 40
0.0
 40
0.2003878167
 40
0.4009003117
 40
0.799945157
 40
1.0
 40
1.0
 40
1.0
 40
1.0
 10
272.885547748
 20
252.1716083144
 30
0.0
 10
272.9018331814
 20
252.1723147314
 30
0.0
 10
272.9347257011
 20
252.1753760887
 30
0.0
 10
272.9935709364
 20
252.2038216119
 30
0.0
 10
273.0448790758
 20
252.250845271
 30
0.0
 10
273.054003256
 20
252.2998892574
 30
0.0
 10
273.055078996
 20
252.3161395644
 30
0.0
  0
SPLINE
  5
37F
100
AcDbEntity
  8
0
100
AcDbSpline
 62
7
  6
BYLAYER
 70
0
 71
3
 72
12
 73
8
 74
0
 42
0.0000001
 43
0.0000001
 44
0.0000000001
 40
0.0
 40
0.0
 40
0.0
 40
0.0
 40
0.0039449667
 40
0.2035933101
 40
0.4031341292
 40
0.8000128136
 40
1.0
 40
1.0
 40
1.0
 40
1.0
 10
276.7769856152
 20
253.4561497991
 30
0.0
 10
276.7767152965
 20
253.4557035067
 30
0.0
 10
276.7627320119
 20
253.4326794818
 30
0.0
 10
276.7316180523
 20
253.3881074141
 30
0.0
 10
276.6378789727
 20
253.3352466653
 30
0.0
 10
276.5298482135
 20
253.323485655
 30
0.0
 10
276.4514388937
 20
253.3218140986
 30
0.0
 10
276.425000872
 20
253.3216083158
 30
0.0
  0
SPLINE
  5
380
100
AcDbEntity
  8
0
100
AcDbSpline
 62
7
  6
BYLAYER
 70
0
 71
3
 72
15
 73
11
 74
0
 42
0.0000001
 43
0.0000001
 44
0.0000000001
 40
0.0
 40
0.0
 40
0.0
 40
0.0
 40
0.1044802895
 40
0.3047422494
 40
0.4048831757
 40
0.505024102
 40
0.6291900029
 40
0.7998326103
 40
0.8999163053
 40
1.0
 40
1.0
 40
1.0
 40
1.0
 10
276.383985247
 20
253.8216083158
 30
0.0
 10
276.4035181654
 20
253.8214734685
 30
0.0
 10
276.4604858193
 20
253.8208014121
 30
0.0
 10
276.5360685078
 20
253.815427868
 30
0.0
 10
276.6101649051
 20
253.8038161291
 30
0.0
 10
276.6688920122
 20
253.7889603346
 30
0.0
 10
276.7388557449
 20
253.76214998
 30
0.0
 10
276.7890124009
 20
253.7027418247
 30
0.0
 10
276.807709307
 20
253.6352047969
 30
0.0
 10
276.8097983994
 20
253.5977477288
 30
0.0
 10
276.810157121
 20
253.5790301895
 30
0.0
  0
SPLINE
  5
381
100
AcDbEntity
  8
0
100
AcDbSpline
 62
7
  6
BYLAYER
 70
0
 71
3
 72
15
 73
11
 74
0
 42
0.0000001
 43
0.0000001
 44
0.0000000001
 40
0.0
 40
0.0
 40
0.0
 40
0.0
 40
0.1374269732
 40
0.2179066963
 40
0.2983864195
 40
0.3978529419
 40
0.4973243885
 40
0.5967958352
 40
0.7957421516
 40
1.0
 40
1.0
 40
1.0
 40
1.0
 10
276.887891497
 20
252.7755145651
 30
0.0
 10
276.887252792
 20
252.7499860834
 30
0.0
 10
276.8841344565
 20
252.7092392986
 30
0.0
 10
276.8658139885
 20
252.6565802126
 30
0.0
 10
276.8415553526
 20
252.6143961558
 30
0.0
 10
276.8051692296
 20
252.5765764891
 30
0.0
 10
276.7581119806
 20
252.5466079752
 30
0.0
 10
276.6898973612
 20
252.5180715352
 30
0.0
 10
276.5961030385
 20
252.4995116651
 30
0.0
 10
276.5254368954
 20
252.4971877272
 30
0.0
 10
276.487500872
 20
252.4966083147
 30
0.0
  0
SPLINE
  5
382
100
AcDbEntity
  8
0
100
AcDbSpline
 62
7
  6
BYLAYER
 70
0
 71
3
 72
14
 73
10
 74
0
 42
0.0000001
 43
0.0000001
 44
0.0000000001
 40
0.0
 40
0.0
 40
0.0
 40
0.0
 40
0.3595272922
 40
0.4581332294
 40
0.5567391667
 40
0.708714909
 40
0.802875477
 40
0.9014377385
 40
1.0
 40
1.0
 40
1.0
 40
1.0
 10
276.474219621
 20
253.0466083154
 30
0.0
 10
276.5426259444
 20
253.0454209874
 30
0.0
 10
276.6210639089
 20
253.0417992631
 30
0.0
 10
276.7244422155
 20
253.012818581
 30
0.0
 10
276.7851551657
 20
252.9855800533
 30
0.0
 10
276.8371432529
 20
252.9431516007
 30
0.0
 10
276.8707651226
 20
252.8858766861
 30
0.0
 10
276.8850957679
 20
252.8317866487
 30
0.0
 10
276.8875163737
 20
252.7942797126
 30
0.0
 10
276.887891497
 20
252.7755145651
 30
0.0
  0
SPLINE
  5
383
100
AcDbEntity
  8
0
100
AcDbSpline
 62
7
  6
BYLAYER
 70
0
 71
3
 72
11
 73
7
 74
0
 42
0.0000001
 43
0.0000001
 44
0.0000000001
 40
0.0
 40
0.0
 40
0.0
 40
0.0
 40
0.1976295362
 40
0.6011770922
 40
0.7986950957
 40
1.0
 40
1.0
 40
1.0
 40
1.0
 10
276.903907121
 20
253.2079364393
 30
0.0
 10
276.9367426477
 20
253.2241472103
 30
0.0
 10
277.0364660365
 20
253.2763339721
 30
0.0
 10
277.137811071
 20
253.3816000383
 30
0.0
 10
277.1901120139
 20
253.5252738645
 30
0.0
 10
277.1947253782
 20
253.5968018875
 30
0.0
 10
277.1961085357
 20
253.6340919021
 30
0.0
  0
SPLINE
  5
384
100
AcDbEntity
  8
0
100
AcDbSpline
 62
7
  6
BYLAYER
 70
0
 71
3
 72
9
 73
5
 74
0
 42
0.0000001
 43
0.0000001
 44
0.0000000001
 40
0.0
 40
0.0
 40
0.0
 40
0.0
 40
0.39328672
 40
1.0
 40
1.0
 40
1.0
 40
1.0
 10
276.9648446234
 20
254.0368426902
 30
0.0
 10
276.9161671317
 20
254.0647667051
 30
0.0
 10
276.7738372646
 20
254.1205365233
 30
0.0
 10
276.632240102
 20
254.120647155
 30
0.0
 10
276.545703997
 20
254.1216083147
 30
0.0
  0
SPLINE
  5
385
100
AcDbEntity
  8
0
100
AcDbSpline
 62
7
  6
BYLAYER
 70
0
 71
3
 72
12
 73
8
 74
0
 42
0.0000001
 43
0.0000001
 44
0.0000000001
 40
0.0
 40
0.0
 40
0.0
 40
0.0
 40
0.200419949
 40
0.4006313086
 40
0.6610726872
 40
0.8614363494
 40
1.0
 40
1.0
 40
1.0
 40
1.0
 10
275.923828998
 20
254.1216083147
 30
0.0
 10
275.8978787247
 20
254.1208453937
 30
0.0
 10
275.8462014962
 20
254.1182489443
 30
0.0
 10
275.7619305299
 20
254.0924547169
 30
0.0
 10
275.7052071313
 20
254.0214723071
 30
0.0
 10
275.6897979575
 20
253.9442901946
 30
0.0
 10
275.6883774304
 20
253.9004896626
 30
0.0
 10
275.687891497
 20
253.8825458154
 30
0.0
  0
SPLINE
  5
386
100
AcDbEntity
  8
0
100
AcDbSpline
 62
7
  6
BYLAYER
 70
0
 71
3
 72
14
 73
10
 74
0
 42
0.0000001
 43
0.0000001
 44
0.0000000001
 40
0.0
 40
0.0
 40
0.0
 40
0.0
 40
0.4025334073
 40
0.5021430676
 40
0.5826927344
 40
0.6632424013
 40
0.7628093417
 40
0.8623762821
 40
1.0
 40
1.0
 40
1.0
 40
1.0
 10
275.687891497
 20
252.4356708151
 30
0.0
 10
275.6895529004
 20
252.3831735059
 30
0.0
 10
275.6945549842
 20
252.3166034543
 30
0.0
 10
275.7398521941
 20
252.2539014198
 30
0.0
 10
275.7662867773
 20
252.2321474369
 30
0.0
 10
275.7966022165
 20
252.2163536877
 30
0.0
 10
275.8315355556
 20
252.2055022164
 30
0.0
 10
275.8748906959
 20
252.1977555445
 30
0.0
 10
275.9058805086
 20
252.1968009483
 30
0.0
 10
275.9238290063
 20
252.1966083157
 30
0.0
  0
SPLINE
  5
387
100
AcDbEntity
  8
0
100
AcDbSpline
 62
7
  6
BYLAYER
 70
0
 71
3
 72
11
 73
7
 74
0
 42
0.0000001
 43
0.0000001
 44
0.0000000001
 40
0.0
 40
0.0
 40
0.0
 40
0.0
 40
0.2041130523
 40
0.4082366519
 40
0.7959384995
 40
1.0
 40
1.0
 40
1.0
 40
1.0
 10
276.5105477008
 20
252.1966083157
 30
0.0
 10
276.542265181
 20
252.1966869451
 30
0.0
 10
276.6061185975
 20
252.1974068797
 30
0.0
 10
276.7271896541
 20
252.2043824954
 30
0.0
 10
276.8640563159
 20
252.222423339
 30
0.0
 10
276.9486978278
 20
252.2535374309
 30
0.0
 10
276.9781258712
 20
252.2653583154
 30
0.0
  0
SPLINE
  5
388
100
AcDbEntity
  8
0
100
AcDbSpline
 62
7
  6
BYLAYER
 70
0
 71
3
 72
15
 73
11
 74
0
 42
0.0000001
 43
0.0000001
 44
0.0000000001
 40
0.0
 40
0.0
 40
0.0
 40
0.0
 40
0.0063300568
 40
0.1047850575
 40
0.2032400582
 40
0.3016622574
 40
0.4000844567
 40
0.5966825554
 40
0.795894194
 40
1.0
 40
1.0
 40
1.0
 40
1.0
 10
277.2879925318
 20
252.7381118497
 30
0.0
 10
277.2879589968
 20
252.7395114838
 30
0.0
 10
277.2874039011
 20
252.7626845508
 30
0.0
 10
277.2860970098
 20
252.8077318564
 30
0.0
 10
277.2737522316
 20
252.8721385853
 30
0.0
 10
277.2532742482
 20
252.934355118
 30
0.0
 10
277.212643819
 20
253.0117752684
 30
0.0
 10
277.1382484218
 20
253.0942024894
 30
0.0
 10
277.0248071041
 20
253.1648958005
 30
0.0
 10
276.946773076
 20
253.1937226933
 30
0.0
 10
276.903907121
 20
253.2079364393
 30
0.0
  0
SPLINE
  5
389
100
AcDbEntity
  8
0
100
AcDbSpline
 62
7
  6
BYLAYER
 70
0
 71
3
 72
10
 73
6
 74
0
 42
0.0000001
 43
0.0000001
 44
0.0000000001
 40
0.0
 40
0.0
 40
0.0
 40
0.0
 40
0.2002844503
 40
0.6000058457
 40
1.0
 40
1.0
 40
1.0
 40
1.0
 10
157.7640633714
 20
253.7380145653
 30
0.0
 10
157.7736381258
 20
253.726767494
 30
0.0
 10
157.8024670454
 20
253.6931597238
 30
0.0
 10
157.8321899434
 20
253.6237280277
 30
0.0
 10
157.8366460523
 20
253.5647295144
 30
0.0
 10
157.8378914968
 20
253.5352801899
 30
0.0
  0
SPLINE
  5
38A
100
AcDbEntity
  8
0
100
AcDbSpline
 62
7
  6
BYLAYER
 70
0
 71
3
 72
11
 73
7
 74
0
 42
0.0000001
 43
0.0000001
 44
0.0000000001
 40
0.0
 40
0.0
 40
0.0
 40
0.0
 40
0.1373607394
 40
0.2978488108
 40
0.5937579915
 40
1.0
 40
1.0
 40
1.0
 40
1.0
 10
157.8378914968
 20
253.5352801899
 30
0.0
 10
157.8369837532
 20
253.5086790481
 30
0.0
 10
157.8333965787
 20
253.4509112285
 30
0.0
 10
157.7878951301
 20
253.3411858898
 30
0.0
 10
157.6318085289
 20
253.2515510596
 30
0.0
 10
157.5013079114
 20
253.2481315705
 30
0.0
 10
157.4226571229
 20
253.2466083145
 30
0.0
  0
SPLINE
  5
38B
100
AcDbEntity
  8
0
100
AcDbSpline
 62
7
  6
BYLAYER
 70
0
 71
3
 72
11
 73
7
 74
0
 42
0.0000001
 43
0.0000001
 44
0.0000000001
 40
0.0
 40
0.0
 40
0.0
 40
0.0
 40
0.1955929938
 40
0.8044076593
 40
0.9022038296
 40
1.0
 40
1.0
 40
1.0
 40
1.0
 10
157.4226571182
 20
253.8216083156
 30
0.0
 10
157.446600531
 20
253.8214097623
 30
0.0
 10
157.5460185325
 20
253.8195618244
 30
0.0
 10
157.6483114904
 20
253.8073388314
 30
0.0
 10
157.7370736262
 20
253.7618370741
 30
0.0
 10
157.7551206379
 20
253.7459932168
 30
0.0
 10
157.7640633714
 20
253.7380145653
 30
0.0
  0
SPLINE
  5
38C
100
AcDbEntity
  8
0
100
AcDbSpline
 62
7
  6
BYLAYER
 70
0
 71
3
 72
12
 73
8
 74
0
 42
0.0000001
 43
0.0000001
 44
0.0000000001
 40
0.0
 40
0.0
 40
0.0
 40
0.0
 40
0.4027216803
 40
0.5024168174
 40
0.6631825205
 40
0.8622641418
 40
1.0
 40
1.0
 40
1.0
 40
1.0
 10
157.0296883726
 20
254.1216083145
 30
0.0
 10
156.9766974269
 20
254.1199902957
 30
0.0
 10
156.9098008373
 20
254.1144611573
 30
0.0
 10
156.8371609042
 20
254.0632109988
 30
0.0
 10
156.8041833597
 20
254.0108477334
 30
0.0
 10
156.7896472061
 20
253.9461522584
 30
0.0
 10
156.7880831355
 20
253.9018413307
 30
0.0
 10
156.7878914979
 20
253.883717691
 30
0.0
  0
SPLINE
  5
38D
100
AcDbEntity
  8
0
100
AcDbSpline
 62
7
  6
BYLAYER
 70
0
 71
3
 72
11
 73
7
 74
0
 42
0.0000001
 43
0.0000001
 44
0.0000000001
 40
0.0
 40
0.0
 40
0.0
 40
0.0
 40
0.2009818949
 40
0.4018485541
 40
0.7992554827
 40
1.0
 40
1.0
 40
1.0
 40
1.0
 10
156.7878914979
 20
252.4055926906
 30
0.0
 10
156.7885247195
 20
252.3829814371
 30
0.0
 10
156.7902862828
 20
252.3376114683
 30
0.0
 10
156.8150906884
 20
252.2504156615
 30
0.0
 10
156.8850753994
 20
252.1794905214
 30
0.0
 10
156.9536039586
 20
252.1728928225
 30
0.0
 10
156.9761727472
 20
252.1716083153
 30
0.0
  0
SPLINE
  5
38E
100
AcDbEntity
  8
0
100
AcDbSpline
 62
7
  6
BYLAYER
 70
0
 71
3
 72
11
 73
7
 74
0
 42
0.0000001
 43
0.0000001
 44
0.0000000001
 40
0.0
 40
0.0
 40
0.0
 40
0.0
 40
0.2006107871
 40
0.5982131609
 40
0.7990492769
 40
1.0
 40
1.0
 40
1.0
 40
1.0
 10
156.9761727472
 20
252.1716083153
 30
0.0
 10
156.9986817559
 20
252.1729042716
 30
0.0
 10
157.0667753553
 20
252.1811622056
 30
0.0
 10
157.1359793991
 20
252.2522200474
 30
0.0
 10
157.160093234
 20
252.339394095
 30
0.0
 10
157.1620848269
 20
252.3846080752
 30
0.0
 10
157.1628914979
 20
252.407155191
 30
0.0
  0
SPLINE
  5
38F
100
AcDbEntity
  8
0
100
AcDbSpline
 62
7
  6
BYLAYER
 70
0
 71
3
 72
14
 73
10
 74
0
 42
0.0000001
 43
0.0000001
 44
0.0000000001
 40
0.0
 40
0.0
 40
0.0
 40
0.0
 40
0.1993295283
 40
0.370682376
 40
0.5243507926
 40
0.6762813406
 40
0.7522664828
 40
0.828251625
 40
1.0
 40
1.0
 40
1.0
 40
1.0
 10
157.5160164964
 20
252.9466083156
 30
0.0
 10
157.5884225277
 20
252.9476863741
 30
0.0
 10
157.7220377045
 20
252.9552632648
 30
0.0
 10
157.8965825363
 20
252.9985773362
 30
0.0
 10
158.0542703565
 20
253.0835309902
 30
0.0
 10
158.1456008324
 20
253.1865789606
 30
0.0
 10
158.1951805145
 20
253.2857620392
 30
0.0
 10
158.2309912691
 20
253.4000542704
 30
0.0
 10
158.2367016484
 20
253.4810837488
 30
0.0
 10
158.2378914972
 20
253.5434833145
 30
0.0
  0
SPLINE
  5
390
100
AcDbEntity
  8
0
100
AcDbSpline
 62
7
  6
BYLAYER
 70
0
 71
3
 72
12
 73
8
 74
0
 42
0.0000001
 43
0.0000001
 44
0.0000000001
 40
0.0
 40
0.0
 40
0.0
 40
0.0
 40
0.2055808362
 40
0.606872268
 40
0.8032861966
 40
0.9016430983
 40
1.0
 40
1.0
 40
1.0
 40
1.0
 10
158.2378914972
 20
253.5434833145
 30
0.0
 10
158.2368547343
 20
253.59360716
 30
0.0
 10
158.2271660294
 20
253.7302373964
 30
0.0
 10
158.1439942249
 20
253.9148499297
 30
0.0
 10
158.0084325355
 20
254.0215343191
 30
0.0
 10
157.9227081869
 20
254.0650454278
 30
0.0
 10
157.8768573516
 20
254.0794628273
 30
0.0
 10
157.8539071214
 20
254.0864520645
 30
0.0
  0
SPLINE
  5
391
100
AcDbEntity
  8
0
100
AcDbSpline
 62
7
  6
BYLAYER
 70
0
 71
3
 72
12
 73
8
 74
0
 42
0.0000001
 43
0.0000001
 44
0.0000000001
 40
0.0
 40
0.0
 40
0.0
 40
0.0
 40
0.1999752875
 40
0.3999609779
 40
0.5999717911
 40
0.7999915631
 40
1.0
 40
1.0
 40
1.0
 40
1.0
 10
157.8539071214
 20
254.0864520645
 30
0.0
 10
157.8322527639
 20
254.09250252
 30
0.0
 10
157.7884495841
 20
254.1028632784
 30
0.0
 10
157.7216007011
 20
254.1122421419
 30
0.0
 10
157.6543741728
 20
254.1178577246
 30
0.0
 10
157.5869869656
 20
254.1212661632
 30
0.0
 10
157.5420169148
 20
254.1216196239
 30
0.0
 10
157.5195321139
 20
254.1216083145
 30
0.0
  0
SPLINE
  5
392
100
AcDbEntity
  8
0
100
AcDbSpline
 62
7
  6
BYLAYER
 70
0
 71
3
 72
12
 73
8
 74
0
 42
0.0000001
 43
0.0000001
 44
0.0000000001
 40
0.0
 40
0.0
 40
0.0
 40
0.0
 40
0.1086649427
 40
0.2308474857
 40
0.306452283
 40
0.5817472172
 40
1.0
 40
1.0
 40
1.0
 40
1.0
 10
159.7378914968
 20
253.5622333151
 30
0.0
 10
159.7371828773
 20
253.5407935116
 30
0.0
 10
159.7349410643
 20
253.4951498785
 30
0.0
 10
159.7145658554
 20
253.4369039699
 30
0.0
 10
159.6578762246
 20
253.361624708
 30
0.0
 10
159.5051220339
 20
253.2990938924
 30
0.0
 10
159.3910846785
 20
253.2978239634
 30
0.0
 10
159.3085946215
 20
253.2966083151
 30
0.0
  0
SPLINE
  5
393
100
AcDbEntity
  8
0
100
AcDbSpline
 62
7
  6
BYLAYER
 70
0
 71
3
 72
11
 73
7
 74
0
 42
0.0000001
 43
0.0000001
 44
0.0000000001
 40
0.0
 40
0.0
 40
0.0
 40
0.0
 40
0.2000354701
 40
0.6000775828
 40
0.8001085581
 40
1.0
 40
1.0
 40
1.0
 40
1.0
 10
159.3191414816
 20
253.8216083155
 30
0.0
 10
159.3371129117
 20
253.8215904356
 30
0.0
 10
159.3910147962
 20
253.8211154427
 30
0.0
 10
159.4628833126
 20
253.8179111116
 30
0.0
 10
159.5342577027
 20
253.8086192786
 30
0.0
 10
159.5690681579
 20
253.7992588447
 30
0.0
 10
159.5859383713
 20
253.7930926899
 30
0.0
  0
SPLINE
  5
394
100
AcDbEntity
  8
0
100
AcDbSpline
 62
7
  6
BYLAYER
 70
0
 71
3
 72
12
 73
8
 74
0
 42
0.0000001
 43
0.0000001
 44
0.0000000001
 40
0.0
 40
0.0
 40
0.0
 40
0.0
 40
0.2000575478
 40
0.4000220605
 40
0.5999837926
 40
0.8001426647
 40
1.0
 40
1.0
 40
1.0
 40
1.0
 10
159.9835946222
 20
252.1716083151
 30
0.0
 10
160.001613028
 20
252.1718612084
 30
0.0
 10
160.0376923419
 20
252.1750806569
 30
0.0
 10
160.0889771306
 20
252.1941835297
 30
0.0
 10
160.1323141947
 20
252.2272761785
 30
0.0
 10
160.1643919692
 20
252.272646422
 30
0.0
 10
160.1704104861
 20
252.3087308492
 30
0.0
 10
160.1722664979
 20
252.3266864394
 30
0.0
  0
SPLINE
  5
395
100
AcDbEntity
  8
0
100
AcDbSpline
 62
7
  6
BYLAYER
 70
0
 71
3
 72
10
 73
6
 74
0
 42
0.0000001
 43
0.0000001
 44
0.0000000001
 40
0.0
 40
0.0
 40
0.0
 40
0.0
 40
0.1673235713
 40
0.3346471426
 40
1.0
 40
1.0
 40
1.0
 40
1.0
 10
160.1722664979
 20
252.3266864394
 30
0.0
 10
160.1707446973
 20
252.3421480117
 30
0.0
 10
160.1647461489
 20
252.3726499548
 30
0.0
 10
160.1325138314
 20
252.4606244367
 30
0.0
 10
160.1021278774
 20
252.5245158205
 30
0.0
 10
160.0745579016
 20
252.5749335903
 30
0.0
  0
SPLINE
  5
396
100
AcDbEntity
  8
0
100
AcDbSpline
 62
7
  6
BYLAYER
 70
0
 71
3
 72
13
 73
9
 74
0
 42
0.0000001
 43
0.0000001
 44
0.0000000001
 40
0.0
 40
0.0
 40
0.0
 40
0.0
 40
0.1646903677
 40
0.3045247133
 40
0.444359059
 40
0.7203844775
 40
0.8601922387
 40
1.0
 40
1.0
 40
1.0
 40
1.0
 10
160.0745579016
 20
252.5749335903
 30
0.0
 10
160.0582326436
 20
252.6047879182
 30
0.0
 10
160.0259130107
 20
252.6595791873
 30
0.0
 10
159.9719352601
 20
252.743954149
 30
0.0
 10
159.8990444469
 20
252.8422908904
 30
0.0
 10
159.8166835493
 20
252.9390645538
 30
0.0
 10
159.7235249389
 20
253.0197680768
 30
0.0
 10
159.6700948667
 20
253.0518232557
 30
0.0
 10
159.6429696229
 20
253.0669208144
 30
0.0
  0
SPLINE
  5
397
100
AcDbEntity
  8
0
100
AcDbSpline
 62
7
  6
BYLAYER
 70
0
 71
3
 72
15
 73
11
 74
0
 42
0.0000001
 43
0.0000001
 44
0.0000000001
 40
0.0
 40
0.0
 40
0.0
 40
0.0
 40
0.2013419143
 40
0.4053606946
 40
0.5021214215
 40
0.5988821485
 40
0.7943795647
 40
0.8929532629
 40
0.991526961
 40
1.0
 40
1.0
 40
1.0
 40
1.0
 10
159.6429696229
 20
253.0669208144
 30
0.0
 10
159.6957029603
 20
253.0788692942
 30
0.0
 10
159.7982003743
 20
253.1070097048
 30
0.0
 10
159.9147365959
 20
253.1627280365
 30
0.0
 10
159.9989934409
 20
253.2300815688
 30
0.0
 10
160.0696254472
 20
253.3082720053
 30
0.0
 10
160.1134449326
 20
253.4018688225
 30
0.0
 10
160.1343129407
 20
253.5061559524
 30
0.0
 10
160.1373091466
 20
253.5612866854
 30
0.0
 10
160.1378467621
 20
253.5900359637
 30
0.0
 10
160.1378914972
 20
253.5923114394
 30
0.0
  0
SPLINE
  5
398
100
AcDbEntity
  8
0
100
AcDbSpline
 62
7
  6
BYLAYER
 70
0
 71
3
 72
14
 73
10
 74
0
 42
0.0000001
 43
0.0000001
 44
0.0000000001
 40
0.0
 40
0.0
 40
0.0
 40
0.0
 40
0.2061121768
 40
0.4053503232
 40
0.5050393891
 40
0.604728455
 40
0.8005980754
 40
0.9002990377
 40
1.0
 40
1.0
 40
1.0
 40
1.0
 10
160.1378914972
 20
253.5923114394
 30
0.0
 10
160.1367450587
 20
253.6334235387
 30
0.0
 10
160.1309912373
 20
253.708517653
 30
0.0
 10
160.0983677761
 20
253.8071753162
 30
0.0
 10
160.0589859635
 20
253.8762349495
 30
0.0
 10
160.0133829079
 20
253.9403146705
 30
0.0
 10
159.9527425079
 20
253.9961133864
 30
0.0
 10
159.8868628786
 20
254.0389987426
 30
0.0
 10
159.8505751137
 20
254.0556476133
 30
0.0
 10
159.8324227479
 20
254.0637958155
 30
0.0
  0
SPLINE
  5
399
100
AcDbEntity
  8
0
100
AcDbSpline
 62
7
  6
BYLAYER
 70
0
 71
3
 72
10
 73
6
 74
0
 42
0.0000001
 43
0.0000001
 44
0.0000000001
 40
0.0
 40
0.0
 40
0.0
 40
0.0
 40
0.1973990246
 40
0.6050566129
 40
1.0
 40
1.0
 40
1.0
 40
1.0
 10
159.8324227479
 20
254.0637958155
 30
0.0
 10
159.8084699131
 20
254.0744799938
 30
0.0
 10
159.7322685778
 20
254.1037298879
 30
0.0
 10
159.6075194142
 20
254.118961527
 30
0.0
 10
159.4989371382
 20
254.1211623937
 30
0.0
 10
159.4464852366
 20
254.1216083145
 30
0.0
  0
SPLINE
  5
39A
100
AcDbEntity
  8
0
100
AcDbSpline
 62
7
  6
BYLAYER
 70
0
 71
3
 72
11
 73
7
 74
0
 42
0.0000001
 43
0.0000001
 44
0.0000000001
 40
0.0
 40
0.0
 40
0.0
 40
0.0
 40
0.2009361148
 40
0.5004730918
 40
0.8611035312
 40
1.0
 40
1.0
 40
1.0
 40
1.0
 10
158.8230477493
 20
254.1216083144
 30
0.0
 10
158.7972269098
 20
254.1208464779
 30
0.0
 10
158.733335962
 20
254.1185278322
 30
0.0
 10
158.6232883029
 20
254.0725989855
 30
0.0
 10
158.5901684392
 20
253.9650730695
 30
0.0
 10
158.5884779616
 20
253.9015582436
 30
0.0
 10
158.5878914965
 20
253.8837176909
 30
0.0
  0
SPLINE
  5
39B
100
AcDbEntity
  8
0
100
AcDbSpline
 62
7
  6
BYLAYER
 70
0
 71
3
 72
11
 73
7
 74
0
 42
0.0000001
 43
0.0000001
 44
0.0000000001
 40
0.0
 40
0.0
 40
0.0
 40
0.0
 40
0.4026800236
 40
0.6017715613
 40
0.8007218646
 40
1.0
 40
1.0
 40
1.0
 40
1.0
 10
158.5878914965
 20
252.4083270648
 30
0.0
 10
158.5893431599
 20
252.3621349766
 30
0.0
 10
158.5946719432
 20
252.2929325161
 30
0.0
 10
158.6465999417
 20
252.2139372677
 30
0.0
 10
158.7069336067
 20
252.1765571555
 30
0.0
 10
158.7533163449
 20
252.1727885391
 30
0.0
 10
158.7761727476
 20
252.1716083151
 30
0.0
  0
SPLINE
  5
39C
100
AcDbEntity
  8
0
100
AcDbSpline
 62
7
  6
BYLAYER
 70
0
 71
3
 72
12
 73
8
 74
0
 42
0.0000001
 43
0.0000001
 44
0.0000000001
 40
0.0
 40
0.0
 40
0.0
 40
0.0
 40
0.1999250344
 40
0.3997971064
 40
0.5995719444
 40
0.7997609213
 40
1.0
 40
1.0
 40
1.0
 40
1.0
 10
158.7761727476
 20
252.1716083151
 30
0.0
 10
158.7988687326
 20
252.1726410516
 30
0.0
 10
158.8447142288
 20
252.1777197013
 30
0.0
 10
158.9043115387
 20
252.2150886138
 30
0.0
 10
158.943512205
 20
252.2724388499
 30
0.0
 10
158.9606632549
 20
252.3393699426
 30
0.0
 10
158.9623372406
 20
252.3848146043
 30
0.0
 10
158.9628914965
 20
252.4075458155
 30
0.0
  0
SPLINE
  5
39D
100
AcDbEntity
  8
0
100
AcDbSpline
 62
7
  6
BYLAYER
 70
0
 71
3
 72
13
 73
9
 74
0
 42
0.0000001
 43
0.0000001
 44
0.0000000001
 40
0.0
 40
0.0
 40
0.0
 40
0.0
 40
0.1001224172
 40
0.2002448343
 40
0.3998362302
 40
0.499942421
 40
0.6000486117
 40
1.0
 40
1.0
 40
1.0
 40
1.0
 10
159.0980477479
 20
253.0216083148
 30
0.0
 10
159.1182427174
 20
253.0213989361
 30
0.0
 10
159.1586122205
 20
253.0201940385
 30
0.0
 10
159.2386507327
 20
253.0086022734
 30
0.0
 10
159.3143737282
 20
252.9756492986
 30
0.0
 10
159.3750687045
 20
252.9220786619
 30
0.0
 10
159.4571905506
 20
252.8330668322
 30
0.0
 10
159.5094116135
 20
252.7455142164
 30
0.0
 10
159.5507821216
 20
252.6762958142
 30
0.0
  0
SPLINE
  5
39E
100
AcDbEntity
  8
0
100
AcDbSpline
 62
7
  6
BYLAYER
 70
0
 71
3
 72
14
 73
10
 74
0
 42
0.0000001
 43
0.0000001
 44
0.0000000001
 40
0.0
 40
0.0
 40
0.0
 40
0.0
 40
0.2000400701
 40
0.4000730916
 40
0.5999681844
 40
0.6999742633
 40
0.7999803423
 40
0.8999901711
 40
1.0
 40
1.0
 40
1.0
 40
1.0
 10
159.7078133722
 20
252.4180926904
 30
0.0
 10
159.7213148856
 20
252.3958453407
 30
0.0
 10
159.7484073085
 20
252.3513787848
 30
0.0
 10
159.7902077732
 20
252.2855713234
 30
0.0
 10
159.8304832556
 20
252.2338214271
 30
0.0
 10
159.8718538691
 20
252.201758497
 30
0.0
 10
159.9062766064
 20
252.1829168813
 30
0.0
 10
159.9445666006
 20
252.1733052205
 30
0.0
 10
159.9705796458
 20
252.1720298938
 30
0.0
 10
159.9835946222
 20
252.1716083151
 30
0.0
  0
SPLINE
  5
39F
100
AcDbEntity
  8
0
100
AcDbSpline
 62
7
  6
BYLAYER
 70
0
 71
3
 72
10
 73
6
 74
0
 42
0.0000001
 43
0.0000001
 44
0.0000000001
 40
0.0
 40
0.0
 40
0.0
 40
0.0
 40
0.198087034
 40
0.5959105144
 40
1.0
 40
1.0
 40
1.0
 40
1.0
 10
61.289453997
 20
252.5759051894
 30
0.0
 10
61.2750743787
 20
252.5552575472
 30
0.0
 10
61.2265114688
 20
252.4965056129
 30
0.0
 10
61.1096998168
 20
252.4361272211
 30
0.0
 10
61.012220432
 20
252.4230470159
 30
0.0
 10
60.960938372
 20
252.4216083144
 30
0.0
  0
SPLINE
  5
3A0
100
AcDbEntity
  8
0
100
AcDbSpline
 62
7
  6
BYLAYER
 70
0
 71
3
 72
12
 73
8
 74
0
 42
0.0000001
 43
0.0000001
 44
0.0000000001
 40
0.0
 40
0.0
 40
0.0
 40
0.0
 40
0.2001309859
 40
0.4002806845
 40
0.6002991767
 40
0.800148334
 40
1.0
 40
1.0
 40
1.0
 40
1.0
 10
60.960938372
 20
252.4216083144
 30
0.0
 10
60.9395811287
 20
252.4222527709
 30
0.0
 10
60.8968059011
 20
252.4246771757
 30
0.0
 10
60.8352457361
 20
252.4460936132
 30
0.0
 10
60.7839129895
 20
252.4852381753
 30
0.0
 10
60.7446835475
 20
252.5381511265
 30
0.0
 10
60.739222523
 20
252.581555315
 30
0.0
 10
60.737891498
 20
252.6028583148
 30
0.0
  0
SPLINE
  5
3A1
100
AcDbEntity
  8
0
100
AcDbSpline
 62
7
  6
BYLAYER
 70
0
 71
3
 72
15
 73
11
 74
0
 42
0.0000001
 43
0.0000001
 44
0.0000000001
 40
0.0
 40
0.0
 40
0.0
 40
0.0
 40
0.0606860954
 40
0.1213486614
 40
0.2079373117
 40
0.3071486446
 40
0.4063599775
 40
0.6049116722
 40
0.7938035583
 40
1.0
 40
1.0
 40
1.0
 40
1.0
 10
60.737891498
 20
252.6028583148
 30
0.0
 10
60.7384672614
 20
252.6171964056
 30
0.0
 10
60.7404066615
 20
252.6459241481
 30
0.0
 10
60.7610595127
 20
252.6919657228
 30
0.0
 10
60.8058445656
 20
252.7306202564
 30
0.0
 10
60.8651064654
 20
252.7634649501
 30
0.0
 10
60.9569863773
 20
252.784531997
 30
0.0
 10
61.0684737557
 20
252.8074453421
 30
0.0
 10
61.2088203011
 20
252.8350593665
 30
0.0
 10
61.2916339943
 20
252.8565597121
 30
0.0
 10
61.337891498
 20
252.8716083159
 30
0.0
  0
SPLINE
  5
3A2
100
AcDbEntity
  8
0
100
AcDbSpline
 62
7
  6
BYLAYER
 70
0
 71
3
 72
12
 73
8
 74
0
 42
0.0000001
 43
0.0000001
 44
0.0000000001
 40
0.0
 40
0.0
 40
0.0
 40
0.0
 40
0.2000490715
 40
0.4001188739
 40
0.6001469447
 40
0.8001143607
 40
1.0
 40
1.0
 40
1.0
 40
1.0
 10
61.3378914972
 20
252.8243427149
 30
0.0
 10
61.3377412506
 20
252.8072660684
 30
0.0
 10
61.3371383032
 20
252.7731215611
 30
0.0
 10
61.333530587
 20
252.7219675938
 30
0.0
 10
61.3258362185
 20
252.6712955026
 30
0.0
 10
61.3130082441
 20
252.6215286782
 30
0.0
 10
61.2981415654
 20
252.5906034091
 30
0.0
 10
61.289453997
 20
252.5759051894
 30
0.0
  0
SPLINE
  5
3A3
100
AcDbEntity
  8
0
100
AcDbSpline
 62
7
  6
BYLAYER
 70
0
 71
3
 72
10
 73
6
 74
0
 42
0.0000001
 43
0.0000001
 44
0.0000000001
 40
0.0
 40
0.0
 40
0.0
 40
0.0
 40
0.2919635581
 40
0.5841179642
 40
1.0
 40
1.0
 40
1.0
 40
1.0
 10
61.755078996
 20
252.3161395644
 30
0.0
 10
61.7533914144
 20
252.3398514497
 30
0.0
 10
61.7423010603
 20
252.3862125312
 30
0.0
 10
61.7185792245
 20
252.4645642531
 30
0.0
 10
61.7041471111
 20
252.5182267728
 30
0.0
 10
61.6981340792
 20
252.550524782
 30
0.0
  0
SPLINE
  5
3A4
100
AcDbEntity
  8
0
100
AcDbSpline
 62
7
  6
BYLAYER
 70
0
 71
3
 72
9
 73
5
 74
0
 42
0.0000001
 43
0.0000001
 44
0.0000000001
 40
0.0
 40
0.0
 40
0.0
 40
0.0
 40
0.3854264319
 40
1.0
 40
1.0
 40
1.0
 40
1.0
 10
61.6981340792
 20
252.550524782
 30
0.0
 10
61.6954849576
 20
252.5647541019
 30
0.0
 10
61.6898525823
 20
252.6020643006
 30
0.0
 10
61.6883885321
 20
252.6411990769
 30
0.0
 10
61.6878914971
 20
252.6649676867
 30
0.0
  0
SPLINE
  5
3A5
100
AcDbEntity
  8
0
100
AcDbSpline
 62
7
  6
BYLAYER
 70
0
 71
3
 72
18
 73
14
 74
0
 42
0.0000001
 43
0.0000001
 44
0.0000000001
 40
0.0
 40
0.0
 40
0.0
 40
0.0
 40
0.1000857749
 40
0.150138579
 40
0.2001913831
 40
0.2685553882
 40
0.3369193933
 40
0.4821298226
 40
0.6316567313
 40
0.7225262179
 40
0.8133957046
 40
0.9066978523
 40
1.0
 40
1.0
 40
1.0
 40
1.0
 10
61.6906258711
 20
253.0719989319
 30
0.0
 10
61.6904324145
 20
253.1042155312
 30
0.0
 10
61.6889495172
 20
253.1525602233
 30
0.0
 10
61.6823660677
 20
253.2166773495
 30
0.0
 10
61.6738504468
 20
253.2702764829
 30
0.0
 10
61.6595771234
 20
253.328735084
 30
0.0
 10
61.6290035472
 20
253.41441877
 30
0.0
 10
61.5573497666
 20
253.511180573
 30
0.0
 10
61.4454197738
 20
253.5706786475
 30
0.0
 10
61.3425439471
 20
253.5992426377
 30
0.0
 10
61.2549209599
 20
253.6128015572
 30
0.0
 10
61.1658881232
 20
253.6203779645
 30
0.0
 10
61.1058142464
 20
253.6214533514
 30
0.0
 10
61.075782123
 20
253.6216083156
 30
0.0
  0
SPLINE
  5
3A6
100
AcDbEntity
  8
0
100
AcDbSpline
 62
7
  6
BYLAYER
 70
0
 71
3
 72
13
 73
9
 74
0
 42
0.0000001
 43
0.0000001
 44
0.0000000001
 40
0.0
 40
0.0
 40
0.0
 40
0.0
 40
0.2031388435
 40
0.4025202618
 40
0.5949770598
 40
0.7738569712
 40
0.9281275306
 40
1.0
 40
1.0
 40
1.0
 40
1.0
 10
61.075782123
 20
253.6216083156
 30
0.0
 10
61.0204770264
 20
253.6206627539
 30
0.0
 10
60.9150609334
 20
253.6169767114
 30
0.0
 10
60.7543929151
 20
253.5812871675
 30
0.0
 10
60.6124663172
 20
253.5147682335
 30
0.0
 10
60.5060825256
 20
253.4157512256
 30
0.0
 10
60.4563532661
 20
253.3133950314
 30
0.0
 10
60.4514748194
 20
253.2517142086
 30
0.0
 10
60.450391496
 20
253.2321551894
 30
0.0
  0
SPLINE
  5
3A7
100
AcDbEntity
  8
0
100
AcDbSpline
 62
7
  6
BYLAYER
 70
0
 71
3
 72
12
 73
8
 74
0
 42
0.0000001
 43
0.0000001
 44
0.0000000001
 40
0.0
 40
0.0
 40
0.0
 40
0.0
 40
0.1999611927
 40
0.3998621694
 40
0.59996871
 40
0.7999958622
 40
1.0
 40
1.0
 40
1.0
 40
1.0
 10
60.450391496
 20
253.2321551894
 30
0.0
 10
60.4511384944
 20
253.2171940932
 30
0.0
 10
60.4540023044
 20
253.1869570583
 30
0.0
 10
60.4770655877
 20
253.1470776721
 30
0.0
 10
60.5110020432
 20
253.117024665
 30
0.0
 10
60.5521624041
 20
253.0971094355
 30
0.0
 10
60.5822993297
 20
253.0944830907
 30
0.0
 10
60.597266498
 20
253.0938739409
 30
0.0
  0
SPLINE
  5
3A8
100
AcDbEntity
  8
0
100
AcDbSpline
 62
7
  6
BYLAYER
 70
0
 71
3
 72
16
 73
12
 74
0
 42
0.0000001
 43
0.0000001
 44
0.0000000001
 40
0.0
 40
0.0
 40
0.0
 40
0.0
 40
0.0500644407
 40
0.1001288814
 40
0.1363830491
 40
0.1951285244
 40
0.2902624515
 40
0.444164298
 40
0.643863274
 40
0.8309315856
 40
1.0
 40
1.0
 40
1.0
 40
1.0
 10
60.597266498
 20
253.0938739409
 30
0.0
 10
60.6071036097
 20
253.0940564621
 30
0.0
 10
60.6267764002
 20
253.0945395467
 30
0.0
 10
60.6531836213
 20
253.0994431698
 30
0.0
 10
60.6800159135
 20
253.1106312932
 30
0.0
 10
60.7021283474
 20
253.1422370641
 30
0.0
 10
60.7360928174
 20
253.1913728364
 30
0.0
 10
60.7818032413
 20
253.2670765796
 30
0.0
 10
60.8629752563
 20
253.3403741158
 30
0.0
 10
60.9708203155
 20
253.3690747958
 30
0.0
 10
61.0406531347
 20
253.3709895691
 30
0.0
 10
61.073828998
 20
253.3716083156
 30
0.0
  0
SPLINE
  5
3A9
100
AcDbEntity
  8
0
100
AcDbSpline
 62
7
  6
BYLAYER
 70
0
 71
3
 72
14
 73
10
 74
0
 42
0.0000001
 43
0.0000001
 44
0.0000000001
 40
0.0
 40
0.0
 40
0.0
 40
0.0
 40
0.2000858611
 40
0.3000836491
 40
0.4000814371
 40
0.4999352442
 40
0.6616244143
 40
0.8616869733
 40
1.0
 40
1.0
 40
1.0
 40
1.0
 10
61.073828998
 20
253.3716083156
 30
0.0
 10
61.103421433
 20
253.3710689381
 30
0.0
 10
61.1480467652
 20
253.369422754
 30
0.0
 10
61.2057263363
 20
253.3555705426
 30
0.0
 10
61.2470426305
 20
253.3385310414
 30
0.0
 10
61.2884471505
 20
253.3030434737
 30
0.0
 10
61.3173077165
 20
253.2393931492
 30
0.0
 10
61.3334590986
 20
253.1670813438
 30
0.0
 10
61.3366115454
 20
253.117035709
 30
0.0
 10
61.337891497
 20
253.0966083152
 30
0.0
  0
SPLINE
  5
3AA
100
AcDbEntity
  8
0
100
AcDbSpline
 62
7
  6
BYLAYER
 70
0
 71
3
 72
12
 73
8
 74
0
 42
0.0000001
 43
0.0000001
 44
0.0000000001
 40
0.0
 40
0.0
 40
0.0
 40
0.0
 40
0.5941161716
 40
0.7970586641
 40
0.8985289018
 40
0.9492644509
 40
1.0
 40
1.0
 40
1.0
 40
1.0
 10
61.337891497
 20
253.0966083152
 30
0.0
 10
61.220353672
 20
253.0618003212
 30
0.0
 10
61.0508623491
 20
253.0179938797
 30
0.0
 10
60.8709599089
 20
252.9800541218
 30
0.0
 10
60.7992591612
 20
252.9644425126
 30
0.0
 10
60.7583169107
 20
252.9557085725
 30
0.0
 10
60.737940196
 20
252.9508931553
 30
0.0
 10
60.727735246
 20
252.9485614398
 30
0.0
  0
SPLINE
  5
3AB
100
AcDbEntity
  8
0
100
AcDbSpline
 62
7
  6
BYLAYER
 70
0
 71
3
 72
15
 73
11
 74
0
 42
0.0000001
 43
0.0000001
 44
0.0000000001
 40
0.0
 40
0.0
 40
0.0
 40
0.0
 40
0.2026666418
 40
0.4018587851
 40
0.5015616191
 40
0.6012644531
 40
0.7009305914
 40
0.8005967297
 40
0.9002983648
 40
1.0
 40
1.0
 40
1.0
 40
1.0
 10
60.727735246
 20
252.9485614398
 30
0.0
 10
60.6910810577
 20
252.9398151601
 30
0.0
 10
60.6217067516
 20
252.9193844327
 30
0.0
 10
60.5393916546
 20
252.8714160516
 30
0.0
 10
60.4846343686
 20
252.8213010835
 30
0.0
 10
60.449465628
 20
252.7779545312
 30
0.0
 10
60.4212900544
 20
252.7297769267
 30
0.0
 10
60.4017360055
 20
252.6775460537
 30
0.0
 10
60.3896370119
 20
252.623011741
 30
0.0
 10
60.3884872594
 20
252.5858375554
 30
0.0
 10
60.387891496
 20
252.5673114402
 30
0.0
  0
SPLINE
  5
3AC
100
AcDbEntity
  8
0
100
AcDbSpline
 62
7
  6
BYLAYER
 70
0
 71
3
 72
11
 73
7
 74
0
 42
0.0000001
 43
0.0000001
 44
0.0000000001
 40
0.0
 40
0.0
 40
0.0
 40
0.0
 40
0.3208623367
 40
0.6417246734
 40
0.9625328164
 40
1.0
 40
1.0
 40
1.0
 40
1.0
 10
60.387891496
 20
252.5673114402
 30
0.0
 10
60.3887222394
 20
252.5448513232
 30
0.0
 10
60.3912448816
 20
252.4998738067
 30
0.0
 10
60.4095900382
 20
252.4344785264
 30
0.0
 10
60.4304173667
 20
252.3915683563
 30
0.0
 10
60.4434294519
 20
252.3701128764
 30
0.0
 10
60.4448123425
 20
252.3678827021
 30
0.0
  0
SPLINE
  5
3AD
100
AcDbEntity
  8
0
100
AcDbSpline
 62
7
  6
BYLAYER
 70
0
 71
3
 72
10
 73
6
 74
0
 42
0.0000001
 43
0.0000001
 44
0.0000000001
 40
0.0
 40
0.0
 40
0.0
 40
0.0
 40
0.1286108034
 40
0.4193274659
 40
1.0
 40
1.0
 40
1.0
 40
1.0
 10
60.4448123425
 20
252.3678827021
 30
0.0
 10
60.4552702823
 20
252.3510172832
 30
0.0
 10
60.4934945638
 20
252.2985579847
 30
0.0
 10
60.6166183878
 20
252.200173378
 30
0.0
 10
60.7534561794
 20
252.1744679247
 30
0.0
 10
60.842969621
 20
252.1716083144
 30
0.0
  0
SPLINE
  5
3AE
100
AcDbEntity
  8
0
100
AcDbSpline
 62
7
  6
BYLAYER
 70
0
 71
3
 72
10
 73
6
 74
0
 42
0.0000001
 43
0.0000001
 44
0.0000000001
 40
0.0
 40
0.0
 40
0.0
 40
0.0
 40
0.4032615757
 40
0.6024714249
 40
1.0
 40
1.0
 40
1.0
 40
1.0
 10
60.842969621
 20
252.1716083144
 30
0.0
 10
60.9216821094
 20
252.1739553826
 30
0.0
 10
61.0335115219
 20
252.187070825
 30
0.0
 10
61.2097084243
 20
252.2703831532
 30
0.0
 10
61.301236392
 20
252.3382015649
 30
0.0
 10
61.361719622
 20
252.3868426909
 30
0.0
  0
SPLINE
  5
3AF
100
AcDbEntity
  8
0
100
AcDbSpline
 62
7
  6
BYLAYER
 70
0
 71
3
 72
12
 73
8
 74
0
 42
0.0000001
 43
0.0000001
 44
0.0000000001
 40
0.0
 40
0.0
 40
0.0
 40
0.0
 40
0.2020219168
 40
0.59620898
 40
0.797997726
 40
0.898998863
 40
1.0
 40
1.0
 40
1.0
 40
1.0
 10
61.361719622
 20
252.3868426909
 30
0.0
 10
61.3725963954
 20
252.3682656594
 30
0.0
 10
61.4048220385
 20
252.3143449793
 30
0.0
 10
61.4575090404
 20
252.2415242764
 30
0.0
 10
61.5133255854
 20
252.1924903475
 30
0.0
 10
61.5531919271
 20
252.1743983407
 30
0.0
 10
61.5747965814
 20
252.1724506701
 30
0.0
 10
61.585547748
 20
252.1716083144
 30
0.0
  0
SPLINE
  5
3B0
100
AcDbEntity
  8
0
100
AcDbSpline
 62
7
  6
BYLAYER
 70
0
 71
3
 72
11
 73
7
 74
0
 42
0.0000001
 43
0.0000001
 44
0.0000000001
 40
0.0
 40
0.0
 40
0.0
 40
0.0
 40
0.2003878167
 40
0.4009003117
 40
0.799945157
 40
1.0
 40
1.0
 40
1.0
 40
1.0
 10
61.585547748
 20
252.1716083144
 30
0.0
 10
61.6018331814
 20
252.1723147314
 30
0.0
 10
61.6347257011
 20
252.1753760887
 30
0.0
 10
61.6935709364
 20
252.2038216119
 30
0.0
 10
61.7448790758
 20
252.250845271
 30
0.0
 10
61.754003256
 20
252.2998892574
 30
0.0
 10
61.755078996
 20
252.3161395644
 30
0.0
  0
SPLINE
  5
3B1
100
AcDbEntity
  8
0
100
AcDbSpline
 62
7
  6
BYLAYER
 70
0
 71
3
 72
14
 73
10
 74
0
 42
0.0000001
 43
0.0000001
 44
0.0000000001
 40
0.0
 40
0.0
 40
0.0
 40
0.0
 40
0.2002340318
 40
0.3003521375
 40
0.4004702432
 40
0.4986154078
 40
0.5967605724
 40
0.7963516931
 40
1.0
 40
1.0
 40
1.0
 40
1.0
 10
65.4542977473
 20
253.8059833148
 30
0.0
 10
65.4416324739
 20
253.8396389303
 30
0.0
 10
65.4221924041
 20
253.8899386521
 30
0.0
 10
65.396781878
 20
253.9572627128
 30
0.0
 10
65.3736257828
 20
254.0056340536
 30
0.0
 10
65.3474228547
 20
254.0521076182
 30
0.0
 10
65.3043658293
 20
254.108865596
 30
0.0
 10
65.227985383
 20
254.1629664494
 30
0.0
 10
65.1541617364
 20
254.1706618208
 30
0.0
 10
65.117578998
 20
254.171608315
 30
0.0
  0
SPLINE
  5
3B2
100
AcDbEntity
  8
0
100
AcDbSpline
 62
7
  6
BYLAYER
 70
0
 71
3
 72
16
 73
12
 74
0
 42
0.0000001
 43
0.0000001
 44
0.0000000001
 40
0.0
 40
0.0
 40
0.0
 40
0.0
 40
0.2019603904
 40
0.2978793151
 40
0.3937982398
 40
0.5930826532
 40
0.6928937409
 40
0.7927048287
 40
0.8925187957
 40
0.9923327628
 40
1.0
 40
1.0
 40
1.0
 40
1.0
 10
65.117578998
 20
254.171608315
 30
0.0
 10
65.0811970997
 20
254.1706592642
 30
0.0
 10
65.0280109785
 20
254.1657767522
 30
0.0
 10
64.9651753531
 20
254.1307457347
 30
0.0
 10
64.910264545
 20
254.0859658796
 30
0.0
 10
64.8733801277
 20
254.0235521999
 30
0.0
 10
64.8427264201
 20
253.9587257376
 30
0.0
 10
64.8240255473
 20
253.9080676905
 30
0.0
 10
64.8041086089
 20
253.8579709517
 30
0.0
 10
64.7910594031
 20
253.8229869238
 30
0.0
 10
64.7840912542
 20
253.8049280142
 30
0.0
 10
64.7835946322
 20
253.8036395897
 30
0.0
  0
SPLINE
  5
3B3
100
AcDbEntity
  8
0
100
AcDbSpline
 62
7
  6
BYLAYER
 70
0
 71
3
 72
10
 73
6
 74
0
 42
0.0000001
 43
0.0000001
 44
0.0000000001
 40
0.0
 40
0.0
 40
0.0
 40
0.0
 40
0.4000644681
 40
0.7999793234
 40
1.0
 40
1.0
 40
1.0
 40
1.0
 10
64.2941414896
 20
252.5477801723
 30
0.0
 10
64.2837766674
 20
252.5220259814
 30
0.0
 10
64.2644286066
 20
252.4702126983
 30
0.0
 10
64.2405670089
 20
252.4042242615
 30
0.0
 10
64.2384475754
 20
252.3624514075
 30
0.0
 10
64.237891497
 20
252.3485614408
 30
0.0
  0
SPLINE
  5
3B4
100
AcDbEntity
  8
0
100
AcDbSpline
 62
7
  6
BYLAYER
 70
0
 71
3
 72
12
 73
8
 74
0
 42
0.0000001
 43
0.0000001
 44
0.0000000001
 40
0.0
 40
0.0
 40
0.0
 40
0.0
 40
0.1998600464
 40
0.3998332239
 40
0.6000164726
 40
0.8000423366
 40
1.0
 40
1.0
 40
1.0
 40
1.0
 10
64.237891497
 20
252.3485614408
 30
0.0
 10
64.2389825287
 20
252.3297847516
 30
0.0
 10
64.243818385
 20
252.291830834
 30
0.0
 10
64.2747963711
 20
252.2432290822
 30
0.0
 10
64.3157624624
 20
252.204088401
 30
0.0
 10
64.3664585152
 20
252.1768351057
 30
0.0
 10
64.404264717
 20
252.1726610962
 30
0.0
 10
64.423047747
 20
252.171608315
 30
0.0
  0
SPLINE
  5
3B5
100
AcDbEntity
  8
0
100
AcDbSpline
 62
7
  6
BYLAYER
 70
0
 71
3
 72
12
 73
8
 74
0
 42
0.0000001
 43
0.0000001
 44
0.0000000001
 40
0.0
 40
0.0
 40
0.0
 40
0.0
 40
0.1998433516
 40
0.2999253524
 40
0.4614444094
 40
0.6615805786
 40
1.0
 40
1.0
 40
1.0
 40
1.0
 10
64.423047747
 20
252.171608315
 30
0.0
 10
64.446195427
 20
252.1725316012
 30
0.0
 10
64.4812994478
 20
252.1752258518
 30
0.0
 10
64.5306392104
 20
252.1985462049
 30
0.0
 10
64.5645555444
 20
252.2416237174
 30
0.0
 10
64.6006843899
 20
252.314039034
 30
0.0
 10
64.6243852196
 20
252.3718369923
 30
0.0
 10
64.638672744
 20
252.4083270596
 30
0.0
  0
SPLINE
  5
3B6
100
AcDbEntity
  8
0
100
AcDbSpline
 62
7
  6
BYLAYER
 70
0
 71
3
 72
14
 73
10
 74
0
 42
0.0000001
 43
0.0000001
 44
0.0000000001
 40
0.0
 40
0.0
 40
0.0
 40
0.0
 40
0.2001313341
 40
0.4002604237
 40
0.5003035014
 40
0.6003465791
 40
0.7998813241
 40
0.899940662
 40
1.0
 40
1.0
 40
1.0
 40
1.0
 10
65.599219615
 20
252.413405207
 30
0.0
 10
65.6084769173
 20
252.3915865336
 30
0.0
 10
65.6272895861
 20
252.3480922404
 30
0.0
 10
65.6515975587
 20
252.2939931949
 30
0.0
 10
65.6744260985
 20
252.2524473194
 30
0.0
 10
65.7018167072
 20
252.2135395852
 30
0.0
 10
65.7423014409
 20
252.1859232666
 30
0.0
 10
65.7881380999
 20
252.1728161757
 30
0.0
 10
65.8119555337
 20
252.1720579517
 30
0.0
 10
65.823828997
 20
252.171608315
 30
0.0
  0
SPLINE
  5
3B7
100
AcDbEntity
  8
0
100
AcDbSpline
 62
7
  6
BYLAYER
 70
0
 71
3
 72
12
 73
8
 74
0
 42
0.0000001
 43
0.0000001
 44
0.0000000001
 40
0.0
 40
0.0
 40
0.0
 40
0.0
 40
0.199996385
 40
0.4000257751
 40
0.6001634023
 40
0.8001745384
 40
1.0
 40
1.0
 40
1.0
 40
1.0
 10
65.823828997
 20
252.171608315
 30
0.0
 10
65.8429590987
 20
252.1725812677
 30
0.0
 10
65.8815221764
 20
252.1762606557
 30
0.0
 10
65.9334041723
 20
252.2036566953
 30
0.0
 10
65.9749908503
 20
252.2436950943
 30
0.0
 10
66.0060977005
 20
252.2933229878
 30
0.0
 10
66.0117284804
 20
252.3317936331
 30
0.0
 10
66.012891497
 20
252.3509051904
 30
0.0
  0
SPLINE
  5
3B8
100
AcDbEntity
  8
0
100
AcDbSpline
 62
7
  6
BYLAYER
 70
0
 71
3
 72
10
 73
6
 74
0
 42
0.0000001
 43
0.0000001
 44
0.0000000001
 40
0.0
 40
0.0
 40
0.0
 40
0.0
 40
0.199917091
 40
0.5999219332
 40
1.0
 40
1.0
 40
1.0
 40
1.0
 10
66.012891497
 20
252.3509051904
 30
0.0
 10
66.0125428054
 20
252.3653375441
 30
0.0
 10
66.0074036865
 20
252.4084824877
 30
0.0
 10
65.9859653504
 20
252.4777522957
 30
0.0
 10
65.9650152669
 20
252.5315129514
 30
0.0
 10
65.9542977469
 20
252.5583270653
 30
0.0
  0
ENDSEC
  0
SECTION
  2
OBJECTS
  0
DICTIONARY
  5
C
100
AcDbDictionary
280
0
281
1
  3
ACAD_GROUP
350
D
  3
ACAD_MLINESTYLE
350
17
  3
ACAD_LAYOUT
350
1A
  3
ACAD_PLOTSETTINGS
350
19
  3
ACAD_PLOTSTYLENAME
350
E
  0
DICTIONARY
  5
D
102
{ACAD_REACTORS
330
C
102
}
100
AcDbDictionary
280
0
281
1
  0
ACDBDICTIONARYWDFLT
  5
E
102
{ACAD_REACTORS
330
C
102
}
100
AcDbDictionary
281
1
  3
Normal
350
F
100
AcDbDictionaryWithDefault
340
F
  0
DICTIONARY
  5
17
102
{ACAD_REACTORS
330
C
102
}
100
AcDbDictionary
280
0
281
1
  3
Standard
350
18
  0
DICTIONARY
  5
19
102
{ACAD_REACTORS
330
C
102
}
100
AcDbDictionary
281
1
  0
DICTIONARY
  5
1A
102
{ACAD_REACTORS
330
C
102
}
100
AcDbDictionary
281
1
  3
Model
350
3B9
  3
Layout1
350
3BA
  0
ACDBPLACEHOLDER
  5
F
102
{ACAD_REACTORS
330
E
102
}
  0
MLINESTYLE
  5
18
102
{ACAD_REACTORS
330
17
102
}
100
AcDbMlineStyle
  2
STANDARD
 70
0
  3

 62
256
 51
90.0
 52
90.0
 71
2
 49
0.5
 62
256
  6
BYLAYER
 49
-0.5
 62
256
  6
BYLAYER
  0
LAYOUT
  5
3B9
102
{ACAD_REACTORS
330
1A
102
}
100
AcDbPlotSettings
  1

  2
none_device
  4

  6

 40
0.0
 41
0.0
 42
0.0
 43
0.0
 44
210.0
 45
297.0
 46
0.0
 47
0.0
 48
0.0
 49
0.0
140
0.0
141
0.0
142
1.0
143
1.0
 70
1024
 72
1
 73
0
 74
0
  7

 75
0
147
1.0
148
0.0
149
0.0
100
AcDbLayout
  1
Model
 70
0
 71
0
 10
0.0
 20
0.0
 11
210.0
 21
297.0
 12
0.0
 22
0.0
 32
0.0
 14
0.0
 24
0.0
 34
0.0
 15
0.0
 25
0.0
 35
0.0
146
0.0
 13
0.0
 23
0.0
 33
0.0
 16
1.0
 26
0.0
 36
0.0
 17
0.0
 27
1.0
 37
0.0
 76
0
330
210
345
0
346
0
  0
LAYOUT
  5
3BA
102
{ACAD_REACTORS
330
1A
102
}
100
AcDbPlotSettings
  1

  2
none_device
  4

  6

 40
0.0
 41
0.0
 42
0.0
 43
0.0
 44
210.0
 45
297.0
 46
0.0
 47
0.0
 48
0.0
 49
0.0
140
0.0
141
0.0
142
1.0
143
1.0
 70
0
 72
1
 73
0
 74
0
  7

 75
0
147
1.0
148
0.0
149
0.0
100
AcDbLayout
  1
Layout1
 70
0
 71
1
 10
0.0
 20
0.0
 11
210.0
 21
297.0
 12
0.0
 22
0.0
 32
0.0
 14
0.0
 24
0.0
 34
0.0
 15
0.0
 25
0.0
 35
0.0
146
0.0
 13
0.0
 23
0.0
 33
0.0
 16
1.0
 26
0.0
 36
0.0
 17
0.0
 27
1.0
 37
0.0
 76
0
330
211
345
0
346
0
  0
ENDSEC
  0
EOF
