999
DXF file: C:\Users\sesa63760\Dev\_Creo\CAD\MCADID0000497_3D-CAD\drw0001_2.dxf
999
Pro/ENGINEER 2019471 by Parametric Technology Corporation
  0
SECTION
  2
HEADER
  9
$ACADVER
  1
AC1024
  9
$DWGCODEPAGE
  3
ANSI_1252
  9
$EXTMAX
 10
372.5350920284
 20
526.8710587259
 30
0.0
  9
$EXTMIN
 10
0.0
 20
0.0
 30
0.0
  9
$LIMMIN
 10
0.0
 20
0.0
  9
$LIMMAX
 10
372.5350920284
 20
526.8710587259
  9
$VIEWCTR
 10
186.2675460142
 20
263.435529363
  9
$VIEWSIZE
 40
526.8710587259
  9
$CLAYER
  8
0
  9
$LTSCALE
 40
34.3441875318
  9
$CELTYPE
  6
BYLAYER
  9
$DIMSCALE
 40
1.0
  9
$DIMASZ
 40
4.4349415718
  9
$DIMEXO
 40
1.0
  9
$DIMDLI
 40
23.7287113856
  9
$DIMEXE
 40
1.0
  9
$DIMCEN
 40
5.6199579597
  9
$DIMLFAC
 40
1.0
  9
$DIMBLK
  1
_FILLED
  9
$DIMALT
 70
0
  9
$DIMALTF
 40
0.0393700787
  9
$DIMTXT
 40
6.2089182005
  9
$DIMTOL
 70
1
  9
$DIMLIM
 70
0
  9
$DIMTFAC
 40
1.0
  9
$DIMTP
 40
0.01
  9
$DIMTM
 40
0.01
  9
$DIMGAP
 40
0.625
  9
$DIMDSEP
 70
46
  9
$AUNITS
 70
0
  9
$PDMODE
 70
3
  9
$PDSIZE
 40
0.3125
  9
$HANDSEED
  5
35C
  9
$TILEMODE
 70
1
  9
$MEASUREMENT
 70
1
  9
$INSUNITS
 70
4
  0
ENDSEC
  0
SECTION
  2
CLASSES
  0
CLASS
  1
ACDBDICTIONARYWDFLT
  2
AcDbDictionaryWithDefault
  3
AutoCAD 2000
 90
0
 91
1
280
0
281
0
  0
CLASS
  1
ACDBPLACEHOLDER
  2
AcDbPlaceHolder
  3
AutoCAD 2000
 90
0
 91
1
280
0
281
0
  0
CLASS
  1
LAYOUT
  2
AcDbLayout
  3
AutoCAD 2000
 90
0
 91
0
280
0
281
0
  0
ENDSEC
  0
SECTION
  2
TABLES
  0
TABLE
  2
VPORT
  5
8
100
AcDbSymbolTable
 70
2
  0
VPORT
  5
1F4
100
AcDbSymbolTableRecord
100
AcDbViewportTableRecord
  2
*ACTIVE
 70
0
 10
0.0
 20
0.0
 11
1.0
 21
1.0
 12
186.2675460142
 22
263.435529363
 13
0.0
 23
0.0
 14
1.0
 24
1.0
 15
0.0
 25
0.0
 16
0.0
 26
0.0
 36
1.0
 17
0.0
 27
0.0
 37
0.0
 40
526.8710587259
 41
0.7070707071
 42
50.0
 43
0.0
 44
0.0
 50
0.0
 51
0.0
 71
0
 72
100
 73
1
 74
1
 75
0
 76
0
 77
0
 78
0
  0
ENDTAB
  0
TABLE
  2
LTYPE
  5
5
100
AcDbSymbolTable
 70
6
  0
LTYPE
  5
14
100
AcDbSymbolTableRecord
100
AcDbLinetypeTableRecord
  2
BYBLOCK
 70
0
  3

 72
65
 73
0
 40
0.0
  0
LTYPE
  5
15
100
AcDbSymbolTableRecord
100
AcDbLinetypeTableRecord
  2
BYLAYER
 70
0
  3

 72
65
 73
0
 40
0.0
  0
LTYPE
  5
16
100
AcDbSymbolTableRecord
100
AcDbLinetypeTableRecord
  2
CONTINUOUS
 70
64
  3
Solid line
 72
65
 73
0
 40
0.0
  0
LTYPE
  5
1F5
100
AcDbSymbolTableRecord
100
AcDbLinetypeTableRecord
  2
CENTER
 70
64
  3
____ _ ____ _ ____ _ ____ _ ____ _ ____ _ ____
 72
65
 73
4
 40
0.6
 49
0.375
 74
0
 49
-0.075
 74
0
 49
0.075
 74
0
 49
-0.075
 74
0
  0
LTYPE
  5
1F6
100
AcDbSymbolTableRecord
100
AcDbLinetypeTableRecord
  2
HIDDEN
 70
64
  3
- - - - - - - - - - - - - - - - - - - -
 72
65
 73
2
 40
0.2
 49
0.1
 74
0
 49
-0.1
 74
0
  0
LTYPE
  5
1F7
100
AcDbSymbolTableRecord
100
AcDbLinetypeTableRecord
  2
PHANTOM
 70
64
  3
_____ _ _ _____ _ _ _____ _ _ _____
 72
65
 73
6
 40
0.8
 49
0.45
 74
0
 49
-0.05
 74
0
 49
0.1
 74
0
 49
-0.05
 74
0
 49
0.1
 74
0
 49
-0.05
 74
0
  0
LTYPE
  5
1F8
100
AcDbSymbolTableRecord
100
AcDbLinetypeTableRecord
  2
DOT
 70
64
  3
. . . . . . . . . . . . . . . . . . . .
 72
65
 73
2
 40
0.2
 49
0.1
 74
0
 49
-0.1
 74
0
  0
LTYPE
  5
1F9
100
AcDbSymbolTableRecord
100
AcDbLinetypeTableRecord
  2
DASHED
 70
64
  3
- - - - - - - - - - - - - - - - - - - -
 72
65
 73
2
 40
0.2
 49
0.1
 74
0
 49
-0.1
 74
0
  0
ENDTAB
  0
TABLE
  2
LAYER
  5
2
100
AcDbSymbolTable
 70
36
  0
LAYER
  5
10
100
AcDbSymbolTableRecord
100
AcDbLayerTableRecord
  2
0
 70
0
 62
7
  6
CONTINUOUS
370
-3
390
F
  0
LAYER
  5
1FA
100
AcDbSymbolTableRecord
100
AcDbLayerTableRecord
  2
DEFAULT_1
 70
0
 62
7
  6
CENTER
370
-3
390
F
  0
LAYER
  5
1FB
100
AcDbSymbolTableRecord
100
AcDbLayerTableRecord
  2
DEFAULT_2
 70
0
 62
8
  6
HIDDEN
370
-3
390
F
  0
LAYER
  5
1FC
100
AcDbSymbolTableRecord
100
AcDbLayerTableRecord
  2
DEFAULT_3
 70
0
 62
7
  6
PHANTOM
370
-3
390
F
  0
LAYER
  5
1FD
100
AcDbSymbolTableRecord
100
AcDbLayerTableRecord
  2
00_COMPONENTS
 70
0
 62
7
  6
CONTINUOUS
370
-3
390
F
  0
LAYER
  5
1FE
100
AcDbSymbolTableRecord
100
AcDbLayerTableRecord
  2
01_1_DEFAULT_DATUMS
 70
0
 62
7
  6
CONTINUOUS
370
-3
390
F
  0
LAYER
  5
1FF
100
AcDbSymbolTableRecord
100
AcDbLayerTableRecord
  2
01_PLANES
 70
0
 62
7
  6
CONTINUOUS
370
-3
390
F
  0
LAYER
  5
200
100
AcDbSymbolTableRecord
100
AcDbLayerTableRecord
  2
02_COORD_SYS
 70
0
 62
7
  6
CONTINUOUS
370
-3
390
F
  0
LAYER
  5
201
100
AcDbSymbolTableRecord
100
AcDbLayerTableRecord
  2
03_AXES
 70
0
 62
7
  6
CONTINUOUS
370
-3
390
F
  0
LAYER
  5
202
100
AcDbSymbolTableRecord
100
AcDbLayerTableRecord
  2
04_POINTS
 70
0
 62
7
  6
CONTINUOUS
370
-3
390
F
  0
LAYER
  5
203
100
AcDbSymbolTableRecord
100
AcDbLayerTableRecord
  2
05_CURVES
 70
0
 62
7
  6
CONTINUOUS
370
-3
390
F
  0
LAYER
  5
204
100
AcDbSymbolTableRecord
100
AcDbLayerTableRecord
  2
06_SURFS
 70
0
 62
7
  6
CONTINUOUS
370
-3
390
F
  0
LAYER
  5
205
100
AcDbSymbolTableRecord
100
AcDbLayerTableRecord
  2
07_COSMETICS
 70
0
 62
7
  6
CONTINUOUS
370
-3
390
F
  0
LAYER
  5
206
100
AcDbSymbolTableRecord
100
AcDbLayerTableRecord
  2
10_NOTES
 70
0
 62
7
  6
CONTINUOUS
370
-3
390
F
  0
LAYER
  5
207
100
AcDbSymbolTableRecord
100
AcDbLayerTableRecord
  2
11_NOTES_PUB
 70
0
 62
7
  6
CONTINUOUS
370
-3
390
F
  0
LAYER
  5
208
100
AcDbSymbolTableRecord
100
AcDbLayerTableRecord
  2
13_REF_GTOL
 70
0
 62
7
  6
CONTINUOUS
370
-3
390
F
  0
LAYER
  5
209
100
AcDbSymbolTableRecord
100
AcDbLayerTableRecord
  2
16_MISC
 70
0
 62
7
  6
CONTINUOUS
370
-3
390
F
  0
LAYER
  5
20A
100
AcDbSymbolTableRecord
100
AcDbLayerTableRecord
  2
17_NO_PRINT
 70
0
 62
7
  6
CONTINUOUS
370
-3
390
F
  0
LAYER
  5
20B
100
AcDbSymbolTableRecord
100
AcDbLayerTableRecord
  2
18_DATUM_CAMS_JOINTS
 70
0
 62
7
  6
CONTINUOUS
370
-3
390
F
  0
LAYER
  5
20C
100
AcDbSymbolTableRecord
100
AcDbLayerTableRecord
  2
19_DATUM_FUNCTIONAL
 70
0
 62
7
  6
CONTINUOUS
370
-3
390
F
  0
LAYER
  5
20D
100
AcDbSymbolTableRecord
100
AcDbLayerTableRecord
  2
20_DATUM_KINEMATIC_SCHEME
 70
0
 62
7
  6
CONTINUOUS
370
-3
390
F
  0
ENDTAB
  0
TABLE
  2
STYLE
  5
3
100
AcDbSymbolTable
 70
1
  0
STYLE
  5
11
100
AcDbSymbolTableRecord
100
AcDbTextStyleTableRecord
  2
STANDARD
 70
0
 40
0.0
 41
0.8
 50
0.0
 71
0
 42
0.2
  3
txt
  4

  0
STYLE
  5
20E
100
AcDbSymbolTableRecord
100
AcDbTextStyleTableRecord
  2
TEXTSTYLE_1
 70
0
 40
0.0
 41
0.8
 50
0.0
 71
0
 42
0.2
  3
gdt
  4

  0
ENDTAB
  0
TABLE
  2
VIEW
  5
6
100
AcDbSymbolTable
 70
0
  0
ENDTAB
  0
TABLE
  2
UCS
  5
7
100
AcDbSymbolTable
 70
0
  0
ENDTAB
  0
TABLE
  2
APPID
  5
9
100
AcDbSymbolTable
 70
1
  0
APPID
  5
20F
100
AcDbSymbolTableRecord
100
AcDbRegAppTableRecord
  2
ACAD
 70
0
  0
ENDTAB
  0
TABLE
  2
BLOCK_RECORD
  5
1
100
AcDbSymbolTable
 70
0
  0
BLOCK_RECORD
  5
210
100
AcDbSymbolTableRecord
100
AcDbBlockTableRecord
  2
*Model_Space
  0
BLOCK_RECORD
  5
211
100
AcDbSymbolTableRecord
100
AcDbBlockTableRecord
  2
*Paper_Space
  0
BLOCK_RECORD
  5
212
100
AcDbSymbolTableRecord
100
AcDbBlockTableRecord
  2
_FILLED
  0
ENDTAB
  0
TABLE
  2
DIMSTYLE
  5
A
100
AcDbSymbolTable
 70
1
100
AcDbDimStyleTable
 71
0
  0
DIMSTYLE
105
213
100
AcDbSymbolTableRecord
100
AcDbDimStyleTableRecord
  2
STANDARD
 70
0
  3

  4

 40
1.0
 41
4.4349415718
 42
1.0
 43
0.38
 44
1.0
 45
0.0
 46
0.0
 47
0.01
 48
0.01
140
6.2089182005
141
0.09
142
0.0
143
25.4
144
1.0
145
0.0
146
1.0
147
0.625
 71
1
 72
0
 73
0
 74
0
 75
0
 76
0
 77
1
 78
8
 79
2
170
0
171
1
172
0
173
0
174
0
175
0
176
0
177
0
178
0
270
2
179
2
271
2
272
2
273
2
274
2
275
0
280
0
281
0
282
0
283
1
284
8
285
0
286
0
287
3
288
0
340
11
278
46
341
212
342
212
343
212
344
212
  0
ENDTAB
  0
ENDSEC
  0
SECTION
  2
BLOCKS
  0
BLOCK
  5
20
100
AcDbEntity
  8
0
100
AcDbBlockBegin
  2
*Model_Space
 70
0
 10
0.0
 20
0.0
 30
0.0
  3
*Model_Space
  1

  0
ENDBLK
  5
21
100
AcDbEntity
  8
0
100
AcDbBlockEnd
  0
BLOCK
  5
1C
100
AcDbEntity
  8
0
100
AcDbBlockBegin
  2
*Paper_Space
 70
0
 10
0.0
 20
0.0
 30
0.0
  3
*Paper_Space
  1

  0
ENDBLK
  5
1D
100
AcDbEntity
  8
0
100
AcDbBlockEnd
  0
BLOCK
  5
214
100
AcDbEntity
  8
0
100
AcDbBlockBegin
  2
_FILLED
 70
64
 10
0.0
 20
0.0
  3
_FILLED
  1

  0
SOLID
  5
215
100
AcDbEntity
  8
0
  6
BYBLOCK
 62
0
100
AcDbTrace
 10
0.0
 20
0.0
 11
-1.0
 21
0.25
 12
-1.0
 22
-0.25
 13
-1.0
 23
-0.25
  0
ENDBLK
  5
216
100
AcDbEntity
  8
0
  6
BYBLOCK
 62
0
100
AcDbBlockEnd
  0
ENDSEC
  0
SECTION
  2
ENTITIES
  0
LINE
  5
217
100
AcDbEntity
  8
0
100
AcDbLine
 62
7
  6
CONTINUOUS
 10
87.6751118919
 20
406.8869995081
 11
87.4376875067
 21
406.5184617507
  0
LINE
  5
218
100
AcDbEntity
  8
0
100
AcDbLine
 62
7
  6
CONTINUOUS
 10
88.0656629656
 20
405.0694428168
 11
88.4250518737
 21
405.5807067583
  0
LINE
  5
219
100
AcDbEntity
  8
0
100
AcDbLine
 62
7
  6
CONTINUOUS
 10
87.01455247
 20
406.0988431393
 11
87.4545684754
 21
406.246299207
  0
LINE
  5
21A
100
AcDbEntity
  8
0
100
AcDbLine
 62
7
  6
CONTINUOUS
 10
44.8459747257
 20
96.4670904821
 11
332.8459747258
 21
96.4670904821
  0
LINE
  5
21B
100
AcDbEntity
  8
0
100
AcDbLine
 62
7
  6
CONTINUOUS
 10
45.3362815045
 20
96.9734010041
 11
332.2946098095
 21
96.9734010041
  0
LINE
  5
21C
100
AcDbEntity
  8
0
100
AcDbLine
 62
7
  6
CONTINUOUS
 10
332.8459747257
 20
98.4670904821
 11
44.8459747257
 21
98.4670904821
  0
LINE
  5
21D
100
AcDbEntity
  8
0
100
AcDbLine
 62
7
  6
CONTINUOUS
 10
45.0959747257
 20
98.7170904821
 11
332.5959747257
 21
98.7170904821
  0
LINE
  5
21E
100
AcDbEntity
  8
0
100
AcDbLine
 62
7
  6
CONTINUOUS
 10
40.845974726
 20
424.4670904821
 11
40.845974726
 21
100.4670904812
  0
LINE
  5
21F
100
AcDbEntity
  8
0
100
AcDbLine
 62
7
  6
CONTINUOUS
 10
41.3522852477
 20
423.9629964186
 11
41.3522852477
 21
100.9573883607
  0
LINE
  5
220
100
AcDbEntity
  8
0
100
AcDbLine
 62
7
  6
CONTINUOUS
 10
42.8459747257
 20
100.4670904821
 11
42.8459747257
 21
424.4670904821
  0
LINE
  5
221
100
AcDbEntity
  8
0
100
AcDbLine
 62
7
  6
CONTINUOUS
 10
43.0959747257
 20
424.2170904821
 11
43.0959747257
 21
100.7170904821
  0
LINE
  5
222
100
AcDbEntity
  8
0
100
AcDbLine
 62
7
  6
CONTINUOUS
 10
85.2794943341
 20
407.8942609253
 11
84.5255482937
 21
404.5209953876
  0
LINE
  5
223
100
AcDbEntity
  8
0
100
AcDbLine
 62
7
  6
CONTINUOUS
 10
84.1373284946
 20
405.3401684353
 11
84.8528323637
 21
408.5040425339
  0
LINE
  5
224
100
AcDbEntity
  8
0
100
AcDbLine
 62
7
  6
CONTINUOUS
 10
85.2800242047
 20
404.5209953876
 11
85.2794943341
 21
407.8942609253
  0
LINE
  5
225
100
AcDbEntity
  8
0
100
AcDbLine
 62
7
  6
CONTINUOUS
 10
82.1959747257
 20
239.0170904828
 11
82.1959747257
 21
399.5170904828
  0
LINE
  5
226
100
AcDbEntity
  8
0
100
AcDbLine
 62
7
  6
CONTINUOUS
 10
82.1959747257
 20
404.5209953876
 11
82.1959747267
 21
408.5040425339
  0
LINE
  5
227
100
AcDbEntity
  8
0
100
AcDbLine
 62
7
  6
CONTINUOUS
 10
86.0565487277
 20
408.5040425339
 11
86.0565487277
 21
404.5209953876
  0
LINE
  5
228
100
AcDbEntity
  8
0
100
AcDbLine
 62
7
  6
CONTINUOUS
 10
82.973138619
 20
407.8942730176
 11
82.9724992487
 21
404.5209953876
  0
LINE
  5
229
100
AcDbEntity
  8
0
100
AcDbLine
 62
7
  6
CONTINUOUS
 10
88.4250518737
 20
405.9576002059
 11
88.4250518737
 21
405.5807067583
  0
LINE
  5
22A
100
AcDbEntity
  8
0
100
AcDbLine
 62
7
  6
CONTINUOUS
 10
89.1850399378
 20
406.6955396588
 11
89.1850399378
 21
405.0983933917
  0
LINE
  5
22B
100
AcDbEntity
  8
0
100
AcDbLine
 62
7
  6
CONTINUOUS
 10
89.3569502032
 20
404.6374396159
 11
89.3569502032
 21
404.5209953877
  0
LINE
  5
22C
100
AcDbEntity
  8
0
100
AcDbLine
 62
7
  6
CONTINUOUS
 10
91.7533586223
 20
404.5823180873
 11
91.7533586223
 21
404.9606666365
  0
LINE
  5
22D
100
AcDbEntity
  8
0
100
AcDbLine
 62
7
  6
CONTINUOUS
 10
91.7864315391
 20
407.0206241633
 11
91.7864315391
 21
407.4724086914
  0
LINE
  5
22E
100
AcDbEntity
  8
0
100
AcDbLine
 62
7
  6
CONTINUOUS
 10
92.5298831456
 20
407.4724086914
 11
92.5298831456
 21
404.6767137032
  0
LINE
  5
22F
100
AcDbEntity
  8
0
100
AcDbLine
 62
7
  6
CONTINUOUS
 10
95.8357967746
 20
405.9245272895
 11
95.8357967746
 21
405.7860344501
  0
LINE
  5
230
100
AcDbEntity
  8
0
100
AcDbLine
 62
7
  6
CONTINUOUS
 10
96.3739206892
 20
404.5209953876
 11
96.3739206887
 21
408.5040425339
  0
LINE
  5
231
100
AcDbEntity
  8
0
100
AcDbLine
 62
7
  6
CONTINUOUS
 10
97.1504452118
 20
408.5040425339
 11
97.1504452124
 21
404.5209953876
  0
LINE
  5
232
100
AcDbEntity
  8
0
100
AcDbLine
 62
7
  6
CONTINUOUS
 10
97.9159454288
 20
404.5209953875
 11
97.9159454283
 21
407.4724086905
  0
LINE
  5
233
100
AcDbEntity
  8
0
100
AcDbLine
 62
7
  6
CONTINUOUS
 10
97.9159454288
 20
407.821741373
 11
97.9159454285
 21
408.5429721128
  0
LINE
  5
234
100
AcDbEntity
  8
0
100
AcDbLine
 62
7
  6
CONTINUOUS
 10
98.6924699514
 20
408.5429721128
 11
98.6924699517
 21
407.8217413728
  0
LINE
  5
235
100
AcDbEntity
  8
0
100
AcDbLine
 62
7
  6
CONTINUOUS
 10
98.6924699514
 20
407.4724086905
 11
98.692469952
 21
404.5209953876
  0
LINE
  5
236
100
AcDbEntity
  8
0
100
AcDbLine
 62
7
  6
CONTINUOUS
 10
83.7104387017
 20
404.5209953876
 11
82.973138619
 21
407.8942730176
  0
LINE
  5
237
100
AcDbEntity
  8
0
100
AcDbLine
 62
7
  6
CONTINUOUS
 10
83.4107153937
 20
408.5040425341
 11
84.1373284946
 21
405.3401684353
  0
LINE
  5
238
100
AcDbEntity
  8
0
100
AcDbLine
 62
7
  6
CONTINUOUS
 10
288.7088464407
 20
405.8810183513
 11
289.3215093277
 21
406.5160441394
  0
LINE
  5
239
100
AcDbEntity
  8
0
100
AcDbLine
 62
7
  6
CONTINUOUS
 10
332.3283799337
 20
427.9607799605
 11
332.8459747257
 21
428.4670904817
  0
LINE
  5
23A
100
AcDbEntity
  8
0
100
AcDbLine
 62
7
  6
CONTINUOUS
 10
295.4959747257
 20
239.0170904828
 11
82.1959747257
 21
239.0170904828
  0
LINE
  5
23B
100
AcDbEntity
  8
0
100
AcDbLine
 62
7
  6
CONTINUOUS
 10
332.2944487396
 20
96.9734010041
 11
332.8459747258
 21
96.4670904821
  0
LINE
  5
23C
100
AcDbEntity
  8
0
100
AcDbLine
 62
7
  6
CONTINUOUS
 10
336.339664204
 20
423.9494956904
 11
336.8459747255
 21
424.4670904818
  0
LINE
  5
23D
100
AcDbEntity
  8
0
100
AcDbLine
 62
7
  6
CONTINUOUS
 10
336.339664204
 20
101.0186164681
 11
336.8459747255
 21
100.4670904821
  0
LINE
  5
23E
100
AcDbEntity
  8
0
100
AcDbLine
 62
7
  6
CONTINUOUS
 10
291.9671814877
 20
406.0143898847
 11
291.7951281807
 21
405.7275000615
  0
LINE
  5
23F
100
AcDbEntity
  8
0
100
AcDbLine
 62
7
  6
CONTINUOUS
 10
45.3364968987
 20
96.9734010041
 11
44.8459747257
 21
96.4670904821
  0
LINE
  5
240
100
AcDbEntity
  8
0
100
AcDbLine
 62
7
  6
CONTINUOUS
 10
41.3522852475
 20
100.957612655
 11
40.845974726
 21
100.4670904812
  0
LINE
  5
241
100
AcDbEntity
  8
0
100
AcDbLine
 62
7
  6
CONTINUOUS
 10
41.3522852475
 20
423.9627803161
 11
40.845974726
 21
424.4670904821
  0
LINE
  5
242
100
AcDbEntity
  8
0
100
AcDbLine
 62
7
  6
CONTINUOUS
 10
45.3502848917
 20
427.9607799605
 11
44.8459747257
 21
428.4670904817
  0
LINE
  5
243
100
AcDbEntity
  8
0
100
AcDbLine
 62
7
  6
CONTINUOUS
 10
278.7051756064
 20
405.6189090407
 11
278.5990021973
 21
405.2609011645
  0
LINE
  5
244
100
AcDbEntity
  8
0
100
AcDbLine
 62
7
  6
CONTINUOUS
 10
276.3675473666
 20
405.5751905779
 11
276.490442585
 21
405.9346087261
  0
LINE
  5
245
100
AcDbEntity
  8
0
100
AcDbLine
 62
7
  6
CONTINUOUS
 10
276.5341610479
 20
406.2740815843
 11
276.6600782814
 21
406.6332982669
  0
LINE
  5
246
100
AcDbEntity
  8
0
100
AcDbLine
 62
7
  6
CONTINUOUS
 10
279.121810546
 20
406.6345070715
 11
279.2354382573
 21
407.1587256959
  0
LINE
  5
247
100
AcDbEntity
  8
0
100
AcDbLine
 62
7
  6
CONTINUOUS
 10
277.2489679938
 20
406.340162948
 11
277.018287625
 21
405.3725141996
  0
LINE
  5
248
100
AcDbEntity
  8
0
100
AcDbLine
 62
7
  6
CONTINUOUS
 10
276.2907882201
 20
405.2433734855
 11
276.1410978137
 21
404.6738246589
  0
LINE
  5
249
100
AcDbEntity
  8
0
100
AcDbLine
 62
7
  6
CONTINUOUS
 10
278.1735026833
 20
405.4504821485
 11
278.4656306633
 21
406.5577479267
  0
LINE
  5
24A
100
AcDbEntity
  8
0
100
AcDbLine
 62
7
  6
CONTINUOUS
 10
278.8852876163
 20
406.3182029838
 11
278.7861655708
 21
405.9595907054
  0
LINE
  5
24B
100
AcDbEntity
  8
0
100
AcDbLine
 62
7
  6
CONTINUOUS
 10
296.1587143287
 20
410.2403736801
 11
295.9072827987
 21
409.4318843128
  0
LINE
  5
24C
100
AcDbEntity
  8
0
100
AcDbLine
 62
7
  6
CONTINUOUS
 10
268.9402438467
 20
407.897305816
 11
268.9402438467
 21
408.8242581147
  0
LINE
  5
24D
100
AcDbEntity
  8
0
100
AcDbLine
 62
7
  6
CONTINUOUS
 10
271.9576236763
 20
411.5591804084
 11
271.957623676
 21
410.7200679702
  0
LINE
  5
24E
100
AcDbEntity
  8
0
100
AcDbLine
 62
7
  6
CONTINUOUS
 10
274.9913223798
 20
410.3153196184
 11
274.9913223802
 21
409.633956289
  0
LINE
  5
24F
100
AcDbEntity
  8
0
100
AcDbLine
 62
7
  6
CONTINUOUS
 10
275.0356452452
 20
408.3365051225
 11
275.0356452452
 21
407.6777061616
  0
LINE
  5
250
100
AcDbEntity
  8
0
100
AcDbLine
 62
7
  6
CONTINUOUS
 10
275.4135984107
 20
407.5429243548
 11
275.4135984107
 21
411.8406306068
  0
LINE
  5
251
100
AcDbEntity
  8
0
100
AcDbLine
 62
7
  6
CONTINUOUS
 10
276.3288655914
 20
411.8406306068
 11
276.3288655914
 21
410.0157373371
  0
LINE
  5
252
100
AcDbEntity
  8
0
100
AcDbLine
 62
7
  6
CONTINUOUS
 10
276.3288655914
 20
409.3893746558
 11
276.3288655914
 21
407.5429243548
  0
LINE
  5
253
100
AcDbEntity
  8
0
100
AcDbLine
 62
7
  6
CONTINUOUS
 10
277.4143728706
 20
409.1943540453
 11
277.414372871
 21
408.1704958429
  0
LINE
  5
254
100
AcDbEntity
  8
0
100
AcDbLine
 62
7
  6
CONTINUOUS
 10
278.3296400531
 20
409.3893746557
 11
278.3296400531
 21
408.4612135506
  0
LINE
  5
255
100
AcDbEntity
  8
0
100
AcDbLine
 62
7
  6
CONTINUOUS
 10
278.7617879948
 20
408.4686678501
 11
278.7617879948
 21
410.44949702
  0
LINE
  5
256
100
AcDbEntity
  8
0
100
AcDbLine
 62
7
  6
CONTINUOUS
 10
279.6770551755
 20
410.44949702
 11
279.6770551755
 21
410.0320562107
  0
LINE
  5
257
100
AcDbEntity
  8
0
100
AcDbLine
 62
7
  6
CONTINUOUS
 10
279.6770551758
 20
409.412543426
 11
279.6770551755
 21
408.0512270407
  0
LINE
  5
258
100
AcDbEntity
  8
0
100
AcDbLine
 62
7
  6
CONTINUOUS
 10
280.772434366
 20
407.5417155495
 11
280.772434366
 21
409.312011108
  0
LINE
  5
259
100
AcDbEntity
  8
0
100
AcDbLine
 62
7
  6
CONTINUOUS
 10
280.7730388321
 20
404.5223211245
 11
280.773038832
 21
407.0287796042
  0
LINE
  5
25A
100
AcDbEntity
  8
0
100
AcDbLine
 62
7
  6
CONTINUOUS
 10
281.1292329842
 20
406.7050205401
 11
281.1292329839
 21
405.9495176159
  0
LINE
  5
25B
100
AcDbEntity
  8
0
100
AcDbLine
 62
7
  6
CONTINUOUS
 10
281.1292329842
 20
405.6251550426
 11
281.1292329845
 21
404.8460790194
  0
LINE
  5
25C
100
AcDbEntity
  8
0
100
AcDbLine
 62
7
  6
CONTINUOUS
 10
281.6868956769
 20
409.3875614481
 11
281.6868956769
 21
407.5417155495
  0
LINE
  5
25D
100
AcDbEntity
  8
0
100
AcDbLine
 62
7
  6
CONTINUOUS
 10
282.1555090075
 20
405.9495176153
 11
282.1555090077
 21
405.6251550428
  0
LINE
  5
25E
100
AcDbEntity
  8
0
100
AcDbLine
 62
7
  6
CONTINUOUS
 10
282.1929826918
 20
407.0287796042
 11
282.1929826919
 21
406.7050205399
  0
LINE
  5
25F
100
AcDbEntity
  8
0
100
AcDbLine
 62
7
  6
CONTINUOUS
 10
282.2248142707
 20
404.8460790191
 11
282.2248142708
 21
404.5223211247
  0
LINE
  5
260
100
AcDbEntity
  8
0
100
AcDbLine
 62
7
  6
CONTINUOUS
 10
283.061307838
 20
404.5209105984
 11
283.0613078384
 21
407.0287796042
  0
LINE
  5
261
100
AcDbEntity
  8
0
100
AcDbLine
 62
7
  6
CONTINUOUS
 10
283.3876844461
 20
407.0287796042
 11
283.3876844457
 21
404.5209105984
  0
LINE
  5
262
100
AcDbEntity
  8
0
100
AcDbLine
 62
7
  6
CONTINUOUS
 10
285.0383087427
 20
408.4374403772
 11
285.0383087427
 21
407.8684959529
  0
LINE
  5
263
100
AcDbEntity
  8
0
100
AcDbLine
 62
7
  6
CONTINUOUS
 10
285.4430575456
 20
407.5340603061
 11
285.4430575456
 21
410.4494965633
  0
LINE
  5
264
100
AcDbEntity
  8
0
100
AcDbLine
 62
7
  6
CONTINUOUS
 10
285.6807888298
 20
405.0014109319
 11
285.6807888298
 21
404.6845024401
  0
LINE
  5
265
100
AcDbEntity
  8
0
100
AcDbLine
 62
7
  6
CONTINUOUS
 10
286.3583242122
 20
410.4494965633
 11
286.3583242121
 21
407.534060306
  0
LINE
  5
266
100
AcDbEntity
  8
0
100
AcDbLine
 62
7
  6
CONTINUOUS
 10
287.8368947887
 20
406.0917534326
 11
287.8368947887
 21
405.7405954544
  0
LINE
  5
267
100
AcDbEntity
  8
0
100
AcDbLine
 62
7
  6
CONTINUOUS
 10
287.8735618861
 20
404.9059153013
 11
287.8735618861
 21
404.5845745243
  0
LINE
  5
268
100
AcDbEntity
  8
0
100
AcDbLine
 62
7
  6
CONTINUOUS
 10
288.9022553107
 20
409.7226020199
 11
288.9022553107
 21
408.331468434
  0
LINE
  5
269
100
AcDbEntity
  8
0
100
AcDbLine
 62
7
  6
CONTINUOUS
 10
288.9022553107
 20
407.5354700562
 11
288.9022553107
 21
407.7699783099
  0
LINE
  5
26A
100
AcDbEntity
  8
0
100
AcDbLine
 62
7
  6
CONTINUOUS
 10
288.9022553107
 20
410.3215651129
 11
288.9022553107
 21
411.8406306066
  0
LINE
  5
26B
100
AcDbEntity
  8
0
100
AcDbLine
 62
7
  6
CONTINUOUS
 10
288.9965421357
 20
405.8810183513
 11
288.9965421357
 21
405.0076564259
  0
LINE
  5
26C
100
AcDbEntity
  8
0
100
AcDbLine
 62
7
  6
CONTINUOUS
 10
289.3215093277
 20
406.5160441394
 11
289.3215093277
 21
406.1741536702
  0
LINE
  5
26D
100
AcDbEntity
  8
0
100
AcDbLine
 62
7
  6
CONTINUOUS
 10
289.3215093277
 20
405.8810183513
 11
289.3215093277
 21
405.0324369366
  0
LINE
  5
26E
100
AcDbEntity
  8
0
100
AcDbLine
 62
7
  6
CONTINUOUS
 10
289.8175224907
 20
411.8406306066
 11
289.8175224907
 21
407.5354700562
  0
LINE
  5
26F
100
AcDbEntity
  8
0
100
AcDbLine
 62
7
  6
CONTINUOUS
 10
289.8443176787
 20
406.1741536702
 11
289.8443176787
 21
405.8810183513
  0
LINE
  5
270
100
AcDbEntity
  8
0
100
AcDbLine
 62
7
  6
CONTINUOUS
 10
289.9279267217
 20
404.9053108985
 11
289.9279267217
 21
404.5996845919
  0
LINE
  5
271
100
AcDbEntity
  8
0
100
AcDbLine
 62
7
  6
CONTINUOUS
 10
290.7644200817
 20
404.5209107706
 11
290.7644200817
 21
406.1741536697
  0
LINE
  5
272
100
AcDbEntity
  8
0
100
AcDbLine
 62
7
  6
CONTINUOUS
 10
291.0893872767
 20
406.1741536697
 11
291.0893872767
 21
405.7917682166
  0
LINE
  5
273
100
AcDbEntity
  8
0
100
AcDbLine
 62
7
  6
CONTINUOUS
 10
291.0893872767
 20
405.3831919813
 11
291.0893872767
 21
404.5209107706
  0
LINE
  5
274
100
AcDbEntity
  8
0
100
AcDbLine
 62
7
  6
CONTINUOUS
 10
292.8312762587
 20
404.5209105983
 11
292.8312762587
 21
406.1741538732
  0
LINE
  5
275
100
AcDbEntity
  8
0
100
AcDbLine
 62
7
  6
CONTINUOUS
 10
293.1568470197
 20
406.1741538732
 11
293.1568470197
 21
404.5209105984
  0
LINE
  5
276
100
AcDbEntity
  8
0
100
AcDbLine
 62
7
  6
CONTINUOUS
 10
293.1931116657
 20
408.4374403764
 11
293.1931116657
 21
407.8684959523
  0
LINE
  5
277
100
AcDbEntity
  8
0
100
AcDbLine
 62
7
  6
CONTINUOUS
 10
293.6959747247
 20
407.5384920684
 11
293.6959747247
 21
410.4525190347
  0
LINE
  5
278
100
AcDbEntity
  8
0
100
AcDbLine
 62
7
  6
CONTINUOUS
 10
294.6116448427
 20
410.4525190347
 11
294.6116448427
 21
409.615421271
  0
LINE
  5
279
100
AcDbEntity
  8
0
100
AcDbLine
 62
7
  6
CONTINUOUS
 10
294.6116448427
 20
408.7956497201
 11
294.6116448427
 21
407.5384920684
  0
LINE
  5
27A
100
AcDbEntity
  8
0
100
AcDbLine
 62
7
  6
CONTINUOUS
 10
295.3052976927
 20
406.0917534324
 11
295.3052976927
 21
405.7405954542
  0
LINE
  5
27B
100
AcDbEntity
  8
0
100
AcDbLine
 62
7
  6
CONTINUOUS
 10
295.3427706617
 20
404.9059153011
 11
295.3427706617
 21
404.5845745241
  0
LINE
  5
27C
100
AcDbEntity
  8
0
100
AcDbLine
 62
7
  6
CONTINUOUS
 10
295.4959747257
 20
399.5170904828
 11
295.4959747257
 21
239.0170904828
  0
LINE
  5
27D
100
AcDbEntity
  8
0
100
AcDbLine
 62
7
  6
CONTINUOUS
 10
100.4749699986
 20
407.5570939004
 11
101.6053660127
 21
407.2151574157
  0
LINE
  5
27E
100
AcDbEntity
  8
0
100
AcDbLine
 62
7
  6
CONTINUOUS
 10
274.093124892
 20
408.1407070984
 11
275.0356452452
 21
408.3365051225
  0
LINE
  5
27F
100
AcDbEntity
  8
0
100
AcDbLine
 62
7
  6
CONTINUOUS
 10
287.2447379993
 20
404.8209673634
 11
287.8735618861
 21
404.9059153013
  0
LINE
  5
280
100
AcDbEntity
  8
0
100
AcDbLine
 62
7
  6
CONTINUOUS
 10
294.7129378449
 20
404.8210403624
 11
295.3427706617
 21
404.9059153011
  0
LINE
  5
281
100
AcDbEntity
  8
0
100
AcDbLine
 62
7
  6
CONTINUOUS
 10
334.5959747257
 20
100.7170904821
 11
334.5959747257
 21
424.2170904821
  0
LINE
  5
282
100
AcDbEntity
  8
0
100
AcDbLine
 62
7
  6
CONTINUOUS
 10
334.8459747257
 20
424.4670904821
 11
334.8459747257
 21
100.4670904821
  0
LINE
  5
283
100
AcDbEntity
  8
0
100
AcDbLine
 62
7
  6
CONTINUOUS
 10
336.3396642037
 20
101.0185171604
 11
336.3396642037
 21
423.9496549935
  0
LINE
  5
284
100
AcDbEntity
  8
0
100
AcDbLine
 62
7
  6
CONTINUOUS
 10
336.8459747255
 20
100.4670904821
 11
336.8459747255
 21
424.4670904818
  0
LINE
  5
285
100
AcDbEntity
  8
0
100
AcDbLine
 62
7
  6
CONTINUOUS
 10
82.1959747257
 20
399.5170904828
 11
295.4959747257
 21
399.5170904828
  0
LINE
  5
286
100
AcDbEntity
  8
0
100
AcDbLine
 62
7
  6
CONTINUOUS
 10
89.7507246167
 20
404.2054246403
 11
90.5940839921
 21
404.2054246403
  0
LINE
  5
287
100
AcDbEntity
  8
0
100
AcDbLine
 62
7
  6
CONTINUOUS
 10
293.1568470197
 20
404.5209105984
 11
292.8312762587
 21
404.5209105983
  0
LINE
  5
288
100
AcDbEntity
  8
0
100
AcDbLine
 62
7
  6
CONTINUOUS
 10
291.0893872767
 20
404.5209107706
 11
290.7644200817
 21
404.5209107706
  0
LINE
  5
289
100
AcDbEntity
  8
0
100
AcDbLine
 62
7
  6
CONTINUOUS
 10
283.3876844457
 20
404.5209105984
 11
283.061307838
 21
404.5209105984
  0
LINE
  5
28A
100
AcDbEntity
  8
0
100
AcDbLine
 62
7
  6
CONTINUOUS
 10
98.692469952
 20
404.5209953876
 11
97.9159454288
 21
404.5209953875
  0
LINE
  5
28B
100
AcDbEntity
  8
0
100
AcDbLine
 62
7
  6
CONTINUOUS
 10
97.1504452124
 20
404.5209953876
 11
96.3739206892
 21
404.5209953876
  0
LINE
  5
28C
100
AcDbEntity
  8
0
100
AcDbLine
 62
7
  6
CONTINUOUS
 10
89.3569502032
 20
404.5209953877
 11
88.5194474908
 21
404.5209953877
  0
LINE
  5
28D
100
AcDbEntity
  8
0
100
AcDbLine
 62
7
  6
CONTINUOUS
 10
86.0565487277
 20
404.5209953876
 11
85.2800242047
 21
404.5209953876
  0
LINE
  5
28E
100
AcDbEntity
  8
0
100
AcDbLine
 62
7
  6
CONTINUOUS
 10
84.5255482937
 20
404.5209953876
 11
83.7104387017
 21
404.5209953876
  0
LINE
  5
28F
100
AcDbEntity
  8
0
100
AcDbLine
 62
7
  6
CONTINUOUS
 10
82.9724992487
 20
404.5209953876
 11
82.1959747257
 21
404.5209953876
  0
LINE
  5
290
100
AcDbEntity
  8
0
100
AcDbLine
 62
7
  6
CONTINUOUS
 10
282.2248142708
 20
404.5223211247
 11
280.7730388321
 21
404.5223211245
  0
LINE
  5
291
100
AcDbEntity
  8
0
100
AcDbLine
 62
7
  6
CONTINUOUS
 10
277.0057966354
 20
404.6738246589
 11
276.1410978137
 21
404.6738246589
  0
LINE
  5
292
100
AcDbEntity
  8
0
100
AcDbLine
 62
7
  6
CONTINUOUS
 10
281.1292329845
 20
404.8460790194
 11
282.2248142707
 21
404.8460790191
  0
LINE
  5
293
100
AcDbEntity
  8
0
100
AcDbLine
 62
7
  6
CONTINUOUS
 10
276.2907882201
 20
405.2433734855
 11
276.8460328503
 21
405.2433734855
  0
LINE
  5
294
100
AcDbEntity
  8
0
100
AcDbLine
 62
7
  6
CONTINUOUS
 10
278.5990021973
 20
405.2609011645
 11
279.2952741271
 21
405.2609011645
  0
LINE
  5
295
100
AcDbEntity
  8
0
100
AcDbLine
 62
7
  6
CONTINUOUS
 10
285.709598692
 20
405.2995829382
 11
284.5491454767
 21
405.2995829382
  0
LINE
  5
296
100
AcDbEntity
  8
0
100
AcDbLine
 62
7
  6
CONTINUOUS
 10
95.0038062142
 20
405.3864033746
 11
95.802723858
 21
405.3864033746
  0
LINE
  5
297
100
AcDbEntity
  8
0
100
AcDbLine
 62
7
  6
CONTINUOUS
 10
100.0405358157
 20
405.464262532
 11
99.2416181721
 21
405.4642625319
  0
LINE
  5
298
100
AcDbEntity
  8
0
100
AcDbLine
 62
7
  6
CONTINUOUS
 10
285.3850344343
 20
405.5165635129
 11
284.5553909706
 21
405.5165635129
  0
LINE
  5
299
100
AcDbEntity
  8
0
100
AcDbLine
 62
7
  6
CONTINUOUS
 10
275.6132527755
 20
405.5751905779
 11
276.3675473666
 21
405.5751905779
  0
LINE
  5
29A
100
AcDbEntity
  8
0
100
AcDbLine
 62
7
  6
CONTINUOUS
 10
279.5185001956
 20
405.6189090407
 11
278.7051756064
 21
405.6189090407
  0
LINE
  5
29B
100
AcDbEntity
  8
0
100
AcDbLine
 62
7
  6
CONTINUOUS
 10
282.1555090077
 20
405.6251550428
 11
281.1292329842
 21
405.6251550426
  0
LINE
  5
29C
100
AcDbEntity
  8
0
100
AcDbLine
 62
7
  6
CONTINUOUS
 10
95.8357967746
 20
405.7860344501
 11
93.8111141578
 21
405.7860344501
  0
LINE
  5
29D
100
AcDbEntity
  8
0
100
AcDbLine
 62
7
  6
CONTINUOUS
 10
289.8443176787
 20
405.8810183513
 11
289.3215093277
 21
405.8810183513
  0
LINE
  5
29E
100
AcDbEntity
  8
0
100
AcDbLine
 62
7
  6
CONTINUOUS
 10
288.9965421357
 20
405.8810183513
 11
288.7088464407
 21
405.8810183513
  0
LINE
  5
29F
100
AcDbEntity
  8
0
100
AcDbLine
 62
7
  6
CONTINUOUS
 10
276.490442585
 20
405.9346087261
 11
275.7230526022
 21
405.9346087261
  0
LINE
  5
2A0
100
AcDbEntity
  8
0
100
AcDbLine
 62
7
  6
CONTINUOUS
 10
281.1292329839
 20
405.9495176159
 11
282.1555090075
 21
405.9495176153
  0
LINE
  5
2A1
100
AcDbEntity
  8
0
100
AcDbLine
 62
7
  6
CONTINUOUS
 10
278.7861655708
 20
405.9595907054
 11
279.6758463698
 21
405.9595907054
  0
LINE
  5
2A2
100
AcDbEntity
  8
0
100
AcDbLine
 62
7
  6
CONTINUOUS
 10
289.3215093277
 20
406.1741536702
 11
289.8443176787
 21
406.1741536702
  0
LINE
  5
2A3
100
AcDbEntity
  8
0
100
AcDbLine
 62
7
  6
CONTINUOUS
 10
290.7644200817
 20
406.1741536697
 11
291.0893872767
 21
406.1741536697
  0
LINE
  5
2A4
100
AcDbEntity
  8
0
100
AcDbLine
 62
7
  6
CONTINUOUS
 10
292.8312762587
 20
406.1741538732
 11
293.1568470197
 21
406.1741538732
  0
LINE
  5
2A5
100
AcDbEntity
  8
0
100
AcDbLine
 62
7
  6
CONTINUOUS
 10
275.8872486743
 20
406.2740815843
 11
276.5341610479
 21
406.2740815843
  0
LINE
  5
2A6
100
AcDbEntity
  8
0
100
AcDbLine
 62
7
  6
CONTINUOUS
 10
95.0372236402
 20
406.2910854483
 11
93.8335072783
 21
406.2910854483
  0
LINE
  5
2A7
100
AcDbEntity
  8
0
100
AcDbLine
 62
7
  6
CONTINUOUS
 10
279.7856461963
 20
406.3182029838
 11
278.8852876163
 21
406.3182029838
  0
LINE
  5
2A8
100
AcDbEntity
  8
0
100
AcDbLine
 62
7
  6
CONTINUOUS
 10
87.4376875067
 20
406.5184617507
 11
86.6890682577
 21
406.5184617507
  0
LINE
  5
2A9
100
AcDbEntity
  8
0
100
AcDbLine
 62
7
  6
CONTINUOUS
 10
101.105414829
 20
406.5735832788
 11
101.8060114579
 21
406.5736577715
  0
LINE
  5
2AA
100
AcDbEntity
  8
0
100
AcDbLine
 62
7
  6
CONTINUOUS
 10
276.6600782814
 20
406.6332982669
 11
276.1187349147
 21
406.6332982669
  0
LINE
  5
2AB
100
AcDbEntity
  8
0
100
AcDbLine
 62
7
  6
CONTINUOUS
 10
279.121810546
 20
406.6345070715
 11
278.5865112076
 21
406.6345070715
  0
LINE
  5
2AC
100
AcDbEntity
  8
0
100
AcDbLine
 62
7
  6
CONTINUOUS
 10
282.1929826919
 20
406.7050205399
 11
281.1292329842
 21
406.7050205401
  0
LINE
  5
2AD
100
AcDbEntity
  8
0
100
AcDbLine
 62
7
  6
CONTINUOUS
 10
280.773038832
 20
407.0287796042
 11
282.1929826918
 21
407.0287796042
  0
LINE
  5
2AE
100
AcDbEntity
  8
0
100
AcDbLine
 62
7
  6
CONTINUOUS
 10
283.0613078384
 20
407.0287796042
 11
283.3876844461
 21
407.0287796042
  0
LINE
  5
2AF
100
AcDbEntity
  8
0
100
AcDbLine
 62
7
  6
CONTINUOUS
 10
278.3493838737
 20
407.1587256959
 11
279.2354382573
 21
407.1587256959
  0
LINE
  5
2B0
100
AcDbEntity
  8
0
100
AcDbLine
 62
7
  6
CONTINUOUS
 10
91.7864315391
 20
407.4724086914
 11
92.5298831456
 21
407.4724086914
  0
LINE
  5
2B1
100
AcDbEntity
  8
0
100
AcDbLine
 62
7
  6
CONTINUOUS
 10
97.9159454283
 20
407.4724086905
 11
98.6924699514
 21
407.4724086905
  0
LINE
  5
2B2
100
AcDbEntity
  8
0
100
AcDbLine
 62
7
  6
CONTINUOUS
 10
286.3583242121
 20
407.534060306
 11
285.4430575456
 21
407.5340603061
  0
LINE
  5
2B3
100
AcDbEntity
  8
0
100
AcDbLine
 62
7
  6
CONTINUOUS
 10
289.8175224907
 20
407.5354700562
 11
288.9022553107
 21
407.5354700562
  0
LINE
  5
2B4
100
AcDbEntity
  8
0
100
AcDbLine
 62
7
  6
CONTINUOUS
 10
294.6116448427
 20
407.5384920684
 11
293.6959747247
 21
407.5384920684
  0
LINE
  5
2B5
100
AcDbEntity
  8
0
100
AcDbLine
 62
7
  6
CONTINUOUS
 10
281.6868956769
 20
407.5417155495
 11
280.772434366
 21
407.5417155495
  0
LINE
  5
2B6
100
AcDbEntity
  8
0
100
AcDbLine
 62
7
  6
CONTINUOUS
 10
276.3288655914
 20
407.5429243548
 11
275.4135984107
 21
407.5429243548
  0
LINE
  5
2B7
100
AcDbEntity
  8
0
100
AcDbLine
 62
7
  6
CONTINUOUS
 10
98.6924699517
 20
407.8217413728
 11
97.9159454288
 21
407.821741373
  0
LINE
  5
2B8
100
AcDbEntity
  8
0
100
AcDbLine
 62
7
  6
CONTINUOUS
 10
82.1959747267
 20
408.5040425339
 11
83.4107153937
 21
408.5040425341
  0
LINE
  5
2B9
100
AcDbEntity
  8
0
100
AcDbLine
 62
7
  6
CONTINUOUS
 10
84.8528323637
 20
408.5040425339
 11
86.0565487277
 21
408.5040425339
  0
LINE
  5
2BA
100
AcDbEntity
  8
0
100
AcDbLine
 62
7
  6
CONTINUOUS
 10
96.3739206887
 20
408.5040425339
 11
97.1504452118
 21
408.5040425339
  0
LINE
  5
2BB
100
AcDbEntity
  8
0
100
AcDbLine
 62
7
  6
CONTINUOUS
 10
97.9159454285
 20
408.5429721128
 11
98.6924699514
 21
408.5429721128
  0
LINE
  5
2BC
100
AcDbEntity
  8
0
100
AcDbLine
 62
7
  6
CONTINUOUS
 10
293.2428741547
 20
408.8355403001
 11
291.1518422235
 21
408.8355403001
  0
LINE
  5
2BD
100
AcDbEntity
  8
0
100
AcDbLine
 62
7
  6
CONTINUOUS
 10
285.0894815059
 20
408.8355402989
 11
282.9976437029
 21
408.8355402989
  0
LINE
  5
2BE
100
AcDbEntity
  8
0
100
AcDbLine
 62
7
  6
CONTINUOUS
 10
292.4370038657
 20
409.3184580697
 11
291.1705787067
 21
409.3184580697
  0
LINE
  5
2BF
100
AcDbEntity
  8
0
100
AcDbLine
 62
7
  6
CONTINUOUS
 10
284.2809921384
 20
409.3184580697
 11
283.0169845888
 21
409.3184580697
  0
LINE
  5
2C0
100
AcDbEntity
  8
0
100
AcDbLine
 62
7
  6
CONTINUOUS
 10
278.7617879948
 20
410.44949702
 11
279.6770551755
 21
410.44949702
  0
LINE
  5
2C1
100
AcDbEntity
  8
0
100
AcDbLine
 62
7
  6
CONTINUOUS
 10
285.4430575456
 20
410.4494965633
 11
286.3583242122
 21
410.4494965633
  0
LINE
  5
2C2
100
AcDbEntity
  8
0
100
AcDbLine
 62
7
  6
CONTINUOUS
 10
293.6959747247
 20
410.4525190347
 11
294.6116448427
 21
410.4525190347
  0
LINE
  5
2C3
100
AcDbEntity
  8
0
100
AcDbLine
 62
7
  6
CONTINUOUS
 10
275.4135984107
 20
411.8406306068
 11
276.3288655914
 21
411.8406306068
  0
LINE
  5
2C4
100
AcDbEntity
  8
0
100
AcDbLine
 62
7
  6
CONTINUOUS
 10
288.9022553107
 20
411.8406306066
 11
289.8175224907
 21
411.8406306066
  0
LINE
  5
2C5
100
AcDbEntity
  8
0
100
AcDbLine
 62
7
  6
CONTINUOUS
 10
294.470808355
 20
406.1351056271
 11
295.3052976927
 21
406.0917534324
  0
LINE
  5
2C6
100
AcDbEntity
  8
0
100
AcDbLine
 62
7
  6
CONTINUOUS
 10
287.004808158
 20
406.1358462607
 11
287.8368947887
 21
406.0917534326
  0
LINE
  5
2C7
100
AcDbEntity
  8
0
100
AcDbLine
 62
7
  6
CONTINUOUS
 10
87.4545684754
 20
406.246299207
 11
88.1532338393
 21
406.3517191297
  0
LINE
  5
2C8
100
AcDbEntity
  8
0
100
AcDbLine
 62
7
  6
CONTINUOUS
 10
332.5959747257
 20
426.2170904821
 11
45.0959747257
 21
426.2170904821
  0
LINE
  5
2C9
100
AcDbEntity
  8
0
100
AcDbLine
 62
7
  6
CONTINUOUS
 10
44.8459747257
 20
426.4670904821
 11
332.8459747257
 21
426.4670904821
  0
LINE
  5
2CA
100
AcDbEntity
  8
0
100
AcDbLine
 62
7
  6
CONTINUOUS
 10
287.6189893461
 20
410.413361191
 11
288.9022553107
 21
410.3215651129
  0
LINE
  5
2CB
100
AcDbEntity
  8
0
100
AcDbLine
 62
7
  6
CONTINUOUS
 10
332.3284779338
 20
427.9607799601
 11
45.3500598581
 21
427.9607799601
  0
LINE
  5
2CC
100
AcDbEntity
  8
0
100
AcDbLine
 62
7
  6
CONTINUOUS
 10
332.8459747257
 20
428.4670904817
 11
44.8459747257
 21
428.4670904817
  0
LINE
  5
2CD
100
AcDbEntity
  8
0
100
AcDbLine
 62
7
  6
CONTINUOUS
 10
269.4055063043
 20
407.6750043202
 11
268.9402438467
 21
407.897305816
  0
ARC
  5
2CE
100
AcDbEntity
  8
0
100
AcDbCircle
 62
7
  6
CONTINUOUS
 10
332.2941663299
 20
101.0188988779
 40
4.0454978837
100
AcDbArc
 50
270.0062809351
 51
359.9945937919
  0
ARC
  5
2CF
100
AcDbEntity
  8
0
100
AcDbCircle
 62
7
  6
CONTINUOUS
 10
332.3281118937
 20
423.9492243108
 40
4.0115786113
100
AcDbArc
 50
0.0061513106
 51
89.9947719652
  0
ARC
  5
2D0
100
AcDbEntity
  8
0
100
AcDbCircle
 62
7
  6
CONTINUOUS
 10
44.8465275042
 20
424.4665377036
 40
4.0005810657
100
AcDbArc
 50
90.0079168745
 51
179.9920831253
  0
ARC
  5
2D1
100
AcDbEntity
  8
0
100
AcDbCircle
 62
7
  6
CONTINUOUS
 10
44.8462539796
 20
100.467369736
 40
4.0002792636
100
AcDbArc
 50
180.0039997376
 51
269.9960002624
  0
ARC
  5
2D2
100
AcDbEntity
  8
0
100
AcDbCircle
 62
7
  6
CONTINUOUS
 10
332.8456954719
 20
100.467369736
 40
4.0002792636
100
AcDbArc
 50
270.0039997376
 51
359.9960002624
  0
ARC
  5
2D3
100
AcDbEntity
  8
0
100
AcDbCircle
 62
7
  6
CONTINUOUS
 10
45.3505475262
 20
423.9625176826
 40
3.9982947358
100
AcDbArc
 50
90.0069883678
 51
179.9931396327
  0
ARC
  5
2D4
100
AcDbEntity
  8
0
100
AcDbCircle
 62
7
  6
CONTINUOUS
 10
45.3367750498
 20
100.9578908062
 40
3.9844898118
100
AcDbArc
 50
180.0072250168
 51
269.9929029657
  0
ARC
  5
2D5
100
AcDbEntity
  8
0
100
AcDbCircle
 62
7
  6
CONTINUOUS
 10
276.3092809547
 20
407.3405144313
 40
3.6388111472
100
AcDbArc
 50
314.2280892294
 51
325.1444809343
  0
ARC
  5
2D6
100
AcDbEntity
  8
0
100
AcDbCircle
 62
7
  6
CONTINUOUS
 10
278.9378890315
 20
404.6130367868
 40
3.4682973319
100
AcDbArc
 50
134.0853481285
 51
144.3738692323
  0
ARC
  5
2D7
100
AcDbEntity
  8
0
100
AcDbCircle
 62
7
  6
CONTINUOUS
 10
276.8750465947
 20
407.0464828394
 40
3.0042992346
100
AcDbArc
 50
331.6291270342
 51
338.7905141189
  0
ARC
  5
2D8
100
AcDbEntity
  8
0
100
AcDbCircle
 62
7
  6
CONTINUOUS
 10
278.3243026499
 20
404.8858828969
 40
2.8046974304
100
AcDbArc
 50
150.33322471
 51
158.0425681558
  0
ARC
  5
2D9
100
AcDbEntity
  8
0
100
AcDbCircle
 62
7
  6
CONTINUOUS
 10
45.0959747257
 20
424.2170904821
 40
2.0
100
AcDbArc
 50
90.0
 51
180.0
  0
ARC
  5
2DA
100
AcDbEntity
  8
0
100
AcDbCircle
 62
7
  6
CONTINUOUS
 10
332.5959747257
 20
424.2170904821
 40
2.0
100
AcDbArc
 50
0.0
 51
90.0
  0
ARC
  5
2DB
100
AcDbEntity
  8
0
100
AcDbCircle
 62
7
  6
CONTINUOUS
 10
332.5959747257
 20
100.7170904821
 40
2.0
100
AcDbArc
 50
270.0
 51
360.0
  0
ARC
  5
2DC
100
AcDbEntity
  8
0
100
AcDbCircle
 62
7
  6
CONTINUOUS
 10
45.0959747257
 20
100.7170904821
 40
2.0
100
AcDbArc
 50
180.0
 51
270.0
  0
ARC
  5
2DD
100
AcDbEntity
  8
0
100
AcDbCircle
 62
7
  6
CONTINUOUS
 10
332.8459747257
 20
424.4670904821
 40
2.0
100
AcDbArc
 50
0.0
 51
90.0
  0
ARC
  5
2DE
100
AcDbEntity
  8
0
100
AcDbCircle
 62
7
  6
CONTINUOUS
 10
44.8459747257
 20
424.4670904821
 40
2.0
100
AcDbArc
 50
90.0
 51
180.0
  0
ARC
  5
2DF
100
AcDbEntity
  8
0
100
AcDbCircle
 62
7
  6
CONTINUOUS
 10
44.8459747257
 20
100.4670904821
 40
2.0
100
AcDbArc
 50
180.0
 51
270.0
  0
ARC
  5
2E0
100
AcDbEntity
  8
0
100
AcDbCircle
 62
7
  6
CONTINUOUS
 10
332.8459747257
 20
100.4670904821
 40
2.0
100
AcDbArc
 50
270.0
 51
360.0
  0
ARC
  5
2E1
100
AcDbEntity
  8
0
100
AcDbCircle
 62
7
  6
CONTINUOUS
 10
94.6121241277
 20
406.1575645803
 40
1.5626744498
100
AcDbArc
 50
155.5316145991
 51
163.8369082182
  0
ARC
  5
2E2
100
AcDbEntity
  8
0
100
AcDbCircle
 62
7
  6
CONTINUOUS
 10
89.8036187481
 20
404.9675771608
 40
1.3596069646
100
AcDbArc
 50
184.072607924
 51
199.1755655001
  0
ARC
  5
2E3
100
AcDbEntity
  8
0
100
AcDbCircle
 62
7
  6
CONTINUOUS
 10
278.6443792408
 20
406.8131397895
 40
1.1825821236
100
AcDbArc
 50
22.7654980375
 51
31.6158132461
  0
ARC
  5
2E4
100
AcDbEntity
  8
0
100
AcDbCircle
 62
7
  6
CONTINUOUS
 10
87.9996535051
 20
406.6063027687
 40
0.7757440216
100
AcDbArc
 50
298.3501101477
 51
303.2555795547
  0
ARC
  5
2E5
100
AcDbEntity
  8
0
100
AcDbCircle
 62
7
  6
CONTINUOUS
 10
284.9797135718
 20
405.4334042762
 40
0.7734895562
100
AcDbArc
 50
98.0814485403
 51
101.9798157589
  0
ARC
  5
2E6
100
AcDbEntity
  8
0
100
AcDbCircle
 62
7
  6
CONTINUOUS
 10
91.0981922194
 20
406.2607694304
 40
0.6181339999
100
AcDbArc
 50
79.4883242569
 51
91.2456479121
  0
SPLINE
  5
2E7
100
AcDbEntity
  8
0
100
AcDbSpline
 62
7
  6
CONTINUOUS
 70
0
 71
3
 72
17
 73
13
 74
0
 42
0.0000001
 43
0.0000001
 44
0.0000000001
 40
0.0
 40
0.0
 40
0.0
 40
0.0
 40
0.0783292041
 40
0.1765150321
 40
0.2748059087
 40
0.4831693383
 40
0.6248576626
 40
0.7248987116
 40
0.8017821206
 40
0.8811953963
 40
0.9937240859
 40
1.0
 40
1.0
 40
1.0
 40
1.0
 10
101.105414829
 20
406.5735832788
 30
0.0
 10
101.0978223557
 20
406.6115457513
 30
0.0
 10
101.0814793451
 20
406.6971123521
 30
0.0
 10
101.0200687915
 20
406.8206591099
 30
0.0
 10
100.8570687146
 20
406.9469345533
 30
0.0
 10
100.6317135424
 20
406.9685630864
 30
0.0
 10
100.4125796763
 20
406.9608575522
 30
0.0
 10
100.2558286313
 20
406.9158391867
 30
0.0
 10
100.1498896705
 20
406.8431216009
 30
0.0
 10
100.0924867723
 20
406.7145803432
 30
0.0
 10
100.1243978716
 20
406.6130618855
 30
0.0
 10
100.1535944213
 20
406.5621100083
 30
0.0
 10
100.1551643288
 20
406.5594461247
 30
0.0
  0
SPLINE
  5
2E8
100
AcDbEntity
  8
0
100
AcDbSpline
 62
7
  6
CONTINUOUS
 70
0
 71
3
 72
11
 73
7
 74
0
 42
0.0000001
 43
0.0000001
 44
0.0000000001
 40
0.0
 40
0.0
 40
0.0
 40
0.0
 40
0.2221847531
 40
0.4213665191
 40
0.6215999602
 40
1.0
 40
1.0
 40
1.0
 40
1.0
 10
101.6053660127
 20
407.2151574157
 30
0.0
 10
101.6486056366
 20
407.171496146
 30
0.0
 10
101.7179377284
 20
407.0916304174
 30
0.0
 10
101.7623548522
 20
406.9565596647
 30
0.0
 10
101.8015805973
 20
406.7778789557
 30
0.0
 10
101.8062594194
 20
406.6517136292
 30
0.0
 10
101.8060114579
 20
406.5736577715
 30
0.0
  0
SPLINE
  5
2E9
100
AcDbEntity
  8
0
100
AcDbSpline
 62
7
  6
CONTINUOUS
 70
0
 71
3
 72
16
 73
12
 74
0
 42
0.0000001
 43
0.0000001
 44
0.0000000001
 40
0.0
 40
0.0
 40
0.0
 40
0.0
 40
0.1274471132
 40
0.3007025672
 40
0.5397099313
 40
0.6620386579
 40
0.758847377
 40
0.8384854028
 40
0.8917622192
 40
0.9850988302
 40
1.0
 40
1.0
 40
1.0
 40
1.0
 10
100.0405358157
 20
405.464262532
 30
0.0
 10
100.0476834599
 20
405.3946421697
 30
0.0
 10
100.0652025911
 20
405.2249076574
 30
0.0
 10
100.3325304784
 20
405.0411442345
 30
0.0
 10
100.6162415743
 20
405.0253435099
 30
0.0
 10
100.8659775266
 20
405.0384210303
 30
0.0
 10
101.0205054305
 20
405.0928781757
 30
0.0
 10
101.1197425812
 20
405.1720461971
 30
0.0
 10
101.1853387397
 20
405.2813923947
 30
0.0
 10
101.1671222097
 20
405.3740453567
 30
0.0
 10
101.1409874548
 20
405.4282110484
 30
0.0
 10
101.1371506651
 20
405.4355084056
 30
0.0
  0
SPLINE
  5
2EA
100
AcDbEntity
  8
0
100
AcDbSpline
 62
7
  6
CONTINUOUS
 70
0
 71
3
 72
17
 73
13
 74
0
 42
0.0000001
 43
0.0000001
 44
0.0000000001
 40
0.0
 40
0.0
 40
0.0
 40
0.0
 40
0.142737722
 40
0.4266128933
 40
0.534962506
 40
0.6224572145
 40
0.7373907773
 40
0.7812083037
 40
0.8175160573
 40
0.8836935646
 40
0.9834430266
 40
1.0
 40
1.0
 40
1.0
 40
1.0
 10
271.957623676
 20
410.7200679702
 30
0.0
 10
271.8379324957
 20
410.7724322372
 30
0.0
 10
271.4813273793
 20
410.9270449636
 30
0.0
 10
271.0044643735
 20
411.085150152
 30
0.0
 10
270.5622828675
 20
411.1127757249
 30
0.0
 10
270.2830987119
 20
411.0819870549
 30
0.0
 10
270.060584421
 20
410.9958326848
 30
0.0
 10
269.9615438982
 20
410.8398290658
 30
0.0
 10
269.9456231841
 20
410.7031466927
 30
0.0
 10
270.0305303895
 20
410.5263118038
 30
0.0
 10
270.184264814
 20
410.437231093
 30
0.0
 10
270.2806445506
 20
410.3904589772
 30
0.0
 10
270.2943595414
 20
410.3839716198
 30
0.0
  0
SPLINE
  5
2EB
100
AcDbEntity
  8
0
100
AcDbSpline
 62
7
  6
CONTINUOUS
 70
0
 71
3
 72
16
 73
12
 74
0
 42
0.0000001
 43
0.0000001
 44
0.0000000001
 40
0.0
 40
0.0
 40
0.0
 40
0.0
 40
0.2769525145
 40
0.5051706085
 40
0.6784605095
 40
0.781372052
 40
0.8286289268
 40
0.8731055107
 40
0.9192421273
 40
0.967500922
 40
1.0
 40
1.0
 40
1.0
 40
1.0
 10
268.9402438467
 20
408.8242581147
 30
0.0
 10
269.1643935734
 20
408.6789512947
 30
0.0
 10
269.5644320473
 20
408.4207742171
 30
0.0
 10
270.194826833
 20
408.2575257037
 30
0.0
 10
270.6851137266
 20
408.2616282571
 30
0.0
 10
270.9785362483
 20
408.4124827031
 30
0.0
 10
271.0520026494
 20
408.5928521052
 30
0.0
 10
271.0547093131
 20
408.7284126907
 30
0.0
 10
270.9981701886
 20
408.8550076513
 30
0.0
 10
270.9085297364
 20
408.9409100311
 30
0.0
 10
270.8432611296
 20
408.9842054357
 30
0.0
 10
270.8163417742
 20
409.0003656865
 30
0.0
  0
SPLINE
  5
2EC
100
AcDbEntity
  8
0
100
AcDbSpline
 62
7
  6
CONTINUOUS
 70
0
 71
3
 72
15
 73
11
 74
0
 42
0.0000001
 43
0.0000001
 44
0.0000000001
 40
0.0
 40
0.0
 40
0.0
 40
0.0
 40
0.0792374948
 40
0.1445753903
 40
0.2710282228
 40
0.4287330179
 40
0.5796411159
 40
0.6861711423
 40
0.8397737484
 40
1.0
 40
1.0
 40
1.0
 40
1.0
 10
275.0356452452
 20
407.6777061616
 30
0.0
 10
274.8940151387
 20
407.6288688113
 30
0.0
 10
274.6424636441
 20
407.5457242006
 30
0.0
 10
274.1309569613
 20
407.4622003889
 30
0.0
 10
273.4697983773
 20
407.4975654853
 30
0.0
 10
272.6911961261
 20
407.8790151809
 30
0.0
 10
272.3453466036
 20
408.6189580347
 30
0.0
 10
272.3607984368
 20
409.4206139541
 30
0.0
 10
272.7575664581
 20
410.1448168992
 30
0.0
 10
273.3248104929
 20
410.4075837152
 30
0.0
 10
273.6194680743
 20
410.466345235
 30
0.0
  0
SPLINE
  5
2ED
100
AcDbEntity
  8
0
100
AcDbSpline
 62
7
  6
CONTINUOUS
 70
0
 71
3
 72
16
 73
12
 74
0
 42
0.0000001
 43
0.0000001
 44
0.0000000001
 40
0.0
 40
0.0
 40
0.0
 40
0.0
 40
0.0920931598
 40
0.1779174831
 40
0.2559865551
 40
0.3903137629
 40
0.5128547529
 40
0.6422767227
 40
0.7730180439
 40
0.8956743026
 40
1.0
 40
1.0
 40
1.0
 40
1.0
 10
274.9913223802
 20
409.633956289
 30
0.0
 10
274.8965427122
 20
409.6799065458
 30
0.0
 10
274.7160577891
 20
409.7610776288
 30
0.0
 10
274.4265445994
 20
409.8267908582
 30
0.0
 10
274.0849884555
 20
409.8401769011
 30
0.0
 10
273.7043079688
 20
409.7404407017
 30
0.0
 10
273.3891213123
 20
409.4031705709
 30
0.0
 10
273.3128097339
 20
408.9625614933
 30
0.0
 10
273.4133364819
 20
408.5218890474
 30
0.0
 10
273.7185442969
 20
408.2241013023
 30
0.0
 10
273.9745965324
 20
408.1533620617
 30
0.0
 10
274.0931165384
 20
408.1406293407
 30
0.0
  0
SPLINE
  5
2EE
100
AcDbEntity
  8
0
100
AcDbSpline
 62
7
  6
CONTINUOUS
 70
0
 71
3
 72
14
 73
10
 74
0
 42
0.0000001
 43
0.0000001
 44
0.0000000001
 40
0.0
 40
0.0
 40
0.0
 40
0.0
 40
0.1026891997
 40
0.2806072226
 40
0.4605430811
 40
0.6322515953
 40
0.7975325114
 40
0.8968761001
 40
1.0
 40
1.0
 40
1.0
 40
1.0
 10
276.3288655914
 20
410.0157373371
 30
0.0
 10
276.3925557926
 20
410.0895602154
 30
0.0
 10
276.5626458129
 20
410.2772288221
 30
0.0
 10
276.9527266934
 20
410.5071109909
 30
0.0
 10
277.4750388956
 20
410.5202724791
 30
0.0
 10
277.9435509745
 20
410.3383330802
 30
0.0
 10
278.2120843313
 20
410.0086486683
 30
0.0
 10
278.3166218083
 20
409.6644654668
 30
0.0
 10
278.3273438148
 20
409.4872652369
 30
0.0
 10
278.3296400531
 20
409.3893746557
 30
0.0
  0
SPLINE
  5
2EF
100
AcDbEntity
  8
0
100
AcDbSpline
 62
7
  6
CONTINUOUS
 70
0
 71
3
 72
13
 73
9
 74
0
 42
0.0000001
 43
0.0000001
 44
0.0000000001
 40
0.0
 40
0.0
 40
0.0
 40
0.0
 40
0.1132097951
 40
0.2249249506
 40
0.4095877297
 40
0.5939687322
 40
0.7960154247
 40
1.0
 40
1.0
 40
1.0
 40
1.0
 10
277.4143728706
 20
409.1943540453
 30
0.0
 10
277.4134127648
 20
409.2582562216
 30
0.0
 10
277.4077606625
 20
409.3745625529
 30
0.0
 10
277.3519184556
 20
409.6065589953
 30
0.0
 10
277.1716214225
 20
409.8245204312
 30
0.0
 10
276.8106423636
 20
409.8561647392
 30
0.0
 10
276.5252682107
 20
409.6586980076
 30
0.0
 10
276.3955309179
 20
409.4832688186
 30
0.0
 10
276.3288655914
 20
409.3893746558
 30
0.0
  0
SPLINE
  5
2F0
100
AcDbEntity
  8
0
100
AcDbSpline
 62
7
  6
CONTINUOUS
 70
0
 71
3
 72
10
 73
6
 74
0
 42
0.0000001
 43
0.0000001
 44
0.0000000001
 40
0.0
 40
0.0
 40
0.0
 40
0.0
 40
0.2022138438
 40
0.6029860382
 40
1.0
 40
1.0
 40
1.0
 40
1.0
 10
278.3296400531
 20
408.4612135506
 30
0.0
 10
278.264054076
 20
408.4522146106
 30
0.0
 10
278.0784153717
 20
408.4231856061
 30
0.0
 10
277.7655565941
 20
408.3332259747
 30
0.0
 10
277.5307718686
 20
408.2283192226
 30
0.0
 10
277.4143728712
 20
408.1704958429
 30
0.0
  0
SPLINE
  5
2F1
100
AcDbEntity
  8
0
100
AcDbSpline
 62
7
  6
CONTINUOUS
 70
0
 71
3
 72
12
 73
8
 74
0
 42
0.0000001
 43
0.0000001
 44
0.0000000001
 40
0.0
 40
0.0
 40
0.0
 40
0.0
 40
0.1132749041
 40
0.2576962647
 40
0.5254265093
 40
0.7943116839
 40
1.0
 40
1.0
 40
1.0
 40
1.0
 10
280.6257659728
 20
410.5036917982
 30
0.0
 10
280.6921879958
 20
410.5023081792
 30
0.0
 10
280.8294307625
 20
410.4938980678
 30
0.0
 10
281.1377483238
 20
410.4130718383
 30
0.0
 10
281.4735300291
 20
410.1849610774
 30
0.0
 10
281.6666374006
 20
409.7637917682
 30
0.0
 10
281.6839767944
 20
409.5081831688
 30
0.0
 10
281.6868956769
 20
409.3875614481
 30
0.0
  0
SPLINE
  5
2F2
100
AcDbEntity
  8
0
100
AcDbSpline
 62
7
  6
CONTINUOUS
 70
0
 71
3
 72
10
 73
6
 74
0
 42
0.0000001
 43
0.0000001
 44
0.0000000001
 40
0.0
 40
0.0
 40
0.0
 40
0.0
 40
0.2034931505
 40
0.8015750565
 40
1.0
 40
1.0
 40
1.0
 40
1.0
 10
279.6770551755
 20
410.0320562107
 30
0.0
 10
279.7269556025
 20
410.0880166169
 30
0.0
 10
279.919806186
 20
410.2943808202
 30
0.0
 10
280.2576984649
 20
410.4856227675
 30
0.0
 10
280.552659189
 20
410.5027266549
 30
0.0
 10
280.6257659728
 20
410.5036917982
 30
0.0
  0
SPLINE
  5
2F3
100
AcDbEntity
  8
0
100
AcDbSpline
 62
7
  6
CONTINUOUS
 70
0
 71
3
 72
11
 73
7
 74
0
 42
0.0000001
 43
0.0000001
 44
0.0000000001
 40
0.0
 40
0.0
 40
0.0
 40
0.0
 40
0.193717634
 40
0.3918051043
 40
0.7967413331
 40
1.0
 40
1.0
 40
1.0
 40
1.0
 10
279.6770551755
 20
408.0512270407
 30
0.0
 10
279.633649589
 20
408.102328873
 30
0.0
 10
279.5294959594
 20
408.2002318454
 30
0.0
 10
279.291689288
 20
408.3380505782
 30
0.0
 10
279.0312624254
 20
408.4293595973
 30
0.0
 10
278.8315928867
 20
408.4599609771
 30
0.0
 10
278.7617879948
 20
408.4686678501
 30
0.0
  0
SPLINE
  5
2F4
100
AcDbEntity
  8
0
100
AcDbSpline
 62
7
  6
CONTINUOUS
 70
0
 71
3
 72
13
 73
9
 74
0
 42
0.0000001
 43
0.0000001
 44
0.0000000001
 40
0.0
 40
0.0
 40
0.0
 40
0.0
 40
0.1236703678
 40
0.3175489966
 40
0.4084426296
 40
0.596702059
 40
0.8037798254
 40
1.0
 40
1.0
 40
1.0
 40
1.0
 10
280.772434366
 20
409.312011108
 30
0.0
 10
280.77130347
 20
409.3803631077
 30
0.0
 10
280.7620213035
 20
409.5471360176
 30
0.0
 10
280.6643589584
 20
409.7705978755
 30
0.0
 10
280.4335768178
 20
409.9034223648
 30
0.0
 10
280.1330331117
 20
409.9023763469
 30
0.0
 10
279.8749282536
 20
409.695537459
 30
0.0
 10
279.7377431968
 20
409.5024218557
 30
0.0
 10
279.6770551758
 20
409.412543426
 30
0.0
  0
SPLINE
  5
2F5
100
AcDbEntity
  8
0
100
AcDbSpline
 62
7
  6
CONTINUOUS
 70
0
 71
3
 72
12
 73
8
 74
0
 42
0.0000001
 43
0.0000001
 44
0.0000000001
 40
0.0
 40
0.0
 40
0.0
 40
0.0
 40
0.2800613173
 40
0.5090453964
 40
0.7033649108
 40
0.8008814308
 40
1.0
 40
1.0
 40
1.0
 40
1.0
 10
294.6116448427
 20
409.615421271
 30
0.0
 10
294.6928270661
 20
409.7848577945
 30
0.0
 10
294.8691638517
 20
410.1125826804
 30
0.0
 10
295.2080165706
 20
410.4530622392
 30
0.0
 10
295.5591739452
 20
410.531204485
 30
0.0
 10
295.8802564003
 20
410.44140658
 30
0.0
 10
296.0506734087
 20
410.3189301526
 30
0.0
 10
296.1587143287
 20
410.2403736801
 30
0.0
  0
SPLINE
  5
2F6
100
AcDbEntity
  8
0
100
AcDbSpline
 62
7
  6
CONTINUOUS
 70
0
 71
3
 72
12
 73
8
 74
0
 42
0.0000001
 43
0.0000001
 44
0.0000000001
 40
0.0
 40
0.0
 40
0.0
 40
0.0
 40
0.1782885892
 40
0.2807070935
 40
0.4685147384
 40
0.7924603072
 40
1.0
 40
1.0
 40
1.0
 40
1.0
 10
295.9072827987
 20
409.4318843128
 30
0.0
 10
295.8162204154
 20
409.4884786035
 30
0.0
 10
295.6708827907
 20
409.5749328392
 30
0.0
 10
295.4011950678
 20
409.6675455094
 30
0.0
 10
295.0156127615
 20
409.599089831
 30
0.0
 10
294.7651618008
 20
409.1775297561
 30
0.0
 10
294.6569030061
 20
408.9119712949
 30
0.0
 10
294.6116448427
 20
408.7956497201
 30
0.0
  0
SPLINE
  5
2F7
100
AcDbEntity
  8
0
100
AcDbSpline
 62
7
  6
CONTINUOUS
 70
0
 71
3
 72
15
 73
11
 74
0
 42
0.0000001
 43
0.0000001
 44
0.0000000001
 40
0.0
 40
0.0
 40
0.0
 40
0.0
 40
0.1329825432
 40
0.2300359189
 40
0.3134355069
 40
0.4760592776
 40
0.6540237933
 40
0.8286149818
 40
0.9939873941
 40
1.0
 40
1.0
 40
1.0
 40
1.0
 10
295.3052976927
 20
405.7405954542
 30
0.0
 10
295.2303290877
 20
405.7902776844
 30
0.0
 10
295.092419777
 20
405.8751394782
 30
0.0
 10
294.8822503448
 20
405.9146271539
 30
0.0
 10
294.64687835
 20
405.8921668193
 30
0.0
 10
294.4035855991
 20
405.7098622614
 30
0.0
 10
294.318400243
 20
405.3561184261
 30
0.0
 10
294.3949119596
 20
404.9984107343
 30
0.0
 10
294.5967079336
 20
404.8566164681
 30
0.0
 10
294.7089683438
 20
404.822148694
 30
0.0
 10
294.7129208859
 20
404.8209828657
 30
0.0
  0
SPLINE
  5
2F8
100
AcDbEntity
  8
0
100
AcDbSpline
 62
7
  6
CONTINUOUS
 70
0
 71
3
 72
15
 73
11
 74
0
 42
0.0000001
 43
0.0000001
 44
0.0000000001
 40
0.0
 40
0.0
 40
0.0
 40
0.0
 40
0.0686847379
 40
0.1662836794
 40
0.2492499405
 40
0.401898037
 40
0.5518384828
 40
0.7155005663
 40
0.8713038482
 40
1.0
 40
1.0
 40
1.0
 40
1.0
 10
295.3427706617
 20
404.5845745241
 30
0.0
 10
295.2824479217
 20
404.5609592448
 30
0.0
 10
295.1422725291
 20
404.5151724464
 30
0.0
 10
294.914182447
 20
404.4836602769
 30
0.0
 10
294.5965625649
 20
404.4994485198
 30
0.0
 10
294.2532005923
 20
404.6559045413
 30
0.0
 10
294.0097800181
 20
405.0406185783
 30
0.0
 10
293.9983958827
 20
405.5060062
 30
0.0
 10
294.1416711315
 20
405.914039107
 30
0.0
 10
294.360071639
 20
406.0844004924
 30
0.0
 10
294.4708046301
 20
406.1351137605
 30
0.0
  0
SPLINE
  5
2F9
100
AcDbEntity
  8
0
100
AcDbSpline
 62
7
  6
CONTINUOUS
 70
0
 71
3
 72
14
 73
10
 74
0
 42
0.0000001
 43
0.0000001
 44
0.0000000001
 40
0.0
 40
0.0
 40
0.0
 40
0.0
 40
0.1891276379
 40
0.2940599542
 40
0.3651554184
 40
0.5050248366
 40
0.7982245616
 40
0.8991122808
 40
1.0
 40
1.0
 40
1.0
 40
1.0
 10
291.7951281807
 20
405.7275000615
 30
0.0
 10
291.7465336174
 20
405.773644226
 30
0.0
 10
291.6551914288
 20
405.8430317838
 30
0.0
 10
291.53589321
 20
405.894261588
 30
0.0
 10
291.4220522075
 20
405.8937495356
 30
0.0
 10
291.2503778686
 20
405.8269371588
 30
0.0
 10
291.1382338682
 20
405.6608961697
 30
0.0
 10
291.0947475819
 20
405.4905636372
 30
0.0
 10
291.0901823167
 20
405.4189315636
 30
0.0
 10
291.0893872767
 20
405.3831919813
 30
0.0
  0
SPLINE
  5
2FA
100
AcDbEntity
  8
0
100
AcDbSpline
 62
7
  6
CONTINUOUS
 70
0
 71
3
 72
12
 73
8
 74
0
 42
0.0000001
 43
0.0000001
 44
0.0000000001
 40
0.0
 40
0.0
 40
0.0
 40
0.0
 40
0.2476112618
 40
0.5280121173
 40
0.6558161137
 40
0.7991466769
 40
1.0
 40
1.0
 40
1.0
 40
1.0
 10
291.0893872767
 20
405.7917682166
 30
0.0
 10
291.1349221467
 20
405.8703070358
 30
0.0
 10
291.2488259196
 20
406.0455944784
 30
0.0
 10
291.4398440068
 20
406.205609243
 30
0.0
 10
291.6492893832
 20
406.2088166194
 30
0.0
 10
291.8132024148
 20
406.1475165256
 30
0.0
 10
291.9130791127
 20
406.0643603005
 30
0.0
 10
291.9671814877
 20
406.0143898847
 30
0.0
  0
SPLINE
  5
2FB
100
AcDbEntity
  8
0
100
AcDbSpline
 62
7
  6
CONTINUOUS
 70
0
 71
3
 72
14
 73
10
 74
0
 42
0.0000001
 43
0.0000001
 44
0.0000000001
 40
0.0
 40
0.0
 40
0.0
 40
0.0
 40
0.0760449337
 40
0.2436838786
 40
0.4137993477
 40
0.5487480919
 40
0.9010231029
 40
0.9505115517
 40
1.0
 40
1.0
 40
1.0
 40
1.0
 10
289.9279267217
 20
404.5996845919
 30
0.0
 10
289.8993311034
 20
404.5848775456
 30
0.0
 10
289.8059251103
 20
404.5410266555
 30
0.0
 10
289.6357146786
 20
404.491964478
 30
0.0
 10
289.4492115978
 20
404.4851657923
 30
0.0
 10
289.1686752632
 20
404.5542697542
 30
0.0
 10
289.0242900062
 20
404.7549429925
 30
0.0
 10
288.9981200986
 20
404.9447971062
 30
0.0
 10
288.9969885891
 20
404.9867038859
 30
0.0
 10
288.9965421357
 20
405.0076564259
 30
0.0
  0
SPLINE
  5
2FC
100
AcDbEntity
  8
0
100
AcDbSpline
 62
7
  6
CONTINUOUS
 70
0
 71
3
 72
13
 73
9
 74
0
 42
0.0000001
 43
0.0000001
 44
0.0000000001
 40
0.0
 40
0.0
 40
0.0
 40
0.0
 40
0.074479016
 40
0.1912671913
 40
0.2635328661
 40
0.4540135914
 40
0.611005623
 40
1.0
 40
1.0
 40
1.0
 40
1.0
 10
289.3215093277
 20
405.0324369366
 30
0.0
 10
289.3219790544
 20
405.0134261494
 30
0.0
 10
289.3244872556
 20
404.9645738672
 30
0.0
 10
289.3461814276
 20
404.8992888215
 30
0.0
 10
289.4056874223
 20
404.8214689762
 30
0.0
 10
289.5107850846
 20
404.7755867819
 30
0.0
 10
289.698002592
 20
404.7884910793
 30
0.0
 10
289.8429144267
 20
404.8540066827
 30
0.0
 10
289.9279267217
 20
404.9053108985
 30
0.0
  0
SPLINE
  5
2FD
100
AcDbEntity
  8
0
100
AcDbSpline
 62
7
  6
CONTINUOUS
 70
0
 71
3
 72
15
 73
11
 74
0
 42
0.0000001
 43
0.0000001
 44
0.0000000001
 40
0.0
 40
0.0
 40
0.0
 40
0.0
 40
0.1321803839
 40
0.2290622826
 40
0.3127106736
 40
0.4756709539
 40
0.6534998303
 40
0.8280352113
 40
0.9930987084
 40
1.0
 40
1.0
 40
1.0
 40
1.0
 10
287.8368947887
 20
405.7405954544
 30
0.0
 10
287.7624968424
 20
405.7901989234
 30
0.0
 10
287.6254525243
 20
405.8748981929
 30
0.0
 10
287.41569816
 20
405.9146430191
 30
0.0
 10
287.1800191301
 20
405.892273771
 30
0.0
 10
286.9357659837
 20
405.7105376777
 30
0.0
 10
286.8497987225
 20
405.3568042732
 30
0.0
 10
286.9256339407
 20
404.9991131068
 30
0.0
 10
287.1274220859
 20
404.8569207353
 30
0.0
 10
287.2401771695
 20
404.8222445147
 30
0.0
 10
287.2447210716
 20
404.8209097377
 30
0.0
  0
SPLINE
  5
2FE
100
AcDbEntity
  8
0
100
AcDbSpline
 62
7
  6
CONTINUOUS
 70
0
 71
3
 72
15
 73
11
 74
0
 42
0.0000001
 43
0.0000001
 44
0.0000000001
 40
0.0
 40
0.0
 40
0.0
 40
0.0
 40
0.0677410544
 40
0.1653462972
 40
0.248349624
 40
0.4009239193
 40
0.5508124018
 40
0.7145938328
 40
0.870543226
 40
1.0
 40
1.0
 40
1.0
 40
1.0
 10
287.8735618861
 20
404.5845745243
 30
0.0
 10
287.8142208075
 20
404.5609626468
 30
0.0
 10
287.6749779105
 20
404.5149171384
 30
0.0
 10
287.4482164915
 20
404.4837806874
 30
0.0
 10
287.1306421462
 20
404.4991865273
 30
0.0
 10
286.7873007072
 20
404.6551092247
 30
0.0
 10
286.5438061552
 20
405.0396379774
 30
0.0
 10
286.5321442244
 20
405.5047667665
 30
0.0
 10
286.6744321142
 20
405.9138762537
 30
0.0
 10
286.8934090845
 20
406.0850415853
 30
0.0
 10
287.0048032517
 20
406.135857016
 30
0.0
  0
SPLINE
  5
2FF
100
AcDbEntity
  8
0
100
AcDbSpline
 62
7
  6
CONTINUOUS
 70
0
 71
3
 72
17
 73
13
 74
0
 42
0.0000001
 43
0.0000001
 44
0.0000000001
 40
0.0
 40
0.0
 40
0.0
 40
0.0
 40
0.0974084938
 40
0.17708095
 40
0.2399916389
 40
0.3765469836
 40
0.4559348479
 40
0.6021223512
 40
0.7159095309
 40
0.8689394053
 40
0.9875613045
 40
1.0
 40
1.0
 40
1.0
 40
1.0
 10
88.1532338393
 20
406.3517191297
 30
0.0
 10
88.1955825161
 20
406.3593842652
 30
0.0
 10
88.2724502861
 20
406.3735119285
 30
0.0
 10
88.3692166868
 20
406.4277856373
 30
0.0
 10
88.4330806875
 20
406.5365711696
 30
0.0
 10
88.4319757491
 20
406.6710065373
 30
0.0
 10
88.3584518573
 20
406.8179530651
 30
0.0
 10
88.2211044781
 20
406.899228035
 30
0.0
 10
88.0452857974
 20
406.9319487928
 30
0.0
 10
87.856909129
 20
406.9305938896
 30
0.0
 10
87.7335090098
 20
406.9110261032
 30
0.0
 10
87.6801174289
 20
406.8892345798
 30
0.0
 10
87.6750884485
 20
406.8870535638
 30
0.0
  0
SPLINE
  5
300
100
AcDbEntity
  8
0
100
AcDbSpline
 62
7
  6
CONTINUOUS
 70
0
 71
3
 72
8
 73
4
 74
0
 42
0.0000001
 43
0.0000001
 44
0.0000000001
 40
0.0
 40
0.0
 40
0.0
 40
0.0
 40
1.0
 40
1.0
 40
1.0
 40
1.0
 10
88.4474449943
 20
404.8710170886
 30
0.0
 10
88.4004131755
 20
404.8241520528
 30
0.0
 10
88.3540462395
 20
404.7769241646
 30
0.0
 10
88.3039802076
 20
404.7332896655
 30
0.0
  0
SPLINE
  5
301
100
AcDbEntity
  8
0
100
AcDbSpline
 62
7
  6
CONTINUOUS
 70
0
 71
3
 72
10
 73
6
 74
0
 42
0.0000001
 43
0.0000001
 44
0.0000000001
 40
0.0
 40
0.0
 40
0.0
 40
0.0
 40
0.0334016663
 40
0.5519983047
 40
1.0
 40
1.0
 40
1.0
 40
1.0
 10
88.3039802076
 20
404.7332896655
 30
0.0
 10
88.2957650428
 20
404.726129829
 30
0.0
 10
88.1583547174
 20
404.6094047599
 30
0.0
 10
87.8506063014
 20
404.454462142
 30
0.0
 10
87.532478863
 20
404.4315433846
 30
0.0
 10
87.3877233837
 20
404.4474448487
 30
0.0
  0
SPLINE
  5
302
100
AcDbEntity
  8
0
100
AcDbSpline
 62
7
  6
CONTINUOUS
 70
0
 71
3
 72
11
 73
7
 74
0
 42
0.0000001
 43
0.0000001
 44
0.0000000001
 40
0.0
 40
0.0
 40
0.0
 40
0.0
 40
0.1200717762
 40
0.7058177782
 40
0.9781095735
 40
1.0
 40
1.0
 40
1.0
 40
1.0
 10
87.3877233837
 20
404.4474448487
 30
0.0
 10
87.3574140341
 20
404.4507743464
 30
0.0
 10
87.1799401539
 20
404.4771816631
 30
0.0
 10
86.9427831885
 20
404.5691402096
 30
0.0
 10
86.7823386498
 20
404.733092853
 30
0.0
 10
86.7394086598
 20
404.7947883035
 30
0.0
 10
86.7362727948
 20
404.7994159067
 30
0.0
  0
SPLINE
  5
303
100
AcDbEntity
  8
0
100
AcDbSpline
 62
7
  6
CONTINUOUS
 70
0
 71
3
 72
11
 73
7
 74
0
 42
0.0000001
 43
0.0000001
 44
0.0000000001
 40
0.0
 40
0.0
 40
0.0
 40
0.0
 40
0.2755971871
 40
0.6028642091
 40
0.9016272474
 40
1.0
 40
1.0
 40
1.0
 40
1.0
 10
86.7362727948
 20
404.7994159067
 30
0.0
 10
86.6603550264
 20
404.9114479334
 30
0.0
 10
86.5694207286
 20
405.2036661077
 30
0.0
 10
86.6079703988
 20
405.6599617743
 30
0.0
 10
86.8136247162
 20
405.9645400671
 30
0.0
 10
86.9730329629
 20
406.0749731357
 30
0.0
 10
87.01455247
 20
406.0988431393
 30
0.0
  0
SPLINE
  5
304
100
AcDbEntity
  8
0
100
AcDbSpline
 62
7
  6
CONTINUOUS
 70
0
 71
3
 72
12
 73
8
 74
0
 42
0.0000001
 43
0.0000001
 44
0.0000000001
 40
0.0
 40
0.0
 40
0.0
 40
0.0
 40
0.4082794773
 40
0.6110398913
 40
0.8007751165
 40
0.9003875582
 40
1.0
 40
1.0
 40
1.0
 40
1.0
 10
89.1850399378
 20
405.0983933917
 30
0.0
 10
89.1858683738
 20
405.027170304
 30
0.0
 10
89.1875438291
 20
404.9194860277
 30
0.0
 10
89.218215193
 20
404.7837748795
 30
0.0
 10
89.255364201
 20
404.7017228115
 30
0.0
 10
89.3093110465
 20
404.66039019
 30
0.0
 10
89.3411070651
 20
404.6451432747
 30
0.0
 10
89.3569502032
 20
404.6374396159
 30
0.0
  0
SPLINE
  5
305
100
AcDbEntity
  8
0
100
AcDbSpline
 62
7
  6
CONTINUOUS
 70
0
 71
3
 72
15
 73
11
 74
0
 42
0.0000001
 43
0.0000001
 44
0.0000000001
 40
0.0
 40
0.0
 40
0.0
 40
0.0
 40
0.1929758509
 40
0.2535794067
 40
0.3919770753
 40
0.5694799717
 40
0.6595964405
 40
0.7350089064
 40
0.8473207379
 40
1.0
 40
1.0
 40
1.0
 40
1.0
 10
86.6890682577
 20
406.5184617507
 30
0.0
 10
86.7345753261
 20
406.7452649412
 30
0.0
 10
86.7941302774
 20
407.0568531745
 30
0.0
 10
87.1232925092
 20
407.378360655
 30
0.0
 10
87.5546097028
 20
407.5531880519
 30
0.0
 10
88.012237922
 20
407.5616515915
 30
0.0
 10
88.4126898946
 20
407.5180363983
 30
0.0
 10
88.7290539432
 20
407.4260445204
 30
0.0
 10
89.0895750844
 20
407.2040598335
 30
0.0
 10
89.1499110953
 20
406.875483263
 30
0.0
 10
89.1850399378
 20
406.6955396588
 30
0.0
  0
SPLINE
  5
306
100
AcDbEntity
  8
0
100
AcDbSpline
 62
7
  6
CONTINUOUS
 70
0
 71
3
 72
17
 73
13
 74
0
 42
0.0000001
 43
0.0000001
 44
0.0000000001
 40
0.0
 40
0.0
 40
0.0
 40
0.0
 40
0.1113294391
 40
0.1705684034
 40
0.230165844
 40
0.3552042143
 40
0.5729373244
 40
0.6602886953
 40
0.7346888425
 40
0.7970541741
 40
0.8998851455
 40
1.0
 40
1.0
 40
1.0
 40
1.0
 10
92.5298831456
 20
404.6767137032
 30
0.0
 10
92.5276507788
 20
404.5249136007
 30
0.0
 10
92.5251781472
 20
404.2912396493
 30
0.0
 10
92.4386839912
 20
403.9923309311
 30
0.0
 10
92.2666307278
 20
403.7041976487
 30
0.0
 10
91.8326617515
 20
403.3483978627
 30
0.0
 10
91.2163328697
 20
403.2965444458
 30
0.0
 10
90.7116824811
 20
403.336095952
 30
0.0
 10
90.416643851
 20
403.4083554846
 30
0.0
 10
90.1131805735
 20
403.5401079727
 30
0.0
 10
89.8443886266
 20
403.7939867772
 30
0.0
 10
89.7835434837
 20
404.0716373665
 30
0.0
 10
89.7507246167
 20
404.2054246403
 30
0.0
  0
SPLINE
  5
307
100
AcDbEntity
  8
0
100
AcDbSpline
 62
7
  6
CONTINUOUS
 70
0
 71
3
 72
10
 73
6
 74
0
 42
0.0000001
 43
0.0000001
 44
0.0000000001
 40
0.0
 40
0.0
 40
0.0
 40
0.0
 40
0.0367856001
 40
0.7143238875
 40
1.0
 40
1.0
 40
1.0
 40
1.0
 10
91.7510345975
 20
404.9621158662
 30
0.0
 10
91.7481479831
 20
404.9574868118
 30
0.0
 10
91.69184394
 20
404.8673039212
 30
0.0
 10
91.6052752581
 20
404.7351048381
 30
0.0
 10
91.4891473531
 20
404.6484175588
 30
0.0
 10
91.452736283
 20
404.6261738967
 30
0.0
  0
SPLINE
  5
308
100
AcDbEntity
  8
0
100
AcDbSpline
 62
7
  6
CONTINUOUS
 70
0
 71
3
 72
11
 73
7
 74
0
 42
0.0000001
 43
0.0000001
 44
0.0000000001
 40
0.0
 40
0.0
 40
0.0
 40
0.0
 40
0.0561615854
 40
0.2190558684
 40
0.610359745
 40
1.0
 40
1.0
 40
1.0
 40
1.0
 10
91.452736283
 20
404.6261738967
 30
0.0
 10
91.4322754868
 20
404.613674318
 30
0.0
 10
91.3500437039
 20
404.5691899327
 30
0.0
 10
91.101414779
 20
404.4908248439
 30
0.0
 10
90.6779344578
 20
404.4975163893
 30
0.0
 10
90.3678680425
 20
404.6260265925
 30
0.0
 10
90.2334593951
 20
404.7226826328
 30
0.0
  0
SPLINE
  5
309
100
AcDbEntity
  8
0
100
AcDbSpline
 62
7
  6
CONTINUOUS
 70
0
 71
3
 72
13
 73
9
 74
0
 42
0.0000001
 43
0.0000001
 44
0.0000000001
 40
0.0
 40
0.0
 40
0.0
 40
0.0
 40
0.0053514946
 40
0.1914073666
 40
0.3932806372
 40
0.6305687383
 40
0.8362413227
 40
1.0
 40
1.0
 40
1.0
 40
1.0
 10
90.2334593951
 20
404.7226826328
 30
0.0
 10
90.2293233063
 20
404.7256569798
 30
0.0
 10
90.0820748213
 20
404.8331427461
 30
0.0
 10
89.8308258525
 20
405.1351276877
 30
0.0
 10
89.6723454878
 20
405.7097836184
 30
0.0
 10
89.6747223284
 20
406.3645899923
 30
0.0
 10
89.8400084639
 20
406.9208709142
 30
0.0
 10
90.0696495586
 20
407.2037679706
 30
0.0
 10
90.1916497593
 20
407.3022944578
 30
0.0
  0
SPLINE
  5
30A
100
AcDbEntity
  8
0
100
AcDbSpline
 62
7
  6
CONTINUOUS
 70
0
 71
3
 72
17
 73
13
 74
0
 42
0.0000001
 43
0.0000001
 44
0.0000000001
 40
0.0
 40
0.0
 40
0.0
 40
0.0
 40
0.0333053027
 40
0.0979662821
 40
0.2118183034
 40
0.2993301071
 40
0.3968639635
 40
0.510994816
 40
0.6053049382
 40
0.7001685066
 40
0.7999386723
 40
1.0
 40
1.0
 40
1.0
 40
1.0
 10
90.5940839921
 20
404.2054246403
 30
0.0
 10
90.5989105258
 20
404.1865533251
 30
0.0
 10
90.6127316515
 20
404.1310586418
 30
0.0
 10
90.6633025217
 20
404.0175601685
 30
0.0
 10
90.8075305884
 20
403.9366553065
 30
0.0
 10
90.9764678256
 20
403.9068953214
 30
0.0
 10
91.1523634375
 20
403.9041825349
 30
0.0
 10
91.3318145813
 20
403.9132629535
 30
0.0
 10
91.497881475
 20
403.9727359743
 30
0.0
 10
91.6288248267
 20
404.0862519874
 30
0.0
 10
91.7420316174
 20
404.2848377783
 30
0.0
 10
91.7483732582
 20
404.464870234
 30
0.0
 10
91.7533586223
 20
404.5823180873
 30
0.0
  0
SPLINE
  5
30B
100
AcDbEntity
  8
0
100
AcDbSpline
 62
7
  6
CONTINUOUS
 70
0
 71
3
 72
18
 73
14
 74
0
 42
0.0000001
 43
0.0000001
 44
0.0000000001
 40
0.0
 40
0.0
 40
0.0
 40
0.0
 40
0.0950358508
 40
0.1457625524
 40
0.2521134615
 40
0.3108950575
 40
0.4406347322
 40
0.5557305671
 40
0.6696763712
 40
0.8570160761
 40
0.9332768354
 40
0.9990680918
 40
1.0
 40
1.0
 40
1.0
 40
1.0
 10
95.8027238579
 20
405.3864033746
 30
0.0
 10
95.7436618926
 20
405.2463175247
 30
0.0
 10
95.6537861735
 20
405.0299793998
 30
0.0
 10
95.407250266
 20
404.7165918553
 30
0.0
 10
95.09830865
 20
404.5395618735
 30
0.0
 10
94.6453849094
 20
404.4322122999
 30
0.0
 10
94.1440382168
 20
404.430754343
 30
0.0
 10
93.6050455406
 20
404.6315152481
 30
0.0
 10
93.1327493794
 20
405.1296110258
 30
0.0
 10
93.0209922186
 20
405.743226748
 30
0.0
 10
93.0397621366
 20
406.2668256649
 30
0.0
 10
93.0813507967
 20
406.489437923
 30
0.0
 10
93.110803865
 20
406.5911499453
 30
0.0
 10
93.111217192
 20
406.5925701046
 30
0.0
  0
SPLINE
  5
30C
100
AcDbEntity
  8
0
100
AcDbSpline
 62
7
  6
CONTINUOUS
 70
0
 71
3
 72
14
 73
10
 74
0
 42
0.0000001
 43
0.0000001
 44
0.0000000001
 40
0.0
 40
0.0
 40
0.0
 40
0.0
 40
0.1879506376
 40
0.2964506291
 40
0.4979965232
 40
0.7218416388
 40
0.8181612848
 40
0.9005153972
 40
1.0
 40
1.0
 40
1.0
 40
1.0
 10
93.8111141578
 20
405.7860344501
 30
0.0
 10
93.8234383733
 20
405.6758854363
 30
0.0
 10
93.8430419678
 20
405.5012656098
 30
0.0
 10
93.9866682512
 20
405.2354147348
 30
0.0
 10
94.2507913459
 20
405.0571395154
 30
0.0
 10
94.5775242146
 20
405.0502904013
 30
0.0
 10
94.8023717734
 20
405.1296141685
 30
0.0
 10
94.9344142233
 20
405.2333522042
 30
0.0
 10
94.979094141
 20
405.3328358934
 30
0.0
 10
95.0038062141
 20
405.3864033747
 30
0.0
  0
SPLINE
  5
30D
100
AcDbEntity
  8
0
100
AcDbSpline
 62
7
  6
CONTINUOUS
 70
0
 71
3
 72
10
 73
6
 74
0
 42
0.0000001
 43
0.0000001
 44
0.0000000001
 40
0.0
 40
0.0
 40
0.0
 40
0.0
 40
0.2540305741
 40
0.5164933537
 40
1.0
 40
1.0
 40
1.0
 40
1.0
 10
283.5867348828
 20
410.5036917986
 30
0.0
 10
283.683984634
 20
410.5012210631
 30
0.0
 10
283.8695718731
 20
410.490172696
 30
0.0
 10
284.2426805915
 20
410.3915663816
 30
0.0
 10
284.4920942086
 20
410.2405484462
 30
0.0
 10
284.6261463609
 20
410.1142681781
 30
0.0
  0
SPLINE
  5
30E
100
AcDbEntity
  8
0
100
AcDbSpline
 62
7
  6
CONTINUOUS
 70
0
 71
3
 72
11
 73
7
 74
0
 42
0.0000001
 43
0.0000001
 44
0.0000000001
 40
0.0
 40
0.0
 40
0.0
 40
0.0
 40
0.0139900743
 40
0.6378616129
 40
0.8189308064
 40
1.0
 40
1.0
 40
1.0
 40
1.0
 10
284.6261463609
 20
410.1142681781
 30
0.0
 10
284.6308828745
 20
410.1098062713
 30
0.0
 10
284.8452673947
 20
409.9047542977
 30
0.0
 10
285.0267010674
 20
409.5473650475
 30
0.0
 10
285.0918846597
 20
409.0897994762
 30
0.0
 10
285.0909507243
 20
408.9202010182
 30
0.0
 10
285.0894815058
 20
408.8355402989
 30
0.0
  0
SPLINE
  5
30F
100
AcDbEntity
  8
0
100
AcDbSpline
 62
7
  6
CONTINUOUS
 70
0
 71
3
 72
18
 73
14
 74
0
 42
0.0000001
 43
0.0000001
 44
0.0000000001
 40
0.0
 40
0.0
 40
0.0
 40
0.0
 40
0.0903279319
 40
0.2172361451
 40
0.2531178222
 40
0.2710600627
 40
0.2890023031
 40
0.3541792756
 40
0.5230969446
 40
0.6831094773
 40
0.7989842789
 40
0.964216474
 40
1.0
 40
1.0
 40
1.0
 40
1.0
 10
285.0383087427
 20
407.8684959529
 30
0.0
 10
284.9045128854
 20
407.7798409766
 30
0.0
 10
284.5718787636
 20
407.5765507114
 30
0.0
 10
284.1276794623
 20
407.4897656539
 30
0.0
 10
283.8068566234
 20
407.4813035138
 30
0.0
 10
283.6795205841
 20
407.4817284908
 30
0.0
 10
283.500256775
 20
407.4892577366
 30
0.0
 10
283.056322477
 20
407.5472433081
 30
0.0
 10
282.3926249848
 20
407.8622087901
 30
0.0
 10
282.0300884605
 20
408.6054400467
 30
0.0
 10
282.0434367736
 20
409.4024989765
 30
0.0
 10
282.3033700594
 20
409.9281462213
 30
0.0
 10
282.5742401188
 20
410.1610493607
 30
0.0
 10
282.6251678652
 20
410.1991737685
 30
0.0
  0
SPLINE
  5
310
100
AcDbEntity
  8
0
100
AcDbSpline
 62
7
  6
CONTINUOUS
 70
0
 71
3
 72
10
 73
6
 74
0
 42
0.0000001
 43
0.0000001
 44
0.0000000001
 40
0.0
 40
0.0
 40
0.0
 40
0.0
 40
0.3823329733
 40
0.692124162
 40
1.0
 40
1.0
 40
1.0
 40
1.0
 10
282.6251678652
 20
410.1991737685
 30
0.0
 10
282.7292412692
 20
410.2770829081
 30
0.0
 10
282.9381228862
 20
410.392903183
 30
0.0
 10
283.2672523934
 20
410.488242645
 30
0.0
 10
283.482240124
 20
410.4998045404
 30
0.0
 10
283.5867348828
 20
410.5036917986
 30
0.0
  0
SPLINE
  5
311
100
AcDbEntity
  8
0
100
AcDbSpline
 62
7
  6
CONTINUOUS
 70
0
 71
3
 72
14
 73
10
 74
0
 42
0.0000001
 43
0.0000001
 44
0.0000000001
 40
0.0
 40
0.0
 40
0.0
 40
0.0
 40
0.0510568555
 40
0.1354546215
 40
0.2157553337
 40
0.3792780941
 40
0.5798325098
 40
0.7990577973
 40
1.0
 40
1.0
 40
1.0
 40
1.0
 10
282.9976437029
 20
408.8355402989
 30
0.0
 10
283.0014202739
 20
408.7914460582
 30
0.0
 10
283.0135191332
 20
408.6741367295
 30
0.0
 10
283.0690582013
 20
408.4963782769
 30
0.0
 10
283.2235618963
 20
408.2517400624
 30
0.0
 10
283.5650581132
 20
408.045015263
 30
0.0
 10
284.0697288029
 20
407.9992865804
 30
0.0
 10
284.5978027898
 20
408.136263242
 30
0.0
 10
284.8952980475
 20
408.3380870989
 30
0.0
 10
285.0383087427
 20
408.4374403773
 30
0.0
  0
SPLINE
  5
312
100
AcDbEntity
  8
0
100
AcDbSpline
 62
7
  6
CONTINUOUS
 70
0
 71
3
 72
9
 73
5
 74
0
 42
0.0000001
 43
0.0000001
 44
0.0000000001
 40
0.0
 40
0.0
 40
0.0
 40
0.0
 40
0.702766134
 40
1.0
 40
1.0
 40
1.0
 40
1.0
 10
288.9022553107
 20
407.7699783099
 30
0.0
 10
288.7831863104
 20
407.6815740439
 30
0.0
 10
288.6138554365
 20
407.5705180376
 30
0.0
 10
288.4149987
 20
407.5146456958
 30
0.0
 10
288.3543142653
 20
407.50271346
 30
0.0
  0
SPLINE
  5
313
100
AcDbEntity
  8
0
100
AcDbSpline
 62
7
  6
CONTINUOUS
 70
0
 71
3
 72
9
 73
5
 74
0
 42
0.0000001
 43
0.0000001
 44
0.0000000001
 40
0.0
 40
0.0
 40
0.0
 40
0.0
 40
0.5841489004
 40
1.0
 40
1.0
 40
1.0
 40
1.0
 10
288.3543142653
 20
407.50271346
 30
0.0
 10
288.2427512327
 20
407.4807770866
 30
0.0
 10
288.0426403844
 20
407.4702724477
 30
0.0
 10
287.8456797808
 20
407.5024212591
 30
0.0
 10
287.7657509066
 20
407.5228573377
 30
0.0
  0
SPLINE
  5
314
100
AcDbEntity
  8
0
100
AcDbSpline
 62
7
  6
CONTINUOUS
 70
0
 71
3
 72
13
 73
9
 74
0
 42
0.0000001
 43
0.0000001
 44
0.0000000001
 40
0.0
 40
0.0
 40
0.0
 40
0.0
 40
0.1555235798
 40
0.3878763756
 40
0.5622025193
 40
0.7261418723
 40
0.951214831
 40
1.0
 40
1.0
 40
1.0
 40
1.0
 10
287.7657509066
 20
407.5228573377
 30
0.0
 10
287.5773209215
 20
407.5710347958
 30
0.0
 10
287.1347844153
 20
407.7891435931
 30
0.0
 10
286.7616606407
 20
408.4228503554
 30
0.0
 10
286.703993014
 20
409.1359073556
 30
0.0
 10
286.865228922
 20
409.8311372153
 30
0.0
 10
287.2562171906
 20
410.2526900786
 30
0.0
 10
287.5628822108
 20
410.3922325028
 30
0.0
 10
287.6190156446
 20
410.4132910901
 30
0.0
  0
SPLINE
  5
315
100
AcDbEntity
  8
0
100
AcDbSpline
 62
7
  6
CONTINUOUS
 70
0
 71
3
 72
10
 73
6
 74
0
 42
0.0000001
 43
0.0000001
 44
0.0000000001
 40
0.0
 40
0.0
 40
0.0
 40
0.0
 40
0.2528414972
 40
0.5146925069
 40
1.0
 40
1.0
 40
1.0
 40
1.0
 10
291.7395231317
 20
410.503691798
 30
0.0
 10
291.8365608034
 20
410.50122511
 30
0.0
 10
292.0220239161
 20
410.4902007018
 30
0.0
 10
292.3960556504
 20
410.3914225142
 30
0.0
 10
292.6464214668
 20
410.2395519675
 30
0.0
 10
292.7810351125
 20
410.1121949163
 30
0.0
  0
SPLINE
  5
316
100
AcDbEntity
  8
0
100
AcDbSpline
 62
7
  6
CONTINUOUS
 70
0
 71
3
 72
11
 73
7
 74
0
 42
0.0000001
 43
0.0000001
 44
0.0000000001
 40
0.0
 40
0.0
 40
0.0
 40
0.0
 40
0.0117138432
 40
0.6371142413
 40
0.8185571207
 40
1.0
 40
1.0
 40
1.0
 40
1.0
 10
292.7810351125
 20
410.1121949163
 30
0.0
 10
292.7849848765
 20
410.1084580716
 30
0.0
 10
292.9985004653
 20
409.9038672002
 30
0.0
 10
293.1796651496
 20
409.5474690769
 30
0.0
 10
293.2451319362
 20
409.0898107942
 30
0.0
 10
293.2442951047
 20
408.9202051883
 30
0.0
 10
293.2428741547
 20
408.8355403001
 30
0.0
  0
SPLINE
  5
317
100
AcDbEntity
  8
0
100
AcDbSpline
 62
7
  6
CONTINUOUS
 70
0
 71
3
 72
18
 73
14
 74
0
 42
0.0000001
 43
0.0000001
 44
0.0000000001
 40
0.0
 40
0.0
 40
0.0
 40
0.0
 40
0.0901785677
 40
0.2171339058
 40
0.2530552462
 40
0.2710173119
 40
0.2889793776
 40
0.3541293175
 40
0.523027491
 40
0.6830427479
 40
0.7989376696
 40
0.9641354812
 40
1.0
 40
1.0
 40
1.0
 40
1.0
 10
293.1931116657
 20
407.8684959523
 30
0.0
 10
293.0594690974
 20
407.7800581576
 30
0.0
 10
292.7269671415
 20
407.5769664296
 30
0.0
 10
292.2826447313
 20
407.4899744915
 30
0.0
 10
291.961619417
 20
407.4813198463
 30
0.0
 10
291.8341270798
 20
407.4816959503
 30
0.0
 10
291.6548181148
 20
407.4891193959
 30
0.0
 10
291.2108494607
 20
407.5469186823
 30
0.0
 10
290.5470737617
 20
407.8616845169
 30
0.0
 10
290.1841861153
 20
408.6048468061
 30
0.0
 10
290.1973112739
 20
409.4019371107
 30
0.0
 10
290.4568263726
 20
409.9280083949
 30
0.0
 10
290.7276880285
 20
410.16111592
 30
0.0
 10
290.7787284841
 20
410.1993427742
 30
0.0
  0
SPLINE
  5
318
100
AcDbEntity
  8
0
100
AcDbSpline
 62
7
  6
CONTINUOUS
 70
0
 71
3
 72
10
 73
6
 74
0
 42
0.0000001
 43
0.0000001
 44
0.0000000001
 40
0.0
 40
0.0
 40
0.0
 40
0.0
 40
0.3818557248
 40
0.6918801427
 40
1.0
 40
1.0
 40
1.0
 40
1.0
 10
290.7787284841
 20
410.1993427742
 30
0.0
 10
290.8825767457
 20
410.2771201432
 30
0.0
 10
291.0911811729
 20
410.3928888177
 30
0.0
 10
291.4200523424
 20
410.4882360137
 30
0.0
 10
291.6350245151
 20
410.4998039132
 30
0.0
 10
291.7395231317
 20
410.503691798
 30
0.0
  0
SPLINE
  5
319
100
AcDbEntity
  8
0
100
AcDbSpline
 62
7
  6
CONTINUOUS
 70
0
 71
3
 72
14
 73
10
 74
0
 42
0.0000001
 43
0.0000001
 44
0.0000000001
 40
0.0
 40
0.0
 40
0.0
 40
0.0
 40
0.0506822843
 40
0.1350829044
 40
0.2154882929
 40
0.3792030651
 40
0.5793851727
 40
0.7990791998
 40
1.0
 40
1.0
 40
1.0
 40
1.0
 10
291.1518422237
 20
408.8355403001
 30
0.0
 10
291.1555976887
 20
408.7917577055
 30
0.0
 10
291.1676386458
 20
408.6747543508
 30
0.0
 10
291.2231600456
 20
408.4970529004
 30
0.0
 10
291.3777871159
 20
408.2521709934
 30
0.0
 10
291.7191621698
 20
408.0449224767
 30
0.0
 10
292.2239202807
 20
407.9994865567
 30
0.0
 10
292.7520707516
 20
408.1361038851
 30
0.0
 10
293.0500716107
 20
408.3380766399
 30
0.0
 10
293.1931116657
 20
408.4374403764
 30
0.0
  0
SPLINE
  5
31A
100
AcDbEntity
  8
0
100
AcDbSpline
 62
7
  6
CONTINUOUS
 70
0
 71
3
 72
9
 73
5
 74
0
 42
0.0000001
 43
0.0000001
 44
0.0000000001
 40
0.0
 40
0.0
 40
0.0
 40
0.0
 40
0.701213709
 40
1.0
 40
1.0
 40
1.0
 40
1.0
 10
284.5491454767
 20
405.2995829382
 30
0.0
 10
284.5524871304
 20
405.2802775955
 30
0.0
 10
284.5572873684
 20
405.2528184837
 30
0.0
 10
284.56351866
 20
405.2254480556
 30
0.0
 10
284.5655117056
 20
405.2172903874
 30
0.0
  0
SPLINE
  5
31B
100
AcDbEntity
  8
0
100
AcDbSpline
 62
7
  6
CONTINUOUS
 70
0
 71
3
 72
11
 73
7
 74
0
 42
0.0000001
 43
0.0000001
 44
0.0000000001
 40
0.0
 40
0.0
 40
0.0
 40
0.0
 40
0.2381999838
 40
0.4801344819
 40
0.7913560549
 40
1.0
 40
1.0
 40
1.0
 40
1.0
 10
284.5655117056
 20
405.2172903874
 30
0.0
 10
284.5914495274
 20
405.1111251552
 30
0.0
 10
284.6885296745
 20
404.9040401856
 30
0.0
 10
285.0485288648
 20
404.7675796311
 30
0.0
 10
285.3856058414
 20
404.830067065
 30
0.0
 10
285.6005025772
 20
404.9503296577
 30
0.0
 10
285.6807888298
 20
405.0014109319
 30
0.0
  0
SPLINE
  5
31C
100
AcDbEntity
  8
0
100
AcDbSpline
 62
7
  6
CONTINUOUS
 70
0
 71
3
 72
14
 73
10
 74
0
 42
0.0000001
 43
0.0000001
 44
0.0000000001
 40
0.0
 40
0.0
 40
0.0
 40
0.0
 40
0.1407689828
 40
0.2471630414
 40
0.3533685053
 40
0.5383559691
 40
0.7279360432
 40
0.9452993172
 40
1.0
 40
1.0
 40
1.0
 40
1.0
 10
285.6807888298
 20
404.6845024401
 30
0.0
 10
285.5914615455
 20
404.6287557279
 30
0.0
 10
285.4391519925
 20
404.5413846954
 30
0.0
 10
285.1738532614
 20
404.4903277273
 30
0.0
 10
284.8763421985
 20
404.4815450035
 30
0.0
 10
284.5218470887
 20
404.6082261733
 30
0.0
 10
284.2559329367
 20
404.9854240931
 30
0.0
 10
284.2084493179
 20
405.3306080305
 30
0.0
 10
284.2348713283
 20
405.5337513241
 30
0.0
 10
284.2426137835
 20
405.574083902
 30
0.0
  0
SPLINE
  5
31D
100
AcDbEntity
  8
0
100
AcDbSpline
 62
7
  6
CONTINUOUS
 70
0
 71
3
 72
8
 73
4
 74
0
 42
0.0000001
 43
0.0000001
 44
0.0000000001
 40
0.0
 40
0.0
 40
0.0
 40
0.0
 40
1.0
 40
1.0
 40
1.0
 40
1.0
 10
284.2426137835
 20
405.574083902
 30
0.0
 10
284.2588805743
 20
405.6588220882
 30
0.0
 10
284.2858741465
 20
405.7413044616
 30
0.0
 10
284.3257346722
 20
405.8168989649
 30
0.0
  0
SPLINE
  5
31E
100
AcDbEntity
  8
0
100
AcDbSpline
 62
7
  6
CONTINUOUS
 70
0
 71
3
 72
10
 73
6
 74
0
 42
0.0000001
 43
0.0000001
 44
0.0000000001
 40
0.0
 40
0.0
 40
0.0
 40
0.0
 40
0.0991926128
 40
0.7379305464
 40
1.0
 40
1.0
 40
1.0
 40
1.0
 10
284.3257346722
 20
405.8168989649
 30
0.0
 10
284.3355802098
 20
405.8355707839
 30
0.0
 10
284.4146646971
 20
405.9713511744
 30
0.0
 10
284.5831283555
 20
406.1186014654
 30
0.0
 10
284.764866534
 20
406.1785169491
 30
0.0
 10
284.8191625919
 20
406.1900478359
 30
0.0
  0
SPLINE
  5
31F
100
AcDbEntity
  8
0
100
AcDbSpline
 62
7
  6
CONTINUOUS
 70
0
 71
3
 72
9
 73
5
 74
0
 42
0.0000001
 43
0.0000001
 44
0.0000000001
 40
0.0
 40
0.0
 40
0.0
 40
0.0
 40
0.2096788981
 40
1.0
 40
1.0
 40
1.0
 40
1.0
 10
279.4937196857
 20
407.6351965035
 30
0.0
 10
279.505544775
 20
407.6227983264
 30
0.0
 10
279.5616838348
 20
407.5645974832
 30
0.0
 10
279.6148572645
 20
407.4925860625
 30
0.0
 10
279.6514452281
 20
407.4330741219
 30
0.0
  0
SPLINE
  5
320
100
AcDbEntity
  8
0
100
AcDbSpline
 62
7
  6
CONTINUOUS
 70
0
 71
3
 72
9
 73
5
 74
0
 42
0.0000001
 43
0.0000001
 44
0.0000000001
 40
0.0
 40
0.0
 40
0.0
 40
0.0
 40
0.7068340313
 40
1.0
 40
1.0
 40
1.0
 40
1.0
 10
279.7348338838
 20
407.2707522355
 30
0.0
 10
279.8270940428
 20
407.050657037
 30
0.0
 10
279.8523180973
 20
406.7246753793
 30
0.0
 10
279.8044489272
 20
406.4119831263
 30
0.0
 10
279.7856461963
 20
406.3182029838
 30
0.0
  0
SPLINE
  5
321
100
AcDbEntity
  8
0
100
AcDbSpline
 62
7
  6
CONTINUOUS
 70
0
 71
3
 72
9
 73
5
 74
0
 42
0.0000001
 43
0.0000001
 44
0.0000000001
 40
0.0
 40
0.0
 40
0.0
 40
0.0
 40
0.4327916906
 40
1.0
 40
1.0
 40
1.0
 40
1.0
 10
276.5248935388
 20
407.1043294502
 30
0.0
 10
276.645581598
 20
407.2152493471
 30
0.0
 10
276.9135885985
 20
407.4474909321
 30
0.0
 10
277.2399000444
 20
407.643518158
 30
0.0
 10
277.4352809646
 20
407.73597503
 30
0.0
  0
SPLINE
  5
322
100
AcDbEntity
  8
0
100
AcDbSpline
 62
7
  6
CONTINUOUS
 70
0
 71
3
 72
11
 73
7
 74
0
 42
0.0000001
 43
0.0000001
 44
0.0000000001
 40
0.0
 40
0.0
 40
0.0
 40
0.0
 40
0.1015975562
 40
0.5852131275
 40
0.8439125934
 40
1.0
 40
1.0
 40
1.0
 40
1.0
 10
277.4352809646
 20
407.73597503
 30
0.0
 10
277.5031883361
 20
407.768109709
 30
0.0
 10
277.9015053604
 20
407.9401752185
 30
0.0
 10
278.518399784
 20
408.065816507
 30
0.0
 10
279.186028461
 20
407.8881613419
 30
0.0
 10
279.4089907393
 20
407.7126514835
 30
0.0
 10
279.4937196857
 20
407.6351965035
 30
0.0
  0
SPLINE
  5
323
100
AcDbEntity
  8
0
100
AcDbSpline
 62
7
  6
CONTINUOUS
 70
0
 71
3
 72
9
 73
5
 74
0
 42
0.0000001
 43
0.0000001
 44
0.0000000001
 40
0.0
 40
0.0
 40
0.0
 40
0.0
 40
0.4387404375
 40
1.0
 40
1.0
 40
1.0
 40
1.0
 10
275.8908750901
 20
404.1903024856
 30
0.0
 10
275.8629821473
 20
404.2195580939
 30
0.0
 10
275.8003574269
 20
404.2877373544
 30
0.0
 10
275.749249737
 20
404.3633085825
 30
0.0
 10
275.7238174078
 20
404.4076310179
 30
0.0
  0
SPLINE
  5
324
100
AcDbEntity
  8
0
100
AcDbSpline
 62
7
  6
CONTINUOUS
 70
0
 71
3
 72
9
 73
5
 74
0
 42
0.0000001
 43
0.0000001
 44
0.0000000001
 40
0.0
 40
0.0
 40
0.0
 40
0.0
 40
0.3952207992
 40
1.0
 40
1.0
 40
1.0
 40
1.0
 10
275.7238174078
 20
404.4076310179
 30
0.0
 10
275.7121141325
 20
404.4280270129
 30
0.0
 10
275.6842447499
 20
404.4806555602
 30
0.0
 10
275.6605502174
 20
404.5356071453
 30
0.0
 10
275.6476796782
 20
404.5695215465
 30
0.0
  0
SPLINE
  5
325
100
AcDbEntity
  8
0
100
AcDbSpline
 62
7
  6
CONTINUOUS
 70
0
 71
3
 72
9
 73
5
 74
0
 42
0.0000001
 43
0.0000001
 44
0.0000000001
 40
0.0
 40
0.0
 40
0.0
 40
0.0
 40
0.7060351862
 40
1.0
 40
1.0
 40
1.0
 40
1.0
 10
275.6476796782
 20
404.5695215465
 30
0.0
 10
275.5623777305
 20
404.7942956948
 30
0.0
 10
275.5323579729
 20
405.1550146599
 30
0.0
 10
275.5914827924
 20
405.477118032
 30
0.0
 10
275.6132527756
 20
405.5751905779
 30
0.0
  0
SPLINE
  5
326
100
AcDbEntity
  8
0
100
AcDbSpline
 62
7
  6
CONTINUOUS
 70
0
 71
3
 72
9
 73
5
 74
0
 42
0.0000001
 43
0.0000001
 44
0.0000000001
 40
0.0
 40
0.0
 40
0.0
 40
0.0
 40
0.4226083901
 40
1.0
 40
1.0
 40
1.0
 40
1.0
 10
278.8474117126
 20
404.7330561247
 30
0.0
 10
278.7300844056
 20
404.6250855173
 30
0.0
 10
278.4622414265
 20
404.3919831944
 30
0.0
 10
278.1391945389
 20
404.1960589174
 30
0.0
 10
277.9420657643
 20
404.1018846669
 30
0.0
  0
SPLINE
  5
327
100
AcDbEntity
  8
0
100
AcDbSpline
 62
7
  6
CONTINUOUS
 70
0
 71
3
 72
11
 73
7
 74
0
 42
0.0000001
 43
0.0000001
 44
0.0000000001
 40
0.0
 40
0.0
 40
0.0
 40
0.0
 40
0.1002814294
 40
0.5860104885
 40
0.8438731381
 40
1.0
 40
1.0
 40
1.0
 40
1.0
 10
277.9420657643
 20
404.1018846669
 30
0.0
 10
277.8756144058
 20
404.070138886
 30
0.0
 10
277.4802537251
 20
403.8972113936
 30
0.0
 10
276.8663588715
 20
403.7664356106
 30
0.0
 10
276.1972764083
 20
403.939314317
 30
0.0
 10
275.9753449959
 20
404.1131261907
 30
0.0
 10
275.8908750901
 20
404.1903024856
 30
0.0
  0
SPLINE
  5
328
100
AcDbEntity
  8
0
100
AcDbSpline
 62
7
  6
CONTINUOUS
 70
0
 71
3
 72
11
 73
7
 74
0
 42
0.0000001
 43
0.0000001
 44
0.0000000001
 40
0.0
 40
0.0
 40
0.0
 40
0.0
 40
0.2048197318
 40
0.5503607172
 40
0.8705880929
 40
1.0
 40
1.0
 40
1.0
 40
1.0
 10
278.3493838737
 20
407.1587256959
 30
0.0
 10
278.2471255884
 20
407.1562310349
 30
0.0
 10
277.9894413963
 20
407.1321012214
 30
0.0
 10
277.5800348259
 20
406.9387354174
 30
0.0
 10
277.319654773
 20
406.6020673088
 30
0.0
 10
277.2620585477
 20
406.4034590616
 30
0.0
 10
277.2489679939
 20
406.340162948
 30
0.0
  0
SPLINE
  5
329
100
AcDbEntity
  8
0
100
AcDbSpline
 62
7
  6
CONTINUOUS
 70
0
 71
3
 72
10
 73
6
 74
0
 42
0.0000001
 43
0.0000001
 44
0.0000000001
 40
0.0
 40
0.0
 40
0.0
 40
0.0
 40
0.4009712029
 40
0.799753782
 40
1.0
 40
1.0
 40
1.0
 40
1.0
 10
277.018287625
 20
405.3725141996
 30
0.0
 10
277.0016193148
 20
405.3474286087
 30
0.0
 10
276.9677702619
 20
405.2983926688
 30
0.0
 10
276.906939795
 20
405.2476194088
 30
0.0
 10
276.8610795402
 20
405.2437355218
 30
0.0
 10
276.8460328503
 20
405.2433734855
 30
0.0
  0
SPLINE
  5
32A
100
AcDbEntity
  8
0
100
AcDbSpline
 62
7
  6
CONTINUOUS
 70
0
 71
3
 72
11
 73
7
 74
0
 42
0.0000001
 43
0.0000001
 44
0.0000000001
 40
0.0
 40
0.0
 40
0.0
 40
0.0
 40
0.2049397966
 40
0.5634638802
 40
0.8619032983
 40
1.0
 40
1.0
 40
1.0
 40
1.0
 10
277.0057966354
 20
404.6738246589
 30
0.0
 10
277.1098348358
 20
404.6761307276
 30
0.0
 10
277.3778942936
 20
404.6992613588
 30
0.0
 10
277.7983934808
 20
404.8722502746
 30
0.0
 10
278.0916784624
 20
405.183286269
 30
0.0
 10
278.1587523839
 20
405.381902854
 30
0.0
 10
278.1735026834
 20
405.4504821485
 30
0.0
  0
SPLINE
  5
32B
100
AcDbEntity
  8
0
100
AcDbSpline
 62
7
  6
CONTINUOUS
 70
0
 71
3
 72
10
 73
6
 74
0
 42
0.0000001
 43
0.0000001
 44
0.0000000001
 40
0.0
 40
0.0
 40
0.0
 40
0.0
 40
0.4005236564
 40
0.6005497135
 40
1.0
 40
1.0
 40
1.0
 40
1.0
 10
278.4656306634
 20
406.5577479267
 30
0.0
 10
278.4760852035
 20
406.5753185071
 30
0.0
 10
278.4920974908
 20
406.6019443342
 30
0.0
 10
278.5337902391
 20
406.633559734
 30
0.0
 10
278.566120889
 20
406.6344025795
 30
0.0
 10
278.5865112076
 20
406.6345070715
 30
0.0
  0
SPLINE
  5
32C
100
AcDbEntity
  8
0
100
AcDbSpline
 62
7
  6
CONTINUOUS
 70
0
 71
3
 72
10
 73
6
 74
0
 42
0.0000001
 43
0.0000001
 44
0.0000000001
 40
0.0
 40
0.0
 40
0.0
 40
0.0
 40
0.297510529
 40
0.887572732
 40
1.0
 40
1.0
 40
1.0
 40
1.0
 10
285.0002313704
 20
405.9259456196
 30
0.0
 10
284.9551667832
 20
405.9250082616
 30
0.0
 10
284.8227829779
 20
405.9139312701
 30
0.0
 10
284.6901030017
 20
405.8253482674
 30
0.0
 10
284.6321604528
 20
405.7348689158
 30
0.0
 10
284.6237379221
 20
405.7199321349
 30
0.0
  0
SPLINE
  5
32D
100
AcDbEntity
  8
0
100
AcDbSpline
 62
7
  6
CONTINUOUS
 70
0
 71
3
 72
9
 73
5
 74
0
 42
0.0000001
 43
0.0000001
 44
0.0000000001
 40
0.0
 40
0.0
 40
0.0
 40
0.0
 40
0.3758538432
 40
1.0
 40
1.0
 40
1.0
 40
1.0
 10
284.6237379221
 20
405.7199321349
 30
0.0
 10
284.6101885339
 20
405.6959032233
 30
0.0
 10
284.5799961652
 20
405.6288294578
 30
0.0
 10
284.563838908
 20
405.5612711047
 30
0.0
 10
284.5553909706
 20
405.5165635129
 30
0.0
  0
SPLINE
  5
32E
100
AcDbEntity
  8
0
100
AcDbSpline
 62
7
  6
CONTINUOUS
 70
0
 71
3
 72
9
 73
5
 74
0
 42
0.0000001
 43
0.0000001
 44
0.0000000001
 40
0.0
 40
0.0
 40
0.0
 40
0.0
 40
0.5641166939
 40
1.0
 40
1.0
 40
1.0
 40
1.0
 10
285.3850344344
 20
405.5165635129
 30
0.0
 10
285.382308592
 20
405.5594593996
 30
0.0
 10
285.3739561723
 20
405.6318871062
 30
0.0
 10
285.3465676926
 20
405.7036472575
 30
0.0
 10
285.3310957939
 20
405.7332109008
 30
0.0
  0
SPLINE
  5
32F
100
AcDbEntity
  8
0
100
AcDbSpline
 62
7
  6
CONTINUOUS
 70
0
 71
3
 72
9
 73
5
 74
0
 42
0.0000001
 43
0.0000001
 44
0.0000000001
 40
0.0
 40
0.0
 40
0.0
 40
0.0
 40
0.7555495353
 40
1.0
 40
1.0
 40
1.0
 40
1.0
 10
285.3310957939
 20
405.7332109008
 30
0.0
 10
285.3074815992
 20
405.7783328112
 30
0.0
 10
285.2653322509
 20
405.8327645823
 30
0.0
 10
285.2092800037
 20
405.8703023303
 30
0.0
 10
285.194957951
 20
405.8784177561
 30
0.0
  0
SPLINE
  5
330
100
AcDbEntity
  8
0
100
AcDbSpline
 62
7
  6
CONTINUOUS
 70
0
 71
3
 72
9
 73
5
 74
0
 42
0.0000001
 43
0.0000001
 44
0.0000000001
 40
0.0
 40
0.0
 40
0.0
 40
0.0
 40
0.3780284779
 40
1.0
 40
1.0
 40
1.0
 40
1.0
 10
285.194957951
 20
405.8784177561
 30
0.0
 10
285.1727093759
 20
405.8910246542
 30
0.0
 10
285.1098969299
 20
405.9176026193
 30
0.0
 10
285.0421417298
 20
405.9249265185
 30
0.0
 10
285.0002313704
 20
405.9259456196
 30
0.0
  0
SPLINE
  5
331
100
AcDbEntity
  8
0
100
AcDbSpline
 62
7
  6
CONTINUOUS
 70
0
 71
3
 72
14
 73
10
 74
0
 42
0.0000001
 43
0.0000001
 44
0.0000000001
 40
0.0
 40
0.0
 40
0.0
 40
0.0
 40
0.0995495192
 40
0.2882651007
 40
0.4731120133
 40
0.662463988
 40
0.8443320789
 40
0.9481555701
 40
1.0
 40
1.0
 40
1.0
 40
1.0
 10
292.4370038657
 20
409.3184580709
 30
0.0
 10
292.4280836741
 20
409.3845074106
 30
0.0
 10
292.3976031729
 20
409.575778014
 30
0.0
 10
292.2250989227
 20
409.8578838326
 30
0.0
 10
291.8528798066
 20
409.988082811
 30
0.0
 10
291.4732295795
 20
409.923627016
 30
0.0
 10
291.252006748
 20
409.6708227684
 30
0.0
 10
291.1879307584
 20
409.4566126335
 30
0.0
 10
291.1745036334
 20
409.3529206292
 30
0.0
 10
291.1705787067
 20
409.3184580709
 30
0.0
  0
SPLINE
  5
332
100
AcDbEntity
  8
0
100
AcDbSpline
 62
7
  6
CONTINUOUS
 70
0
 71
3
 72
9
 73
5
 74
0
 42
0.0000001
 43
0.0000001
 44
0.0000000001
 40
0.0
 40
0.0
 40
0.0
 40
0.0
 40
0.9027009527
 40
1.0
 40
1.0
 40
1.0
 40
1.0
 10
288.9022553107
 20
409.7226020199
 30
0.0
 10
288.8494111791
 20
409.7561216507
 30
0.0
 10
288.7903898987
 20
409.7911230437
 30
0.0
 10
288.7257783151
 20
409.8189380187
 30
0.0
 10
288.7194448259
 20
409.8215758544
 30
0.0
  0
SPLINE
  5
333
100
AcDbEntity
  8
0
100
AcDbSpline
 62
7
  6
CONTINUOUS
 70
0
 71
3
 72
9
 73
5
 74
0
 42
0.0000001
 43
0.0000001
 44
0.0000000001
 40
0.0
 40
0.0
 40
0.0
 40
0.0
 40
0.5919180431
 40
1.0
 40
1.0
 40
1.0
 40
1.0
 10
288.7194448259
 20
409.8215758544
 30
0.0
 10
288.6682939358
 20
409.8428796956
 30
0.0
 10
288.5767165369
 20
409.871318761
 30
0.0
 10
288.4855602755
 20
409.8862470042
 30
0.0
 10
288.4482968634
 20
409.8897835535
 30
0.0
  0
SPLINE
  5
334
100
AcDbEntity
  8
0
100
AcDbSpline
 62
7
  6
CONTINUOUS
 70
0
 71
3
 72
13
 73
9
 74
0
 42
0.0000001
 43
0.0000001
 44
0.0000000001
 40
0.0
 40
0.0
 40
0.0
 40
0.0
 40
0.0467758533
 40
0.2295551185
 40
0.4119543946
 40
0.6477011376
 40
0.9635833352
 40
1.0
 40
1.0
 40
1.0
 40
1.0
 10
288.4482968634
 20
409.8897835535
 30
0.0
 10
288.4150949712
 20
409.8929346371
 30
0.0
 10
288.2519047523
 20
409.8984427733
 30
0.0
 10
287.9527384034
 20
409.8113075665
 30
0.0
 10
287.6921481332
 20
409.4466720123
 30
0.0
 10
287.6236830193
 20
408.9190299279
 30
0.0
 10
287.7137678732
 20
408.4781908679
 30
0.0
 10
287.8803197993
 20
408.2939335776
 30
0.0
 10
287.8986387129
 20
408.2758936005
 30
0.0
  0
SPLINE
  5
335
100
AcDbEntity
  8
0
100
AcDbSpline
 62
7
  6
CONTINUOUS
 70
0
 71
3
 72
9
 73
5
 74
0
 42
0.0000001
 43
0.0000001
 44
0.0000000001
 40
0.0
 40
0.0
 40
0.0
 40
0.0
 40
0.841027812
 40
1.0
 40
1.0
 40
1.0
 40
1.0
 10
287.8986387129
 20
408.2758936005
 30
0.0
 10
287.9703625778
 20
408.2052618526
 30
0.0
 10
288.0757421219
 20
408.1396239345
 30
0.0
 10
288.1965094435
 20
408.1088021986
 30
0.0
 10
288.2159792741
 20
408.1047702105
 30
0.0
  0
SPLINE
  5
336
100
AcDbEntity
  8
0
100
AcDbSpline
 62
7
  6
CONTINUOUS
 70
0
 71
3
 72
14
 73
10
 74
0
 42
0.0000001
 43
0.0000001
 44
0.0000000001
 40
0.0
 40
0.0
 40
0.0
 40
0.0
 40
0.0995475993
 40
0.2875752305
 40
0.471690201
 40
0.6617828931
 40
0.8441128992
 40
0.947635547
 40
1.0
 40
1.0
 40
1.0
 40
1.0
 10
284.2809921385
 20
409.3184580697
 30
0.0
 10
284.272296465
 20
409.3845051444
 30
0.0
 10
284.2426114764
 20
409.5752884007
 30
0.0
 10
284.0721910687
 20
409.8576040535
 30
0.0
 10
283.7006838763
 20
409.9881398171
 30
0.0
 10
283.3209870661
 20
409.9238492206
 30
0.0
 10
283.0984810492
 20
409.6715561676
 30
0.0
 10
283.0340883808
 20
409.4570945414
 30
0.0
 10
283.0208544216
 20
409.3532613523
 30
0.0
 10
283.0169845888
 20
409.3184580697
 30
0.0
  0
SPLINE
  5
337
100
AcDbEntity
  8
0
100
AcDbSpline
 62
7
  6
CONTINUOUS
 70
0
 71
3
 72
13
 73
9
 74
0
 42
0.0000001
 43
0.0000001
 44
0.0000000001
 40
0.0
 40
0.0
 40
0.0
 40
0.0
 40
0.1999213351
 40
0.3841406341
 40
0.5750860303
 40
0.755038666
 40
0.9555608164
 40
1.0
 40
1.0
 40
1.0
 40
1.0
 10
95.0372236402
 20
406.2910854483
 30
0.0
 10
95.0133946766
 20
406.4180255491
 30
0.0
 10
94.9689161749
 20
406.6686739858
 30
0.0
 10
94.6571633463
 20
406.9148321529
 30
0.0
 10
94.2793543292
 20
406.9314833567
 30
0.0
 10
93.9531624244
 20
406.7436567759
 30
0.0
 10
93.8656310808
 20
406.4734635697
 30
0.0
 10
93.8385635058
 20
406.3191718281
 30
0.0
 10
93.8335072783
 20
406.2910854483
 30
0.0
  0
SPLINE
  5
338
100
AcDbEntity
  8
0
100
AcDbSpline
 62
7
  6
CONTINUOUS
 70
0
 71
3
 72
11
 73
7
 74
0
 42
0.0000001
 43
0.0000001
 44
0.0000000001
 40
0.0
 40
0.0
 40
0.0
 40
0.0
 40
0.2500266327
 40
0.500000074
 40
0.7499734702
 40
1.0
 40
1.0
 40
1.0
 40
1.0
 10
336.8459747257
 20
424.4670904821
 30
0.0
 10
336.8448792878
 20
424.9873742793
 30
0.0
 10
336.6384914891
 20
426.0393921165
 30
0.0
 10
335.7469973451
 20
427.3681136281
 30
0.0
 10
334.4182757286
 20
428.2596069586
 30
0.0
 10
333.3662583087
 20
428.4659950447
 30
0.0
 10
332.8459747257
 20
428.4670904821
 30
0.0
  0
SPLINE
  5
339
100
AcDbEntity
  8
0
100
AcDbSpline
 62
7
  6
CONTINUOUS
 70
0
 71
3
 72
8
 73
4
 74
0
 42
0.0000001
 43
0.0000001
 44
0.0000000001
 40
0.0
 40
0.0
 40
0.0
 40
0.0
 40
1.0
 40
1.0
 40
1.0
 40
1.0
 10
91.0847546385
 20
406.8787573537
 30
0.0
 10
90.9845569982
 20
406.8765436371
 30
0.0
 10
90.8841953671
 20
406.8464606211
 30
0.0
 10
90.8001135198
 20
406.7930436327
 30
0.0
  0
SPLINE
  5
33A
100
AcDbEntity
  8
0
100
AcDbSpline
 62
7
  6
CONTINUOUS
 70
0
 71
3
 72
10
 73
6
 74
0
 42
0.0000001
 43
0.0000001
 44
0.0000000001
 40
0.0
 40
0.0
 40
0.0
 40
0.0
 40
0.0831244664
 40
0.6770781037
 40
1.0
 40
1.0
 40
1.0
 40
1.0
 10
90.8001135198
 20
406.7930436327
 30
0.0
 10
90.7849953451
 20
406.783439094
 30
0.0
 10
90.6661394722
 20
406.6990621495
 30
0.0
 10
90.5515367369
 20
406.503105931
 30
0.0
 10
90.5091014957
 20
406.3090439702
 30
0.0
 10
90.4992429621
 20
406.2409659288
 30
0.0
  0
SPLINE
  5
33B
100
AcDbEntity
  8
0
100
AcDbSpline
 62
7
  6
CONTINUOUS
 70
0
 71
3
 72
13
 73
9
 74
0
 42
0.0000001
 43
0.0000001
 44
0.0000000001
 40
0.0
 40
0.0
 40
0.0
 40
0.0
 40
0.0180647099
 40
0.2333086823
 40
0.3735405838
 40
0.5156404209
 40
0.800952645
 40
1.0
 40
1.0
 40
1.0
 40
1.0
 10
90.4992429621
 20
406.2409659288
 30
0.0
 10
90.4980560848
 20
406.2327699548
 30
0.0
 10
90.4836796301
 20
406.1269681951
 30
0.0
 10
90.4791025042
 20
405.959577485
 30
0.0
 10
90.4943717024
 20
405.7274670299
 30
0.0
 10
90.5749547962
 20
405.4750296151
 30
0.0
 10
90.7879410657
 20
405.2412409223
 30
0.0
 10
91.0069597699
 20
405.1619977588
 30
0.0
 10
91.098790481
 20
405.1590270716
 30
0.0
  0
SPLINE
  5
33C
100
AcDbEntity
  8
0
100
AcDbSpline
 62
7
  6
CONTINUOUS
 70
0
 71
3
 72
9
 73
5
 74
0
 42
0.0000001
 43
0.0000001
 44
0.0000000001
 40
0.0
 40
0.0
 40
0.0
 40
0.0
 40
0.7053333107
 40
1.0
 40
1.0
 40
1.0
 40
1.0
 10
91.098790481
 20
405.1590270716
 30
0.0
 10
91.2209919015
 20
405.1550739041
 30
0.0
 10
91.4035216309
 20
405.1965717928
 30
0.0
 10
91.5333614122
 20
405.3163785659
 30
0.0
 10
91.5669076697
 20
405.3561131652
 30
0.0
  0
SPLINE
  5
33D
100
AcDbEntity
  8
0
100
AcDbSpline
 62
7
  6
CONTINUOUS
 70
0
 71
3
 72
8
 73
4
 74
0
 42
0.0000001
 43
0.0000001
 44
0.0000000001
 40
0.0
 40
0.0
 40
0.0
 40
0.0
 40
1.0
 40
1.0
 40
1.0
 40
1.0
 10
91.5669076697
 20
405.3561131652
 30
0.0
 10
91.5866661447
 20
405.3795165236
 30
0.0
 10
91.604789556
 20
405.4044572322
 30
0.0
 10
91.6212496627
 20
405.4304514613
 30
0.0
  0
SPLINE
  5
33E
100
AcDbEntity
  8
0
100
AcDbSpline
 62
7
  6
CONTINUOUS
 70
0
 71
3
 72
13
 73
9
 74
0
 42
0.0000001
 43
0.0000001
 44
0.0000000001
 40
0.0
 40
0.0
 40
0.0
 40
0.0
 40
0.0809767879
 40
0.2366680688
 40
0.5803951489
 40
0.7341923866
 40
0.996378706
 40
1.0
 40
1.0
 40
1.0
 40
1.0
 10
91.6212496627
 20
405.4304514613
 30
0.0
 10
91.6425902683
 20
405.4641531013
 30
0.0
 10
91.6967902716
 20
405.5678274385
 30
0.0
 10
91.7698506207
 20
405.837082688
 30
0.0
 10
91.7670051627
 20
406.1780116016
 30
0.0
 10
91.6665990786
 20
406.5289515704
 30
0.0
 10
91.5429276781
 20
406.7022796351
 30
0.0
 10
91.4374462947
 20
406.7755686521
 30
0.0
 10
91.4360043735
 20
406.7765600718
 30
0.0
  0
SPLINE
  5
33F
100
AcDbEntity
  8
0
100
AcDbSpline
 62
7
  6
CONTINUOUS
 70
0
 71
3
 72
8
 73
4
 74
0
 42
0.0000001
 43
0.0000001
 44
0.0000000001
 40
0.0
 40
0.0
 40
0.0
 40
0.0
 40
1.0
 40
1.0
 40
1.0
 40
1.0
 10
91.4360043735
 20
406.7765600718
 30
0.0
 10
91.3690132173
 20
406.822621085
 30
0.0
 10
91.2915585599
 20
406.8535810424
 30
0.0
 10
91.2109620456
 20
406.8685297518
 30
0.0
  0
SPLINE
  5
340
100
AcDbEntity
  8
0
100
AcDbSpline
 62
7
  6
CONTINUOUS
 70
0
 71
3
 72
9
 73
5
 74
0
 42
0.0000001
 43
0.0000001
 44
0.0000000001
 40
0.0
 40
0.0
 40
0.0
 40
0.0
 40
0.5306060285
 40
1.0
 40
1.0
 40
1.0
 40
1.0
 10
88.3680218231
 20
405.9235996346
 30
0.0
 10
88.3213718799
 20
405.8984448042
 30
0.0
 10
88.2319097806
 20
405.8620273828
 30
0.0
 10
88.136635836
 20
405.8404256288
 30
0.0
 10
88.0906656609
 20
405.8314197796
 30
0.0
  0
SPLINE
  5
341
100
AcDbEntity
  8
0
100
AcDbSpline
 62
7
  6
CONTINUOUS
 70
0
 71
3
 72
9
 73
5
 74
0
 42
0.0000001
 43
0.0000001
 44
0.0000000001
 40
0.0
 40
0.0
 40
0.0
 40
0.0
 40
0.4384821402
 40
1.0
 40
1.0
 40
1.0
 40
1.0
 10
88.0906656609
 20
405.8314197796
 30
0.0
 10
88.0633909164
 20
405.826076484
 30
0.0
 10
88.0001854333
 20
405.8148008953
 30
0.0
 10
87.9347269354
 20
405.8032870161
 30
0.0
 10
87.8982967737
 20
405.7970587554
 30
0.0
  0
SPLINE
  5
342
100
AcDbEntity
  8
0
100
AcDbSpline
 62
7
  6
CONTINUOUS
 70
0
 71
3
 72
9
 73
5
 74
0
 42
0.0000001
 43
0.0000001
 44
0.0000000001
 40
0.0
 40
0.0
 40
0.0
 40
0.0
 40
0.9683060038
 40
1.0
 40
1.0
 40
1.0
 40
1.0
 10
87.8982967737
 20
405.7970587554
 30
0.0
 10
87.8217986704
 20
405.7840529747
 30
0.0
 10
87.7437423648
 20
405.7711189764
 30
0.0
 10
87.6667422057
 20
405.7447238954
 30
0.0
 10
87.6643034771
 20
405.7438736676
 30
0.0
  0
SPLINE
  5
343
100
AcDbEntity
  8
0
100
AcDbSpline
 62
7
  6
CONTINUOUS
 70
0
 71
3
 72
8
 73
4
 74
0
 42
0.0000001
 43
0.0000001
 44
0.0000000001
 40
0.0
 40
0.0
 40
0.0
 40
0.0
 40
1.0
 40
1.0
 40
1.0
 40
1.0
 10
87.6643034771
 20
405.7438736676
 30
0.0
 10
87.586015441
 20
405.7165796643
 30
0.0
 10
87.5094938741
 20
405.6752062127
 30
0.0
 10
87.4563486345
 20
405.615106827
 30
0.0
  0
SPLINE
  5
344
100
AcDbEntity
  8
0
100
AcDbSpline
 62
7
  6
CONTINUOUS
 70
0
 71
3
 72
12
 73
8
 74
0
 42
0.0000001
 43
0.0000001
 44
0.0000000001
 40
0.0
 40
0.0
 40
0.0
 40
0.0
 40
0.0529717049
 40
0.251771798
 40
0.6681648693
 40
0.9312018378
 40
1.0
 40
1.0
 40
1.0
 40
1.0
 10
87.4563486345
 20
405.615106827
 30
0.0
 10
87.4485431366
 20
405.6062799662
 30
0.0
 10
87.413840695
 20
405.5624064469
 30
0.0
 10
87.3560810474
 20
405.4208732008
 30
0.0
 10
87.3683026015
 20
405.1983445878
 30
0.0
 10
87.4894002989
 20
405.0695511539
 30
0.0
 10
87.556840867
 20
405.0363291392
 30
0.0
 10
87.5712424475
 20
405.0303680363
 30
0.0
  0
SPLINE
  5
345
100
AcDbEntity
  8
0
100
AcDbSpline
 62
7
  6
CONTINUOUS
 70
0
 71
3
 72
11
 73
7
 74
0
 42
0.0000001
 43
0.0000001
 44
0.0000000001
 40
0.0
 40
0.0
 40
0.0
 40
0.0
 40
0.1867818306
 40
0.522425417
 40
0.9229010346
 40
1.0
 40
1.0
 40
1.0
 40
1.0
 10
87.5712424475
 20
405.0303680363
 30
0.0
 10
87.6004786511
 20
405.0182665854
 30
0.0
 10
87.6870858602
 20
404.9951009443
 30
0.0
 10
87.8441989646
 20
404.9953364853
 30
0.0
 10
87.9775587789
 20
405.0328385428
 30
0.0
 10
88.0535234266
 20
405.0641022798
 30
0.0
 10
88.065677965
 20
405.0694084586
 30
0.0
  0
SPLINE
  5
346
100
AcDbEntity
  8
0
100
AcDbSpline
 62
7
  6
CONTINUOUS
 70
0
 71
3
 72
19
 73
15
 74
0
 42
0.0000001
 43
0.0000001
 44
0.0000000001
 40
0.0
 40
0.0
 40
0.0
 40
0.0
 40
0.0294797479
 40
0.1370706434
 40
0.2083716503
 40
0.3249545746
 40
0.4186482881
 40
0.4653194563
 40
0.5664579999
 40
0.6637902151
 40
0.7722211325
 40
0.9046628947
 40
0.9836393916
 40
1.0
 40
1.0
 40
1.0
 40
1.0
 10
100.1551643288
 20
406.5594461247
 30
0.0
 10
100.1777673367
 20
406.5210924126
 30
0.0
 10
100.3094508341
 20
406.3694356917
 30
0.0
 10
100.6469030924
 20
406.3337430219
 30
0.0
 10
101.1344483605
 20
406.3066172015
 30
0.0
 10
101.5617728702
 20
406.17951511
 30
0.0
 10
101.8426774816
 20
405.9047362686
 30
0.0
 10
101.9642234388
 20
405.5548777867
 30
0.0
 10
101.9592659812
 20
405.1596437109
 30
0.0
 10
101.7095630697
 20
404.7496485048
 30
0.0
 10
101.2494568527
 20
404.4900732876
 30
0.0
 10
100.7717535754
 20
404.4329365945
 30
0.0
 10
100.4290236373
 20
404.4469365462
 30
0.0
 10
100.2867589876
 20
404.4679897041
 30
0.0
 10
100.2623854173
 20
404.4720487981
 30
0.0
  0
SPLINE
  5
347
100
AcDbEntity
  8
0
100
AcDbSpline
 62
7
  6
CONTINUOUS
 70
0
 71
3
 72
11
 73
7
 74
0
 42
0.0000001
 43
0.0000001
 44
0.0000000001
 40
0.0
 40
0.0
 40
0.0
 40
0.0
 40
0.1668817762
 40
0.3406653917
 40
0.6216569573
 40
1.0
 40
1.0
 40
1.0
 40
1.0
 10
100.2623854173
 20
404.4720487981
 30
0.0
 10
100.1775351614
 20
404.48617948
 30
0.0
 10
100.0053194508
 20
404.5260640248
 30
0.0
 10
99.6964487889
 20
404.6395720012
 30
0.0
 10
99.3523347674
 20
404.916956921
 30
0.0
 10
99.2846326475
 20
405.2691268967
 30
0.0
 10
99.2416181721
 20
405.4642625319
 30
0.0
  0
SPLINE
  5
348
100
AcDbEntity
  8
0
100
AcDbSpline
 62
7
  6
CONTINUOUS
 70
0
 71
3
 72
17
 73
13
 74
0
 42
0.0000001
 43
0.0000001
 44
0.0000000001
 40
0.0
 40
0.0
 40
0.0
 40
0.0
 40
0.0259253028
 40
0.152779895
 40
0.2692355623
 40
0.3367847155
 40
0.4493853239
 40
0.5552761099
 40
0.6727878432
 40
0.7878314669
 40
0.9865887758
 40
1.0
 40
1.0
 40
1.0
 40
1.0
 10
101.1371506651
 20
405.4355084056
 30
0.0
 10
101.1208628065
 20
405.4664869922
 30
0.0
 10
100.9995160115
 20
405.6320888593
 30
0.0
 10
100.6401123433
 20
405.7034912405
 30
0.0
 10
100.1903764833
 20
405.7150709967
 30
0.0
 10
99.8000382971
 20
405.8375201869
 30
0.0
 10
99.4753224036
 20
406.0525278905
 30
0.0
 10
99.3150453351
 20
406.4787191679
 30
0.0
 10
99.3795813718
 20
406.9487587857
 30
0.0
 10
99.7346148707
 20
407.4261910757
 30
0.0
 10
100.1741193749
 20
407.5315750055
 30
0.0
 10
100.4570945471
 20
407.5557819212
 30
0.0
 10
100.4749684813
 20
407.5571142565
 30
0.0
  0
SPLINE
  5
349
100
AcDbEntity
  8
0
100
AcDbSpline
 62
7
  6
CONTINUOUS
 70
0
 71
3
 72
19
 73
15
 74
0
 42
0.0000001
 43
0.0000001
 44
0.0000000001
 40
0.0
 40
0.0
 40
0.0
 40
0.0
 40
0.0400360668
 40
0.1401052523
 40
0.2011087377
 40
0.2948253424
 40
0.3784126767
 40
0.4654991915
 40
0.5509461825
 40
0.6383948251
 40
0.7399493146
 40
0.8681276577
 40
0.9303550897
 40
1.0
 40
1.0
 40
1.0
 40
1.0
 10
270.2943595414
 20
410.3839716198
 30
0.0
 10
270.3679102675
 20
410.3491812322
 30
0.0
 10
270.6247670529
 20
410.2446387086
 30
0.0
 10
271.0645335453
 20
410.0948671246
 30
0.0
 10
271.5205907212
 20
409.876741318
 30
0.0
 10
271.9191735056
 20
409.5823379576
 30
0.0
 10
272.160612889
 20
409.0853996934
 30
0.0
 10
272.1695404216
 20
408.5453009358
 30
0.0
 10
271.9625871516
 20
408.0420690548
 30
0.0
 10
271.5278084471
 20
407.6765064722
 30
0.0
 10
270.8981433192
 20
407.4748520722
 30
0.0
 10
270.3194778991
 20
407.4686024249
 30
0.0
 10
269.7922401468
 20
407.5404505706
 30
0.0
 10
269.5374367623
 20
407.6218138331
 30
0.0
 10
269.4055063043
 20
407.6750043202
 30
0.0
  0
SPLINE
  5
34A
100
AcDbEntity
  8
0
100
AcDbSpline
 62
7
  6
CONTINUOUS
 70
0
 71
3
 72
20
 73
16
 74
0
 42
0.0000001
 43
0.0000001
 44
0.0000000001
 40
0.0
 40
0.0
 40
0.0
 40
0.0
 40
0.0084075508
 40
0.0788795871
 40
0.1871103357
 40
0.2366174662
 40
0.3172168192
 40
0.3953015253
 40
0.4362119622
 40
0.5125063525
 40
0.6329344396
 40
0.7326045714
 40
0.8571216391
 40
0.9283224977
 40
1.0
 40
1.0
 40
1.0
 40
1.0
 10
270.8163417742
 20
409.0003656865
 30
0.0
 10
270.8004832994
 20
409.0098858598
 30
0.0
 10
270.6495711703
 20
409.0950918551
 30
0.0
 10
270.2731598109
 20
409.2304124252
 30
0.0
 10
269.7946676644
 20
409.3958908535
 30
0.0
 10
269.3370638628
 20
409.6499506973
 30
0.0
 10
268.9927072899
 20
409.9748470855
 30
0.0
 10
268.8563948937
 20
410.3975713838
 30
0.0
 10
268.843028282
 20
410.8287081617
 30
0.0
 10
268.9963255906
 20
411.347443041
 30
0.0
 10
269.5395379494
 20
411.7607019584
 30
0.0
 10
270.2870986622
 20
411.9193953952
 30
0.0
 10
270.9460830928
 20
411.8856825746
 30
0.0
 10
271.5216021366
 20
411.7364734038
 30
0.0
 10
271.8116525648
 20
411.6183196189
 30
0.0
 10
271.9576236763
 20
411.5591804084
 30
0.0
  0
SPLINE
  5
34B
100
AcDbEntity
  8
0
100
AcDbSpline
 62
7
  6
CONTINUOUS
 70
0
 71
3
 72
10
 73
6
 74
0
 42
0.0000001
 43
0.0000001
 44
0.0000000001
 40
0.0
 40
0.0
 40
0.0
 40
0.0
 40
0.4986470955
 40
0.7474082207
 40
1.0
 40
1.0
 40
1.0
 40
1.0
 10
273.6194680743
 20
410.466345235
 30
0.0
 10
273.8453682166
 20
410.511394935
 30
0.0
 10
274.1881232152
 20
410.5123475126
 30
0.0
 10
274.6596439147
 20
410.4247552423
 30
0.0
 10
274.8799634535
 20
410.3532940119
 30
0.0
 10
274.9913223798
 20
410.3153196184
 30
0.0
  0
SPLINE
  5
34C
100
AcDbEntity
  8
0
100
AcDbSpline
 62
7
  6
CONTINUOUS
 70
0
 71
3
 72
12
 73
8
 74
0
 42
0.0000001
 43
0.0000001
 44
0.0000000001
 40
0.0
 40
0.0
 40
0.0
 40
0.0
 40
0.0457066422
 40
0.422283548
 40
0.798475086
 40
0.9641315097
 40
1.0
 40
1.0
 40
1.0
 40
1.0
 10
90.1916497593
 20
407.3022944578
 30
0.0
 10
90.2076909624
 20
407.3152492185
 30
0.0
 10
90.3591231378
 20
407.430645727
 30
0.0
 10
90.6999565652
 20
407.5680197898
 30
0.0
 10
91.131523189
 20
407.5543778734
 30
0.0
 10
91.3736143347
 20
407.4558065983
 30
0.0
 10
91.4513320065
 20
407.4087050703
 30
0.0
 10
91.4649080625
 20
407.3999124353
 30
0.0
  0
SPLINE
  5
34D
100
AcDbEntity
  8
0
100
AcDbSpline
 62
7
  6
CONTINUOUS
 70
0
 71
3
 72
9
 73
5
 74
0
 42
0.0000001
 43
0.0000001
 44
0.0000000001
 40
0.0
 40
0.0
 40
0.0
 40
0.0
 40
0.4406011477
 40
1.0
 40
1.0
 40
1.0
 40
1.0
 10
91.4649080625
 20
407.3999124353
 30
0.0
 10
91.5110278344
 20
407.3700426175
 30
0.0
 10
91.6089826246
 20
407.2915298683
 30
0.0
 10
91.6829365436
 20
407.1873965126
 30
0.0
 10
91.720420859
 20
407.1272383362
 30
0.0
  0
SPLINE
  5
34E
100
AcDbEntity
  8
0
100
AcDbSpline
 62
7
  6
CONTINUOUS
 70
0
 71
3
 72
9
 73
5
 74
0
 42
0.0000001
 43
0.0000001
 44
0.0000000001
 40
0.0
 40
0.0
 40
0.0
 40
0.0
 40
0.8608322496
 40
1.0
 40
1.0
 40
1.0
 40
1.0
 10
91.720420859
 20
407.1272383362
 30
0.0
 10
91.7396054068
 20
407.0964492608
 30
0.0
 10
91.7607091647
 20
407.0601026197
 30
0.0
 10
91.7810953235
 20
407.024187817
 30
0.0
 10
91.7839205746
 20
407.0192014602
 30
0.0
  0
SPLINE
  5
34F
100
AcDbEntity
  8
0
100
AcDbSpline
 62
7
  6
CONTINUOUS
 70
0
 71
3
 72
14
 73
10
 74
0
 42
0.0000001
 43
0.0000001
 44
0.0000000001
 40
0.0
 40
0.0
 40
0.0
 40
0.0
 40
0.0210553912
 40
0.1898727414
 40
0.3603695389
 40
0.5603143268
 40
0.7382344847
 40
0.9125519304
 40
1.0
 40
1.0
 40
1.0
 40
1.0
 10
93.1897935464
 20
406.8048104017
 30
0.0
 10
93.1988138248
 20
406.8245708647
 30
0.0
 10
93.2841586447
 20
407.0012144756
 30
0.0
 10
93.5158599263
 20
407.3063465147
 30
0.0
 10
94.030663958
 20
407.5328401717
 30
0.0
 10
94.6096321348
 20
407.5789603525
 30
0.0
 10
95.1625499671
 20
407.4264021905
 30
0.0
 10
95.5138864724
 20
407.1167007326
 30
0.0
 10
95.6427503039
 20
406.8836888071
 30
0.0
 10
95.6772580393
 20
406.8024295848
 30
0.0
  0
SPLINE
  5
350
100
AcDbEntity
  8
0
100
AcDbSpline
 62
7
  6
CONTINUOUS
 70
0
 71
3
 72
8
 73
4
 74
0
 42
0.0000001
 43
0.0000001
 44
0.0000000001
 40
0.0
 40
0.0
 40
0.0
 40
0.0
 40
1.0
 40
1.0
 40
1.0
 40
1.0
 10
95.6772580393
 20
406.8024295848
 30
0.0
 10
95.7917039051
 20
406.5329311101
 30
0.0
 10
95.8127635004
 20
406.2256405846
 30
0.0
 10
95.8357967746
 20
405.9245272895
 30
0.0
  0
SPLINE
  5
351
100
AcDbEntity
  8
0
100
AcDbSpline
 62
7
  6
CONTINUOUS
 70
0
 71
3
 72
8
 73
4
 74
0
 42
0.0000001
 43
0.0000001
 44
0.0000000001
 40
0.0
 40
0.0
 40
0.0
 40
0.0
 40
1.0
 40
1.0
 40
1.0
 40
1.0
 10
284.8709758912
 20
406.1992124835
 30
0.0
 10
284.9393378916
 20
406.2089312679
 30
0.0
 10
285.0093504631
 20
406.2096867397
 30
0.0
 10
285.0788833973
 20
406.2019672795
 30
0.0
  0
SPLINE
  5
352
100
AcDbEntity
  8
0
100
AcDbSpline
 62
7
  6
CONTINUOUS
 70
0
 71
3
 72
9
 73
5
 74
0
 42
0.0000001
 43
0.0000001
 44
0.0000000001
 40
0.0
 40
0.0
 40
0.0
 40
0.0
 40
0.7474307127
 40
1.0
 40
1.0
 40
1.0
 40
1.0
 10
285.0788833973
 20
406.2019672795
 30
0.0
 10
285.2062250393
 20
406.187829968
 30
0.0
 10
285.3744654233
 20
406.1309032335
 30
0.0
 10
285.4932984208
 20
406.0081953191
 30
0.0
 10
285.5201510148
 20
405.9743783539
 30
0.0
  0
SPLINE
  5
353
100
AcDbEntity
  8
0
100
AcDbSpline
 62
7
  6
CONTINUOUS
 70
0
 71
3
 72
8
 73
4
 74
0
 42
0.0000001
 43
0.0000001
 44
0.0000000001
 40
0.0
 40
0.0
 40
0.0
 40
0.0
 40
1.0
 40
1.0
 40
1.0
 40
1.0
 10
285.5201510148
 20
405.9743783539
 30
0.0
 10
285.5572777028
 20
405.9276226506
 30
0.0
 10
285.5883618388
 20
405.8754671878
 30
0.0
 10
285.6133790793
 20
405.8215369965
 30
0.0
  0
SPLINE
  5
354
100
AcDbEntity
  8
0
100
AcDbSpline
 62
7
  6
CONTINUOUS
 70
0
 71
3
 72
9
 73
5
 74
0
 42
0.0000001
 43
0.0000001
 44
0.0000000001
 40
0.0
 40
0.0
 40
0.0
 40
0.0
 40
0.3018385491
 40
1.0
 40
1.0
 40
1.0
 40
1.0
 10
285.6133790793
 20
405.8215369965
 30
0.0
 10
285.623750377
 20
405.7991793718
 30
0.0
 10
285.6546563394
 20
405.7240973838
 30
0.0
 10
285.6740985615
 20
405.6485024524
 30
0.0
 10
285.6838501804
 20
405.5950671539
 30
0.0
  0
SPLINE
  5
355
100
AcDbEntity
  8
0
100
AcDbSpline
 62
7
  6
CONTINUOUS
 70
0
 71
3
 72
8
 73
4
 74
0
 42
0.0000001
 43
0.0000001
 44
0.0000000001
 40
0.0
 40
0.0
 40
0.0
 40
0.0
 40
1.0
 40
1.0
 40
1.0
 40
1.0
 10
285.6838501804
 20
405.5950671539
 30
0.0
 10
285.7012984319
 20
405.4994571292
 30
0.0
 10
285.7065100265
 20
405.4017410721
 30
0.0
 10
285.709598692
 20
405.2995829382
 30
0.0
  0
SPLINE
  5
356
100
AcDbEntity
  8
0
100
AcDbSpline
 62
7
  6
CONTINUOUS
 70
0
 71
3
 72
9
 73
5
 74
0
 42
0.0000001
 43
0.0000001
 44
0.0000000001
 40
0.0
 40
0.0
 40
0.0
 40
0.0
 40
0.7394365017
 40
1.0
 40
1.0
 40
1.0
 40
1.0
 10
288.2159792741
 20
408.1047702105
 30
0.0
 10
288.3250908494
 20
408.0821744017
 30
0.0
 10
288.4841694301
 20
408.0884750762
 30
0.0
 10
288.620937941
 20
408.1407377971
 30
0.0
 10
288.6552105774
 20
408.1571466222
 30
0.0
  0
SPLINE
  5
357
100
AcDbEntity
  8
0
100
AcDbSpline
 62
7
  6
CONTINUOUS
 70
0
 71
3
 72
9
 73
5
 74
0
 42
0.0000001
 43
0.0000001
 44
0.0000000001
 40
0.0
 40
0.0
 40
0.0
 40
0.0
 40
0.2766413087
 40
1.0
 40
1.0
 40
1.0
 40
1.0
 10
288.6552105774
 20
408.1571466222
 30
0.0
 10
288.6802245277
 20
408.1691226351
 30
0.0
 10
288.7680177752
 20
408.2177877087
 30
0.0
 10
288.8470796507
 20
408.2842061618
 30
0.0
 10
288.9022553107
 20
408.331468434
 30
0.0
  0
ELLIPSE
  5
358
100
AcDbEntity
  8
0
100
AcDbEllipse
 62
7
  6
CONTINUOUS
 10
285.9012175742
 20
411.3812516135
 30
0.0
 11
0.4396040261
 21
0.3936166612
 31
0.0
 40
0.7200483983
 41
0.0
 42
6.2831853072
  0
ELLIPSE
  5
359
100
AcDbEntity
  8
0
100
AcDbEllipse
 62
7
  6
CONTINUOUS
 10
292.9908249087
 20
406.6640185274
 30
0.0
 11
0.1564743096
 21
0.1393834455
 31
0.0
 40
0.7185744433
 41
0.0
 42
6.2831853072
  0
ENDSEC
  0
SECTION
  2
OBJECTS
  0
DICTIONARY
  5
C
100
AcDbDictionary
280
0
281
1
  3
ACAD_GROUP
350
D
  3
ACAD_MLINESTYLE
350
17
  3
ACAD_LAYOUT
350
1A
  3
ACAD_PLOTSETTINGS
350
19
  3
ACAD_PLOTSTYLENAME
350
E
  0
DICTIONARY
  5
D
102
{ACAD_REACTORS
330
C
102
}
100
AcDbDictionary
280
0
281
1
  0
ACDBDICTIONARYWDFLT
  5
E
102
{ACAD_REACTORS
330
C
102
}
100
AcDbDictionary
281
1
  3
Normal
350
F
100
AcDbDictionaryWithDefault
340
F
  0
DICTIONARY
  5
17
102
{ACAD_REACTORS
330
C
102
}
100
AcDbDictionary
280
0
281
1
  3
Standard
350
18
  0
DICTIONARY
  5
19
102
{ACAD_REACTORS
330
C
102
}
100
AcDbDictionary
281
1
  0
DICTIONARY
  5
1A
102
{ACAD_REACTORS
330
C
102
}
100
AcDbDictionary
281
1
  3
Model
350
35A
  3
Layout1
350
35B
  0
ACDBPLACEHOLDER
  5
F
102
{ACAD_REACTORS
330
E
102
}
  0
MLINESTYLE
  5
18
102
{ACAD_REACTORS
330
17
102
}
100
AcDbMlineStyle
  2
STANDARD
 70
0
  3

 62
256
 51
90.0
 52
90.0
 71
2
 49
0.5
 62
256
  6
BYLAYER
 49
-0.5
 62
256
  6
BYLAYER
  0
LAYOUT
  5
35A
102
{ACAD_REACTORS
330
1A
102
}
100
AcDbPlotSettings
  1

  2
none_device
  4

  6

 40
0.0
 41
0.0
 42
0.0
 43
0.0
 44
210.0
 45
297.0
 46
0.0
 47
0.0
 48
0.0
 49
0.0
140
0.0
141
0.0
142
1.0
143
1.0
 70
1024
 72
1
 73
0
 74
0
  7

 75
0
147
1.0
148
0.0
149
0.0
100
AcDbLayout
  1
Model
 70
0
 71
0
 10
0.0
 20
0.0
 11
210.0
 21
297.0
 12
0.0
 22
0.0
 32
0.0
 14
0.0
 24
0.0
 34
0.0
 15
0.0
 25
0.0
 35
0.0
146
0.0
 13
0.0
 23
0.0
 33
0.0
 16
1.0
 26
0.0
 36
0.0
 17
0.0
 27
1.0
 37
0.0
 76
0
330
210
345
0
346
0
  0
LAYOUT
  5
35B
102
{ACAD_REACTORS
330
1A
102
}
100
AcDbPlotSettings
  1

  2
none_device
  4

  6

 40
0.0
 41
0.0
 42
0.0
 43
0.0
 44
210.0
 45
297.0
 46
0.0
 47
0.0
 48
0.0
 49
0.0
140
0.0
141
0.0
142
1.0
143
1.0
 70
0
 72
1
 73
0
 74
0
  7

 75
0
147
1.0
148
0.0
149
0.0
100
AcDbLayout
  1
Layout1
 70
0
 71
1
 10
0.0
 20
0.0
 11
210.0
 21
297.0
 12
0.0
 22
0.0
 32
0.0
 14
0.0
 24
0.0
 34
0.0
 15
0.0
 25
0.0
 35
0.0
146
0.0
 13
0.0
 23
0.0
 33
0.0
 16
1.0
 26
0.0
 36
0.0
 17
0.0
 27
1.0
 37
0.0
 76
0
330
211
345
0
346
0
  0
ENDSEC
  0
EOF
