999
DXF file: C:\Users\sesa63760\OneDrive - Schneider Electric\Documents\7-Dev\_Creo\CAD\MCADUE0000295_3D-CAD\drw0001_2.dxf
999
Pro/ENGINEER 2019471 by Parametric Technology Corporation
  0
SECTION
  2
HEADER
  9
$ACADVER
  1
AC1024
  9
$DWGCODEPAGE
  3
ANSI_1252
  9
$EXTMAX
 10
397.7033956119
 20
562.4662309368
 30
0.0
  9
$EXTMIN
 10
0.0
 20
0.0
 30
0.0
  9
$LIMMIN
 10
0.0
 20
0.0
  9
$LIMMAX
 10
397.7033956119
 20
562.4662309368
  9
$VIEWCTR
 10
198.8516978059
 20
281.2331154684
  9
$VIEWSIZE
 40
562.4662309368
  9
$CLAYER
  8
0
  9
$LTSCALE
 40
36.664465424
  9
$CELTYPE
  6
BYLAYER
  9
$DIMSCALE
 40
1.0
  9
$DIMASZ
 40
4.7345642335
  9
$DIMEXO
 40
1.0
  9
$DIMDLI
 40
25.3318124748
  9
$DIMEXE
 40
1.0
  9
$DIMCEN
 40
5.9996397967
  9
$DIMLFAC
 40
1.0
  9
$DIMBLK
  1
_FILLED
  9
$DIMALT
 70
0
  9
$DIMALTF
 40
0.0393700787
  9
$DIMTXT
 40
6.6283899269
  9
$DIMTOL
 70
1
  9
$DIMLIM
 70
0
  9
$DIMTFAC
 40
1.0
  9
$DIMTP
 40
0.01
  9
$DIMTM
 40
0.01
  9
$DIMGAP
 40
0.625
  9
$DIMDSEP
 70
46
  9
$AUNITS
 70
0
  9
$PDMODE
 70
3
  9
$PDSIZE
 40
0.3125
  9
$HANDSEED
  5
3D1
  9
$TILEMODE
 70
1
  9
$MEASUREMENT
 70
1
  9
$INSUNITS
 70
4
  0
ENDSEC
  0
SECTION
  2
CLASSES
  0
CLASS
  1
ACDBDICTIONARYWDFLT
  2
AcDbDictionaryWithDefault
  3
AutoCAD 2000
 90
0
 91
1
280
0
281
0
  0
CLASS
  1
ACDBPLACEHOLDER
  2
AcDbPlaceHolder
  3
AutoCAD 2000
 90
0
 91
1
280
0
281
0
  0
CLASS
  1
LAYOUT
  2
AcDbLayout
  3
AutoCAD 2000
 90
0
 91
0
280
0
281
0
  0
ENDSEC
  0
SECTION
  2
TABLES
  0
TABLE
  2
VPORT
  5
8
100
AcDbSymbolTable
 70
2
  0
VPORT
  5
1F4
100
AcDbSymbolTableRecord
100
AcDbViewportTableRecord
  2
*ACTIVE
 70
0
 10
0.0
 20
0.0
 11
1.0
 21
1.0
 12
198.8516978059
 22
281.2331154684
 13
0.0
 23
0.0
 14
1.0
 24
1.0
 15
0.0
 25
0.0
 16
0.0
 26
0.0
 36
1.0
 17
0.0
 27
0.0
 37
0.0
 40
562.4662309368
 41
0.7070707071
 42
50.0
 43
0.0
 44
0.0
 50
0.0
 51
0.0
 71
0
 72
100
 73
1
 74
1
 75
0
 76
0
 77
0
 78
0
  0
ENDTAB
  0
TABLE
  2
LTYPE
  5
5
100
AcDbSymbolTable
 70
6
  0
LTYPE
  5
14
100
AcDbSymbolTableRecord
100
AcDbLinetypeTableRecord
  2
BYBLOCK
 70
0
  3

 72
65
 73
0
 40
0.0
  0
LTYPE
  5
15
100
AcDbSymbolTableRecord
100
AcDbLinetypeTableRecord
  2
BYLAYER
 70
0
  3

 72
65
 73
0
 40
0.0
  0
LTYPE
  5
16
100
AcDbSymbolTableRecord
100
AcDbLinetypeTableRecord
  2
CONTINUOUS
 70
64
  3
Solid line
 72
65
 73
0
 40
0.0
  0
LTYPE
  5
1F5
100
AcDbSymbolTableRecord
100
AcDbLinetypeTableRecord
  2
CENTER
 70
64
  3
____ _ ____ _ ____ _ ____ _ ____ _ ____ _ ____
 72
65
 73
4
 40
0.6
 49
0.375
 74
0
 49
-0.075
 74
0
 49
0.075
 74
0
 49
-0.075
 74
0
  0
LTYPE
  5
1F6
100
AcDbSymbolTableRecord
100
AcDbLinetypeTableRecord
  2
HIDDEN
 70
64
  3
- - - - - - - - - - - - - - - - - - - -
 72
65
 73
2
 40
0.2
 49
0.1
 74
0
 49
-0.1
 74
0
  0
LTYPE
  5
1F7
100
AcDbSymbolTableRecord
100
AcDbLinetypeTableRecord
  2
PHANTOM
 70
64
  3
_____ _ _ _____ _ _ _____ _ _ _____
 72
65
 73
6
 40
0.8
 49
0.45
 74
0
 49
-0.05
 74
0
 49
0.1
 74
0
 49
-0.05
 74
0
 49
0.1
 74
0
 49
-0.05
 74
0
  0
LTYPE
  5
1F8
100
AcDbSymbolTableRecord
100
AcDbLinetypeTableRecord
  2
DOT
 70
64
  3
. . . . . . . . . . . . . . . . . . . .
 72
65
 73
2
 40
0.2
 49
0.1
 74
0
 49
-0.1
 74
0
  0
LTYPE
  5
1F9
100
AcDbSymbolTableRecord
100
AcDbLinetypeTableRecord
  2
DASHED
 70
64
  3
- - - - - - - - - - - - - - - - - - - -
 72
65
 73
2
 40
0.2
 49
0.1
 74
0
 49
-0.1
 74
0
  0
ENDTAB
  0
TABLE
  2
LAYER
  5
2
100
AcDbSymbolTable
 70
36
  0
LAYER
  5
10
100
AcDbSymbolTableRecord
100
AcDbLayerTableRecord
  2
0
 70
0
 62
7
  6
CONTINUOUS
370
-3
390
F
  0
LAYER
  5
1FA
100
AcDbSymbolTableRecord
100
AcDbLayerTableRecord
  2
DEFAULT_1
 70
0
 62
7
  6
CENTER
370
-3
390
F
  0
LAYER
  5
1FB
100
AcDbSymbolTableRecord
100
AcDbLayerTableRecord
  2
DEFAULT_2
 70
0
 62
8
  6
HIDDEN
370
-3
390
F
  0
LAYER
  5
1FC
100
AcDbSymbolTableRecord
100
AcDbLayerTableRecord
  2
DEFAULT_3
 70
0
 62
7
  6
PHANTOM
370
-3
390
F
  0
LAYER
  5
1FD
100
AcDbSymbolTableRecord
100
AcDbLayerTableRecord
  2
00_COMPONENTS
 70
0
 62
7
  6
CONTINUOUS
370
-3
390
F
  0
LAYER
  5
1FE
100
AcDbSymbolTableRecord
100
AcDbLayerTableRecord
  2
01_1_DEFAULT_DATUMS
 70
0
 62
7
  6
CONTINUOUS
370
-3
390
F
  0
LAYER
  5
1FF
100
AcDbSymbolTableRecord
100
AcDbLayerTableRecord
  2
01_PLANES
 70
0
 62
7
  6
CONTINUOUS
370
-3
390
F
  0
LAYER
  5
200
100
AcDbSymbolTableRecord
100
AcDbLayerTableRecord
  2
02_COORD_SYS
 70
0
 62
7
  6
CONTINUOUS
370
-3
390
F
  0
LAYER
  5
201
100
AcDbSymbolTableRecord
100
AcDbLayerTableRecord
  2
03_AXES
 70
0
 62
7
  6
CONTINUOUS
370
-3
390
F
  0
LAYER
  5
202
100
AcDbSymbolTableRecord
100
AcDbLayerTableRecord
  2
04_POINTS
 70
0
 62
7
  6
CONTINUOUS
370
-3
390
F
  0
LAYER
  5
203
100
AcDbSymbolTableRecord
100
AcDbLayerTableRecord
  2
05_CURVES
 70
0
 62
7
  6
CONTINUOUS
370
-3
390
F
  0
LAYER
  5
204
100
AcDbSymbolTableRecord
100
AcDbLayerTableRecord
  2
06_SURFS
 70
0
 62
7
  6
CONTINUOUS
370
-3
390
F
  0
LAYER
  5
205
100
AcDbSymbolTableRecord
100
AcDbLayerTableRecord
  2
07_COSMETICS
 70
0
 62
7
  6
CONTINUOUS
370
-3
390
F
  0
LAYER
  5
206
100
AcDbSymbolTableRecord
100
AcDbLayerTableRecord
  2
10_NOTES
 70
0
 62
7
  6
CONTINUOUS
370
-3
390
F
  0
LAYER
  5
207
100
AcDbSymbolTableRecord
100
AcDbLayerTableRecord
  2
11_NOTES_PUB
 70
0
 62
7
  6
CONTINUOUS
370
-3
390
F
  0
LAYER
  5
208
100
AcDbSymbolTableRecord
100
AcDbLayerTableRecord
  2
13_REF_GTOL
 70
0
 62
7
  6
CONTINUOUS
370
-3
390
F
  0
LAYER
  5
209
100
AcDbSymbolTableRecord
100
AcDbLayerTableRecord
  2
16_MISC
 70
0
 62
7
  6
CONTINUOUS
370
-3
390
F
  0
LAYER
  5
20A
100
AcDbSymbolTableRecord
100
AcDbLayerTableRecord
  2
17_NO_PRINT
 70
0
 62
7
  6
CONTINUOUS
370
-3
390
F
  0
LAYER
  5
20B
100
AcDbSymbolTableRecord
100
AcDbLayerTableRecord
  2
18_DATUM_CAMS_JOINTS
 70
0
 62
7
  6
CONTINUOUS
370
-3
390
F
  0
LAYER
  5
20C
100
AcDbSymbolTableRecord
100
AcDbLayerTableRecord
  2
19_DATUM_FUNCTIONAL
 70
0
 62
7
  6
CONTINUOUS
370
-3
390
F
  0
LAYER
  5
20D
100
AcDbSymbolTableRecord
100
AcDbLayerTableRecord
  2
20_DATUM_KINEMATIC_SCHEME
 70
0
 62
7
  6
CONTINUOUS
370
-3
390
F
  0
ENDTAB
  0
TABLE
  2
STYLE
  5
3
100
AcDbSymbolTable
 70
1
  0
STYLE
  5
11
100
AcDbSymbolTableRecord
100
AcDbTextStyleTableRecord
  2
STANDARD
 70
0
 40
0.0
 41
0.8
 50
0.0
 71
0
 42
0.2
  3
txt
  4

  0
STYLE
  5
20E
100
AcDbSymbolTableRecord
100
AcDbTextStyleTableRecord
  2
TEXTSTYLE_1
 70
0
 40
0.0
 41
0.8
 50
0.0
 71
0
 42
0.2
  3
gdt
  4

  0
ENDTAB
  0
TABLE
  2
VIEW
  5
6
100
AcDbSymbolTable
 70
0
  0
ENDTAB
  0
TABLE
  2
UCS
  5
7
100
AcDbSymbolTable
 70
0
  0
ENDTAB
  0
TABLE
  2
APPID
  5
9
100
AcDbSymbolTable
 70
1
  0
APPID
  5
20F
100
AcDbSymbolTableRecord
100
AcDbRegAppTableRecord
  2
ACAD
 70
0
  0
ENDTAB
  0
TABLE
  2
BLOCK_RECORD
  5
1
100
AcDbSymbolTable
 70
0
  0
BLOCK_RECORD
  5
210
100
AcDbSymbolTableRecord
100
AcDbBlockTableRecord
  2
*Model_Space
  0
BLOCK_RECORD
  5
211
100
AcDbSymbolTableRecord
100
AcDbBlockTableRecord
  2
*Paper_Space
  0
BLOCK_RECORD
  5
212
100
AcDbSymbolTableRecord
100
AcDbBlockTableRecord
  2
_FILLED
  0
ENDTAB
  0
TABLE
  2
DIMSTYLE
  5
A
100
AcDbSymbolTable
 70
1
100
AcDbDimStyleTable
 71
0
  0
DIMSTYLE
105
213
100
AcDbSymbolTableRecord
100
AcDbDimStyleTableRecord
  2
STANDARD
 70
0
  3

  4

 40
1.0
 41
4.7345642335
 42
1.0
 43
0.38
 44
1.0
 45
0.0
 46
0.0
 47
0.01
 48
0.01
140
6.6283899269
141
0.09
142
0.0
143
25.4
144
1.0
145
0.0
146
1.0
147
0.625
 71
1
 72
0
 73
0
 74
0
 75
0
 76
0
 77
1
 78
8
 79
2
170
0
171
1
172
0
173
0
174
0
175
0
176
0
177
0
178
0
270
2
179
2
271
2
272
2
273
2
274
2
275
0
280
0
281
0
282
0
283
1
284
8
285
0
286
0
287
3
288
0
340
11
278
46
341
212
342
212
343
212
344
212
  0
ENDTAB
  0
ENDSEC
  0
SECTION
  2
BLOCKS
  0
BLOCK
  5
20
100
AcDbEntity
  8
0
100
AcDbBlockBegin
  2
*Model_Space
 70
0
 10
0.0
 20
0.0
 30
0.0
  3
*Model_Space
  1

  0
ENDBLK
  5
21
100
AcDbEntity
  8
0
100
AcDbBlockEnd
  0
BLOCK
  5
1C
100
AcDbEntity
  8
0
100
AcDbBlockBegin
  2
*Paper_Space
 70
0
 10
0.0
 20
0.0
 30
0.0
  3
*Paper_Space
  1

  0
ENDBLK
  5
1D
100
AcDbEntity
  8
0
100
AcDbBlockEnd
  0
BLOCK
  5
214
100
AcDbEntity
  8
0
100
AcDbBlockBegin
  2
_FILLED
 70
64
 10
0.0
 20
0.0
  3
_FILLED
  1

  0
SOLID
  5
215
100
AcDbEntity
  8
0
  6
BYBLOCK
 62
0
100
AcDbTrace
 10
0.0
 20
0.0
 11
-1.0
 21
0.25
 12
-1.0
 22
-0.25
 13
-1.0
 23
-0.25
  0
ENDBLK
  5
216
100
AcDbEntity
  8
0
  6
BYBLOCK
 62
0
100
AcDbBlockEnd
  0
ENDSEC
  0
SECTION
  2
ENTITIES
  0
LINE
  5
217
100
AcDbEntity
  8
0
100
AcDbLine
 62
7
  6
CONTINUOUS
 10
43.7451923525
 20
356.1643578368
 11
49.441271114
 21
368.3796381605
  0
LINE
  5
218
100
AcDbEntity
  8
0
100
AcDbLine
 62
7
  6
CONTINUOUS
 10
43.6055104421
 20
352.1643603406
 11
43.7451935201
 21
356.1643603406
  0
LINE
  5
219
100
AcDbEntity
  8
0
100
AcDbLine
 62
7
  6
CONTINUOUS
 10
46.4459475137
 20
356.1643562841
 11
46.3060229323
 21
352.1643605484
  0
LINE
  5
21A
100
AcDbEntity
  8
0
100
AcDbLine
 62
7
  6
CONTINUOUS
 10
67.1788210984
 20
193.8873611949
 11
63.5965072462
 21
197.9174698509
  0
LINE
  5
21B
100
AcDbEntity
  8
0
100
AcDbLine
 62
7
  6
CONTINUOUS
 10
65.6145136381
 20
199.7112508303
 11
69.1968274904
 21
195.6811421743
  0
LINE
  5
21C
100
AcDbEntity
  8
0
100
AcDbLine
 62
7
  6
CONTINUOUS
 10
63.4773408617
 20
283.8346569078
 11
63.5718083899
 21
281.1294608438
  0
LINE
  5
21D
100
AcDbEntity
  8
0
100
AcDbLine
 62
7
  6
CONTINUOUS
 10
57.7129328279
 20
334.5521436556
 11
57.422965507
 21
351.1643603406
  0
LINE
  5
21E
100
AcDbEntity
  8
0
100
AcDbLine
 62
7
  6
CONTINUOUS
 10
60.9223979992
 20
351.1643603406
 11
61.2117932119
 21
334.552141869
  0
LINE
  5
21F
100
AcDbEntity
  8
0
100
AcDbLine
 62
7
  6
CONTINUOUS
 10
62.2056439724
 20
288.0247410891
 11
61.4055104421
 21
333.8643603406
  0
LINE
  5
220
100
AcDbEntity
  8
0
100
AcDbLine
 62
7
  6
CONTINUOUS
 10
61.2123998256
 20
333.8643603406
 11
61.2123998256
 21
334.5521418691
  0
LINE
  5
221
100
AcDbEntity
  8
0
100
AcDbLine
 62
7
  6
CONTINUOUS
 10
61.6055104421
 20
280.1643603406
 11
61.6055104421
 21
277.1643603406
  0
LINE
  5
222
100
AcDbEntity
  8
0
100
AcDbLine
 62
7
  6
CONTINUOUS
 10
61.6055104421
 20
203.1643603406
 11
61.6055104421
 21
200.1643603406
  0
LINE
  5
223
100
AcDbEntity
  8
0
100
AcDbLine
 62
7
  6
CONTINUOUS
 10
68.7751121163
 20
262.1643603406
 11
68.7751121163
 21
261.9143603406
  0
LINE
  5
224
100
AcDbEntity
  8
0
100
AcDbLine
 62
7
  6
CONTINUOUS
 10
68.7751121163
 20
255.9143603406
 11
68.7751121163
 21
255.6643603406
  0
LINE
  5
225
100
AcDbEntity
  8
0
100
AcDbLine
 62
7
  6
CONTINUOUS
 10
68.7751121163
 20
252.1643603406
 11
68.7751121163
 21
251.9143603406
  0
LINE
  5
226
100
AcDbEntity
  8
0
100
AcDbLine
 62
7
  6
CONTINUOUS
 10
68.7751121163
 20
245.9143603406
 11
68.7751121163
 21
245.6643603406
  0
LINE
  5
227
100
AcDbEntity
  8
0
100
AcDbLine
 62
7
  6
CONTINUOUS
 10
68.7751121163
 20
242.1643603406
 11
68.7751121163
 21
241.9143603406
  0
LINE
  5
228
100
AcDbEntity
  8
0
100
AcDbLine
 62
7
  6
CONTINUOUS
 10
68.7751121163
 20
235.9143603406
 11
68.7751121163
 21
235.6643603406
  0
LINE
  5
229
100
AcDbEntity
  8
0
100
AcDbLine
 62
7
  6
CONTINUOUS
 10
68.7751121163
 20
232.1643603406
 11
68.7751121163
 21
231.9143603406
  0
LINE
  5
22A
100
AcDbEntity
  8
0
100
AcDbLine
 62
7
  6
CONTINUOUS
 10
68.7751121163
 20
225.9143603406
 11
68.7751121163
 21
225.6643603406
  0
LINE
  5
22B
100
AcDbEntity
  8
0
100
AcDbLine
 62
7
  6
CONTINUOUS
 10
69.2341979791
 20
192.9643603406
 11
69.2341979791
 21
195.6643603406
  0
LINE
  5
22C
100
AcDbEntity
  8
0
100
AcDbLine
 62
7
  6
CONTINUOUS
 10
72.6055104421
 20
271.1643603406
 11
72.6055104421
 21
262.1643603406
  0
LINE
  5
22D
100
AcDbEntity
  8
0
100
AcDbLine
 62
7
  6
CONTINUOUS
 10
72.6055104421
 20
255.6643603406
 11
72.6055104421
 21
252.1643603406
  0
LINE
  5
22E
100
AcDbEntity
  8
0
100
AcDbLine
 62
7
  6
CONTINUOUS
 10
72.6055104421
 20
245.6643603406
 11
72.6055104421
 21
242.1643603406
  0
LINE
  5
22F
100
AcDbEntity
  8
0
100
AcDbLine
 62
7
  6
CONTINUOUS
 10
72.6055104421
 20
235.6643603406
 11
72.6055104421
 21
232.1643603406
  0
LINE
  5
230
100
AcDbEntity
  8
0
100
AcDbLine
 62
7
  6
CONTINUOUS
 10
72.6055104421
 20
225.6643603406
 11
72.6055104421
 21
209.1643603406
  0
LINE
  5
231
100
AcDbEntity
  8
0
100
AcDbLine
 62
7
  6
CONTINUOUS
 10
72.6188224771
 20
200.1643603406
 11
72.6188224771
 21
203.1643603406
  0
LINE
  5
232
100
AcDbEntity
  8
0
100
AcDbLine
 62
7
  6
CONTINUOUS
 10
72.9952523267
 20
232.1643603406
 11
72.9952523267
 21
235.6643603406
  0
LINE
  5
233
100
AcDbEntity
  8
0
100
AcDbLine
 62
7
  6
CONTINUOUS
 10
72.9952523267
 20
242.1643603406
 11
72.9952523267
 21
245.6643603406
  0
LINE
  5
234
100
AcDbEntity
  8
0
100
AcDbLine
 62
7
  6
CONTINUOUS
 10
72.9952523267
 20
252.1643603406
 11
72.9952523267
 21
255.6643603406
  0
LINE
  5
235
100
AcDbEntity
  8
0
100
AcDbLine
 62
7
  6
CONTINUOUS
 10
75.9907670193
 20
255.6643603406
 11
75.9907670193
 21
252.1643603406
  0
LINE
  5
236
100
AcDbEntity
  8
0
100
AcDbLine
 62
7
  6
CONTINUOUS
 10
75.9907670193
 20
245.6643603406
 11
75.9907670193
 21
242.1643603406
  0
LINE
  5
237
100
AcDbEntity
  8
0
100
AcDbLine
 62
7
  6
CONTINUOUS
 10
75.9907670193
 20
235.6643603406
 11
75.9907670193
 21
232.1643603406
  0
LINE
  5
238
100
AcDbEntity
  8
0
100
AcDbLine
 62
7
  6
CONTINUOUS
 10
76.6055104421
 20
225.6643603406
 11
76.6055104421
 21
212.6643603406
  0
LINE
  5
239
100
AcDbEntity
  8
0
100
AcDbLine
 62
7
  6
CONTINUOUS
 10
80.2125318516
 20
262.1643603406
 11
80.2125318516
 21
255.6643603406
  0
LINE
  5
23A
100
AcDbEntity
  8
0
100
AcDbLine
 62
7
  6
CONTINUOUS
 10
80.2125318516
 20
252.1643603406
 11
80.2125318516
 21
245.6643603406
  0
LINE
  5
23B
100
AcDbEntity
  8
0
100
AcDbLine
 62
7
  6
CONTINUOUS
 10
80.2125318516
 20
242.1643603406
 11
80.2125318516
 21
235.6643603406
  0
LINE
  5
23C
100
AcDbEntity
  8
0
100
AcDbLine
 62
7
  6
CONTINUOUS
 10
80.2125318516
 20
232.1643603406
 11
80.2125318516
 21
225.6643603406
  0
LINE
  5
23D
100
AcDbEntity
  8
0
100
AcDbLine
 62
7
  6
CONTINUOUS
 10
81.3188342266
 20
203.1643603406
 11
81.3188342266
 21
200.1643603406
  0
LINE
  5
23E
100
AcDbEntity
  8
0
100
AcDbLine
 62
7
  6
CONTINUOUS
 10
81.7221388739
 20
226.6643603406
 11
81.7221388739
 21
231.1643603406
  0
LINE
  5
23F
100
AcDbEntity
  8
0
100
AcDbLine
 62
7
  6
CONTINUOUS
 10
81.7221388739
 20
236.6643603406
 11
81.7221388739
 21
241.1643603406
  0
LINE
  5
240
100
AcDbEntity
  8
0
100
AcDbLine
 62
7
  6
CONTINUOUS
 10
81.7221388739
 20
246.6643603406
 11
81.7221388739
 21
251.1643603406
  0
LINE
  5
241
100
AcDbEntity
  8
0
100
AcDbLine
 62
7
  6
CONTINUOUS
 10
81.7221388739
 20
256.6643603406
 11
81.7221388739
 21
261.1643603406
  0
LINE
  5
242
100
AcDbEntity
  8
0
100
AcDbLine
 62
7
  6
CONTINUOUS
 10
102.3218551469
 20
194.2627576093
 11
102.5211144033
 21
193.9730774196
  0
LINE
  5
243
100
AcDbEntity
  8
0
100
AcDbLine
 62
7
  6
CONTINUOUS
 10
103.3966846964
 20
197.4643603406
 11
104.7456542381
 21
195.5032481693
  0
LINE
  5
244
100
AcDbEntity
  8
0
100
AcDbLine
 62
7
  6
CONTINUOUS
 10
109.0974063338
 20
193.9727886423
 11
106.6956955146
 21
197.4643603406
  0
LINE
  5
245
100
AcDbEntity
  8
0
100
AcDbLine
 62
7
  6
CONTINUOUS
 10
111.3217473031
 20
195.5032481693
 11
108.8094128197
 21
199.1556432616
  0
LINE
  5
246
100
AcDbEntity
  8
0
100
AcDbLine
 62
7
  6
CONTINUOUS
 10
91.5697262075
 20
194.4643603407
 11
91.3072602173
 21
197.4643603406
  0
LINE
  5
247
100
AcDbEntity
  8
0
100
AcDbLine
 62
7
  6
CONTINUOUS
 10
83.9581374148
 20
255.6643603406
 11
83.9581374148
 21
252.1643603406
  0
LINE
  5
248
100
AcDbEntity
  8
0
100
AcDbLine
 62
7
  6
CONTINUOUS
 10
83.9581374148
 20
245.6643603406
 11
83.9581374148
 21
242.1643603406
  0
LINE
  5
249
100
AcDbEntity
  8
0
100
AcDbLine
 62
7
  6
CONTINUOUS
 10
83.9581374148
 20
235.6643603406
 11
83.9581374148
 21
232.1643603406
  0
LINE
  5
24A
100
AcDbEntity
  8
0
100
AcDbLine
 62
7
  6
CONTINUOUS
 10
85.6638905433
 20
261.1643603406
 11
85.6638905433
 21
256.6643603406
  0
LINE
  5
24B
100
AcDbEntity
  8
0
100
AcDbLine
 62
7
  6
CONTINUOUS
 10
85.6638905433
 20
251.1643603406
 11
85.6638905433
 21
246.6643603406
  0
LINE
  5
24C
100
AcDbEntity
  8
0
100
AcDbLine
 62
7
  6
CONTINUOUS
 10
85.6638905433
 20
241.1643603406
 11
85.6638905433
 21
236.6643603406
  0
LINE
  5
24D
100
AcDbEntity
  8
0
100
AcDbLine
 62
7
  6
CONTINUOUS
 10
85.6638905433
 20
231.1643603406
 11
85.6638905433
 21
226.6643603406
  0
LINE
  5
24E
100
AcDbEntity
  8
0
100
AcDbLine
 62
7
  6
CONTINUOUS
 10
88.1799022471
 20
262.1643603406
 11
88.1799022471
 21
255.6643603406
  0
LINE
  5
24F
100
AcDbEntity
  8
0
100
AcDbLine
 62
7
  6
CONTINUOUS
 10
88.1799022471
 20
252.1643603406
 11
88.1799022471
 21
245.6643603406
  0
LINE
  5
250
100
AcDbEntity
  8
0
100
AcDbLine
 62
7
  6
CONTINUOUS
 10
88.1799022471
 20
242.1643603406
 11
88.1799022471
 21
235.6643603406
  0
LINE
  5
251
100
AcDbEntity
  8
0
100
AcDbLine
 62
7
  6
CONTINUOUS
 10
88.1799022471
 20
232.1643603406
 11
88.1799022471
 21
225.6643603406
  0
LINE
  5
252
100
AcDbEntity
  8
0
100
AcDbLine
 62
7
  6
CONTINUOUS
 10
88.3152496949
 20
262.1643603406
 11
88.3152496949
 21
212.6643603406
  0
LINE
  5
253
100
AcDbEntity
  8
0
100
AcDbLine
 62
7
  6
CONTINUOUS
 10
91.3072602171
 20
207.1643603406
 11
91.3072602171
 21
203.1643603406
  0
LINE
  5
254
100
AcDbEntity
  8
0
100
AcDbLine
 62
7
  6
CONTINUOUS
 10
91.3072602171
 20
273.1643603406
 11
91.3072602171
 21
277.1643603406
  0
LINE
  5
255
100
AcDbEntity
  8
0
100
AcDbLine
 62
7
  6
CONTINUOUS
 10
93.3023118745
 20
262.1643603406
 11
93.3023118745
 21
212.6643603406
  0
LINE
  5
256
100
AcDbEntity
  8
0
100
AcDbLine
 62
7
  6
CONTINUOUS
 10
102.9491360003
 20
193.7968294463
 11
102.5213018734
 21
193.972805172
  0
LINE
  5
257
100
AcDbEntity
  8
0
100
AcDbLine
 62
7
  6
CONTINUOUS
 10
109.5252290654
 20
193.7968294463
 11
109.0974063338
 21
193.9727886423
  0
LINE
  5
258
100
AcDbEntity
  8
0
100
AcDbLine
 62
7
  6
CONTINUOUS
 10
94.3072602171
 20
213.4643603406
 11
94.3072602171
 21
207.1643603406
  0
LINE
  5
259
100
AcDbEntity
  8
0
100
AcDbLine
 62
7
  6
CONTINUOUS
 10
94.3072602171
 20
268.8543603406
 11
94.3072602171
 21
273.1643603406
  0
LINE
  5
25A
100
AcDbEntity
  8
0
100
AcDbLine
 62
7
  6
CONTINUOUS
 10
97.272353607
 20
210.1643603406
 11
97.272353607
 21
203.1643603406
  0
LINE
  5
25B
100
AcDbEntity
  8
0
100
AcDbLine
 62
7
  6
CONTINUOUS
 10
98.6020101738
 20
200.1643603406
 11
98.6020101738
 21
209.1643603406
  0
LINE
  5
25C
100
AcDbEntity
  8
0
100
AcDbLine
 62
7
  6
CONTINUOUS
 10
100.3072602171
 20
213.4643603406
 11
100.3072602171
 21
210.1643603406
  0
LINE
  5
25D
100
AcDbEntity
  8
0
100
AcDbLine
 62
7
  6
CONTINUOUS
 10
100.3072602171
 20
268.8543603406
 11
100.3072602171
 21
273.1643603406
  0
LINE
  5
25E
100
AcDbEntity
  8
0
100
AcDbLine
 62
7
  6
CONTINUOUS
 10
100.842794123
 20
210.1643603406
 11
100.842794123
 21
217.1643603406
  0
LINE
  5
25F
100
AcDbEntity
  8
0
100
AcDbLine
 62
7
  6
CONTINUOUS
 10
100.842794123
 20
263.1643603406
 11
100.842794123
 21
273.1643603406
  0
LINE
  5
260
100
AcDbEntity
  8
0
100
AcDbLine
 62
7
  6
CONTINUOUS
 10
101.5499009042
 20
273.1643603406
 11
101.5499009042
 21
277.1643603406
  0
LINE
  5
261
100
AcDbEntity
  8
0
100
AcDbLine
 62
7
  6
CONTINUOUS
 10
101.9106371094
 20
209.1643603406
 11
101.9106371094
 21
210.1643603406
  0
LINE
  5
262
100
AcDbEntity
  8
0
100
AcDbLine
 62
7
  6
CONTINUOUS
 10
102.1602945114
 20
269.6643603406
 11
102.1602945114
 21
212.1643603406
  0
LINE
  5
263
100
AcDbEntity
  8
0
100
AcDbLine
 62
7
  6
CONTINUOUS
 10
103.6712212478
 20
210.1643603406
 11
103.6712212478
 21
212.1643603406
  0
LINE
  5
264
100
AcDbEntity
  8
0
100
AcDbLine
 62
7
  6
CONTINUOUS
 10
103.6712212478
 20
269.6643603406
 11
103.6712212478
 21
273.1643603406
  0
LINE
  5
265
100
AcDbEntity
  8
0
100
AcDbLine
 62
7
  6
CONTINUOUS
 10
109.1786797172
 20
210.1643603406
 11
109.1786797172
 21
209.1643603406
  0
LINE
  5
266
100
AcDbEntity
  8
0
100
AcDbLine
 62
7
  6
CONTINUOUS
 10
109.6602945114
 20
207.1643603406
 11
109.6602945114
 21
209.1643603406
  0
LINE
  5
267
100
AcDbEntity
  8
0
100
AcDbLine
 62
7
  6
CONTINUOUS
 10
110.665103983
 20
203.1643603406
 11
110.665103983
 21
207.1643603406
  0
LINE
  5
268
100
AcDbEntity
  8
0
100
AcDbLine
 62
7
  6
CONTINUOUS
 10
110.969574642
 20
203.1643603406
 11
110.969574642
 21
200.1643603406
  0
LINE
  5
269
100
AcDbEntity
  8
0
100
AcDbLine
 62
7
  6
CONTINUOUS
 10
111.8139127861
 20
271.1643603406
 11
111.8139127861
 21
269.6643603406
  0
LINE
  5
26A
100
AcDbEntity
  8
0
100
AcDbLine
 62
7
  6
CONTINUOUS
 10
111.8139127861
 20
212.1643603406
 11
111.8139127861
 21
210.1643603406
  0
LINE
  5
26B
100
AcDbEntity
  8
0
100
AcDbLine
 62
7
  6
CONTINUOUS
 10
112.7444126628
 20
209.1643603406
 11
112.7444126628
 21
200.1643603406
  0
LINE
  5
26C
100
AcDbEntity
  8
0
100
AcDbLine
 62
7
  6
CONTINUOUS
 10
113.1602945114
 20
210.1643603406
 11
113.1602945114
 21
212.1643603406
  0
LINE
  5
26D
100
AcDbEntity
  8
0
100
AcDbLine
 62
7
  6
CONTINUOUS
 10
114.2354724363
 20
203.1643603406
 11
114.2354724363
 21
210.1643603406
  0
LINE
  5
26E
100
AcDbEntity
  8
0
100
AcDbLine
 62
7
  6
CONTINUOUS
 10
103.0447942267
 20
194.4643603407
 11
103.307260217
 21
197.4643603406
  0
LINE
  5
26F
100
AcDbEntity
  8
0
100
AcDbLine
 62
7
  6
CONTINUOUS
 10
68.5055104421
 20
190.2643603406
 11
334.7055104421
 21
190.2643603406
  0
LINE
  5
270
100
AcDbEntity
  8
0
100
AcDbLine
 62
7
  6
CONTINUOUS
 10
68.5055104421
 20
192.9643603406
 11
334.7055104421
 21
192.9643603406
  0
LINE
  5
271
100
AcDbEntity
  8
0
100
AcDbLine
 62
7
  6
CONTINUOUS
 10
311.6412946767
 20
194.4643603406
 11
300.1662266575
 21
194.4643603406
  0
LINE
  5
272
100
AcDbEntity
  8
0
100
AcDbLine
 62
7
  6
CONTINUOUS
 10
103.0447942267
 20
194.4643603406
 11
91.5697262075
 21
194.4643603406
  0
LINE
  5
273
100
AcDbEntity
  8
0
100
AcDbLine
 62
7
  6
CONTINUOUS
 10
333.9768229051
 20
195.6643603406
 11
311.7462810728
 21
195.6643603406
  0
LINE
  5
274
100
AcDbEntity
  8
0
100
AcDbLine
 62
7
  6
CONTINUOUS
 10
298.5761891759
 20
195.6643603406
 11
295.2771783577
 21
195.6643603406
  0
LINE
  5
275
100
AcDbEntity
  8
0
100
AcDbLine
 62
7
  6
CONTINUOUS
 10
107.9338425266
 20
195.6643603406
 11
104.6348317083
 21
195.6643603406
  0
LINE
  5
276
100
AcDbEntity
  8
0
100
AcDbLine
 62
7
  6
CONTINUOUS
 10
69.2341979791
 20
195.6643603406
 11
91.4647398114
 21
195.6643603406
  0
LINE
  5
277
100
AcDbEntity
  8
0
100
AcDbLine
 62
7
  6
CONTINUOUS
 10
111.2109247734
 20
195.6643603406
 11
200.2555104421
 21
195.6643603406
  0
LINE
  5
278
100
AcDbEntity
  8
0
100
AcDbLine
 62
7
  6
CONTINUOUS
 10
202.9555104421
 20
195.6643603406
 11
292.0000961108
 21
195.6643603406
  0
LINE
  5
279
100
AcDbEntity
  8
0
100
AcDbLine
 62
7
  6
CONTINUOUS
 10
119.5763901653
 20
280.1643603406
 11
119.5763901653
 21
288.0247410891
  0
LINE
  5
27A
100
AcDbEntity
  8
0
100
AcDbLine
 62
7
  6
CONTINUOUS
 10
121.1602945114
 20
212.1643603406
 11
121.1602945114
 21
210.1643603406
  0
LINE
  5
27B
100
AcDbEntity
  8
0
100
AcDbLine
 62
7
  6
CONTINUOUS
 10
124.145843518
 20
200.1643603406
 11
124.145843518
 21
203.1643603406
  0
LINE
  5
27C
100
AcDbEntity
  8
0
100
AcDbLine
 62
7
  6
CONTINUOUS
 10
124.145843518
 20
277.1643603406
 11
124.145843518
 21
280.1643603406
  0
LINE
  5
27D
100
AcDbEntity
  8
0
100
AcDbLine
 62
7
  6
CONTINUOUS
 10
107.0242473702
 20
197.4653581511
 11
106.9875520515
 21
197.4643603406
  0
LINE
  5
27E
100
AcDbEntity
  8
0
100
AcDbLine
 62
7
  6
CONTINUOUS
 10
91.3080775659
 20
197.4643603406
 11
106.9875520515
 21
197.4643603406
  0
LINE
  5
27F
100
AcDbEntity
  8
0
100
AcDbLine
 62
7
  6
CONTINUOUS
 10
296.2234688327
 20
197.4643603406
 11
311.9032216103
 21
197.4643603406
  0
LINE
  5
280
100
AcDbEntity
  8
0
100
AcDbLine
 62
7
  6
CONTINUOUS
 10
61.6055104421
 20
200.1643603406
 11
341.6055104421
 21
200.1643603406
  0
LINE
  5
281
100
AcDbEntity
  8
0
100
AcDbLine
 62
7
  6
CONTINUOUS
 10
112.7444126628
 20
203.1643603406
 11
110.665103983
 21
203.1643603406
  0
LINE
  5
282
100
AcDbEntity
  8
0
100
AcDbLine
 62
7
  6
CONTINUOUS
 10
61.6055104421
 20
203.1643603406
 11
97.272353607
 21
203.1643603406
  0
LINE
  5
283
100
AcDbEntity
  8
0
100
AcDbLine
 62
7
  6
CONTINUOUS
 10
114.2354724363
 20
203.1643603406
 11
341.6055104421
 21
203.1643603406
  0
LINE
  5
284
100
AcDbEntity
  8
0
100
AcDbLine
 62
7
  6
CONTINUOUS
 10
112.7444126628
 20
207.1643603406
 11
109.6602945114
 21
207.1643603406
  0
LINE
  5
285
100
AcDbEntity
  8
0
100
AcDbLine
 62
7
  6
CONTINUOUS
 10
91.3072602171
 20
207.1643603406
 11
97.272353607
 21
207.1643603406
  0
LINE
  5
286
100
AcDbEntity
  8
0
100
AcDbLine
 62
7
  6
CONTINUOUS
 10
288.7238279172
 20
207.1643603406
 11
311.9037606671
 21
207.1643603406
  0
LINE
  5
287
100
AcDbEntity
  8
0
100
AcDbLine
 62
7
  6
CONTINUOUS
 10
296.2234688327
 20
197.4643603406
 11
296.186773514
 21
197.4653581511
  0
LINE
  5
288
100
AcDbEntity
  8
0
100
AcDbLine
 62
7
  6
CONTINUOUS
 10
102.1602945114
 20
261.9222090622
 11
100.842794123
 21
263.1643603406
  0
LINE
  5
289
100
AcDbEntity
  8
0
100
AcDbLine
 62
7
  6
CONTINUOUS
 10
132.1602945114
 20
212.1643603406
 11
132.1602945114
 21
269.6643603406
  0
LINE
  5
28A
100
AcDbEntity
  8
0
100
AcDbLine
 62
7
  6
CONTINUOUS
 10
136.758403481
 20
210.1643603406
 11
136.758403481
 21
209.1643603404
  0
LINE
  5
28B
100
AcDbEntity
  8
0
100
AcDbLine
 62
7
  6
CONTINUOUS
 10
330.6055104421
 20
209.1643603406
 11
308.9037606671
 21
209.1643603406
  0
LINE
  5
28C
100
AcDbEntity
  8
0
100
AcDbLine
 62
7
  6
CONTINUOUS
 10
291.3971080981
 20
209.1643603406
 11
136.7584034811
 21
209.1643603406
  0
LINE
  5
28D
100
AcDbEntity
  8
0
100
AcDbLine
 62
7
  6
CONTINUOUS
 10
112.7444126628
 20
209.1643603406
 11
98.6020101738
 21
209.1643603406
  0
LINE
  5
28E
100
AcDbEntity
  8
0
100
AcDbLine
 62
7
  6
CONTINUOUS
 10
94.3072602171
 20
209.1643603406
 11
72.6055104421
 21
209.1643603406
  0
LINE
  5
28F
100
AcDbEntity
  8
0
100
AcDbLine
 62
7
  6
CONTINUOUS
 10
97.272353607
 20
210.1643603406
 11
136.7584034811
 21
210.1643603406
  0
LINE
  5
290
100
AcDbEntity
  8
0
100
AcDbLine
 62
7
  6
CONTINUOUS
 10
132.1602945114
 20
212.1643603406
 11
102.1602945114
 21
212.1643603406
  0
LINE
  5
291
100
AcDbEntity
  8
0
100
AcDbLine
 62
7
  6
CONTINUOUS
 10
93.3023118745
 20
212.6643603406
 11
76.6055104421
 21
212.6643603406
  0
LINE
  5
292
100
AcDbEntity
  8
0
100
AcDbLine
 62
7
  6
CONTINUOUS
 10
94.3073770036
 20
213.4643603406
 11
100.3071434306
 21
213.4643603406
  0
LINE
  5
293
100
AcDbEntity
  8
0
100
AcDbLine
 62
7
  6
CONTINUOUS
 10
302.9038660785
 20
213.4643603406
 11
308.9036552558
 21
213.4643603406
  0
LINE
  5
294
100
AcDbEntity
  8
0
100
AcDbLine
 62
7
  6
CONTINUOUS
 10
102.1602945114
 20
217.1643603406
 11
100.842794123
 21
217.1643603406
  0
LINE
  5
295
100
AcDbEntity
  8
0
100
AcDbLine
 62
7
  6
CONTINUOUS
 10
299.5397996365
 20
217.1643603406
 11
302.3682267612
 21
217.1643603406
  0
LINE
  5
296
100
AcDbEntity
  8
0
100
AcDbLine
 62
7
  6
CONTINUOUS
 10
199.6055104421
 20
220.1643603406
 11
191.6055104421
 21
220.1643603406
  0
LINE
  5
297
100
AcDbEntity
  8
0
100
AcDbLine
 62
7
  6
CONTINUOUS
 10
294.2364987776
 20
222.1643603406
 11
297.0649259023
 21
222.1643603406
  0
LINE
  5
298
100
AcDbEntity
  8
0
100
AcDbLine
 62
7
  6
CONTINUOUS
 10
88.1799022471
 20
225.6643603406
 11
68.7751121163
 21
225.6643603406
  0
LINE
  5
299
100
AcDbEntity
  8
0
100
AcDbLine
 62
7
  6
CONTINUOUS
 10
66.3184558063
 20
225.9143603406
 11
77.2162048481
 21
225.9143603406
  0
LINE
  5
29A
100
AcDbEntity
  8
0
100
AcDbLine
 62
7
  6
CONTINUOUS
 10
81.7221388739
 20
226.6643603406
 11
85.6638905433
 21
226.6643603406
  0
LINE
  5
29B
100
AcDbEntity
  8
0
100
AcDbLine
 62
7
  6
CONTINUOUS
 10
85.6638905433
 20
231.1643603406
 11
81.7221388739
 21
231.1643603406
  0
LINE
  5
29C
100
AcDbEntity
  8
0
100
AcDbLine
 62
7
  6
CONTINUOUS
 10
66.3184558063
 20
231.9143603406
 11
77.2162048481
 21
231.9143603406
  0
LINE
  5
29D
100
AcDbEntity
  8
0
100
AcDbLine
 62
7
  6
CONTINUOUS
 10
68.7751121163
 20
232.1643603406
 11
72.9952523267
 21
232.1643603406
  0
LINE
  5
29E
100
AcDbEntity
  8
0
100
AcDbLine
 62
7
  6
CONTINUOUS
 10
75.9907670193
 20
232.1643603406
 11
88.1799022471
 21
232.1643603406
  0
LINE
  5
29F
100
AcDbEntity
  8
0
100
AcDbLine
 62
7
  6
CONTINUOUS
 10
191.6055104421
 20
232.6643603406
 11
199.6055104421
 21
232.6643603406
  0
LINE
  5
2A0
100
AcDbEntity
  8
0
100
AcDbLine
 62
7
  6
CONTINUOUS
 10
80.6780445763
 20
333.8643603406
 11
119.5763919423
 21
288.0247410891
  0
LINE
  5
2A1
100
AcDbEntity
  8
0
100
AcDbLine
 62
7
  6
CONTINUOUS
 10
88.1799022471
 20
235.6643603406
 11
75.9907670193
 21
235.6643603406
  0
LINE
  5
2A2
100
AcDbEntity
  8
0
100
AcDbLine
 62
7
  6
CONTINUOUS
 10
72.9952523267
 20
235.6643603406
 11
68.7751121163
 21
235.6643603406
  0
LINE
  5
2A3
100
AcDbEntity
  8
0
100
AcDbLine
 62
7
  6
CONTINUOUS
 10
66.3184558063
 20
235.9143603406
 11
77.2162048481
 21
235.9143603406
  0
LINE
  5
2A4
100
AcDbEntity
  8
0
100
AcDbLine
 62
7
  6
CONTINUOUS
 10
81.7221388739
 20
236.6643603406
 11
85.6638905433
 21
236.6643603406
  0
LINE
  5
2A5
100
AcDbEntity
  8
0
100
AcDbLine
 62
7
  6
CONTINUOUS
 10
85.6638905433
 20
241.1643603406
 11
81.7221388739
 21
241.1643603406
  0
LINE
  5
2A6
100
AcDbEntity
  8
0
100
AcDbLine
 62
7
  6
CONTINUOUS
 10
66.3184558063
 20
241.9143603406
 11
77.2162048481
 21
241.9143603406
  0
LINE
  5
2A7
100
AcDbEntity
  8
0
100
AcDbLine
 62
7
  6
CONTINUOUS
 10
68.7751121163
 20
242.1643603406
 11
72.9952523267
 21
242.1643603406
  0
LINE
  5
2A8
100
AcDbEntity
  8
0
100
AcDbLine
 62
7
  6
CONTINUOUS
 10
75.9907670193
 20
242.1643603406
 11
88.1799022471
 21
242.1643603406
  0
LINE
  5
2A9
100
AcDbEntity
  8
0
100
AcDbLine
 62
7
  6
CONTINUOUS
 10
176.4083158025
 20
285.8112759862
 11
176.6055104421
 21
280.1643603406
  0
LINE
  5
2AA
100
AcDbEntity
  8
0
100
AcDbLine
 62
7
  6
CONTINUOUS
 10
100.842794123
 20
217.1643603406
 11
102.1602945114
 21
218.406511619
  0
LINE
  5
2AB
100
AcDbEntity
  8
0
100
AcDbLine
 62
7
  6
CONTINUOUS
 10
63.5965072461
 20
197.9174698509
 11
65.6145136381
 21
199.7112508303
  0
LINE
  5
2AC
100
AcDbEntity
  8
0
100
AcDbLine
 62
7
  6
CONTINUOUS
 10
69.1968274904
 20
195.6811421743
 11
67.1788210984
 21
193.8873611949
  0
LINE
  5
2AD
100
AcDbEntity
  8
0
100
AcDbLine
 62
7
  6
CONTINUOUS
 10
88.1799022471
 20
245.6643603406
 11
75.9907670193
 21
245.6643603406
  0
LINE
  5
2AE
100
AcDbEntity
  8
0
100
AcDbLine
 62
7
  6
CONTINUOUS
 10
72.9952523267
 20
245.6643603406
 11
68.7751121163
 21
245.6643603406
  0
LINE
  5
2AF
100
AcDbEntity
  8
0
100
AcDbLine
 62
7
  6
CONTINUOUS
 10
66.3184558063
 20
245.9143603406
 11
77.2162048481
 21
245.9143603406
  0
LINE
  5
2B0
100
AcDbEntity
  8
0
100
AcDbLine
 62
7
  6
CONTINUOUS
 10
81.7221388739
 20
246.6643603406
 11
85.6638905433
 21
246.6643603406
  0
LINE
  5
2B1
100
AcDbEntity
  8
0
100
AcDbLine
 62
7
  6
CONTINUOUS
 10
199.6055104421
 20
247.6643603406
 11
191.6055104421
 21
247.6643603406
  0
LINE
  5
2B2
100
AcDbEntity
  8
0
100
AcDbLine
 62
7
  6
CONTINUOUS
 10
85.6638905433
 20
251.1643603406
 11
81.7221388739
 21
251.1643603406
  0
LINE
  5
2B3
100
AcDbEntity
  8
0
100
AcDbLine
 62
7
  6
CONTINUOUS
 10
66.3184558063
 20
251.9143603406
 11
77.2162048481
 21
251.9143603406
  0
LINE
  5
2B4
100
AcDbEntity
  8
0
100
AcDbLine
 62
7
  6
CONTINUOUS
 10
68.7751121163
 20
252.1643603406
 11
72.9952523267
 21
252.1643603406
  0
LINE
  5
2B5
100
AcDbEntity
  8
0
100
AcDbLine
 62
7
  6
CONTINUOUS
 10
75.9907670193
 20
252.1643603406
 11
88.1799022471
 21
252.1643603406
  0
LINE
  5
2B6
100
AcDbEntity
  8
0
100
AcDbLine
 62
7
  6
CONTINUOUS
 10
88.1799022471
 20
255.6643603406
 11
75.9907670193
 21
255.6643603406
  0
LINE
  5
2B7
100
AcDbEntity
  8
0
100
AcDbLine
 62
7
  6
CONTINUOUS
 10
72.9952523267
 20
255.6643603406
 11
68.7751121163
 21
255.6643603406
  0
LINE
  5
2B8
100
AcDbEntity
  8
0
100
AcDbLine
 62
7
  6
CONTINUOUS
 10
66.3184558063
 20
255.9143603406
 11
77.2162048481
 21
255.9143603406
  0
LINE
  5
2B9
100
AcDbEntity
  8
0
100
AcDbLine
 62
7
  6
CONTINUOUS
 10
81.7221388739
 20
256.6643603406
 11
85.6638905433
 21
256.6643603406
  0
LINE
  5
2BA
100
AcDbEntity
  8
0
100
AcDbLine
 62
7
  6
CONTINUOUS
 10
294.2364987776
 20
258.1643603406
 11
297.0649259023
 21
258.1643603406
  0
LINE
  5
2BB
100
AcDbEntity
  8
0
100
AcDbLine
 62
7
  6
CONTINUOUS
 10
191.6055104421
 20
260.1643603406
 11
199.6055104421
 21
260.1643603406
  0
LINE
  5
2BC
100
AcDbEntity
  8
0
100
AcDbLine
 62
7
  6
CONTINUOUS
 10
85.6638905433
 20
261.1643603406
 11
81.7221388739
 21
261.1643603406
  0
LINE
  5
2BD
100
AcDbEntity
  8
0
100
AcDbLine
 62
7
  6
CONTINUOUS
 10
66.3184558063
 20
261.9143603406
 11
77.2162048481
 21
261.9143603406
  0
LINE
  5
2BE
100
AcDbEntity
  8
0
100
AcDbLine
 62
7
  6
CONTINUOUS
 10
68.7751121163
 20
262.1643603406
 11
93.3023118745
 21
262.1643603406
  0
LINE
  5
2BF
100
AcDbEntity
  8
0
100
AcDbLine
 62
7
  6
CONTINUOUS
 10
302.3682267612
 20
263.1643603406
 11
299.5397996365
 21
263.1643603406
  0
LINE
  5
2C0
100
AcDbEntity
  8
0
100
AcDbLine
 62
7
  6
CONTINUOUS
 10
102.1602945114
 20
263.1643603406
 11
100.842794123
 21
263.1643603406
  0
LINE
  5
2C1
100
AcDbEntity
  8
0
100
AcDbLine
 62
7
  6
CONTINUOUS
 10
79.9443683647
 20
264.4143603406
 11
87.317132556
 21
264.4143603406
  0
LINE
  5
2C2
100
AcDbEntity
  8
0
100
AcDbLine
 62
7
  6
CONTINUOUS
 10
308.9036438806
 20
268.8543603406
 11
302.9038774536
 21
268.8543603406
  0
LINE
  5
2C3
100
AcDbEntity
  8
0
100
AcDbLine
 62
7
  6
CONTINUOUS
 10
100.3071548058
 20
268.8543603406
 11
94.3073656285
 21
268.8543603406
  0
LINE
  5
2C4
100
AcDbEntity
  8
0
100
AcDbLine
 62
7
  6
CONTINUOUS
 10
102.1602945114
 20
269.6643603406
 11
132.1602945114
 21
269.6643603406
  0
LINE
  5
2C5
100
AcDbEntity
  8
0
100
AcDbLine
 62
7
  6
CONTINUOUS
 10
191.6055104421
 20
260.1643603406
 11
191.6055104421
 21
247.6643603406
  0
LINE
  5
2C6
100
AcDbEntity
  8
0
100
AcDbLine
 62
7
  6
CONTINUOUS
 10
191.6055104421
 20
232.6643603406
 11
191.6055104421
 21
220.1643603406
  0
LINE
  5
2C7
100
AcDbEntity
  8
0
100
AcDbLine
 62
7
  6
CONTINUOUS
 10
199.6055104421
 20
260.1643603406
 11
199.6055104421
 21
247.6643603406
  0
LINE
  5
2C8
100
AcDbEntity
  8
0
100
AcDbLine
 62
7
  6
CONTINUOUS
 10
199.6055104421
 20
232.6643603406
 11
199.6055104421
 21
220.1643603406
  0
LINE
  5
2C9
100
AcDbEntity
  8
0
100
AcDbLine
 62
7
  6
CONTINUOUS
 10
200.2555104421
 20
194.3143603406
 11
200.2555104421
 21
198.8143603406
  0
LINE
  5
2CA
100
AcDbEntity
  8
0
100
AcDbLine
 62
7
  6
CONTINUOUS
 10
202.9555104421
 20
194.3143603406
 11
202.9555104421
 21
198.8143603406
  0
LINE
  5
2CB
100
AcDbEntity
  8
0
100
AcDbLine
 62
7
  6
CONTINUOUS
 10
199.4055104421
 20
280.1643603406
 11
199.850976566
 21
288.6643603406
  0
LINE
  5
2CC
100
AcDbEntity
  8
0
100
AcDbLine
 62
7
  6
CONTINUOUS
 10
72.6055104421
 20
271.1643603406
 11
78.1302973879
 21
271.1643603406
  0
LINE
  5
2CD
100
AcDbEntity
  8
0
100
AcDbLine
 62
7
  6
CONTINUOUS
 10
88.9569160373
 20
271.1643603406
 11
94.3072602171
 21
271.1643603406
  0
LINE
  5
2CE
100
AcDbEntity
  8
0
100
AcDbLine
 62
7
  6
CONTINUOUS
 10
100.3072602171
 20
271.1643603406
 11
100.842794123
 21
271.1643603406
  0
LINE
  5
2CF
100
AcDbEntity
  8
0
100
AcDbLine
 62
7
  6
CONTINUOUS
 10
111.8139127861
 20
271.1643603406
 11
291.3971080981
 21
271.1643603406
  0
LINE
  5
2D0
100
AcDbEntity
  8
0
100
AcDbLine
 62
7
  6
CONTINUOUS
 10
308.9037606671
 20
271.1643603406
 11
330.6055104421
 21
271.1643603406
  0
LINE
  5
2D1
100
AcDbEntity
  8
0
100
AcDbLine
 62
7
  6
CONTINUOUS
 10
79.9443683647
 20
272.9143603406
 11
87.097377965
 21
272.9143603406
  0
LINE
  5
2D2
100
AcDbEntity
  8
0
100
AcDbLine
 62
7
  6
CONTINUOUS
 10
311.9037606671
 20
273.1643603406
 11
288.7238279172
 21
273.1643603406
  0
LINE
  5
2D3
100
AcDbEntity
  8
0
100
AcDbLine
 62
7
  6
CONTINUOUS
 10
114.487192967
 20
273.1643603406
 11
91.3072602171
 21
273.1643603406
  0
LINE
  5
2D4
100
AcDbEntity
  8
0
100
AcDbLine
 62
7
  6
CONTINUOUS
 10
61.6055104421
 20
277.1643603406
 11
341.6055104421
 21
277.1643603406
  0
LINE
  5
2D5
100
AcDbEntity
  8
0
100
AcDbLine
 62
7
  6
CONTINUOUS
 10
61.6055104421
 20
280.1643603406
 11
341.6055104421
 21
280.1643603406
  0
LINE
  5
2D6
100
AcDbEntity
  8
0
100
AcDbLine
 62
7
  6
CONTINUOUS
 10
226.6392124943
 20
281.1294608439
 11
203.7549316679
 21
281.1294608439
  0
LINE
  5
2D7
100
AcDbEntity
  8
0
100
AcDbLine
 62
7
  6
CONTINUOUS
 10
199.4560892163
 20
281.1294608439
 11
176.5718083899
 21
281.1294608439
  0
LINE
  5
2D8
100
AcDbEntity
  8
0
100
AcDbLine
 62
7
  6
CONTINUOUS
 10
203.8055104421
 20
280.1643603406
 11
203.3600443182
 21
288.6643603406
  0
LINE
  5
2D9
100
AcDbEntity
  8
0
100
AcDbLine
 62
7
  6
CONTINUOUS
 10
176.4083158025
 20
285.8112759862
 11
199.7014527509
 21
285.8112759862
  0
LINE
  5
2DA
100
AcDbEntity
  8
0
100
AcDbLine
 62
7
  6
CONTINUOUS
 10
203.5095681333
 20
285.8112759862
 11
226.8027050817
 21
285.8112759862
  0
LINE
  5
2DB
100
AcDbEntity
  8
0
100
AcDbLine
 62
7
  6
CONTINUOUS
 10
283.6346289414
 20
288.0247410891
 11
203.3935653428
 21
288.0247410891
  0
LINE
  5
2DC
100
AcDbEntity
  8
0
100
AcDbLine
 62
7
  6
CONTINUOUS
 10
199.8174555415
 20
288.0247410891
 11
119.5763919423
 21
288.0247410891
  0
LINE
  5
2DD
100
AcDbEntity
  8
0
100
AcDbLine
 62
7
  6
CONTINUOUS
 10
199.850976566
 20
288.6643603406
 11
203.3600443182
 21
288.6643603406
  0
LINE
  5
2DE
100
AcDbEntity
  8
0
100
AcDbLine
 62
7
  6
CONTINUOUS
 10
226.6055104421
 20
280.1643603406
 11
226.8027050817
 21
285.8112759862
  0
LINE
  5
2DF
100
AcDbEntity
  8
0
100
AcDbLine
 62
7
  6
CONTINUOUS
 10
336.0321997858
 20
193.8873611949
 11
334.0141933938
 21
195.6811421743
  0
LINE
  5
2E0
100
AcDbEntity
  8
0
100
AcDbLine
 62
7
  6
CONTINUOUS
 10
299.5397996365
 20
217.1643603406
 11
294.2364987775
 21
222.1643603406
  0
LINE
  5
2E1
100
AcDbEntity
  8
0
100
AcDbLine
 62
7
  6
CONTINUOUS
 10
297.0649259023
 20
222.1643603406
 11
302.3682267612
 21
217.1643603406
  0
LINE
  5
2E2
100
AcDbEntity
  8
0
100
AcDbLine
 62
7
  6
CONTINUOUS
 10
337.5965072461
 20
199.7112508303
 11
339.6145136381
 21
197.9174698509
  0
LINE
  5
2E3
100
AcDbEntity
  8
0
100
AcDbLine
 62
7
  6
CONTINUOUS
 10
283.6346289414
 20
288.0247410891
 11
322.5329763079
 21
333.8643603406
  0
LINE
  5
2E4
100
AcDbEntity
  8
0
100
AcDbLine
 62
7
  6
CONTINUOUS
 10
58.4128262145
 20
333.8643603406
 11
344.7981946697
 21
333.8643603406
  0
LINE
  5
2E5
100
AcDbEntity
  8
0
100
AcDbLine
 62
7
  6
CONTINUOUS
 10
341.9992276239
 20
334.5521418693
 11
61.2117932119
 21
334.552141869
  0
LINE
  5
2E6
100
AcDbEntity
  8
0
100
AcDbLine
 62
7
  6
CONTINUOUS
 10
355.55833258
 20
351.1643603406
 11
47.6526883042
 21
351.1643603406
  0
LINE
  5
2E7
100
AcDbEntity
  8
0
100
AcDbLine
 62
7
  6
CONTINUOUS
 10
43.6055104421
 20
352.1643603406
 11
359.6055104421
 21
352.1643603406
  0
LINE
  5
2E8
100
AcDbEntity
  8
0
100
AcDbLine
 62
7
  6
CONTINUOUS
 10
279.0651773663
 20
280.1643603406
 11
279.0651773663
 21
277.1643603406
  0
LINE
  5
2E9
100
AcDbEntity
  8
0
100
AcDbLine
 62
7
  6
CONTINUOUS
 10
279.0651773663
 20
203.1643603406
 11
279.0651773663
 21
200.1643603406
  0
LINE
  5
2EA
100
AcDbEntity
  8
0
100
AcDbLine
 62
7
  6
CONTINUOUS
 10
283.6346289408
 20
288.0247410891
 11
283.6346289408
 21
280.1643603406
  0
LINE
  5
2EB
100
AcDbEntity
  8
0
100
AcDbLine
 62
7
  6
CONTINUOUS
 10
299.5397996365
 20
263.1643603406
 11
294.2364987776
 21
258.1643603406
  0
LINE
  5
2EC
100
AcDbEntity
  8
0
100
AcDbLine
 62
7
  6
CONTINUOUS
 10
302.3682267612
 20
263.1643603406
 11
297.0649259023
 21
258.1643603406
  0
LINE
  5
2ED
100
AcDbEntity
  8
0
100
AcDbLine
 62
7
  6
CONTINUOUS
 10
46.4459475995
 20
356.1643592624
 11
356.7650732848
 21
356.1643592624
  0
LINE
  5
2EE
100
AcDbEntity
  8
0
100
AcDbLine
 62
7
  6
CONTINUOUS
 10
300.1662266575
 20
194.4643603407
 11
299.9037606673
 21
197.4643603406
  0
LINE
  5
2EF
100
AcDbEntity
  8
0
100
AcDbLine
 62
7
  6
CONTINUOUS
 10
291.3971080981
 20
209.1643603406
 11
291.3971080981
 21
271.1643603406
  0
LINE
  5
2F0
100
AcDbEntity
  8
0
100
AcDbLine
 62
7
  6
CONTINUOUS
 10
294.2364987776
 20
258.1643603406
 11
294.2364987776
 21
222.1643603406
  0
LINE
  5
2F1
100
AcDbEntity
  8
0
100
AcDbLine
 62
7
  6
CONTINUOUS
 10
297.0649259023
 20
258.1643603406
 11
297.0649259023
 21
222.1643603406
  0
LINE
  5
2F2
100
AcDbEntity
  8
0
100
AcDbLine
 62
7
  6
CONTINUOUS
 10
299.5397996365
 20
273.1643603406
 11
299.5397996365
 21
263.1643603406
  0
LINE
  5
2F3
100
AcDbEntity
  8
0
100
AcDbLine
 62
7
  6
CONTINUOUS
 10
299.5397996365
 20
217.1643603406
 11
299.5397996365
 21
207.1643603406
  0
LWPOLYLINE
  5
2F4
100
AcDbEntity
  8
0
100
AcDbPolyline
 62
7
  6
CONTINUOUS
 90
3
 70
0
 10
351.0521199348
 20
370.1115778035
 10
201.5726929116
 20
370.1365111182
 10
52.1585712137
 20
370.1115776537
  0
LINE
  5
2F5
100
AcDbEntity
  8
0
100
AcDbLine
 62
7
  6
CONTINUOUS
 10
301.66111998
 20
277.1643603406
 11
301.66111998
 21
273.1643603406
  0
LINE
  5
2F6
100
AcDbEntity
  8
0
100
AcDbLine
 62
7
  6
CONTINUOUS
 10
301.66111998
 20
207.1643603406
 11
301.66111998
 21
203.1643603406
  0
LINE
  5
2F7
100
AcDbEntity
  8
0
100
AcDbLine
 62
7
  6
CONTINUOUS
 10
302.3682267612
 20
273.1643603406
 11
302.3682267612
 21
263.1643603406
  0
LINE
  5
2F8
100
AcDbEntity
  8
0
100
AcDbLine
 62
7
  6
CONTINUOUS
 10
302.3682267612
 20
217.1643603406
 11
302.3682267612
 21
207.1643603406
  0
LINE
  5
2F9
100
AcDbEntity
  8
0
100
AcDbLine
 62
7
  6
CONTINUOUS
 10
302.9037606671
 20
213.4643603406
 11
302.9037606671
 21
207.1643603406
  0
LINE
  5
2FA
100
AcDbEntity
  8
0
100
AcDbLine
 62
7
  6
CONTINUOUS
 10
302.9037606671
 20
268.8543603406
 11
302.9037606671
 21
273.1643603406
  0
LINE
  5
2FB
100
AcDbEntity
  8
0
100
AcDbLine
 62
7
  6
CONTINUOUS
 10
308.9037606671
 20
213.4643603406
 11
308.9037606671
 21
207.1643603406
  0
LINE
  5
2FC
100
AcDbEntity
  8
0
100
AcDbLine
 62
7
  6
CONTINUOUS
 10
308.9037606671
 20
268.8543603406
 11
308.9037606671
 21
273.1643603406
  0
LINE
  5
2FD
100
AcDbEntity
  8
0
100
AcDbLine
 62
7
  6
CONTINUOUS
 10
311.9037606671
 20
277.1643603406
 11
311.9037606671
 21
273.1643603406
  0
LINE
  5
2FE
100
AcDbEntity
  8
0
100
AcDbLine
 62
7
  6
CONTINUOUS
 10
311.9037606671
 20
203.1643603406
 11
311.9037606671
 21
207.1643603406
  0
LWPOLYLINE
  5
2FF
100
AcDbEntity
  8
0
100
AcDbPolyline
 62
7
  6
CONTINUOUS
 90
4
 70
0
 10
52.1590141147
 20
370.1115492649
 10
51.5735532637
 20
370.0536546723
 10
50.6983005178
 20
369.7313189238
 10
49.4411644483
 20
368.3794094152
  0
LINE
  5
300
100
AcDbEntity
  8
0
100
AcDbLine
 62
7
  6
CONTINUOUS
 10
311.6412946767
 20
194.4643603407
 11
311.903760667
 21
197.4643603406
  0
LINE
  5
301
100
AcDbEntity
  8
0
100
AcDbLine
 62
7
  6
CONTINUOUS
 10
294.4016080646
 20
199.1556432616
 11
291.8892735811
 21
195.5032481693
  0
LINE
  5
302
100
AcDbEntity
  8
0
100
AcDbLine
 62
7
  6
CONTINUOUS
 10
294.1136259458
 20
193.972805172
 11
293.6857918189
 21
193.7968294463
  0
LINE
  5
303
100
AcDbEntity
  8
0
100
AcDbLine
 62
7
  6
CONTINUOUS
 10
300.6897076155
 20
193.9727886423
 11
300.2618848839
 21
193.7968294463
  0
LINE
  5
304
100
AcDbEntity
  8
0
100
AcDbLine
 62
7
  6
CONTINUOUS
 10
330.6055104421
 20
209.1643603406
 11
330.6055104421
 21
271.1643603406
  0
LINE
  5
305
100
AcDbEntity
  8
0
100
AcDbLine
 62
7
  6
CONTINUOUS
 10
333.9768229051
 20
195.6643603406
 11
333.9768229051
 21
192.9643603406
  0
LINE
  5
306
100
AcDbEntity
  8
0
100
AcDbLine
 62
7
  6
CONTINUOUS
 10
296.5153253696
 20
197.4643603406
 11
294.1138134159
 21
193.9730774196
  0
LINE
  5
307
100
AcDbEntity
  8
0
100
AcDbLine
 62
7
  6
CONTINUOUS
 10
298.4653666462
 20
195.5032481693
 11
299.8143361879
 21
197.4643603406
  0
LINE
  5
308
100
AcDbEntity
  8
0
100
AcDbLine
 62
7
  6
CONTINUOUS
 10
300.689906481
 20
193.9730774195
 11
300.6897076155
 21
193.9727886423
  0
LINE
  5
309
100
AcDbEntity
  8
0
100
AcDbLine
 62
7
  6
CONTINUOUS
 10
341.6055104421
 20
200.1643603406
 11
341.6055104421
 21
203.1643603406
  0
LINE
  5
30A
100
AcDbEntity
  8
0
100
AcDbLine
 62
7
  6
CONTINUOUS
 10
341.6055104421
 20
277.1643603406
 11
341.6055104421
 21
280.1643603406
  0
LINE
  5
30B
100
AcDbEntity
  8
0
100
AcDbLine
 62
7
  6
CONTINUOUS
 10
341.9986211403
 20
334.5521418691
 11
341.9986211403
 21
333.8643603406
  0
LINE
  5
30C
100
AcDbEntity
  8
0
100
AcDbLine
 62
7
  6
CONTINUOUS
 10
341.8055104421
 20
333.8643603406
 11
341.0053769118
 21
288.0247410891
  0
LINE
  5
30D
100
AcDbEntity
  8
0
100
AcDbLine
 62
7
  6
CONTINUOUS
 10
341.9992276239
 20
334.5521418693
 11
342.2886228823
 21
351.1643603406
  0
LINE
  5
30E
100
AcDbEntity
  8
0
100
AcDbLine
 62
7
  6
CONTINUOUS
 10
345.7880553772
 20
351.1643603406
 11
345.4980880563
 21
334.552143655
  0
LINE
  5
30F
100
AcDbEntity
  8
0
100
AcDbLine
 62
7
  6
CONTINUOUS
 10
339.7336800225
 20
283.8346569078
 11
339.6392124943
 21
281.1294608439
  0
LINE
  5
310
100
AcDbEntity
  8
0
100
AcDbLine
 62
7
  6
CONTINUOUS
 10
356.9049979527
 20
352.1643609035
 11
356.7651941737
 21
356.1643599091
  0
LINE
  5
311
100
AcDbEntity
  8
0
100
AcDbLine
 62
7
  6
CONTINUOUS
 10
337.5965072461
 20
199.7112508303
 11
334.0141933938
 21
195.6811421743
  0
LINE
  5
312
100
AcDbEntity
  8
0
100
AcDbLine
 62
7
  6
CONTINUOUS
 10
336.0321997858
 20
193.8873611949
 11
339.6145136381
 21
197.9174698509
  0
LINE
  5
313
100
AcDbEntity
  8
0
100
AcDbLine
 62
7
  6
CONTINUOUS
 10
359.4658273641
 20
356.1643603406
 11
359.6055104421
 21
352.1643603406
  0
LWPOLYLINE
  5
314
100
AcDbEntity
  8
0
100
AcDbPolyline
 62
7
  6
CONTINUOUS
 90
4
 70
0
 10
353.7698564074
 20
368.3794094764
 10
352.5127202306
 20
369.7313190308
 10
351.6374677904
 20
370.0536546701
 10
351.0520618128
 20
370.1115492764
  0
LINE
  5
315
100
AcDbEntity
  8
0
100
AcDbLine
 62
7
  6
CONTINUOUS
 10
359.465827066
 20
356.1643609799
 11
353.7699094606
 21
368.3792957032
  0
ARC
  5
316
100
AcDbEntity
  8
0
100
AcDbCircle
 62
7
  6
CONTINUOUS
 10
305.9037606671
 20
203.9516404997
 40
11.0872801592
100
AcDbArc
 50
238.8361007264
 51
301.1638992736
  0
ARC
  5
317
100
AcDbEntity
  8
0
100
AcDbCircle
 62
7
  6
CONTINUOUS
 10
97.3072602171
 20
203.9516404997
 40
11.0872801592
100
AcDbArc
 50
238.8361007264
 51
301.1638992736
  0
ARC
  5
318
100
AcDbEntity
  8
0
100
AcDbCircle
 62
7
  6
CONTINUOUS
 10
70.2044255337
 20
288.1643603406
 40
8.0
100
AcDbArc
 50
181.0
 51
270.0
  0
ARC
  5
319
100
AcDbEntity
  8
0
100
AcDbCircle
 62
7
  6
CONTINUOUS
 10
333.0065953505
 20
288.1643603406
 40
8.0
100
AcDbArc
 50
270.0
 51
359.0
  0
ARC
  5
31A
100
AcDbEntity
  8
0
100
AcDbCircle
 62
7
  6
CONTINUOUS
 10
336.6055104421
 20
271.1643603406
 40
6.0
100
AcDbArc
 50
90.0
 51
180.0
  0
ARC
  5
31B
100
AcDbEntity
  8
0
100
AcDbCircle
 62
7
  6
CONTINUOUS
 10
66.6055104421
 20
271.1643603406
 40
6.0
100
AcDbArc
 50
0.0
 51
90.0
  0
ARC
  5
31C
100
AcDbEntity
  8
0
100
AcDbCircle
 62
7
  6
CONTINUOUS
 10
336.6055104421
 20
209.1643603406
 40
6.0
100
AcDbArc
 50
180.0
 51
270.0
  0
ARC
  5
31D
100
AcDbEntity
  8
0
100
AcDbCircle
 62
7
  6
CONTINUOUS
 10
66.6055104421
 20
209.1643603406
 40
6.0
100
AcDbArc
 50
270.0
 51
360.0
  0
ARC
  5
31E
100
AcDbEntity
  8
0
100
AcDbCircle
 62
7
  6
CONTINUOUS
 10
69.2341979791
 20
195.7143603406
 40
2.75
100
AcDbArc
 50
221.6335000023
 51
270.0
  0
ARC
  5
31F
100
AcDbEntity
  8
0
100
AcDbCircle
 62
7
  6
CONTINUOUS
 10
333.9768229051
 20
195.7143603406
 40
2.75
100
AcDbArc
 50
270.0
 51
318.3664999977
  0
ARC
  5
320
100
AcDbEntity
  8
0
100
AcDbCircle
 62
7
  6
CONTINUOUS
 10
201.6055104421
 20
194.3143603406
 40
1.35
100
AcDbArc
 50
180.0
 51
360.0
  0
ARC
  5
321
100
AcDbEntity
  8
0
100
AcDbCircle
 62
7
  6
CONTINUOUS
 10
92.6572602171
 20
198.8143603406
 40
1.35
100
AcDbArc
 50
90.0
 51
216.0
  0
ARC
  5
322
100
AcDbEntity
  8
0
100
AcDbCircle
 62
7
  6
CONTINUOUS
 10
310.5537606671
 20
198.8143603406
 40
1.35
100
AcDbArc
 50
324.0
 51
90.0
  0
ARC
  5
323
100
AcDbEntity
  8
0
100
AcDbCircle
 62
7
  6
CONTINUOUS
 10
334.7055104421
 20
191.6143603406
 40
1.35
100
AcDbArc
 50
270.0
 51
90.0
  0
ARC
  5
324
100
AcDbEntity
  8
0
100
AcDbCircle
 62
7
  6
CONTINUOUS
 10
68.5055104421
 20
191.6143603406
 40
1.35
100
AcDbArc
 50
90.0
 51
270.0
  0
ARC
  5
325
100
AcDbEntity
  8
0
100
AcDbCircle
 62
7
  6
CONTINUOUS
 10
100.4284791599
 20
198.6117386716
 40
1.1627078922
100
AcDbArc
 50
272.555788032
 51
276.8300347712
  0
ARC
  5
326
100
AcDbEntity
  8
0
100
AcDbCircle
 62
7
  6
CONTINUOUS
 10
302.7825417243
 20
198.6117386717
 40
1.1627078923
100
AcDbArc
 50
263.1699652279
 51
267.4442119676
  0
ARC
  5
327
100
AcDbEntity
  8
0
100
AcDbCircle
 62
7
  6
CONTINUOUS
 10
47.6526883042
 20
352.1643603406
 40
1.0
100
AcDbArc
 50
180.0
 51
270.0
  0
ARC
  5
328
100
AcDbEntity
  8
0
100
AcDbCircle
 62
7
  6
CONTINUOUS
 10
355.55833258
 20
352.1643603406
 40
1.0
100
AcDbArc
 50
270.0
 51
360.0
  0
ARC
  5
329
100
AcDbEntity
  8
0
100
AcDbCircle
 62
7
  6
CONTINUOUS
 10
64.5711992169
 20
281.1643603406
 40
1.0
100
AcDbArc
 50
181.9999999999
 51
270.0
  0
ARC
  5
32A
100
AcDbEntity
  8
0
100
AcDbCircle
 62
7
  6
CONTINUOUS
 10
338.6398216673
 20
281.1643603406
 40
1.0
100
AcDbArc
 50
270.0
 51
358.0000000001
  0
ARC
  5
32B
100
AcDbEntity
  8
0
100
AcDbCircle
 62
7
  6
CONTINUOUS
 10
107.0126881748
 20
198.3648889062
 40
0.9156643908
100
AcDbArc
 50
267.8229125477
 51
270.0129154934
  0
ARC
  5
32C
100
AcDbEntity
  8
0
100
AcDbCircle
 62
7
  6
CONTINUOUS
 10
296.1983327137
 20
198.3648885647
 40
0.9156640493
100
AcDbArc
 50
269.9870842326
 51
272.1771104623
  0
ARC
  5
32D
100
AcDbEntity
  8
0
100
AcDbCircle
 62
7
  6
CONTINUOUS
 10
296.1998426138
 20
198.3206718201
 40
0.8714218794
100
AcDbArc
 50
272.1883485525
 51
273.0205372848
  0
ARC
  5
32E
100
AcDbEntity
  8
0
100
AcDbCircle
 62
7
  6
CONTINUOUS
 10
107.0111781847
 20
198.3206697916
 40
0.8714198491
100
AcDbArc
 50
266.9792962185
 51
267.8116755965
  0
ARC
  5
32F
100
AcDbEntity
  8
0
100
AcDbCircle
 62
7
  6
CONTINUOUS
 10
344.7979483052
 20
334.5644278012
 40
0.6999935651
100
AcDbArc
 50
270.0201632683
 51
358.9948328098
  0
ARC
  5
330
100
AcDbEntity
  8
0
100
AcDbCircle
 62
7
  6
CONTINUOUS
 10
58.4130727493
 20
334.5644282757
 40
0.6999931811
100
AcDbArc
 50
181.0052057614
 51
269.9798228106
  0
SPLINE
  5
331
100
AcDbEntity
  8
0
100
AcDbSpline
 62
7
  6
CONTINUOUS
 70
0
 71
3
 72
13
 73
9
 74
0
 42
0.0000001
 43
0.0000001
 44
0.0000000001
 40
0.0
 40
0.0
 40
0.0
 40
0.0
 40
0.0995277235
 40
0.2036009052
 40
0.3155822302
 40
0.4371255627
 40
0.7067297987
 40
1.0
 40
1.0
 40
1.0
 40
1.0
 10
202.9554771451
 20
198.8143603487
 30
0.0
 10
202.9554782137
 20
198.8733186882
 30
0.0
 10
202.9370932133
 20
198.9946062041
 30
0.0
 10
202.8570152648
 20
199.1659101506
 30
0.0
 10
202.7290447064
 20
199.3219313305
 30
0.0
 10
202.4944395129
 20
199.5086334071
 30
0.0
 10
202.1141198375
 20
199.6691264793
 30
0.0
 10
201.7792381582
 20
199.7112508303
 30
0.0
 10
201.6055104421
 20
199.7112508303
 30
0.0
  0
SPLINE
  5
332
100
AcDbEntity
  8
0
100
AcDbSpline
 62
7
  6
CONTINUOUS
 70
0
 71
3
 72
13
 73
9
 74
0
 42
0.0000001
 43
0.0000001
 44
0.0000000001
 40
0.0
 40
0.0
 40
0.0
 40
0.0
 40
0.2932689038
 40
0.5628651793
 40
0.6844069452
 40
0.796389958
 40
0.9004682832
 40
1.0
 40
1.0
 40
1.0
 40
1.0
 10
201.6055104421
 20
199.7112508303
 30
0.0
 10
201.4317833109
 20
199.7112508303
 30
0.0
 10
201.0969072355
 20
199.6691266438
 30
0.0
 10
200.7165907693
 20
199.5086429028
 30
0.0
 10
200.4819873236
 20
199.3219444126
 30
0.0
 10
200.354015997
 20
199.1659210746
 30
0.0
 10
200.2739233414
 20
198.9946153607
 30
0.0
 10
200.2555448078
 20
198.8733210999
 30
0.0
 10
200.2555437391
 20
198.8143603325
 30
0.0
  0
SPLINE
  5
333
100
AcDbEntity
  8
0
100
AcDbSpline
 62
7
  6
CONTINUOUS
 70
0
 71
3
 72
13
 73
9
 74
0
 42
0.0000001
 43
0.0000001
 44
0.0000000001
 40
0.0
 40
0.0
 40
0.0
 40
0.0
 40
0.2932689038
 40
0.5628651793
 40
0.6844069452
 40
0.796389958
 40
0.9004682832
 40
1.0
 40
1.0
 40
1.0
 40
1.0
 10
201.6055104421
 20
197.9174698509
 30
0.0
 10
201.7792375734
 20
197.9174698509
 30
0.0
 10
202.1141136487
 20
197.9595940374
 30
0.0
 10
202.494430115
 20
198.1200777784
 30
0.0
 10
202.7290335606
 20
198.3067762686
 30
0.0
 10
202.8570048872
 20
198.4627996066
 30
0.0
 10
202.9370975428
 20
198.6341053206
 30
0.0
 10
202.9554760764
 20
198.7553995813
 30
0.0
 10
202.9554771451
 20
198.8143603487
 30
0.0
  0
SPLINE
  5
334
100
AcDbEntity
  8
0
100
AcDbSpline
 62
7
  6
CONTINUOUS
 70
0
 71
3
 72
9
 73
5
 74
0
 42
0.0000001
 43
0.0000001
 44
0.0000000001
 40
0.0
 40
0.0
 40
0.0
 40
0.0
 40
0.2811658399
 40
1.0
 40
1.0
 40
1.0
 40
1.0
 10
201.6055104421
 20
193.8873611949
 30
0.0
 10
201.4776163367
 20
193.8873611949
 30
0.0
 10
201.0289486237
 20
193.9276019536
 30
0.0
 10
200.5583394288
 20
194.1450914232
 30
0.0
 10
200.3747710949
 20
194.4156766542
 30
0.0
  0
SPLINE
  5
335
100
AcDbEntity
  8
0
100
AcDbSpline
 62
7
  6
CONTINUOUS
 70
0
 71
3
 72
9
 73
5
 74
0
 42
0.0000001
 43
0.0000001
 44
0.0000000001
 40
0.0
 40
0.0
 40
0.0
 40
0.0
 40
0.5127957848
 40
1.0
 40
1.0
 40
1.0
 40
1.0
 10
200.3747710949
 20
194.4156766542
 30
0.0
 10
200.337172286
 20
194.4710984265
 30
0.0
 10
200.2770734437
 20
194.5892644704
 30
0.0
 10
200.2555337455
 20
194.7206220261
 30
0.0
 10
200.2555337455
 20
194.7842516846
 30
0.0
  0
SPLINE
  5
336
100
AcDbEntity
  8
0
100
AcDbSpline
 62
7
  6
CONTINUOUS
 70
0
 71
3
 72
13
 73
9
 74
0
 42
0.0000001
 43
0.0000001
 44
0.0000000001
 40
0.0
 40
0.0
 40
0.0
 40
0.0
 40
0.0995312742
 40
0.2036077934
 40
0.3155933459
 40
0.4371403076
 40
0.7067418393
 40
1.0
 40
1.0
 40
1.0
 40
1.0
 10
202.9554871387
 20
194.7842516846
 30
0.0
 10
202.9554871387
 20
194.725290873
 30
0.0
 10
202.937106601
 20
194.6039975911
 30
0.0
 10
202.8570167343
 20
194.4326894649
 30
0.0
 10
202.7290386441
 20
194.2766651786
 30
0.0
 10
202.4944273856
 20
194.0899621195
 30
0.0
 10
202.1141062755
 20
193.9294826387
 30
0.0
 10
201.7792321119
 20
193.8873611949
 30
0.0
 10
201.6055104421
 20
193.8873611949
 30
0.0
  0
SPLINE
  5
337
100
AcDbEntity
  8
0
100
AcDbSpline
 62
7
  6
CONTINUOUS
 70
0
 71
3
 72
13
 73
9
 74
0
 42
0.0000001
 43
0.0000001
 44
0.0000000001
 40
0.0
 40
0.0
 40
0.0
 40
0.0
 40
0.0995277235
 40
0.2036009052
 40
0.3155822302
 40
0.4371255627
 40
0.7067297987
 40
1.0
 40
1.0
 40
1.0
 40
1.0
 10
200.2555437391
 20
198.8143603325
 30
0.0
 10
200.2555426705
 20
198.755401993
 30
0.0
 10
200.2739276709
 20
198.6341144772
 30
0.0
 10
200.3540056194
 20
198.4628105306
 30
0.0
 10
200.4819761778
 20
198.3067893507
 30
0.0
 10
200.7165813713
 20
198.1200872741
 30
0.0
 10
201.0969010467
 20
197.9595942019
 30
0.0
 10
201.4317827261
 20
197.9174698509
 30
0.0
 10
201.6055104421
 20
197.9174698509
 30
0.0
  0
SPLINE
  5
338
100
AcDbEntity
  8
0
100
AcDbSpline
 62
7
  6
CONTINUOUS
 70
0
 71
3
 72
10
 73
6
 74
0
 42
0.0000001
 43
0.0000001
 44
0.0000000001
 40
0.0
 40
0.0
 40
0.0
 40
0.0
 40
0.2496144874
 40
0.4995670543
 40
1.0
 40
1.0
 40
1.0
 40
1.0
 10
104.3419808567
 20
192.9643690714
 30
0.0
 10
104.1627777597
 20
192.9644751382
 30
0.0
 10
103.8022751103
 20
193.0126414049
 30
0.0
 10
103.1327863224
 20
193.2880339433
 30
0.0
 10
102.7249662172
 20
193.6768515113
 30
0.0
 10
102.5212993092
 20
193.9728163109
 30
0.0
  0
SPLINE
  5
339
100
AcDbEntity
  8
0
100
AcDbSpline
 62
7
  6
CONTINUOUS
 70
0
 71
3
 72
9
 73
5
 74
0
 42
0.0000001
 43
0.0000001
 44
0.0000000001
 40
0.0
 40
0.0
 40
0.0
 40
0.0
 40
0.5212089596
 40
1.0
 40
1.0
 40
1.0
 40
1.0
 10
200.8690270695
 20
193.2332147801
 30
0.0
 10
200.7919917249
 20
193.1517624822
 30
0.0
 10
200.617536348
 20
193.0164878449
 30
0.0
 10
200.4003525529
 20
192.9643603406
 30
0.0
 10
200.2973653784
 20
192.9643603406
 30
0.0
  0
SPLINE
  5
33A
100
AcDbEntity
  8
0
100
AcDbSpline
 62
7
  6
CONTINUOUS
 70
0
 71
3
 72
10
 73
6
 74
0
 42
0.0000001
 43
0.0000001
 44
0.0000000001
 40
0.0
 40
0.0
 40
0.0
 40
0.0
 40
0.5004136614
 40
0.7503600396
 40
1.0
 40
1.0
 40
1.0
 40
1.0
 10
109.0974031765
 20
193.9728001301
 30
0.0
 10
109.301062445
 20
193.6768479901
 30
0.0
 10
109.7088701767
 20
193.2880545321
 30
0.0
 10
110.3783468282
 20
193.0126335726
 30
0.0
 10
110.7388652155
 20
192.9644800094
 30
0.0
 10
110.9180861416
 20
192.9643707118
 30
0.0
  0
SPLINE
  5
33B
100
AcDbEntity
  8
0
100
AcDbSpline
 62
7
  6
CONTINUOUS
 70
0
 71
3
 72
10
 73
6
 74
0
 42
0.0000001
 43
0.0000001
 44
0.0000000001
 40
0.0
 40
0.0
 40
0.0
 40
0.0
 40
0.2496144874
 40
0.4995670543
 40
1.0
 40
1.0
 40
1.0
 40
1.0
 10
106.9885463662
 20
200.1643516098
 30
0.0
 10
107.1677494632
 20
200.1642455429
 30
0.0
 10
107.5282521127
 20
200.1160792763
 30
0.0
 10
108.1977409006
 20
199.8406867379
 30
0.0
 10
108.6055610057
 20
199.4518691699
 30
0.0
 10
108.8092279137
 20
199.1559043703
 30
0.0
  0
SPLINE
  5
33C
100
AcDbEntity
  8
0
100
AcDbSpline
 62
7
  6
CONTINUOUS
 70
0
 71
3
 72
13
 73
9
 74
0
 42
0.0000001
 43
0.0000001
 44
0.0000000001
 40
0.0
 40
0.0
 40
0.0
 40
0.0
 40
0.0787237312
 40
0.1683848346
 40
0.2749309214
 40
0.3992336593
 40
0.6889418531
 40
1.0
 40
1.0
 40
1.0
 40
1.0
 10
104.7456557186
 20
195.5032491878
 30
0.0
 10
104.7747970663
 20
195.460901251
 30
0.0
 10
104.8146040444
 20
195.3537692838
 30
0.0
 10
104.8049863439
 20
195.1712047806
 30
0.0
 10
104.7361791191
 20
194.971557765
 30
0.0
 10
104.5629165806
 20
194.6772389765
 30
0.0
 10
104.2314455375
 20
194.3311672342
 30
0.0
 10
103.9032643786
 20
194.1103183103
 30
0.0
 10
103.722820992
 20
194.017059614
 30
0.0
  0
SPLINE
  5
33D
100
AcDbEntity
  8
0
100
AcDbSpline
 62
7
  6
CONTINUOUS
 70
0
 71
3
 72
9
 73
5
 74
0
 42
0.0000001
 43
0.0000001
 44
0.0000000001
 40
0.0
 40
0.0
 40
0.0
 40
0.0
 40
0.2651437476
 40
1.0
 40
1.0
 40
1.0
 40
1.0
 10
103.722820992
 20
194.017059614
 30
0.0
 10
103.6781668009
 20
193.9939809536
 30
0.0
 10
103.5072710548
 20
193.9120595458
 30
0.0
 10
103.3259822549
 20
193.8499940015
 30
0.0
 10
103.1893893534
 20
193.8225998205
 30
0.0
  0
SPLINE
  5
33E
100
AcDbEntity
  8
0
100
AcDbSpline
 62
7
  6
CONTINUOUS
 70
0
 71
3
 72
9
 73
5
 74
0
 42
0.0000001
 43
0.0000001
 44
0.0000000001
 40
0.0
 40
0.0
 40
0.0
 40
0.0
 40
0.2645901066
 40
1.0
 40
1.0
 40
1.0
 40
1.0
 10
103.1893893534
 20
193.8225998205
 30
0.0
 10
103.1684761772
 20
193.8184056103
 30
0.0
 10
103.0891312065
 20
193.8042207614
 30
0.0
 10
103.0084201804
 20
193.7968294463
 30
0.0
 10
102.9491360003
 20
193.7968294463
 30
0.0
  0
SPLINE
  5
33F
100
AcDbEntity
  8
0
100
AcDbSpline
 62
7
  6
CONTINUOUS
 70
0
 71
3
 72
14
 73
10
 74
0
 42
0.0000001
 43
0.0000001
 44
0.0000000001
 40
0.0
 40
0.0
 40
0.0
 40
0.0
 40
0.101971129
 40
0.213752245
 40
0.3393023196
 40
0.4763154174
 40
0.6184420611
 40
0.7577944548
 40
1.0
 40
1.0
 40
1.0
 40
1.0
 10
104.3429751714
 20
192.9643603406
 30
0.0
 10
104.4514064578
 20
192.9643603406
 30
0.0
 10
104.6812110429
 20
193.0228640758
 30
0.0
 10
104.9660943009
 20
193.258152191
 30
0.0
 10
105.1753745176
 20
193.6037435516
 30
0.0
 10
105.2931621559
 20
194.0221372479
 30
0.0
 10
105.3083032118
 20
194.4719893919
 30
0.0
 10
105.2000103422
 20
195.0183924941
 30
0.0
 10
104.9641311779
 20
195.3927847894
 30
0.0
 10
104.7498198752
 20
195.535622602
 30
0.0
  0
SPLINE
  5
340
100
AcDbEntity
  8
0
100
AcDbSpline
 62
7
  6
CONTINUOUS
 70
0
 71
3
 72
15
 73
11
 74
0
 42
0.0000001
 43
0.0000001
 44
0.0000000001
 40
0.0
 40
0.0
 40
0.0
 40
0.0
 40
0.1201565137
 40
0.2604678478
 40
0.4119375999
 40
0.5635659018
 40
0.7042488742
 40
0.8250049195
 40
0.9217395231
 40
1.0
 40
1.0
 40
1.0
 40
1.0
 10
107.0128945819
 20
197.4492245387
 30
0.0
 10
107.1237519052
 20
197.4492245387
 30
0.0
 10
107.3639329535
 20
197.4887411372
 30
0.0
 10
107.720586799
 20
197.6244626485
 30
0.0
 10
108.0760310625
 20
197.8305077388
 30
0.0
 10
108.3966232453
 20
198.0876216935
 30
0.0
 10
108.6533568828
 20
198.3721293685
 30
0.0
 10
108.8225150154
 20
198.6590123927
 30
0.0
 10
108.8927969793
 20
198.928989488
 30
0.0
 10
108.85034567
 20
199.0961631923
 30
0.0
 10
108.8094143002
 20
199.1556442801
 30
0.0
  0
SPLINE
  5
341
100
AcDbEntity
  8
0
100
AcDbSpline
 62
7
  6
CONTINUOUS
 70
0
 71
3
 72
14
 73
10
 74
0
 42
0.0000001
 43
0.0000001
 44
0.0000000001
 40
0.0
 40
0.0
 40
0.0
 40
0.0
 40
0.101971129
 40
0.213752245
 40
0.3393023196
 40
0.4763154175
 40
0.6184420612
 40
0.7577944549
 40
1.0
 40
1.0
 40
1.0
 40
1.0
 10
110.9190682364
 20
192.9643603406
 30
0.0
 10
111.027499523
 20
192.9643603406
 30
0.0
 10
111.2573041082
 20
193.022864076
 30
0.0
 10
111.5421873664
 20
193.2581521915
 30
0.0
 10
111.7514675831
 20
193.6037435526
 30
0.0
 10
111.8692552212
 20
194.0221372494
 30
0.0
 10
111.8843962767
 20
194.4719893939
 30
0.0
 10
111.7761034065
 20
195.0183924961
 30
0.0
 10
111.5402242413
 20
195.3927847913
 30
0.0
 10
111.3259129382
 20
195.5356226033
 30
0.0
  0
SPLINE
  5
342
100
AcDbEntity
  8
0
100
AcDbSpline
 62
7
  6
CONTINUOUS
 70
0
 71
3
 72
11
 73
7
 74
0
 42
0.0000001
 43
0.0000001
 44
0.0000000001
 40
0.0
 40
0.0
 40
0.0
 40
0.0
 40
0.2880052506
 40
0.5553344723
 40
0.7905070702
 40
1.0
 40
1.0
 40
1.0
 40
1.0
 10
101.5499009042
 20
198.8143603406
 30
0.0
 10
101.5499009042
 20
198.9882831638
 30
0.0
 10
101.5044696929
 20
199.3257739816
 30
0.0
 10
101.304568374
 20
199.7675685523
 30
0.0
 10
100.9935482988
 20
200.0822292084
 30
0.0
 10
100.7218169494
 20
200.1643603406
 30
0.0
 10
100.5953067496
 20
200.1643603406
 30
0.0
  0
SPLINE
  5
343
100
AcDbEntity
  8
0
100
AcDbSpline
 62
7
  6
CONTINUOUS
 70
0
 71
3
 72
11
 73
7
 74
0
 42
0.0000001
 43
0.0000001
 44
0.0000000001
 40
0.0
 40
0.0
 40
0.0
 40
0.0
 40
0.2094929298
 40
0.4446655277
 40
0.7119947494
 40
1.0
 40
1.0
 40
1.0
 40
1.0
 10
100.5953067496
 20
197.4643603406
 30
0.0
 10
100.7218169494
 20
197.4643603406
 30
0.0
 10
100.9935482988
 20
197.5464914728
 30
0.0
 10
101.304568374
 20
197.8611521288
 30
0.0
 10
101.5044696929
 20
198.3029466996
 30
0.0
 10
101.5499009042
 20
198.6404375174
 30
0.0
 10
101.5499009042
 20
198.8143603406
 30
0.0
  0
SPLINE
  5
344
100
AcDbEntity
  8
0
100
AcDbSpline
 62
7
  6
CONTINUOUS
 70
0
 71
3
 72
15
 73
11
 74
0
 42
0.0000001
 43
0.0000001
 44
0.0000000001
 40
0.0
 40
0.0
 40
0.0
 40
0.0
 40
0.0782604769
 40
0.1749950805
 40
0.2957511258
 40
0.4364340982
 40
0.5880624001
 40
0.7395321522
 40
0.8798434863
 40
1.0
 40
1.0
 40
1.0
 40
1.0
 10
111.3217487836
 20
195.5032491878
 30
0.0
 10
111.3626801534
 20
195.4437680999
 30
0.0
 10
111.4051314628
 20
195.2765943956
 30
0.0
 10
111.3348494989
 20
195.0066173003
 30
0.0
 10
111.1656913663
 20
194.7197342761
 30
0.0
 10
110.9089577288
 20
194.4352266012
 30
0.0
 10
110.5883655459
 20
194.1781126465
 30
0.0
 10
110.2329212824
 20
193.9720675561
 30
0.0
 10
109.8762674369
 20
193.8363460448
 30
0.0
 10
109.6360863886
 20
193.7968294463
 30
0.0
 10
109.5252290654
 20
193.7968294463
 30
0.0
  0
SPLINE
  5
345
100
AcDbEntity
  8
0
100
AcDbSpline
 62
7
  6
CONTINUOUS
 70
0
 71
3
 72
15
 73
11
 74
0
 42
0.0000001
 43
0.0000001
 44
0.0000000001
 40
0.0
 40
0.0
 40
0.0
 40
0.0
 40
0.104470771
 40
0.2215117045
 40
0.354468744
 40
0.4978721541
 40
0.6417945112
 40
0.7761064522
 40
0.8947048077
 40
1.0
 40
1.0
 40
1.0
 40
1.0
 10
106.9885651459
 20
200.1643595648
 30
0.0
 10
107.1134643784
 20
200.164168293
 30
0.0
 10
107.3813112236
 20
200.0839423951
 30
0.0
 10
107.6901272888
 20
199.7764112412
 30
0.0
 10
107.8911083173
 20
199.3427256723
 30
0.0
 10
107.9649353958
 20
198.8393660953
 30
0.0
 10
107.9040588718
 20
198.3326992802
 30
0.0
 10
107.7145772026
 20
197.8896638675
 30
0.0
 10
107.4155792353
 20
197.567333387
 30
0.0
 10
107.1499405864
 20
197.4723126961
 30
0.0
 10
107.0242469162
 20
197.4653746009
 30
0.0
  0
SPLINE
  5
346
100
AcDbEntity
  8
0
100
AcDbSpline
 62
7
  6
CONTINUOUS
 70
0
 71
3
 72
10
 73
6
 74
0
 42
0.0000001
 43
0.0000001
 44
0.0000000001
 40
0.0
 40
0.0
 40
0.0
 40
0.0
 40
0.2496144874
 40
0.4995670543
 40
1.0
 40
1.0
 40
1.0
 40
1.0
 10
292.2929469624
 20
192.9643690714
 30
0.0
 10
292.4721500595
 20
192.9644751382
 30
0.0
 10
292.8326527089
 20
193.0126414049
 30
0.0
 10
293.5021414968
 20
193.2880339433
 30
0.0
 10
293.909961602
 20
193.6768515113
 30
0.0
 10
294.11362851
 20
193.9728163109
 30
0.0
  0
SPLINE
  5
347
100
AcDbEntity
  8
0
100
AcDbSpline
 62
7
  6
CONTINUOUS
 70
0
 71
3
 72
10
 73
6
 74
0
 42
0.0000001
 43
0.0000001
 44
0.0000000001
 40
0.0
 40
0.0
 40
0.0
 40
0.0
 40
0.5004136614
 40
0.7503600396
 40
1.0
 40
1.0
 40
1.0
 40
1.0
 10
294.4018037728
 20
199.1559205511
 30
0.0
 10
294.6054630413
 20
199.4518726911
 30
0.0
 10
295.013270773
 20
199.840666149
 30
0.0
 10
295.6827474244
 20
200.1160871086
 30
0.0
 10
296.0432658117
 20
200.1642406717
 30
0.0
 10
296.2224867379
 20
200.1643499694
 30
0.0
  0
SPLINE
  5
348
100
AcDbEntity
  8
0
100
AcDbSpline
 62
7
  6
CONTINUOUS
 70
0
 71
3
 72
10
 73
6
 74
0
 42
0.0000001
 43
0.0000001
 44
0.0000000001
 40
0.0
 40
0.0
 40
0.0
 40
0.0
 40
0.5004136614
 40
0.7503600396
 40
1.0
 40
1.0
 40
1.0
 40
1.0
 10
300.6897107727
 20
193.9728001301
 30
0.0
 10
300.4860515043
 20
193.6768479901
 30
0.0
 10
300.0782437726
 20
193.2880545321
 30
0.0
 10
299.4087671211
 20
193.0126335726
 30
0.0
 10
299.0482487338
 20
192.9644800094
 30
0.0
 10
298.8690278076
 20
192.9643707118
 30
0.0
  0
SPLINE
  5
349
100
AcDbEntity
  8
0
100
AcDbSpline
 62
7
  6
CONTINUOUS
 70
0
 71
3
 72
15
 73
11
 74
0
 42
0.0000001
 43
0.0000001
 44
0.0000000001
 40
0.0
 40
0.0
 40
0.0
 40
0.0
 40
0.1052952976
 40
0.2238938567
 40
0.3582060572
 40
0.5021286066
 40
0.6455320198
 40
0.7784888263
 40
0.8955294052
 40
1.0
 40
1.0
 40
1.0
 40
1.0
 10
296.186773968
 20
197.4653746009
 30
0.0
 10
296.0610797348
 20
197.4723127271
 30
0.0
 10
295.7954398199
 20
197.5673342817
 30
0.0
 10
295.4964412418
 20
197.8896673084
 30
0.0
 10
295.3069601278
 20
198.3327056722
 30
0.0
 10
295.2460854084
 20
198.8393750891
 30
0.0
 10
295.3199153909
 20
199.3427360512
 30
0.0
 10
295.5209000366
 20
199.7764211482
 30
0.0
 10
295.8297202832
 20
200.0839493954
 30
0.0
 10
296.0975691089
 20
200.1641707342
 30
0.0
 10
296.2224685689
 20
200.1643595843
 30
0.0
  0
SPLINE
  5
34A
100
AcDbEntity
  8
0
100
AcDbSpline
 62
7
  6
CONTINUOUS
 70
0
 71
3
 72
15
 73
11
 74
0
 42
0.0000001
 43
0.0000001
 44
0.0000000001
 40
0.0
 40
0.0
 40
0.0
 40
0.0
 40
0.1201565137
 40
0.2604678478
 40
0.4119375999
 40
0.5635659018
 40
0.7042488742
 40
0.8250049195
 40
0.9217395231
 40
1.0
 40
1.0
 40
1.0
 40
1.0
 10
293.6857918189
 20
193.7968294463
 30
0.0
 10
293.5749344956
 20
193.7968294463
 30
0.0
 10
293.3347534473
 20
193.8363460448
 30
0.0
 10
292.9780996018
 20
193.9720675561
 30
0.0
 10
292.6226553383
 20
194.1781126465
 30
0.0
 10
292.3020631555
 20
194.4352266012
 30
0.0
 10
292.0453295179
 20
194.7197342761
 30
0.0
 10
291.8761713853
 20
195.0066173003
 30
0.0
 10
291.8058894214
 20
195.2765943956
 30
0.0
 10
291.8483407308
 20
195.4437680999
 30
0.0
 10
291.8892721006
 20
195.5032491878
 30
0.0
  0
SPLINE
  5
34B
100
AcDbEntity
  8
0
100
AcDbSpline
 62
7
  6
CONTINUOUS
 70
0
 71
3
 72
15
 73
11
 74
0
 42
0.0000001
 43
0.0000001
 44
0.0000000001
 40
0.0
 40
0.0
 40
0.0
 40
0.0
 40
0.0782604769
 40
0.1749950805
 40
0.2957511258
 40
0.4364340982
 40
0.5880624001
 40
0.7395321522
 40
0.8798434863
 40
1.0
 40
1.0
 40
1.0
 40
1.0
 10
294.4016065841
 20
199.1556442801
 30
0.0
 10
294.3606752142
 20
199.0961631923
 30
0.0
 10
294.3182239049
 20
198.928989488
 30
0.0
 10
294.3885058688
 20
198.6590123927
 30
0.0
 10
294.5576640014
 20
198.3721293685
 30
0.0
 10
294.8143976389
 20
198.0876216935
 30
0.0
 10
295.1349898217
 20
197.8305077388
 30
0.0
 10
295.4904340853
 20
197.6244626485
 30
0.0
 10
295.8470879307
 20
197.4887411372
 30
0.0
 10
296.087268979
 20
197.4492245387
 30
0.0
 10
296.1981263023
 20
197.4492245387
 30
0.0
  0
SPLINE
  5
34C
100
AcDbEntity
  8
0
100
AcDbSpline
 62
7
  6
CONTINUOUS
 70
0
 71
3
 72
14
 73
10
 74
0
 42
0.0000001
 43
0.0000001
 44
0.0000000001
 40
0.0
 40
0.0
 40
0.0
 40
0.0
 40
0.2422055451
 40
0.3815579388
 40
0.5236845825
 40
0.6606976804
 40
0.786247755
 40
0.898028871
 40
1.0
 40
1.0
 40
1.0
 40
1.0
 10
298.461201011
 20
195.5356226033
 30
0.0
 10
298.246889708
 20
195.3927847913
 30
0.0
 10
298.0110105428
 20
195.0183924961
 30
0.0
 10
297.9027176726
 20
194.4719893939
 30
0.0
 10
297.917858728
 20
194.0221372494
 30
0.0
 10
298.0356463661
 20
193.6037435527
 30
0.0
 10
298.2449265829
 20
193.2581521915
 30
0.0
 10
298.529809841
 20
193.022864076
 30
0.0
 10
298.7596144263
 20
192.9643603406
 30
0.0
 10
298.8680457128
 20
192.9643603406
 30
0.0
  0
SPLINE
  5
34D
100
AcDbEntity
  8
0
100
AcDbSpline
 62
7
  6
CONTINUOUS
 70
0
 71
3
 72
11
 73
7
 74
0
 42
0.0000001
 43
0.0000001
 44
0.0000000001
 40
0.0
 40
0.0
 40
0.0
 40
0.0
 40
0.2880052506
 40
0.5553344723
 40
0.7905070702
 40
1.0
 40
1.0
 40
1.0
 40
1.0
 10
301.66111998
 20
198.8143603406
 30
0.0
 10
301.66111998
 20
198.6404375174
 30
0.0
 10
301.7065511913
 20
198.3029466996
 30
0.0
 10
301.9064525102
 20
197.8611521288
 30
0.0
 10
302.2174725854
 20
197.5464914728
 30
0.0
 10
302.4892039348
 20
197.4643603406
 30
0.0
 10
302.6157141346
 20
197.4643603406
 30
0.0
  0
SPLINE
  5
34E
100
AcDbEntity
  8
0
100
AcDbSpline
 62
7
  6
CONTINUOUS
 70
0
 71
3
 72
11
 73
7
 74
0
 42
0.0000001
 43
0.0000001
 44
0.0000000001
 40
0.0
 40
0.0
 40
0.0
 40
0.0
 40
0.2094929298
 40
0.4446655277
 40
0.7119947494
 40
1.0
 40
1.0
 40
1.0
 40
1.0
 10
302.6157141346
 20
200.1643603406
 30
0.0
 10
302.4892039348
 20
200.1643603406
 30
0.0
 10
302.2174725854
 20
200.0822292084
 30
0.0
 10
301.9064525102
 20
199.7675685523
 30
0.0
 10
301.7065511913
 20
199.3257739816
 30
0.0
 10
301.66111998
 20
198.9882831638
 30
0.0
 10
301.66111998
 20
198.8143603406
 30
0.0
  0
SPLINE
  5
34F
100
AcDbEntity
  8
0
100
AcDbSpline
 62
7
  6
CONTINUOUS
 70
0
 71
3
 72
14
 73
10
 74
0
 42
0.0000001
 43
0.0000001
 44
0.0000000001
 40
0.0
 40
0.0
 40
0.0
 40
0.0
 40
0.2422055452
 40
0.3815579389
 40
0.5236845826
 40
0.6606976804
 40
0.786247755
 40
0.898028871
 40
1.0
 40
1.0
 40
1.0
 40
1.0
 10
291.885107944
 20
195.535622602
 30
0.0
 10
291.6707966413
 20
195.3927847894
 30
0.0
 10
291.4349174769
 20
195.0183924941
 30
0.0
 10
291.3266246074
 20
194.4719893919
 30
0.0
 10
291.3417656633
 20
194.0221372479
 30
0.0
 10
291.4595533016
 20
193.6037435516
 30
0.0
 10
291.6688335183
 20
193.258152191
 30
0.0
 10
291.9537167763
 20
193.0228640758
 30
0.0
 10
292.1835213613
 20
192.9643603406
 30
0.0
 10
292.2919526478
 20
192.9643603406
 30
0.0
  0
SPLINE
  5
350
100
AcDbEntity
  8
0
100
AcDbSpline
 62
7
  6
CONTINUOUS
 70
0
 71
3
 72
9
 73
5
 74
0
 42
0.0000001
 43
0.0000001
 44
0.0000000001
 40
0.0
 40
0.0
 40
0.0
 40
0.0
 40
0.2352801781
 40
1.0
 40
1.0
 40
1.0
 40
1.0
 10
300.2618848839
 20
193.7968294463
 30
0.0
 10
300.2429166611
 20
193.7968294463
 30
0.0
 10
300.1622997387
 20
193.7992518787
 30
0.0
 10
300.0820793582
 20
193.8104767987
 30
0.0
 10
300.0216315308
 20
193.8225998205
 30
0.0
  0
SPLINE
  5
351
100
AcDbEntity
  8
0
100
AcDbSpline
 62
7
  6
CONTINUOUS
 70
0
 71
3
 72
9
 73
5
 74
0
 42
0.0000001
 43
0.0000001
 44
0.0000000001
 40
0.0
 40
0.0
 40
0.0
 40
0.0
 40
0.2332948422
 40
1.0
 40
1.0
 40
1.0
 40
1.0
 10
300.0216315308
 20
193.8225998205
 30
0.0
 10
299.9782602389
 20
193.8312980838
 30
0.0
 10
299.7939902595
 20
193.876669647
 30
0.0
 10
299.6173458167
 20
193.9503130251
 30
0.0
 10
299.4881998922
 20
194.017059614
 30
0.0
  0
SPLINE
  5
352
100
AcDbEntity
  8
0
100
AcDbSpline
 62
7
  6
CONTINUOUS
 70
0
 71
3
 72
13
 73
9
 74
0
 42
0.0000001
 43
0.0000001
 44
0.0000000001
 40
0.0
 40
0.0
 40
0.0
 40
0.0
 40
0.3110581469
 40
0.6007663407
 40
0.7250690786
 40
0.8316151654
 40
0.9212762688
 40
1.0
 40
1.0
 40
1.0
 40
1.0
 10
299.4881998922
 20
194.017059614
 30
0.0
 10
299.3077565056
 20
194.1103183103
 30
0.0
 10
298.9795753467
 20
194.3311672342
 30
0.0
 10
298.6481043036
 20
194.6772389765
 30
0.0
 10
298.4748417651
 20
194.971557765
 30
0.0
 10
298.4060345403
 20
195.1712047806
 30
0.0
 10
298.3964168399
 20
195.3537692838
 30
0.0
 10
298.436223818
 20
195.460901251
 30
0.0
 10
298.4653651657
 20
195.5032491878
 30
0.0
  0
SPLINE
  5
353
100
AcDbEntity
  8
0
100
AcDbSpline
 62
7
  6
CONTINUOUS
 70
0
 71
3
 72
11
 73
7
 74
0
 42
0.0000001
 43
0.0000001
 44
0.0000000001
 40
0.0
 40
0.0
 40
0.0
 40
0.0
 40
0.1801947915
 40
0.3457588478
 40
0.5425843904
 40
1.0
 40
1.0
 40
1.0
 40
1.0
 10
71.7648461464
 20
261.0143031404
 30
0.0
 10
71.9201570023
 20
261.0142906586
 30
0.0
 10
72.2183098298
 20
260.8884603221
 30
0.0
 10
72.521991468
 20
260.5253887005
 30
0.0
 10
72.8276272804
 20
259.8823641523
 30
0.0
 10
72.90858813
 20
259.3086093057
 30
0.0
 10
72.90858813
 20
258.9143603406
 30
0.0
  0
SPLINE
  5
354
100
AcDbEntity
  8
0
100
AcDbSpline
 62
7
  6
CONTINUOUS
 70
0
 71
3
 72
11
 73
7
 74
0
 42
0.0000001
 43
0.0000001
 44
0.0000000001
 40
0.0
 40
0.0
 40
0.0
 40
0.0
 40
0.1801363399
 40
0.4071769511
 40
0.6874275874
 40
1.0
 40
1.0
 40
1.0
 40
1.0
 10
71.7648460486
 20
261.9141835341
 30
0.0
 10
71.54297883
 20
261.9141912204
 30
0.0
 10
71.0427796951
 20
261.701549537
 30
0.0
 10
70.5366266499
 20
260.9961585032
 30
0.0
 10
70.2053923094
 20
260.0328939992
 30
0.0
 10
70.1309290514
 20
259.2993441361
 30
0.0
 10
70.1309290514
 20
258.9143603406
 30
0.0
  0
SPLINE
  5
355
100
AcDbEntity
  8
0
100
AcDbSpline
 62
7
  6
CONTINUOUS
 70
0
 71
3
 72
11
 73
7
 74
0
 42
0.0000001
 43
0.0000001
 44
0.0000000001
 40
0.0
 40
0.0
 40
0.0
 40
0.0
 40
0.1801947915
 40
0.3457588478
 40
0.5425843904
 40
1.0
 40
1.0
 40
1.0
 40
1.0
 10
66.3184557962
 20
261.0143031404
 30
0.0
 10
66.4737666522
 20
261.0142906586
 30
0.0
 10
66.7719194797
 20
260.8884603221
 30
0.0
 10
67.0756011178
 20
260.5253887005
 30
0.0
 10
67.3812369303
 20
259.8823641523
 30
0.0
 10
67.4621977798
 20
259.3086093057
 30
0.0
 10
67.4621977798
 20
258.9143603406
 30
0.0
  0
SPLINE
  5
356
100
AcDbEntity
  8
0
100
AcDbSpline
 62
7
  6
CONTINUOUS
 70
0
 71
3
 72
11
 73
7
 74
0
 42
0.0000001
 43
0.0000001
 44
0.0000000001
 40
0.0
 40
0.0
 40
0.0
 40
0.0
 40
0.1801363399
 40
0.4071769511
 40
0.6874275874
 40
1.0
 40
1.0
 40
1.0
 40
1.0
 10
66.3184556984
 20
261.9141835341
 30
0.0
 10
66.0965884798
 20
261.9141912204
 30
0.0
 10
65.5963893449
 20
261.701549537
 30
0.0
 10
65.0902362997
 20
260.9961585032
 30
0.0
 10
64.7590019593
 20
260.0328939992
 30
0.0
 10
64.6845387012
 20
259.2993441361
 30
0.0
 10
64.6845387012
 20
258.9143603406
 30
0.0
  0
SPLINE
  5
357
100
AcDbEntity
  8
0
100
AcDbSpline
 62
7
  6
CONTINUOUS
 70
0
 71
3
 72
11
 73
7
 74
0
 42
0.0000001
 43
0.0000001
 44
0.0000000001
 40
0.0
 40
0.0
 40
0.0
 40
0.0
 40
0.1801947915
 40
0.3457588478
 40
0.5425843904
 40
1.0
 40
1.0
 40
1.0
 40
1.0
 10
66.3184557962
 20
251.0143031404
 30
0.0
 10
66.4737666522
 20
251.0142906586
 30
0.0
 10
66.7719194797
 20
250.8884603221
 30
0.0
 10
67.0756011178
 20
250.5253887005
 30
0.0
 10
67.3812369303
 20
249.8823641523
 30
0.0
 10
67.4621977798
 20
249.3086093057
 30
0.0
 10
67.4621977798
 20
248.9143603406
 30
0.0
  0
SPLINE
  5
358
100
AcDbEntity
  8
0
100
AcDbSpline
 62
7
  6
CONTINUOUS
 70
0
 71
3
 72
11
 73
7
 74
0
 42
0.0000001
 43
0.0000001
 44
0.0000000001
 40
0.0
 40
0.0
 40
0.0
 40
0.0
 40
0.1801363399
 40
0.4071769511
 40
0.6874275874
 40
1.0
 40
1.0
 40
1.0
 40
1.0
 10
66.3184556984
 20
251.9141835341
 30
0.0
 10
66.0965884798
 20
251.9141912204
 30
0.0
 10
65.5963893449
 20
251.701549537
 30
0.0
 10
65.0902362997
 20
250.9961585032
 30
0.0
 10
64.7590019593
 20
250.0328939992
 30
0.0
 10
64.6845387012
 20
249.2993441361
 30
0.0
 10
64.6845387012
 20
248.9143603406
 30
0.0
  0
SPLINE
  5
359
100
AcDbEntity
  8
0
100
AcDbSpline
 62
7
  6
CONTINUOUS
 70
0
 71
3
 72
11
 73
7
 74
0
 42
0.0000001
 43
0.0000001
 44
0.0000000001
 40
0.0
 40
0.0
 40
0.0
 40
0.0
 40
0.1801947915
 40
0.3457588478
 40
0.5425843904
 40
1.0
 40
1.0
 40
1.0
 40
1.0
 10
71.7648461464
 20
251.0143031404
 30
0.0
 10
71.9201570023
 20
251.0142906586
 30
0.0
 10
72.2183098298
 20
250.8884603221
 30
0.0
 10
72.521991468
 20
250.5253887005
 30
0.0
 10
72.8276272804
 20
249.8823641523
 30
0.0
 10
72.90858813
 20
249.3086093057
 30
0.0
 10
72.90858813
 20
248.9143603406
 30
0.0
  0
SPLINE
  5
35A
100
AcDbEntity
  8
0
100
AcDbSpline
 62
7
  6
CONTINUOUS
 70
0
 71
3
 72
11
 73
7
 74
0
 42
0.0000001
 43
0.0000001
 44
0.0000000001
 40
0.0
 40
0.0
 40
0.0
 40
0.0
 40
0.1801363399
 40
0.4071769511
 40
0.6874275874
 40
1.0
 40
1.0
 40
1.0
 40
1.0
 10
71.7648460486
 20
251.9141835341
 30
0.0
 10
71.54297883
 20
251.9141912204
 30
0.0
 10
71.0427796951
 20
251.701549537
 30
0.0
 10
70.5366266499
 20
250.9961585032
 30
0.0
 10
70.2053923094
 20
250.0328939992
 30
0.0
 10
70.1309290514
 20
249.2993441361
 30
0.0
 10
70.1309290514
 20
248.9143603406
 30
0.0
  0
SPLINE
  5
35B
100
AcDbEntity
  8
0
100
AcDbSpline
 62
7
  6
CONTINUOUS
 70
0
 71
3
 72
11
 73
7
 74
0
 42
0.0000001
 43
0.0000001
 44
0.0000000001
 40
0.0
 40
0.0
 40
0.0
 40
0.0
 40
0.1801947915
 40
0.3457588478
 40
0.5425843904
 40
1.0
 40
1.0
 40
1.0
 40
1.0
 10
71.7648461464
 20
241.0143031404
 30
0.0
 10
71.9201570023
 20
241.0142906586
 30
0.0
 10
72.2183098298
 20
240.8884603221
 30
0.0
 10
72.521991468
 20
240.5253887005
 30
0.0
 10
72.8276272804
 20
239.8823641523
 30
0.0
 10
72.90858813
 20
239.3086093057
 30
0.0
 10
72.90858813
 20
238.9143603406
 30
0.0
  0
SPLINE
  5
35C
100
AcDbEntity
  8
0
100
AcDbSpline
 62
7
  6
CONTINUOUS
 70
0
 71
3
 72
11
 73
7
 74
0
 42
0.0000001
 43
0.0000001
 44
0.0000000001
 40
0.0
 40
0.0
 40
0.0
 40
0.0
 40
0.1801363399
 40
0.4071769511
 40
0.6874275874
 40
1.0
 40
1.0
 40
1.0
 40
1.0
 10
71.7648460486
 20
241.9141835341
 30
0.0
 10
71.54297883
 20
241.9141912204
 30
0.0
 10
71.0427796951
 20
241.701549537
 30
0.0
 10
70.5366266499
 20
240.9961585032
 30
0.0
 10
70.2053923094
 20
240.0328939992
 30
0.0
 10
70.1309290514
 20
239.2993441361
 30
0.0
 10
70.1309290514
 20
238.9143603406
 30
0.0
  0
SPLINE
  5
35D
100
AcDbEntity
  8
0
100
AcDbSpline
 62
7
  6
CONTINUOUS
 70
0
 71
3
 72
11
 73
7
 74
0
 42
0.0000001
 43
0.0000001
 44
0.0000000001
 40
0.0
 40
0.0
 40
0.0
 40
0.0
 40
0.1801947915
 40
0.3457588478
 40
0.5425843904
 40
1.0
 40
1.0
 40
1.0
 40
1.0
 10
66.3184557962
 20
241.0143031404
 30
0.0
 10
66.4737666522
 20
241.0142906586
 30
0.0
 10
66.7719194797
 20
240.8884603221
 30
0.0
 10
67.0756011178
 20
240.5253887005
 30
0.0
 10
67.3812369303
 20
239.8823641523
 30
0.0
 10
67.4621977798
 20
239.3086093057
 30
0.0
 10
67.4621977798
 20
238.9143603406
 30
0.0
  0
SPLINE
  5
35E
100
AcDbEntity
  8
0
100
AcDbSpline
 62
7
  6
CONTINUOUS
 70
0
 71
3
 72
11
 73
7
 74
0
 42
0.0000001
 43
0.0000001
 44
0.0000000001
 40
0.0
 40
0.0
 40
0.0
 40
0.0
 40
0.1801363399
 40
0.4071769511
 40
0.6874275874
 40
1.0
 40
1.0
 40
1.0
 40
1.0
 10
66.3184556984
 20
241.9141835341
 30
0.0
 10
66.0965884798
 20
241.9141912204
 30
0.0
 10
65.5963893449
 20
241.701549537
 30
0.0
 10
65.0902362997
 20
240.9961585032
 30
0.0
 10
64.7590019593
 20
240.0328939992
 30
0.0
 10
64.6845387012
 20
239.2993441361
 30
0.0
 10
64.6845387012
 20
238.9143603406
 30
0.0
  0
SPLINE
  5
35F
100
AcDbEntity
  8
0
100
AcDbSpline
 62
7
  6
CONTINUOUS
 70
0
 71
3
 72
11
 73
7
 74
0
 42
0.0000001
 43
0.0000001
 44
0.0000000001
 40
0.0
 40
0.0
 40
0.0
 40
0.0
 40
0.1801947915
 40
0.3457588478
 40
0.5425843904
 40
1.0
 40
1.0
 40
1.0
 40
1.0
 10
66.3184557962
 20
231.0143031404
 30
0.0
 10
66.4737666522
 20
231.0142906586
 30
0.0
 10
66.7719194797
 20
230.8884603221
 30
0.0
 10
67.0756011178
 20
230.5253887005
 30
0.0
 10
67.3812369303
 20
229.8823641523
 30
0.0
 10
67.4621977798
 20
229.3086093057
 30
0.0
 10
67.4621977798
 20
228.9143603406
 30
0.0
  0
SPLINE
  5
360
100
AcDbEntity
  8
0
100
AcDbSpline
 62
7
  6
CONTINUOUS
 70
0
 71
3
 72
11
 73
7
 74
0
 42
0.0000001
 43
0.0000001
 44
0.0000000001
 40
0.0
 40
0.0
 40
0.0
 40
0.0
 40
0.1801363399
 40
0.4071769511
 40
0.6874275874
 40
1.0
 40
1.0
 40
1.0
 40
1.0
 10
66.3184556984
 20
231.9141835341
 30
0.0
 10
66.0965884798
 20
231.9141912204
 30
0.0
 10
65.5963893449
 20
231.701549537
 30
0.0
 10
65.0902362997
 20
230.9961585032
 30
0.0
 10
64.7590019593
 20
230.0328939992
 30
0.0
 10
64.6845387012
 20
229.2993441361
 30
0.0
 10
64.6845387012
 20
228.9143603406
 30
0.0
  0
SPLINE
  5
361
100
AcDbEntity
  8
0
100
AcDbSpline
 62
7
  6
CONTINUOUS
 70
0
 71
3
 72
11
 73
7
 74
0
 42
0.0000001
 43
0.0000001
 44
0.0000000001
 40
0.0
 40
0.0
 40
0.0
 40
0.0
 40
0.1801947915
 40
0.3457588478
 40
0.5425843904
 40
1.0
 40
1.0
 40
1.0
 40
1.0
 10
71.7648461464
 20
231.0143031404
 30
0.0
 10
71.9201570023
 20
231.0142906586
 30
0.0
 10
72.2183098298
 20
230.8884603221
 30
0.0
 10
72.521991468
 20
230.5253887005
 30
0.0
 10
72.8276272804
 20
229.8823641523
 30
0.0
 10
72.90858813
 20
229.3086093057
 30
0.0
 10
72.90858813
 20
228.9143603406
 30
0.0
  0
SPLINE
  5
362
100
AcDbEntity
  8
0
100
AcDbSpline
 62
7
  6
CONTINUOUS
 70
0
 71
3
 72
11
 73
7
 74
0
 42
0.0000001
 43
0.0000001
 44
0.0000000001
 40
0.0
 40
0.0
 40
0.0
 40
0.0
 40
0.1801363399
 40
0.4071769511
 40
0.6874275874
 40
1.0
 40
1.0
 40
1.0
 40
1.0
 10
71.7648460486
 20
231.9141835341
 30
0.0
 10
71.54297883
 20
231.9141912204
 30
0.0
 10
71.0427796951
 20
231.701549537
 30
0.0
 10
70.5366266499
 20
230.9961585032
 30
0.0
 10
70.2053923094
 20
230.0328939992
 30
0.0
 10
70.1309290514
 20
229.2993441361
 30
0.0
 10
70.1309290514
 20
228.9143603406
 30
0.0
  0
SPLINE
  5
363
100
AcDbEntity
  8
0
100
AcDbSpline
 62
7
  6
CONTINUOUS
 70
0
 71
3
 72
11
 73
7
 74
0
 42
0.0000001
 43
0.0000001
 44
0.0000000001
 40
0.0
 40
0.0
 40
0.0
 40
0.0
 40
0.180189538
 40
0.3456592089
 40
0.5425179414
 40
1.0
 40
1.0
 40
1.0
 40
1.0
 10
74.4930100497
 20
235.5141808084
 30
0.0
 10
74.6113326379
 20
235.5141852013
 30
0.0
 10
74.8383243181
 20
235.4182003218
 30
0.0
 10
75.0700241334
 20
235.1419723118
 30
0.0
 10
75.3026238572
 20
234.6518736039
 30
0.0
 10
75.364432129
 20
234.2147687984
 30
0.0
 10
75.364432129
 20
233.9143603406
 30
0.0
  0
SPLINE
  5
364
100
AcDbEntity
  8
0
100
AcDbSpline
 62
7
  6
CONTINUOUS
 70
0
 71
3
 72
11
 73
7
 74
0
 42
0.0000001
 43
0.0000001
 44
0.0000000001
 40
0.0
 40
0.0
 40
0.0
 40
0.0
 40
0.180189538
 40
0.3456592089
 40
0.5425179414
 40
1.0
 40
1.0
 40
1.0
 40
1.0
 10
74.4930100497
 20
245.5141808084
 30
0.0
 10
74.6113326379
 20
245.5141852013
 30
0.0
 10
74.8383243181
 20
245.4182003218
 30
0.0
 10
75.0700241334
 20
245.1419723118
 30
0.0
 10
75.3026238572
 20
244.6518736039
 30
0.0
 10
75.364432129
 20
244.2147687984
 30
0.0
 10
75.364432129
 20
243.9143603406
 30
0.0
  0
SPLINE
  5
365
100
AcDbEntity
  8
0
100
AcDbSpline
 62
7
  6
CONTINUOUS
 70
0
 71
3
 72
11
 73
7
 74
0
 42
0.0000001
 43
0.0000001
 44
0.0000000001
 40
0.0
 40
0.0
 40
0.0
 40
0.0
 40
0.180189538
 40
0.3456592089
 40
0.5425179414
 40
1.0
 40
1.0
 40
1.0
 40
1.0
 10
74.4930100497
 20
255.5141808084
 30
0.0
 10
74.6113326379
 20
255.5141852013
 30
0.0
 10
74.8383243181
 20
255.4182003218
 30
0.0
 10
75.0700241334
 20
255.1419723118
 30
0.0
 10
75.3026238572
 20
254.6518736039
 30
0.0
 10
75.364432129
 20
254.2147687984
 30
0.0
 10
75.364432129
 20
253.9143603406
 30
0.0
  0
SPLINE
  5
366
100
AcDbEntity
  8
0
100
AcDbSpline
 62
7
  6
CONTINUOUS
 70
0
 71
3
 72
11
 73
7
 74
0
 42
0.0000001
 43
0.0000001
 44
0.0000000001
 40
0.0
 40
0.0
 40
0.0
 40
0.0
 40
0.213906245
 40
0.4504980943
 40
0.7159360926
 40
1.0
 40
1.0
 40
1.0
 40
1.0
 10
193.7280878052
 20
257.1643058642
 30
0.0
 10
193.9222545754
 20
257.1642942962
 30
0.0
 10
194.3362832776
 20
257.0450923262
 30
0.0
 10
194.8174269446
 20
256.5806838835
 30
0.0
 10
195.1269258958
 20
255.9243328207
 30
0.0
 10
195.1974434741
 20
255.4222105569
 30
0.0
 10
195.1974434741
 20
255.1643603406
 30
0.0
  0
SPLINE
  5
367
100
AcDbEntity
  8
0
100
AcDbSpline
 62
7
  6
CONTINUOUS
 70
0
 71
3
 72
11
 73
7
 74
0
 42
0.0000001
 43
0.0000001
 44
0.0000000001
 40
0.0
 40
0.0
 40
0.0
 40
0.0
 40
0.213906245
 40
0.4504980943
 40
0.7159360926
 40
1.0
 40
1.0
 40
1.0
 40
1.0
 10
193.7280878052
 20
227.1643058642
 30
0.0
 10
193.9222545754
 20
227.1642942962
 30
0.0
 10
194.3362832776
 20
227.0450923262
 30
0.0
 10
194.8174269446
 20
226.5806838835
 30
0.0
 10
195.1269258958
 20
225.9243328207
 30
0.0
 10
195.1974434741
 20
225.4222105569
 30
0.0
 10
195.1974434741
 20
225.1643603406
 30
0.0
  0
SPLINE
  5
368
100
AcDbEntity
  8
0
100
AcDbSpline
 62
7
  6
CONTINUOUS
 70
0
 71
3
 72
11
 73
7
 74
0
 42
0.0000001
 43
0.0000001
 44
0.0000000001
 40
0.0
 40
0.0
 40
0.0
 40
0.0
 40
0.1801947915
 40
0.3457588478
 40
0.5425843904
 40
1.0
 40
1.0
 40
1.0
 40
1.0
 10
79.9443683563
 20
270.4143126738
 30
0.0
 10
80.0737940695
 20
270.4143022723
 30
0.0
 10
80.3222547591
 20
270.3094436585
 30
0.0
 10
80.5753227909
 20
270.0068839739
 30
0.0
 10
80.8300193013
 20
269.4710301837
 30
0.0
 10
80.897486676
 20
268.9929011448
 30
0.0
 10
80.897486676
 20
268.6643603406
 30
0.0
  0
SPLINE
  5
369
100
AcDbEntity
  8
0
100
AcDbSpline
 62
7
  6
CONTINUOUS
 70
0
 71
3
 72
13
 73
9
 74
0
 42
0.0000001
 43
0.0000001
 44
0.0000000001
 40
0.0
 40
0.0
 40
0.0
 40
0.0
 40
0.087331936
 40
0.1819342167
 40
0.2886386236
 40
0.4093703285
 40
0.6885840695
 40
1.0
 40
1.0
 40
1.0
 40
1.0
 10
79.9443682118
 20
272.9141098647
 30
0.0
 10
79.79142071
 20
272.9141151633
 30
0.0
 10
79.4704328008
 20
272.8537174046
 30
0.0
 10
79.0270046153
 20
272.5960405929
 30
0.0
 10
78.6266928955
 20
272.191531224
 30
0.0
 10
78.1420980283
 20
271.442662676
 30
0.0
 10
77.7358626174
 20
270.2467128551
 30
0.0
 10
77.6296524659
 20
269.2097540509
 30
0.0
 10
77.6296524659
 20
268.6643603406
 30
0.0
  0
SPLINE
  5
36A
100
AcDbEntity
  8
0
100
AcDbSpline
 62
7
  6
CONTINUOUS
 70
0
 71
3
 72
12
 73
8
 74
0
 42
0.0000001
 43
0.0000001
 44
0.0000000001
 40
0.0
 40
0.0
 40
0.0
 40
0.0
 40
0.3117550706
 40
0.5262159067
 40
0.7123151094
 40
0.8672905275
 40
1.0
 40
1.0
 40
1.0
 40
1.0
 10
72.90858813
 20
258.9143603406
 30
0.0
 10
72.90858813
 20
258.6448944146
 30
0.0
 10
72.861879781
 20
258.1879151766
 30
0.0
 10
72.6762422326
 20
257.5972619115
 30
0.0
 10
72.4349416215
 20
257.1766607053
 30
0.0
 10
72.1302290864
 20
256.8896708314
 30
0.0
 10
71.879553782
 20
256.8144083221
 30
0.0
 10
71.7648461665
 20
256.8144175408
 30
0.0
  0
SPLINE
  5
36B
100
AcDbEntity
  8
0
100
AcDbSpline
 62
7
  6
CONTINUOUS
 70
0
 71
3
 72
11
 73
7
 74
0
 42
0.0000001
 43
0.0000001
 44
0.0000000001
 40
0.0
 40
0.0
 40
0.0
 40
0.0
 40
0.3125730914
 40
0.5928085646
 40
0.8198521287
 40
1.0
 40
1.0
 40
1.0
 40
1.0
 10
70.1309290514
 20
258.9143603406
 30
0.0
 10
70.1309290514
 20
258.5293758815
 30
0.0
 10
70.2053880914
 20
257.7958429087
 30
0.0
 10
70.5366138502
 20
256.8325955377
 30
0.0
 10
71.042752056
 20
256.127188557
 30
0.0
 10
71.5429649423
 20
255.914544834
 30
0.0
 10
71.7648462643
 20
255.9145371471
 30
0.0
  0
SPLINE
  5
36C
100
AcDbEntity
  8
0
100
AcDbSpline
 62
7
  6
CONTINUOUS
 70
0
 71
3
 72
12
 73
8
 74
0
 42
0.0000001
 43
0.0000001
 44
0.0000000001
 40
0.0
 40
0.0
 40
0.0
 40
0.0
 40
0.3117550706
 40
0.5262159067
 40
0.7123151094
 40
0.8672905275
 40
1.0
 40
1.0
 40
1.0
 40
1.0
 10
67.4621977798
 20
258.9143603406
 30
0.0
 10
67.4621977798
 20
258.6448944146
 30
0.0
 10
67.4154894308
 20
258.1879151767
 30
0.0
 10
67.2298518824
 20
257.5972619115
 30
0.0
 10
66.9885512714
 20
257.1766607053
 30
0.0
 10
66.6838387363
 20
256.8896708314
 30
0.0
 10
66.4331634319
 20
256.8144083221
 30
0.0
 10
66.3184558164
 20
256.8144175408
 30
0.0
  0
SPLINE
  5
36D
100
AcDbEntity
  8
0
100
AcDbSpline
 62
7
  6
CONTINUOUS
 70
0
 71
3
 72
11
 73
7
 74
0
 42
0.0000001
 43
0.0000001
 44
0.0000000001
 40
0.0
 40
0.0
 40
0.0
 40
0.0
 40
0.3125730914
 40
0.5928085646
 40
0.8198521287
 40
1.0
 40
1.0
 40
1.0
 40
1.0
 10
64.6845387012
 20
258.9143603406
 30
0.0
 10
64.6845387012
 20
258.5293758815
 30
0.0
 10
64.7589977412
 20
257.7958429087
 30
0.0
 10
65.0902235001
 20
256.8325955377
 30
0.0
 10
65.5963617058
 20
256.127188557
 30
0.0
 10
66.0965745922
 20
255.9145448339
 30
0.0
 10
66.3184559142
 20
255.9145371471
 30
0.0
  0
SPLINE
  5
36E
100
AcDbEntity
  8
0
100
AcDbSpline
 62
7
  6
CONTINUOUS
 70
0
 71
3
 72
12
 73
8
 74
0
 42
0.0000001
 43
0.0000001
 44
0.0000000001
 40
0.0
 40
0.0
 40
0.0
 40
0.0
 40
0.3117550706
 40
0.5262159067
 40
0.7123151094
 40
0.8672905275
 40
1.0
 40
1.0
 40
1.0
 40
1.0
 10
67.4621977798
 20
248.9143603406
 30
0.0
 10
67.4621977798
 20
248.6448944146
 30
0.0
 10
67.4154894308
 20
248.1879151767
 30
0.0
 10
67.2298518824
 20
247.5972619115
 30
0.0
 10
66.9885512714
 20
247.1766607053
 30
0.0
 10
66.6838387363
 20
246.8896708314
 30
0.0
 10
66.4331634319
 20
246.8144083221
 30
0.0
 10
66.3184558164
 20
246.8144175408
 30
0.0
  0
SPLINE
  5
36F
100
AcDbEntity
  8
0
100
AcDbSpline
 62
7
  6
CONTINUOUS
 70
0
 71
3
 72
11
 73
7
 74
0
 42
0.0000001
 43
0.0000001
 44
0.0000000001
 40
0.0
 40
0.0
 40
0.0
 40
0.0
 40
0.3125730914
 40
0.5928085646
 40
0.8198521287
 40
1.0
 40
1.0
 40
1.0
 40
1.0
 10
64.6845387012
 20
248.9143603406
 30
0.0
 10
64.6845387012
 20
248.5293758815
 30
0.0
 10
64.7589977412
 20
247.7958429087
 30
0.0
 10
65.0902235001
 20
246.8325955377
 30
0.0
 10
65.5963617058
 20
246.127188557
 30
0.0
 10
66.0965745922
 20
245.9145448339
 30
0.0
 10
66.3184559142
 20
245.9145371471
 30
0.0
  0
SPLINE
  5
370
100
AcDbEntity
  8
0
100
AcDbSpline
 62
7
  6
CONTINUOUS
 70
0
 71
3
 72
12
 73
8
 74
0
 42
0.0000001
 43
0.0000001
 44
0.0000000001
 40
0.0
 40
0.0
 40
0.0
 40
0.0
 40
0.3117550706
 40
0.5262159067
 40
0.7123151094
 40
0.8672905275
 40
1.0
 40
1.0
 40
1.0
 40
1.0
 10
72.90858813
 20
248.9143603406
 30
0.0
 10
72.90858813
 20
248.6448944146
 30
0.0
 10
72.861879781
 20
248.1879151766
 30
0.0
 10
72.6762422326
 20
247.5972619115
 30
0.0
 10
72.4349416215
 20
247.1766607053
 30
0.0
 10
72.1302290864
 20
246.8896708314
 30
0.0
 10
71.879553782
 20
246.8144083221
 30
0.0
 10
71.7648461665
 20
246.8144175408
 30
0.0
  0
SPLINE
  5
371
100
AcDbEntity
  8
0
100
AcDbSpline
 62
7
  6
CONTINUOUS
 70
0
 71
3
 72
11
 73
7
 74
0
 42
0.0000001
 43
0.0000001
 44
0.0000000001
 40
0.0
 40
0.0
 40
0.0
 40
0.0
 40
0.3125730914
 40
0.5928085646
 40
0.8198521287
 40
1.0
 40
1.0
 40
1.0
 40
1.0
 10
70.1309290514
 20
248.9143603406
 30
0.0
 10
70.1309290514
 20
248.5293758815
 30
0.0
 10
70.2053880914
 20
247.7958429087
 30
0.0
 10
70.5366138502
 20
246.8325955377
 30
0.0
 10
71.042752056
 20
246.127188557
 30
0.0
 10
71.5429649423
 20
245.914544834
 30
0.0
 10
71.7648462643
 20
245.9145371471
 30
0.0
  0
SPLINE
  5
372
100
AcDbEntity
  8
0
100
AcDbSpline
 62
7
  6
CONTINUOUS
 70
0
 71
3
 72
12
 73
8
 74
0
 42
0.0000001
 43
0.0000001
 44
0.0000000001
 40
0.0
 40
0.0
 40
0.0
 40
0.0
 40
0.3117550706
 40
0.5262159067
 40
0.7123151094
 40
0.8672905275
 40
1.0
 40
1.0
 40
1.0
 40
1.0
 10
72.90858813
 20
238.9143603406
 30
0.0
 10
72.90858813
 20
238.6448944146
 30
0.0
 10
72.861879781
 20
238.1879151766
 30
0.0
 10
72.6762422326
 20
237.5972619115
 30
0.0
 10
72.4349416215
 20
237.1766607053
 30
0.0
 10
72.1302290864
 20
236.8896708314
 30
0.0
 10
71.879553782
 20
236.8144083221
 30
0.0
 10
71.7648461665
 20
236.8144175408
 30
0.0
  0
SPLINE
  5
373
100
AcDbEntity
  8
0
100
AcDbSpline
 62
7
  6
CONTINUOUS
 70
0
 71
3
 72
11
 73
7
 74
0
 42
0.0000001
 43
0.0000001
 44
0.0000000001
 40
0.0
 40
0.0
 40
0.0
 40
0.0
 40
0.3125730914
 40
0.5928085646
 40
0.8198521287
 40
1.0
 40
1.0
 40
1.0
 40
1.0
 10
70.1309290514
 20
238.9143603406
 30
0.0
 10
70.1309290514
 20
238.5293758815
 30
0.0
 10
70.2053880914
 20
237.7958429087
 30
0.0
 10
70.5366138502
 20
236.8325955377
 30
0.0
 10
71.042752056
 20
236.127188557
 30
0.0
 10
71.5429649423
 20
235.914544834
 30
0.0
 10
71.7648462643
 20
235.9145371471
 30
0.0
  0
SPLINE
  5
374
100
AcDbEntity
  8
0
100
AcDbSpline
 62
7
  6
CONTINUOUS
 70
0
 71
3
 72
12
 73
8
 74
0
 42
0.0000001
 43
0.0000001
 44
0.0000000001
 40
0.0
 40
0.0
 40
0.0
 40
0.0
 40
0.3117550706
 40
0.5262159067
 40
0.7123151094
 40
0.8672905275
 40
1.0
 40
1.0
 40
1.0
 40
1.0
 10
67.4621977798
 20
238.9143603406
 30
0.0
 10
67.4621977798
 20
238.6448944146
 30
0.0
 10
67.4154894308
 20
238.1879151767
 30
0.0
 10
67.2298518824
 20
237.5972619115
 30
0.0
 10
66.9885512714
 20
237.1766607053
 30
0.0
 10
66.6838387363
 20
236.8896708314
 30
0.0
 10
66.4331634319
 20
236.8144083221
 30
0.0
 10
66.3184558164
 20
236.8144175408
 30
0.0
  0
SPLINE
  5
375
100
AcDbEntity
  8
0
100
AcDbSpline
 62
7
  6
CONTINUOUS
 70
0
 71
3
 72
11
 73
7
 74
0
 42
0.0000001
 43
0.0000001
 44
0.0000000001
 40
0.0
 40
0.0
 40
0.0
 40
0.0
 40
0.3125730914
 40
0.5928085646
 40
0.8198521287
 40
1.0
 40
1.0
 40
1.0
 40
1.0
 10
64.6845387012
 20
238.9143603406
 30
0.0
 10
64.6845387012
 20
238.5293758815
 30
0.0
 10
64.7589977412
 20
237.7958429087
 30
0.0
 10
65.0902235001
 20
236.8325955377
 30
0.0
 10
65.5963617058
 20
236.127188557
 30
0.0
 10
66.0965745922
 20
235.9145448339
 30
0.0
 10
66.3184559142
 20
235.9145371471
 30
0.0
  0
SPLINE
  5
376
100
AcDbEntity
  8
0
100
AcDbSpline
 62
7
  6
CONTINUOUS
 70
0
 71
3
 72
12
 73
8
 74
0
 42
0.0000001
 43
0.0000001
 44
0.0000000001
 40
0.0
 40
0.0
 40
0.0
 40
0.0
 40
0.3117550706
 40
0.5262159067
 40
0.7123151094
 40
0.8672905275
 40
1.0
 40
1.0
 40
1.0
 40
1.0
 10
67.4621977798
 20
228.9143603406
 30
0.0
 10
67.4621977798
 20
228.6448944146
 30
0.0
 10
67.4154894308
 20
228.1879151767
 30
0.0
 10
67.2298518824
 20
227.5972619115
 30
0.0
 10
66.9885512714
 20
227.1766607053
 30
0.0
 10
66.6838387363
 20
226.8896708314
 30
0.0
 10
66.4331634319
 20
226.8144083221
 30
0.0
 10
66.3184558164
 20
226.8144175408
 30
0.0
  0
SPLINE
  5
377
100
AcDbEntity
  8
0
100
AcDbSpline
 62
7
  6
CONTINUOUS
 70
0
 71
3
 72
11
 73
7
 74
0
 42
0.0000001
 43
0.0000001
 44
0.0000000001
 40
0.0
 40
0.0
 40
0.0
 40
0.0
 40
0.3125730914
 40
0.5928085646
 40
0.8198521287
 40
1.0
 40
1.0
 40
1.0
 40
1.0
 10
64.6845387012
 20
228.9143603406
 30
0.0
 10
64.6845387012
 20
228.5293758815
 30
0.0
 10
64.7589977412
 20
227.7958429087
 30
0.0
 10
65.0902235001
 20
226.8325955377
 30
0.0
 10
65.5963617058
 20
226.127188557
 30
0.0
 10
66.0965745922
 20
225.9145448339
 30
0.0
 10
66.3184559142
 20
225.9145371471
 30
0.0
  0
SPLINE
  5
378
100
AcDbEntity
  8
0
100
AcDbSpline
 62
7
  6
CONTINUOUS
 70
0
 71
3
 72
12
 73
8
 74
0
 42
0.0000001
 43
0.0000001
 44
0.0000000001
 40
0.0
 40
0.0
 40
0.0
 40
0.0
 40
0.3117550706
 40
0.5262159067
 40
0.7123151094
 40
0.8672905275
 40
1.0
 40
1.0
 40
1.0
 40
1.0
 10
72.90858813
 20
228.9143603406
 30
0.0
 10
72.90858813
 20
228.6448944146
 30
0.0
 10
72.861879781
 20
228.1879151766
 30
0.0
 10
72.6762422326
 20
227.5972619115
 30
0.0
 10
72.4349416215
 20
227.1766607053
 30
0.0
 10
72.1302290864
 20
226.8896708314
 30
0.0
 10
71.879553782
 20
226.8144083221
 30
0.0
 10
71.7648461665
 20
226.8144175408
 30
0.0
  0
SPLINE
  5
379
100
AcDbEntity
  8
0
100
AcDbSpline
 62
7
  6
CONTINUOUS
 70
0
 71
3
 72
11
 73
7
 74
0
 42
0.0000001
 43
0.0000001
 44
0.0000000001
 40
0.0
 40
0.0
 40
0.0
 40
0.0
 40
0.3125730914
 40
0.5928085646
 40
0.8198521287
 40
1.0
 40
1.0
 40
1.0
 40
1.0
 10
70.1309290514
 20
228.9143603406
 30
0.0
 10
70.1309290514
 20
228.5293758815
 30
0.0
 10
70.2053880914
 20
227.7958429087
 30
0.0
 10
70.5366138502
 20
226.8325955377
 30
0.0
 10
71.042752056
 20
226.127188557
 30
0.0
 10
71.5429649423
 20
225.914544834
 30
0.0
 10
71.7648462643
 20
225.9145371471
 30
0.0
  0
SPLINE
  5
37A
100
AcDbEntity
  8
0
100
AcDbSpline
 62
7
  6
CONTINUOUS
 70
0
 71
3
 72
12
 73
8
 74
0
 42
0.0000001
 43
0.0000001
 44
0.0000000001
 40
0.0
 40
0.0
 40
0.0
 40
0.0
 40
0.3116523874
 40
0.5262710316
 40
0.7123247504
 40
0.8673150286
 40
1.0
 40
1.0
 40
1.0
 40
1.0
 10
75.364432129
 20
233.9143603406
 30
0.0
 10
75.364432129
 20
233.7091253459
 30
0.0
 10
75.3286963799
 20
233.360951465
 30
0.0
 10
75.1874280084
 20
232.9108777269
 30
0.0
 10
75.0035555583
 20
232.5903623824
 30
0.0
 10
74.7714147276
 20
232.3716699767
 30
0.0
 10
74.5803874153
 20
232.3145431169
 30
0.0
 10
74.4930092963
 20
232.3145398728
 30
0.0
  0
SPLINE
  5
37B
100
AcDbEntity
  8
0
100
AcDbSpline
 62
7
  6
CONTINUOUS
 70
0
 71
3
 72
12
 73
8
 74
0
 42
0.0000001
 43
0.0000001
 44
0.0000000001
 40
0.0
 40
0.0
 40
0.0
 40
0.0
 40
0.3116523874
 40
0.5262710316
 40
0.7123247504
 40
0.8673150286
 40
1.0
 40
1.0
 40
1.0
 40
1.0
 10
75.364432129
 20
243.9143603406
 30
0.0
 10
75.364432129
 20
243.7091253459
 30
0.0
 10
75.3286963799
 20
243.360951465
 30
0.0
 10
75.1874280084
 20
242.9108777269
 30
0.0
 10
75.0035555583
 20
242.5903623824
 30
0.0
 10
74.7714147276
 20
242.3716699767
 30
0.0
 10
74.5803874153
 20
242.3145431169
 30
0.0
 10
74.4930092963
 20
242.3145398728
 30
0.0
  0
SPLINE
  5
37C
100
AcDbEntity
  8
0
100
AcDbSpline
 62
7
  6
CONTINUOUS
 70
0
 71
3
 72
12
 73
8
 74
0
 42
0.0000001
 43
0.0000001
 44
0.0000000001
 40
0.0
 40
0.0
 40
0.0
 40
0.0
 40
0.3116523874
 40
0.5262710316
 40
0.7123247504
 40
0.8673150286
 40
1.0
 40
1.0
 40
1.0
 40
1.0
 10
75.364432129
 20
253.9143603406
 30
0.0
 10
75.364432129
 20
253.7091253459
 30
0.0
 10
75.3286963799
 20
253.360951465
 30
0.0
 10
75.1874280084
 20
252.9108777269
 30
0.0
 10
75.0035555583
 20
252.5903623824
 30
0.0
 10
74.7714147276
 20
252.3716699767
 30
0.0
 10
74.5803874153
 20
252.3145431169
 30
0.0
 10
74.4930092963
 20
252.3145398728
 30
0.0
  0
SPLINE
  5
37D
100
AcDbEntity
  8
0
100
AcDbSpline
 62
7
  6
CONTINUOUS
 70
0
 71
3
 72
11
 73
7
 74
0
 42
0.0000001
 43
0.0000001
 44
0.0000000001
 40
0.0
 40
0.0
 40
0.0
 40
0.0
 40
0.2840652502
 40
0.5494820878
 40
0.7860775315
 40
1.0
 40
1.0
 40
1.0
 40
1.0
 10
195.1974434741
 20
255.1643603406
 30
0.0
 10
195.1974434741
 20
254.9065085624
 30
0.0
 10
195.1269340111
 20
254.4044027298
 30
0.0
 10
194.8174411816
 20
253.7480637817
 30
0.0
 10
194.3363204665
 20
253.2836470691
 30
0.0
 10
193.9222695859
 20
253.164403248
 30
0.0
 10
193.728087831
 20
253.164414817
 30
0.0
  0
SPLINE
  5
37E
100
AcDbEntity
  8
0
100
AcDbSpline
 62
7
  6
CONTINUOUS
 70
0
 71
3
 72
11
 73
7
 74
0
 42
0.0000001
 43
0.0000001
 44
0.0000000001
 40
0.0
 40
0.0
 40
0.0
 40
0.0
 40
0.2840652502
 40
0.5494820878
 40
0.7860775315
 40
1.0
 40
1.0
 40
1.0
 40
1.0
 10
195.1974434741
 20
225.1643603406
 30
0.0
 10
195.1974434741
 20
224.9065085624
 30
0.0
 10
195.1269340111
 20
224.4044027298
 30
0.0
 10
194.8174411816
 20
223.7480637817
 30
0.0
 10
194.3363204665
 20
223.2836470691
 30
0.0
 10
193.9222695859
 20
223.164403248
 30
0.0
 10
193.728087831
 20
223.164414817
 30
0.0
  0
SPLINE
  5
37F
100
AcDbEntity
  8
0
100
AcDbSpline
 62
7
  6
CONTINUOUS
 70
0
 71
3
 72
12
 73
8
 74
0
 42
0.0000001
 43
0.0000001
 44
0.0000000001
 40
0.0
 40
0.0
 40
0.0
 40
0.0
 40
0.3117550706
 40
0.5262159067
 40
0.7123151094
 40
0.8672905275
 40
1.0
 40
1.0
 40
1.0
 40
1.0
 10
80.897486676
 20
268.6643603406
 30
0.0
 10
80.897486676
 20
268.4398054023
 30
0.0
 10
80.8585630518
 20
268.0589893706
 30
0.0
 10
80.7038650948
 20
267.5667783164
 30
0.0
 10
80.5027812522
 20
267.2162773112
 30
0.0
 10
80.2488541396
 20
266.9771190829
 30
0.0
 10
80.0399580526
 20
266.9144003252
 30
0.0
 10
79.944368373
 20
266.9144080074
 30
0.0
  0
SPLINE
  5
380
100
AcDbEntity
  8
0
100
AcDbSpline
 62
7
  6
CONTINUOUS
 70
0
 71
3
 72
13
 73
9
 74
0
 42
0.0000001
 43
0.0000001
 44
0.0000000001
 40
0.0
 40
0.0
 40
0.0
 40
0.0
 40
0.3114160379
 40
0.5906141621
 40
0.7113468746
 40
0.8180535955
 40
0.9126626702
 40
1.0
 40
1.0
 40
1.0
 40
1.0
 10
77.6296524659
 20
268.6643603406
 30
0.0
 10
77.6296524659
 20
268.1189656903
 30
0.0
 10
77.7358478239
 20
267.0820246421
 30
0.0
 10
78.1421005479
 20
265.8861222899
 30
0.0
 10
78.626619778
 20
265.137221643
 30
0.0
 10
79.0269704467
 20
264.7327303161
 30
0.0
 10
79.470395585
 20
264.4749888592
 30
0.0
 10
79.7914113585
 20
264.4146161155
 30
0.0
 10
79.9443685175
 20
264.4146108165
 30
0.0
  0
SPLINE
  5
381
100
AcDbEntity
  8
0
100
AcDbSpline
 62
7
  6
CONTINUOUS
 70
0
 71
3
 72
11
 73
7
 74
0
 42
0.0000001
 43
0.0000001
 44
0.0000000001
 40
0.0
 40
0.0
 40
0.0
 40
0.0
 40
0.1801363399
 40
0.4071769511
 40
0.6874275874
 40
1.0
 40
1.0
 40
1.0
 40
1.0
 10
71.7648462643
 20
225.9145371471
 30
0.0
 10
71.9867134829
 20
225.9145294608
 30
0.0
 10
72.4869126178
 20
226.1271711441
 30
0.0
 10
72.993065663
 20
226.832562178
 30
0.0
 10
73.3243000035
 20
227.795826682
 30
0.0
 10
73.3987632615
 20
228.5293765451
 30
0.0
 10
73.3987632615
 20
228.9143603406
 30
0.0
  0
SPLINE
  5
382
100
AcDbEntity
  8
0
100
AcDbSpline
 62
7
  6
CONTINUOUS
 70
0
 71
3
 72
12
 73
8
 74
0
 42
0.0000001
 43
0.0000001
 44
0.0000000001
 40
0.0
 40
0.0
 40
0.0
 40
0.0
 40
0.0418459896
 40
0.1075746806
 40
0.3216890721
 40
0.6308381222
 40
1.0
 40
1.0
 40
1.0
 40
1.0
 10
43.7537756618
 20
356.1827636052
 30
0.0
 10
43.769337542
 20
356.2161361651
 30
0.0
 10
43.8541521634
 20
356.2748981973
 30
0.0
 10
44.129013505
 20
356.3367500797
 30
0.0
 10
44.6532265038
 20
356.3398782677
 30
0.0
 10
45.434169407
 20
356.2790854888
 30
0.0
 10
46.0273796227
 20
356.2067409408
 30
0.0
 10
46.3500961354
 20
356.1696110228
 30
0.0
  0
SPLINE
  5
383
100
AcDbEntity
  8
0
100
AcDbSpline
 62
7
  6
CONTINUOUS
 70
0
 71
3
 72
11
 73
7
 74
0
 42
0.0000001
 43
0.0000001
 44
0.0000000001
 40
0.0
 40
0.0
 40
0.0
 40
0.0
 40
0.1801363399
 40
0.4071769511
 40
0.6874275874
 40
1.0
 40
1.0
 40
1.0
 40
1.0
 10
77.216204956
 20
231.9141835341
 30
0.0
 10
77.4380721746
 20
231.9141912204
 30
0.0
 10
77.9382713095
 20
231.701549537
 30
0.0
 10
78.4444243547
 20
230.9961585032
 30
0.0
 10
78.7756586951
 20
230.0328939992
 30
0.0
 10
78.8501219532
 20
229.2993441361
 30
0.0
 10
78.8501219532
 20
228.9143603406
 30
0.0
  0
SPLINE
  5
384
100
AcDbEntity
  8
0
100
AcDbSpline
 62
7
  6
CONTINUOUS
 70
0
 71
3
 72
18
 73
14
 74
0
 42
0.0000001
 43
0.0000001
 44
0.0000000001
 40
0.0
 40
0.0
 40
0.0
 40
0.0
 40
0.0048485485
 40
0.0192575154
 40
0.0430826931
 40
0.0761517244
 40
0.1181164263
 40
0.1685498229
 40
0.2929376778
 40
0.4444245056
 40
0.6172752721
 40
0.805074636
 40
1.0
 40
1.0
 40
1.0
 40
1.0
 10
57.7129328273
 20
334.5521436867
 30
0.0
 10
57.7130315274
 20
334.546489163
 30
0.0
 10
57.7488666682
 20
334.5576849034
 30
0.0
 10
57.7862832078
 20
334.5453702139
 30
0.0
 10
57.8766926102
 20
334.5510016176
 30
0.0
 10
57.9888376985
 20
334.5474822569
 30
0.0
 10
58.1363861547
 20
334.5480182981
 30
0.0
 10
58.3886914964
 20
334.5469795081
 30
0.0
 10
58.7696488101
 20
334.5470909586
 30
0.0
 10
59.2929031845
 20
334.5473154232
 30
0.0
 10
59.8903098926
 20
334.5483220493
 30
0.0
 10
60.5383208578
 20
334.549998136
 30
0.0
 10
60.9847351315
 20
334.5514252274
 30
0.0
 10
61.2120964696
 20
334.552143658
 30
0.0
  0
SPLINE
  5
385
100
AcDbEntity
  8
0
100
AcDbSpline
 62
7
  6
CONTINUOUS
 70
0
 71
3
 72
18
 73
14
 74
0
 42
0.0000001
 43
0.0000001
 44
0.0000000001
 40
0.0
 40
0.0
 40
0.0
 40
0.0
 40
0.1949253695
 40
0.3827247435
 40
0.5555755108
 40
0.7070623346
 40
0.8314501857
 40
0.8818835805
 40
0.9238482802
 40
0.9569173103
 40
0.980742487
 40
0.9951514528
 40
1.0
 40
1.0
 40
1.0
 40
1.0
 10
341.998924402
 20
334.5521443184
 30
0.0
 10
342.2262857471
 20
334.5514258623
 30
0.0
 10
342.6727000403
 20
334.5499987307
 30
0.0
 10
343.3207110264
 20
334.5483225781
 30
0.0
 10
343.9181177444
 20
334.5473158722
 30
0.0
 10
344.441372112
 20
334.5470913391
 30
0.0
 10
344.8223294159
 20
334.546979835
 30
0.0
 10
345.0746347492
 20
334.5480185866
 30
0.0
 10
345.2221832005
 20
334.5474825104
 30
0.0
 10
345.3343282831
 20
334.5510018559
 30
0.0
 10
345.4247376849
 20
334.5453703839
 30
0.0
 10
345.4621542166
 20
334.5576851035
 30
0.0
 10
345.4979893587
 20
334.5464892716
 30
0.0
 10
345.4980880588
 20
334.5521437937
 30
0.0
  0
SPLINE
  5
386
100
AcDbEntity
  8
0
100
AcDbSpline
 62
7
  6
CONTINUOUS
 70
0
 71
3
 72
11
 73
7
 74
0
 42
0.0000001
 43
0.0000001
 44
0.0000000001
 40
0.0
 40
0.0
 40
0.0
 40
0.0
 40
0.180189538
 40
0.3456592089
 40
0.5425179414
 40
1.0
 40
1.0
 40
1.0
 40
1.0
 10
74.4930092963
 20
232.3145398728
 30
0.0
 10
74.3746867082
 20
232.3145354799
 30
0.0
 10
74.147695028
 20
232.4105203593
 30
0.0
 10
73.9159952126
 20
232.6867483694
 30
0.0
 10
73.6833954889
 20
233.1768470773
 30
0.0
 10
73.621587217
 20
233.6139518828
 30
0.0
 10
73.621587217
 20
233.9143603406
 30
0.0
  0
SPLINE
  5
387
100
AcDbEntity
  8
0
100
AcDbSpline
 62
7
  6
CONTINUOUS
 70
0
 71
3
 72
11
 73
7
 74
0
 42
0.0000001
 43
0.0000001
 44
0.0000000001
 40
0.0
 40
0.0
 40
0.0
 40
0.0
 40
0.180189538
 40
0.3456592089
 40
0.5425179414
 40
1.0
 40
1.0
 40
1.0
 40
1.0
 10
74.4930092963
 20
242.3145398728
 30
0.0
 10
74.3746867082
 20
242.3145354799
 30
0.0
 10
74.147695028
 20
242.4105203593
 30
0.0
 10
73.9159952126
 20
242.6867483694
 30
0.0
 10
73.6833954889
 20
243.1768470773
 30
0.0
 10
73.621587217
 20
243.6139518828
 30
0.0
 10
73.621587217
 20
243.9143603406
 30
0.0
  0
SPLINE
  5
388
100
AcDbEntity
  8
0
100
AcDbSpline
 62
7
  6
CONTINUOUS
 70
0
 71
3
 72
18
 73
14
 74
0
 42
0.0000001
 43
0.0000001
 44
0.0000000001
 40
0.0
 40
0.0
 40
0.0
 40
0.0
 40
0.0211918594
 40
0.0402078673
 40
0.0664461781
 40
0.1006795325
 40
0.1434690541
 40
0.1951714941
 40
0.2559003781
 40
0.4035431343
 40
0.5819671446
 40
0.7835771827
 40
1.0
 40
1.0
 40
1.0
 40
1.0
 10
62.2056439938
 20
288.0247410872
 30
0.0
 10
62.2105972878
 20
287.7322802918
 30
0.0
 10
62.7338689117
 20
287.2993264458
 30
0.0
 10
63.5441294305
 20
286.9585855137
 30
0.0
 10
64.6112029527
 20
286.6388523607
 30
0.0
 10
66.003813946
 20
286.3576493301
 30
0.0
 10
67.7654198084
 20
286.1054240585
 30
0.0
 10
69.8979408891
 20
285.9005563122
 30
0.0
 10
73.4823028061
 20
285.6883189692
 30
0.0
 10
78.823033615
 20
285.6205107107
 30
0.0
 10
86.10486739
 20
285.8111751524
 30
0.0
 10
94.3270581069
 20
286.2372028224
 30
0.0
 10
100.0844013736
 20
286.6194938974
 30
0.0
 10
103.064394273
 20
286.8268353923
 30
0.0
  0
SPLINE
  5
389
100
AcDbEntity
  8
0
100
AcDbSpline
 62
7
  6
CONTINUOUS
 70
0
 71
3
 72
9
 73
5
 74
0
 42
0.0000001
 43
0.0000001
 44
0.0000000001
 40
0.0
 40
0.0
 40
0.0
 40
0.0
 40
0.2472165463
 40
1.0
 40
1.0
 40
1.0
 40
1.0
 10
103.064394273
 20
286.8268353923
 30
0.0
 10
104.4253603204
 20
286.921528482
 30
0.0
 10
109.929940738
 20
287.3128640874
 30
0.0
 10
115.433207001
 20
287.7222767452
 30
0.0
 10
119.576391899
 20
288.0247411403
 30
0.0
  0
SPLINE
  5
38A
100
AcDbEntity
  8
0
100
AcDbSpline
 62
7
  6
CONTINUOUS
 70
0
 71
3
 72
11
 73
7
 74
0
 42
0.0000001
 43
0.0000001
 44
0.0000000001
 40
0.0
 40
0.0
 40
0.0
 40
0.0
 40
0.180189538
 40
0.3456592089
 40
0.5425179414
 40
1.0
 40
1.0
 40
1.0
 40
1.0
 10
74.4930092963
 20
252.3145398728
 30
0.0
 10
74.3746867082
 20
252.3145354799
 30
0.0
 10
74.147695028
 20
252.4105203593
 30
0.0
 10
73.9159952126
 20
252.6867483694
 30
0.0
 10
73.6833954889
 20
253.1768470773
 30
0.0
 10
73.621587217
 20
253.6139518828
 30
0.0
 10
73.621587217
 20
253.9143603406
 30
0.0
  0
SPLINE
  5
38B
100
AcDbEntity
  8
0
100
AcDbSpline
 62
7
  6
CONTINUOUS
 70
0
 71
3
 72
11
 73
7
 74
0
 42
0.0000001
 43
0.0000001
 44
0.0000000001
 40
0.0
 40
0.0
 40
0.0
 40
0.0
 40
0.1801947915
 40
0.3457588478
 40
0.5425843904
 40
1.0
 40
1.0
 40
1.0
 40
1.0
 10
71.7648461665
 20
256.8144175408
 30
0.0
 10
71.6095353106
 20
256.8144300225
 30
0.0
 10
71.3113824831
 20
256.9402603591
 30
0.0
 10
71.007700845
 20
257.3033319807
 30
0.0
 10
70.7020650325
 20
257.9463565289
 30
0.0
 10
70.6211041829
 20
258.5201113755
 30
0.0
 10
70.6211041829
 20
258.9143603406
 30
0.0
  0
SPLINE
  5
38C
100
AcDbEntity
  8
0
100
AcDbSpline
 62
7
  6
CONTINUOUS
 70
0
 71
3
 72
11
 73
7
 74
0
 42
0.0000001
 43
0.0000001
 44
0.0000000001
 40
0.0
 40
0.0
 40
0.0
 40
0.0
 40
0.1801947915
 40
0.3457588478
 40
0.5425843904
 40
1.0
 40
1.0
 40
1.0
 40
1.0
 10
66.3184558164
 20
246.8144175408
 30
0.0
 10
66.1631449604
 20
246.8144300225
 30
0.0
 10
65.8649921329
 20
246.9402603591
 30
0.0
 10
65.5613104948
 20
247.3033319807
 30
0.0
 10
65.2556746823
 20
247.9463565289
 30
0.0
 10
65.1747138328
 20
248.5201113755
 30
0.0
 10
65.1747138328
 20
248.9143603406
 30
0.0
  0
SPLINE
  5
38D
100
AcDbEntity
  8
0
100
AcDbSpline
 62
7
  6
CONTINUOUS
 70
0
 71
3
 72
11
 73
7
 74
0
 42
0.0000001
 43
0.0000001
 44
0.0000000001
 40
0.0
 40
0.0
 40
0.0
 40
0.0
 40
0.1801363399
 40
0.4071769511
 40
0.6874275874
 40
1.0
 40
1.0
 40
1.0
 40
1.0
 10
66.3184559142
 20
245.9145371471
 30
0.0
 10
66.5403231328
 20
245.9145294608
 30
0.0
 10
67.0405222677
 20
246.1271711442
 30
0.0
 10
67.5466753129
 20
246.832562178
 30
0.0
 10
67.8779096533
 20
247.795826682
 30
0.0
 10
67.9523729113
 20
248.5293765451
 30
0.0
 10
67.9523729113
 20
248.9143603406
 30
0.0
  0
SPLINE
  5
38E
100
AcDbEntity
  8
0
100
AcDbSpline
 62
7
  6
CONTINUOUS
 70
0
 71
3
 72
11
 73
7
 74
0
 42
0.0000001
 43
0.0000001
 44
0.0000000001
 40
0.0
 40
0.0
 40
0.0
 40
0.0
 40
0.1801363399
 40
0.4071769511
 40
0.6874275874
 40
1.0
 40
1.0
 40
1.0
 40
1.0
 10
71.7648462643
 20
255.9145371471
 30
0.0
 10
71.9867134829
 20
255.9145294608
 30
0.0
 10
72.4869126178
 20
256.1271711441
 30
0.0
 10
72.993065663
 20
256.832562178
 30
0.0
 10
73.3243000035
 20
257.795826682
 30
0.0
 10
73.3987632615
 20
258.5293765451
 30
0.0
 10
73.3987632615
 20
258.9143603406
 30
0.0
  0
SPLINE
  5
38F
100
AcDbEntity
  8
0
100
AcDbSpline
 62
7
  6
CONTINUOUS
 70
0
 71
3
 72
11
 73
7
 74
0
 42
0.0000001
 43
0.0000001
 44
0.0000000001
 40
0.0
 40
0.0
 40
0.0
 40
0.0
 40
0.213906245
 40
0.4504980943
 40
0.7159360926
 40
1.0
 40
1.0
 40
1.0
 40
1.0
 10
193.728087831
 20
253.164414817
 30
0.0
 10
193.5339210608
 20
253.164426385
 30
0.0
 10
193.1198923586
 20
253.2836283549
 30
0.0
 10
192.6387486916
 20
253.7480367977
 30
0.0
 10
192.3292497403
 20
254.4043878605
 30
0.0
 10
192.2587321621
 20
254.9065101242
 30
0.0
 10
192.2587321621
 20
255.1643603406
 30
0.0
  0
SPLINE
  5
390
100
AcDbEntity
  8
0
100
AcDbSpline
 62
7
  6
CONTINUOUS
 70
0
 71
3
 72
9
 73
5
 74
0
 42
0.0000001
 43
0.0000001
 44
0.0000000001
 40
0.0
 40
0.0
 40
0.0
 40
0.0
 40
0.2518613017
 40
1.0
 40
1.0
 40
1.0
 40
1.0
 10
283.6346289413
 20
288.0247410891
 30
0.0
 10
285.0208392047
 20
287.9235294577
 30
0.0
 10
290.5245454161
 20
287.5195727307
 30
0.0
 10
296.0281182498
 20
287.1133962033
 30
0.0
 10
300.1467741494
 20
286.8268142477
 30
0.0
  0
SPLINE
  5
391
100
AcDbEntity
  8
0
100
AcDbSpline
 62
7
  6
CONTINUOUS
 70
0
 71
3
 72
18
 73
14
 74
0
 42
0.0000001
 43
0.0000001
 44
0.0000000001
 40
0.0
 40
0.0
 40
0.0
 40
0.0
 40
0.2164230661
 40
0.4180330758
 40
0.5964570359
 40
0.744099567
 40
0.8048282656
 40
0.8565308045
 40
0.8993200897
 40
0.933553628
 40
0.9597918166
 40
0.9788079177
 40
1.0
 40
1.0
 40
1.0
 40
1.0
 10
300.1467741494
 20
286.8268142477
 30
0.0
 10
303.1267591933
 20
286.6194626353
 30
0.0
 10
308.8840873855
 20
286.2372035249
 30
0.0
 10
317.1062506093
 20
285.8111779997
 30
0.0
 10
324.3880557449
 20
285.6205051992
 30
0.0
 10
329.7287585088
 20
285.6883493059
 30
0.0
 10
333.3131077642
 20
285.9005332117
 30
0.0
 10
335.4456111585
 20
286.1054517525
 30
0.0
 10
337.2072188759
 20
286.3576217518
 30
0.0
 10
338.5998156104
 20
286.6388739611
 30
0.0
 10
339.6668846203
 20
286.9585810552
 30
0.0
 10
340.4771718639
 20
287.2993179553
 30
0.0
 10
341.0003816053
 20
287.7322790158
 30
0.0
 10
341.0053768914
 20
288.0247411402
 30
0.0
  0
SPLINE
  5
392
100
AcDbEntity
  8
0
100
AcDbSpline
 62
7
  6
CONTINUOUS
 70
0
 71
3
 72
12
 73
8
 74
0
 42
0.0000001
 43
0.0000001
 44
0.0000000001
 40
0.0
 40
0.0
 40
0.0
 40
0.0
 40
0.3117550706
 40
0.5262159067
 40
0.7123151094
 40
0.8672905275
 40
1.0
 40
1.0
 40
1.0
 40
1.0
 10
70.6211041829
 20
258.9143603406
 30
0.0
 10
70.6211041829
 20
259.1838262666
 30
0.0
 10
70.6678125319
 20
259.6408055045
 30
0.0
 10
70.8534500803
 20
260.2314587696
 30
0.0
 10
71.0947506914
 20
260.6520599759
 30
0.0
 10
71.3994632265
 20
260.9390498498
 30
0.0
 10
71.6501385309
 20
261.014312359
 30
0.0
 10
71.7648461464
 20
261.0143031404
 30
0.0
  0
SPLINE
  5
393
100
AcDbEntity
  8
0
100
AcDbSpline
 62
7
  6
CONTINUOUS
 70
0
 71
3
 72
11
 73
7
 74
0
 42
0.0000001
 43
0.0000001
 44
0.0000000001
 40
0.0
 40
0.0
 40
0.0
 40
0.0
 40
0.213906245
 40
0.4504980943
 40
0.7159360926
 40
1.0
 40
1.0
 40
1.0
 40
1.0
 10
193.728087831
 20
223.164414817
 30
0.0
 10
193.5339210608
 20
223.164426385
 30
0.0
 10
193.1198923586
 20
223.2836283549
 30
0.0
 10
192.6387486916
 20
223.7480367977
 30
0.0
 10
192.3292497403
 20
224.4043878605
 30
0.0
 10
192.2587321621
 20
224.9065101242
 30
0.0
 10
192.2587321621
 20
225.1643603406
 30
0.0
  0
SPLINE
  5
394
100
AcDbEntity
  8
0
100
AcDbSpline
 62
7
  6
CONTINUOUS
 70
0
 71
3
 72
11
 73
7
 74
0
 42
0.0000001
 43
0.0000001
 44
0.0000000001
 40
0.0
 40
0.0
 40
0.0
 40
0.0
 40
0.3125730914
 40
0.5928085646
 40
0.8198521287
 40
1.0
 40
1.0
 40
1.0
 40
1.0
 10
73.3987632615
 20
258.9143603406
 30
0.0
 10
73.3987632615
 20
259.2993447997
 30
0.0
 10
73.3243042215
 20
260.0328777725
 30
0.0
 10
72.9930784627
 20
260.9961251435
 30
0.0
 10
72.4869402569
 20
261.7015321242
 30
0.0
 10
71.9867273706
 20
261.9141758472
 30
0.0
 10
71.7648460486
 20
261.9141835341
 30
0.0
  0
SPLINE
  5
395
100
AcDbEntity
  8
0
100
AcDbSpline
 62
7
  6
CONTINUOUS
 70
0
 71
3
 72
12
 73
8
 74
0
 42
0.0000001
 43
0.0000001
 44
0.0000000001
 40
0.0
 40
0.0
 40
0.0
 40
0.0
 40
0.3117550706
 40
0.5262159067
 40
0.7123151094
 40
0.8672905275
 40
1.0
 40
1.0
 40
1.0
 40
1.0
 10
65.1747138328
 20
258.9143603406
 30
0.0
 10
65.1747138328
 20
259.1838262666
 30
0.0
 10
65.2214221818
 20
259.6408055045
 30
0.0
 10
65.4070597302
 20
260.2314587697
 30
0.0
 10
65.6483603412
 20
260.6520599759
 30
0.0
 10
65.9530728763
 20
260.9390498498
 30
0.0
 10
66.2037481807
 20
261.014312359
 30
0.0
 10
66.3184557962
 20
261.0143031404
 30
0.0
  0
SPLINE
  5
396
100
AcDbEntity
  8
0
100
AcDbSpline
 62
7
  6
CONTINUOUS
 70
0
 71
3
 72
11
 73
7
 74
0
 42
0.0000001
 43
0.0000001
 44
0.0000000001
 40
0.0
 40
0.0
 40
0.0
 40
0.0
 40
0.1801363399
 40
0.4071769511
 40
0.6874275874
 40
1.0
 40
1.0
 40
1.0
 40
1.0
 10
77.216204956
 20
261.9141835341
 30
0.0
 10
77.4380721746
 20
261.9141912204
 30
0.0
 10
77.9382713095
 20
261.701549537
 30
0.0
 10
78.4444243547
 20
260.9961585032
 30
0.0
 10
78.7756586951
 20
260.0328939992
 30
0.0
 10
78.8501219532
 20
259.2993441361
 30
0.0
 10
78.8501219532
 20
258.9143603406
 30
0.0
  0
SPLINE
  5
397
100
AcDbEntity
  8
0
100
AcDbSpline
 62
7
  6
CONTINUOUS
 70
0
 71
3
 72
11
 73
7
 74
0
 42
0.0000001
 43
0.0000001
 44
0.0000000001
 40
0.0
 40
0.0
 40
0.0
 40
0.0
 40
0.3125730914
 40
0.5928085646
 40
0.8198521287
 40
1.0
 40
1.0
 40
1.0
 40
1.0
 10
67.9523729113
 20
258.9143603406
 30
0.0
 10
67.9523729113
 20
259.2993447996
 30
0.0
 10
67.8779138714
 20
260.0328777725
 30
0.0
 10
67.5466881125
 20
260.9961251435
 30
0.0
 10
67.0405499068
 20
261.7015321242
 30
0.0
 10
66.5403370204
 20
261.9141758472
 30
0.0
 10
66.3184556984
 20
261.9141835341
 30
0.0
  0
SPLINE
  5
398
100
AcDbEntity
  8
0
100
AcDbSpline
 62
7
  6
CONTINUOUS
 70
0
 71
3
 72
8
 73
4
 74
0
 42
0.0000001
 43
0.0000001
 44
0.0000000001
 40
0.0
 40
0.0
 40
0.0
 40
0.0
 40
1.0
 40
1.0
 40
1.0
 40
1.0
 10
46.4459475137
 20
356.1643562841
 30
0.0
 10
46.4141860032
 20
356.1643563477
 30
0.0
 10
46.381717715
 20
356.1644060432
 30
0.0
 10
46.3510149129
 20
356.1725381703
 30
0.0
  0
SPLINE
  5
399
100
AcDbEntity
  8
0
100
AcDbSpline
 62
7
  6
CONTINUOUS
 70
0
 71
3
 72
12
 73
8
 74
0
 42
0.0000001
 43
0.0000001
 44
0.0000000001
 40
0.0
 40
0.0
 40
0.0
 40
0.0
 40
0.3117550706
 40
0.5262159067
 40
0.7123151094
 40
0.8672905275
 40
1.0
 40
1.0
 40
1.0
 40
1.0
 10
65.1747138328
 20
248.9143603406
 30
0.0
 10
65.1747138328
 20
249.1838262666
 30
0.0
 10
65.2214221818
 20
249.6408055045
 30
0.0
 10
65.4070597302
 20
250.2314587697
 30
0.0
 10
65.6483603412
 20
250.6520599759
 30
0.0
 10
65.9530728763
 20
250.9390498498
 30
0.0
 10
66.2037481807
 20
251.014312359
 30
0.0
 10
66.3184557962
 20
251.0143031404
 30
0.0
  0
SPLINE
  5
39A
100
AcDbEntity
  8
0
100
AcDbSpline
 62
7
  6
CONTINUOUS
 70
0
 71
3
 72
11
 73
7
 74
0
 42
0.0000001
 43
0.0000001
 44
0.0000000001
 40
0.0
 40
0.0
 40
0.0
 40
0.0
 40
0.1801947915
 40
0.3457588478
 40
0.5425843904
 40
1.0
 40
1.0
 40
1.0
 40
1.0
 10
71.7648461665
 20
246.8144175408
 30
0.0
 10
71.6095353106
 20
246.8144300225
 30
0.0
 10
71.3113824831
 20
246.9402603591
 30
0.0
 10
71.007700845
 20
247.3033319807
 30
0.0
 10
70.7020650325
 20
247.9463565289
 30
0.0
 10
70.6211041829
 20
248.5201113755
 30
0.0
 10
70.6211041829
 20
248.9143603406
 30
0.0
  0
SPLINE
  5
39B
100
AcDbEntity
  8
0
100
AcDbSpline
 62
7
  6
CONTINUOUS
 70
0
 71
3
 72
11
 73
7
 74
0
 42
0.0000001
 43
0.0000001
 44
0.0000000001
 40
0.0
 40
0.0
 40
0.0
 40
0.0
 40
0.3125730914
 40
0.5928085646
 40
0.8198521287
 40
1.0
 40
1.0
 40
1.0
 40
1.0
 10
67.9523729113
 20
248.9143603406
 30
0.0
 10
67.9523729113
 20
249.2993447996
 30
0.0
 10
67.8779138714
 20
250.0328777725
 30
0.0
 10
67.5466881125
 20
250.9961251435
 30
0.0
 10
67.0405499068
 20
251.7015321242
 30
0.0
 10
66.5403370204
 20
251.9141758472
 30
0.0
 10
66.3184556984
 20
251.9141835341
 30
0.0
  0
SPLINE
  5
39C
100
AcDbEntity
  8
0
100
AcDbSpline
 62
7
  6
CONTINUOUS
 70
0
 71
3
 72
11
 73
7
 74
0
 42
0.0000001
 43
0.0000001
 44
0.0000000001
 40
0.0
 40
0.0
 40
0.0
 40
0.0
 40
0.1801363399
 40
0.4071769511
 40
0.6874275874
 40
1.0
 40
1.0
 40
1.0
 40
1.0
 10
71.7648462643
 20
245.9145371471
 30
0.0
 10
71.9867134829
 20
245.9145294608
 30
0.0
 10
72.4869126178
 20
246.1271711441
 30
0.0
 10
72.993065663
 20
246.832562178
 30
0.0
 10
73.3243000035
 20
247.795826682
 30
0.0
 10
73.3987632615
 20
248.5293765451
 30
0.0
 10
73.3987632615
 20
248.9143603406
 30
0.0
  0
SPLINE
  5
39D
100
AcDbEntity
  8
0
100
AcDbSpline
 62
7
  6
CONTINUOUS
 70
0
 71
3
 72
12
 73
8
 74
0
 42
0.0000001
 43
0.0000001
 44
0.0000000001
 40
0.0
 40
0.0
 40
0.0
 40
0.0
 40
0.3117550706
 40
0.5262159067
 40
0.7123151094
 40
0.8672905275
 40
1.0
 40
1.0
 40
1.0
 40
1.0
 10
70.6211041829
 20
248.9143603406
 30
0.0
 10
70.6211041829
 20
249.1838262666
 30
0.0
 10
70.6678125319
 20
249.6408055045
 30
0.0
 10
70.8534500803
 20
250.2314587696
 30
0.0
 10
71.0947506914
 20
250.6520599759
 30
0.0
 10
71.3994632265
 20
250.9390498498
 30
0.0
 10
71.6501385309
 20
251.014312359
 30
0.0
 10
71.7648461464
 20
251.0143031404
 30
0.0
  0
SPLINE
  5
39E
100
AcDbEntity
  8
0
100
AcDbSpline
 62
7
  6
CONTINUOUS
 70
0
 71
3
 72
11
 73
7
 74
0
 42
0.0000001
 43
0.0000001
 44
0.0000000001
 40
0.0
 40
0.0
 40
0.0
 40
0.0
 40
0.3125730914
 40
0.5928085646
 40
0.8198521287
 40
1.0
 40
1.0
 40
1.0
 40
1.0
 10
73.3987632615
 20
248.9143603406
 30
0.0
 10
73.3987632615
 20
249.2993447997
 30
0.0
 10
73.3243042215
 20
250.0328777725
 30
0.0
 10
72.9930784627
 20
250.9961251435
 30
0.0
 10
72.4869402569
 20
251.7015321242
 30
0.0
 10
71.9867273706
 20
251.9141758472
 30
0.0
 10
71.7648460486
 20
251.9141835341
 30
0.0
  0
SPLINE
  5
39F
100
AcDbEntity
  8
0
100
AcDbSpline
 62
7
  6
CONTINUOUS
 70
0
 71
3
 72
12
 73
8
 74
0
 42
0.0000001
 43
0.0000001
 44
0.0000000001
 40
0.0
 40
0.0
 40
0.0
 40
0.0
 40
0.3117550706
 40
0.5262159067
 40
0.7123151094
 40
0.8672905275
 40
1.0
 40
1.0
 40
1.0
 40
1.0
 10
70.6211041829
 20
238.9143603406
 30
0.0
 10
70.6211041829
 20
239.1838262666
 30
0.0
 10
70.6678125319
 20
239.6408055045
 30
0.0
 10
70.8534500803
 20
240.2314587696
 30
0.0
 10
71.0947506914
 20
240.6520599759
 30
0.0
 10
71.3994632265
 20
240.9390498498
 30
0.0
 10
71.6501385309
 20
241.014312359
 30
0.0
 10
71.7648461464
 20
241.0143031404
 30
0.0
  0
SPLINE
  5
3A0
100
AcDbEntity
  8
0
100
AcDbSpline
 62
7
  6
CONTINUOUS
 70
0
 71
3
 72
11
 73
7
 74
0
 42
0.0000001
 43
0.0000001
 44
0.0000000001
 40
0.0
 40
0.0
 40
0.0
 40
0.0
 40
0.3125730914
 40
0.5928085646
 40
0.8198521287
 40
1.0
 40
1.0
 40
1.0
 40
1.0
 10
73.3987632615
 20
238.9143603406
 30
0.0
 10
73.3987632615
 20
239.2993447997
 30
0.0
 10
73.3243042215
 20
240.0328777725
 30
0.0
 10
72.9930784627
 20
240.9961251435
 30
0.0
 10
72.4869402569
 20
241.7015321242
 30
0.0
 10
71.9867273706
 20
241.9141758472
 30
0.0
 10
71.7648460486
 20
241.9141835341
 30
0.0
  0
SPLINE
  5
3A1
100
AcDbEntity
  8
0
100
AcDbSpline
 62
7
  6
CONTINUOUS
 70
0
 71
3
 72
11
 73
7
 74
0
 42
0.0000001
 43
0.0000001
 44
0.0000000001
 40
0.0
 40
0.0
 40
0.0
 40
0.0
 40
0.2172627713
 40
0.452320549
 40
0.7138777657
 40
1.0
 40
1.0
 40
1.0
 40
1.0
 10
110.4830631777
 20
277.1643603406
 30
0.0
 10
110.9218918756
 20
277.1643603406
 30
0.0
 10
111.8447214357
 20
276.9529613207
 30
0.0
 10
113.0319552349
 20
276.0815753104
 30
0.0
 10
113.9581271016
 20
274.7740684735
 30
0.0
 10
114.3468866951
 20
273.7249812618
 30
0.0
 10
114.487192967
 20
273.1643603406
 30
0.0
  0
SPLINE
  5
3A2
100
AcDbEntity
  8
0
100
AcDbSpline
 62
7
  6
CONTINUOUS
 70
0
 71
3
 72
9
 73
5
 74
0
 42
0.0000001
 43
0.0000001
 44
0.0000000001
 40
0.0
 40
0.0
 40
0.0
 40
0.0
 40
0.247096406
 40
1.0
 40
1.0
 40
1.0
 40
1.0
 10
111.5712430093
 20
273.1643603406
 30
0.0
 10
111.6115504093
 20
273.0031500167
 30
0.0
 10
111.7537766923
 20
272.3456454457
 30
0.0
 10
111.8139127861
 20
271.6706899395
 30
0.0
 10
111.8139127861
 20
271.1643603406
 30
0.0
  0
SPLINE
  5
3A3
100
AcDbEntity
  8
0
100
AcDbSpline
 62
7
  6
CONTINUOUS
 70
0
 71
3
 72
9
 73
5
 74
0
 42
0.0000001
 43
0.0000001
 44
0.0000000001
 40
0.0
 40
0.0
 40
0.0
 40
0.0
 40
0.2524685946
 40
1.0
 40
1.0
 40
1.0
 40
1.0
 10
291.3971080981
 20
271.1643603406
 30
0.0
 10
291.3971080981
 20
271.3341427044
 30
0.0
 10
291.4172718569
 20
272.0064367278
 30
0.0
 10
291.5178398753
 20
272.6766666556
 30
0.0
 10
291.6397778749
 20
273.1643603406
 30
0.0
  0
SPLINE
  5
3A4
100
AcDbEntity
  8
0
100
AcDbSpline
 62
7
  6
CONTINUOUS
 70
0
 71
3
 72
11
 73
7
 74
0
 42
0.0000001
 43
0.0000001
 44
0.0000000001
 40
0.0
 40
0.0
 40
0.0
 40
0.0
 40
0.286122409
 40
0.5476792732
 40
0.7827368856
 40
1.0
 40
1.0
 40
1.0
 40
1.0
 10
288.7238279172
 20
273.1643603406
 30
0.0
 10
288.8641342735
 20
273.7249815987
 30
0.0
 10
289.2528938786
 20
274.7740684204
 30
0.0
 10
290.1790652342
 20
276.0815746975
 30
0.0
 10
291.3662984414
 20
276.9529606881
 30
0.0
 10
292.2891283198
 20
277.1643603406
 30
0.0
 10
292.7279577065
 20
277.1643603406
 30
0.0
  0
SPLINE
  5
3A5
100
AcDbEntity
  8
0
100
AcDbSpline
 62
7
  6
CONTINUOUS
 70
0
 71
3
 72
12
 73
8
 74
0
 42
0.0000001
 43
0.0000001
 44
0.0000000001
 40
0.0
 40
0.0
 40
0.0
 40
0.0
 40
0.3117550706
 40
0.5262159067
 40
0.7123151094
 40
0.8672905275
 40
1.0
 40
1.0
 40
1.0
 40
1.0
 10
65.1747138328
 20
238.9143603406
 30
0.0
 10
65.1747138328
 20
239.1838262666
 30
0.0
 10
65.2214221818
 20
239.6408055045
 30
0.0
 10
65.4070597302
 20
240.2314587697
 30
0.0
 10
65.6483603412
 20
240.6520599759
 30
0.0
 10
65.9530728763
 20
240.9390498498
 30
0.0
 10
66.2037481807
 20
241.014312359
 30
0.0
 10
66.3184557962
 20
241.0143031404
 30
0.0
  0
SPLINE
  5
3A6
100
AcDbEntity
  8
0
100
AcDbSpline
 62
7
  6
CONTINUOUS
 70
0
 71
3
 72
11
 73
7
 74
0
 42
0.0000001
 43
0.0000001
 44
0.0000000001
 40
0.0
 40
0.0
 40
0.0
 40
0.0
 40
0.3125730914
 40
0.5928085646
 40
0.8198521287
 40
1.0
 40
1.0
 40
1.0
 40
1.0
 10
67.9523729113
 20
238.9143603406
 30
0.0
 10
67.9523729113
 20
239.2993447996
 30
0.0
 10
67.8779138714
 20
240.0328777725
 30
0.0
 10
67.5466881125
 20
240.9961251435
 30
0.0
 10
67.0405499068
 20
241.7015321242
 30
0.0
 10
66.5403370204
 20
241.9141758472
 30
0.0
 10
66.3184556984
 20
241.9141835341
 30
0.0
  0
SPLINE
  5
3A7
100
AcDbEntity
  8
0
100
AcDbSpline
 62
7
  6
CONTINUOUS
 70
0
 71
3
 72
12
 73
8
 74
0
 42
0.0000001
 43
0.0000001
 44
0.0000000001
 40
0.0
 40
0.0
 40
0.0
 40
0.0
 40
0.3117550706
 40
0.5262159067
 40
0.7123151094
 40
0.8672905275
 40
1.0
 40
1.0
 40
1.0
 40
1.0
 10
65.1747138328
 20
228.9143603406
 30
0.0
 10
65.1747138328
 20
229.1838262666
 30
0.0
 10
65.2214221818
 20
229.6408055045
 30
0.0
 10
65.4070597302
 20
230.2314587697
 30
0.0
 10
65.6483603412
 20
230.6520599759
 30
0.0
 10
65.9530728763
 20
230.9390498498
 30
0.0
 10
66.2037481807
 20
231.014312359
 30
0.0
 10
66.3184557962
 20
231.0143031404
 30
0.0
  0
SPLINE
  5
3A8
100
AcDbEntity
  8
0
100
AcDbSpline
 62
7
  6
CONTINUOUS
 70
0
 71
3
 72
11
 73
7
 74
0
 42
0.0000001
 43
0.0000001
 44
0.0000000001
 40
0.0
 40
0.0
 40
0.0
 40
0.0
 40
0.3125730914
 40
0.5928085646
 40
0.8198521287
 40
1.0
 40
1.0
 40
1.0
 40
1.0
 10
67.9523729113
 20
228.9143603406
 30
0.0
 10
67.9523729113
 20
229.2993447996
 30
0.0
 10
67.8779138714
 20
230.0328777725
 30
0.0
 10
67.5466881125
 20
230.9961251435
 30
0.0
 10
67.0405499068
 20
231.7015321242
 30
0.0
 10
66.5403370204
 20
231.9141758472
 30
0.0
 10
66.3184556984
 20
231.9141835341
 30
0.0
  0
SPLINE
  5
3A9
100
AcDbEntity
  8
0
100
AcDbSpline
 62
7
  6
CONTINUOUS
 70
0
 71
3
 72
12
 73
8
 74
0
 42
0.0000001
 43
0.0000001
 44
0.0000000001
 40
0.0
 40
0.0
 40
0.0
 40
0.0
 40
0.3117550706
 40
0.5262159067
 40
0.7123151094
 40
0.8672905275
 40
1.0
 40
1.0
 40
1.0
 40
1.0
 10
78.9912500534
 20
268.6643603406
 30
0.0
 10
78.9912500534
 20
268.8889152789
 30
0.0
 10
79.0301736776
 20
269.2697313105
 30
0.0
 10
79.1848716346
 20
269.7619423648
 30
0.0
 10
79.3859554771
 20
270.11244337
 30
0.0
 10
79.6398825897
 20
270.3516015982
 30
0.0
 10
79.8487786767
 20
270.414320356
 30
0.0
 10
79.9443683563
 20
270.4143126738
 30
0.0
  0
SPLINE
  5
3AA
100
AcDbEntity
  8
0
100
AcDbSpline
 62
7
  6
CONTINUOUS
 70
0
 71
3
 72
13
 73
9
 74
0
 42
0.0000001
 43
0.0000001
 44
0.0000000001
 40
0.0
 40
0.0
 40
0.0
 40
0.0
 40
0.3114160379
 40
0.5906141621
 40
0.7113468746
 40
0.8180535955
 40
0.9126626702
 40
1.0
 40
1.0
 40
1.0
 40
1.0
 10
82.2590842635
 20
268.6643603406
 30
0.0
 10
82.2590842635
 20
269.2097549909
 30
0.0
 10
82.1528889054
 20
270.2466960391
 30
0.0
 10
81.7466361814
 20
271.4425983913
 30
0.0
 10
81.2621169513
 20
272.1914990382
 30
0.0
 10
80.8617662826
 20
272.5959903651
 30
0.0
 10
80.4183411443
 20
272.853731822
 30
0.0
 10
80.0973253708
 20
272.9141045656
 30
0.0
 10
79.9443682118
 20
272.9141098647
 30
0.0
  0
SPLINE
  5
3AB
100
AcDbEntity
  8
0
100
AcDbSpline
 62
7
  6
CONTINUOUS
 70
0
 71
3
 72
11
 73
7
 74
0
 42
0.0000001
 43
0.0000001
 44
0.0000000001
 40
0.0
 40
0.0
 40
0.0
 40
0.0
 40
0.2888002256
 40
0.5554617773
 40
0.7898323008
 40
1.0
 40
1.0
 40
1.0
 40
1.0
 10
136.758403481
 20
209.1643603404
 30
0.0
 10
136.758403481
 20
208.379758612
 30
0.0
 10
136.5432721509
 20
206.8602481631
 30
0.0
 10
135.6051860014
 20
204.8896233209
 30
0.0
 10
134.1700312512
 20
203.5141839337
 30
0.0
 10
132.9475182988
 20
203.1643603406
 30
0.0
 10
132.376542498
 20
203.1643603406
 30
0.0
  0
SPLINE
  5
3AC
100
AcDbEntity
  8
0
100
AcDbSpline
 62
7
  6
CONTINUOUS
 70
0
 71
3
 72
11
 73
7
 74
0
 42
0.0000001
 43
0.0000001
 44
0.0000000001
 40
0.0
 40
0.0
 40
0.0
 40
0.0
 40
0.2172627712
 40
0.452320549
 40
0.7138777657
 40
1.0
 40
1.0
 40
1.0
 40
1.0
 10
292.7279577065
 20
203.1643603406
 30
0.0
 10
292.2891290086
 20
203.1643603406
 30
0.0
 10
291.3662994486
 20
203.3757593605
 30
0.0
 10
290.1790656493
 20
204.2471453708
 30
0.0
 10
289.2528937826
 20
205.5546522076
 30
0.0
 10
288.8641341891
 20
206.6037394194
 30
0.0
 10
288.7238279172
 20
207.1643603406
 30
0.0
  0
SPLINE
  5
3AD
100
AcDbEntity
  8
0
100
AcDbSpline
 62
7
  6
CONTINUOUS
 70
0
 71
3
 72
9
 73
5
 74
0
 42
0.0000001
 43
0.0000001
 44
0.0000000001
 40
0.0
 40
0.0
 40
0.0
 40
0.0
 40
0.247096406
 40
1.0
 40
1.0
 40
1.0
 40
1.0
 10
291.6397778749
 20
207.1643603406
 30
0.0
 10
291.5994704749
 20
207.3255706644
 30
0.0
 10
291.4572441919
 20
207.9830752355
 30
0.0
 10
291.3971080981
 20
208.6580307416
 30
0.0
 10
291.3971080981
 20
209.1643603406
 30
0.0
  0
SPLINE
  5
3AE
100
AcDbEntity
  8
0
100
AcDbSpline
 62
7
  6
CONTINUOUS
 70
0
 71
3
 72
12
 73
8
 74
0
 42
0.0000001
 43
0.0000001
 44
0.0000000001
 40
0.0
 40
0.0
 40
0.0
 40
0.0
 40
0.3117550706
 40
0.5262159067
 40
0.7123151094
 40
0.8672905275
 40
1.0
 40
1.0
 40
1.0
 40
1.0
 10
70.6211041829
 20
228.9143603406
 30
0.0
 10
70.6211041829
 20
229.1838262666
 30
0.0
 10
70.6678125319
 20
229.6408055045
 30
0.0
 10
70.8534500803
 20
230.2314587696
 30
0.0
 10
71.0947506914
 20
230.6520599759
 30
0.0
 10
71.3994632265
 20
230.9390498498
 30
0.0
 10
71.6501385309
 20
231.014312359
 30
0.0
 10
71.7648461464
 20
231.0143031404
 30
0.0
  0
SPLINE
  5
3AF
100
AcDbEntity
  8
0
100
AcDbSpline
 62
7
  6
CONTINUOUS
 70
0
 71
3
 72
11
 73
7
 74
0
 42
0.0000001
 43
0.0000001
 44
0.0000000001
 40
0.0
 40
0.0
 40
0.0
 40
0.0
 40
0.3125730914
 40
0.5928085646
 40
0.8198521287
 40
1.0
 40
1.0
 40
1.0
 40
1.0
 10
73.3987632615
 20
228.9143603406
 30
0.0
 10
73.3987632615
 20
229.2993447997
 30
0.0
 10
73.3243042215
 20
230.0328777725
 30
0.0
 10
72.9930784627
 20
230.9961251435
 30
0.0
 10
72.4869402569
 20
231.7015321242
 30
0.0
 10
71.9867273706
 20
231.9141758472
 30
0.0
 10
71.7648460486
 20
231.9141835341
 30
0.0
  0
SPLINE
  5
3B0
100
AcDbEntity
  8
0
100
AcDbSpline
 62
7
  6
CONTINUOUS
 70
0
 71
3
 72
11
 73
7
 74
0
 42
0.0000001
 43
0.0000001
 44
0.0000000001
 40
0.0
 40
0.0
 40
0.0
 40
0.0
 40
0.1801363399
 40
0.4071769511
 40
0.6874275874
 40
1.0
 40
1.0
 40
1.0
 40
1.0
 10
77.216204956
 20
251.9141835341
 30
0.0
 10
77.4380721746
 20
251.9141912204
 30
0.0
 10
77.9382713095
 20
251.701549537
 30
0.0
 10
78.4444243547
 20
250.9961585032
 30
0.0
 10
78.7756586951
 20
250.0328939992
 30
0.0
 10
78.8501219532
 20
249.2993441361
 30
0.0
 10
78.8501219532
 20
248.9143603406
 30
0.0
  0
SPLINE
  5
3B1
100
AcDbEntity
  8
0
100
AcDbSpline
 62
7
  6
CONTINUOUS
 70
0
 71
3
 72
9
 73
5
 74
0
 42
0.0000001
 43
0.0000001
 44
0.0000000001
 40
0.0
 40
0.0
 40
0.0
 40
0.0
 40
0.233894341
 40
1.0
 40
1.0
 40
1.0
 40
1.0
 10
88.9569160373
 20
271.1643603406
 30
0.0
 10
89.0231684876
 20
270.9778607777
 30
0.0
 10
89.2639711284
 20
270.1656738009
 30
0.0
 10
89.3561622758
 20
269.3126273397
 30
0.0
 10
89.3561622758
 20
268.6643603406
 30
0.0
  0
SPLINE
  5
3B2
100
AcDbEntity
  8
0
100
AcDbSpline
 62
7
  6
CONTINUOUS
 70
0
 71
3
 72
11
 73
7
 74
0
 42
0.0000001
 43
0.0000001
 44
0.0000000001
 40
0.0
 40
0.0
 40
0.0
 40
0.0
 40
0.1801947915
 40
0.3457588478
 40
0.5425843904
 40
1.0
 40
1.0
 40
1.0
 40
1.0
 10
66.3184558164
 20
256.8144175408
 30
0.0
 10
66.1631449604
 20
256.8144300225
 30
0.0
 10
65.8649921329
 20
256.9402603591
 30
0.0
 10
65.5613104948
 20
257.3033319807
 30
0.0
 10
65.2556746823
 20
257.9463565289
 30
0.0
 10
65.1747138328
 20
258.5201113755
 30
0.0
 10
65.1747138328
 20
258.9143603406
 30
0.0
  0
SPLINE
  5
3B3
100
AcDbEntity
  8
0
100
AcDbSpline
 62
7
  6
CONTINUOUS
 70
0
 71
3
 72
11
 73
7
 74
0
 42
0.0000001
 43
0.0000001
 44
0.0000000001
 40
0.0
 40
0.0
 40
0.0
 40
0.0
 40
0.1801947915
 40
0.3457588478
 40
0.5425843904
 40
1.0
 40
1.0
 40
1.0
 40
1.0
 10
71.7648461665
 20
236.8144175408
 30
0.0
 10
71.6095353106
 20
236.8144300225
 30
0.0
 10
71.3113824831
 20
236.9402603591
 30
0.0
 10
71.007700845
 20
237.3033319807
 30
0.0
 10
70.7020650325
 20
237.9463565289
 30
0.0
 10
70.6211041829
 20
238.5201113755
 30
0.0
 10
70.6211041829
 20
238.9143603406
 30
0.0
  0
SPLINE
  5
3B4
100
AcDbEntity
  8
0
100
AcDbSpline
 62
7
  6
CONTINUOUS
 70
0
 71
3
 72
11
 73
7
 74
0
 42
0.0000001
 43
0.0000001
 44
0.0000000001
 40
0.0
 40
0.0
 40
0.0
 40
0.0
 40
0.3125730914
 40
0.5928085646
 40
0.8198521287
 40
1.0
 40
1.0
 40
1.0
 40
1.0
 10
78.8501219532
 20
258.9143603406
 30
0.0
 10
78.8501219532
 20
258.5293758815
 30
0.0
 10
78.7756629132
 20
257.7958429087
 30
0.0
 10
78.4444371543
 20
256.8325955377
 30
0.0
 10
77.9382989486
 20
256.127188557
 30
0.0
 10
77.4380860622
 20
255.914544834
 30
0.0
 10
77.2162047402
 20
255.9145371471
 30
0.0
  0
SPLINE
  5
3B5
100
AcDbEntity
  8
0
100
AcDbSpline
 62
7
  6
CONTINUOUS
 70
0
 71
3
 72
11
 73
7
 74
0
 42
0.0000001
 43
0.0000001
 44
0.0000000001
 40
0.0
 40
0.0
 40
0.0
 40
0.0
 40
0.3125730914
 40
0.5928085646
 40
0.8198521287
 40
1.0
 40
1.0
 40
1.0
 40
1.0
 10
78.8501219532
 20
248.9143603406
 30
0.0
 10
78.8501219532
 20
248.5293758815
 30
0.0
 10
78.7756629132
 20
247.7958429087
 30
0.0
 10
78.4444371543
 20
246.8325955377
 30
0.0
 10
77.9382989486
 20
246.127188557
 30
0.0
 10
77.4380860622
 20
245.914544834
 30
0.0
 10
77.2162047402
 20
245.9145371471
 30
0.0
  0
SPLINE
  5
3B6
100
AcDbEntity
  8
0
100
AcDbSpline
 62
7
  6
CONTINUOUS
 70
0
 71
3
 72
11
 73
7
 74
0
 42
0.0000001
 43
0.0000001
 44
0.0000000001
 40
0.0
 40
0.0
 40
0.0
 40
0.0
 40
0.3125730914
 40
0.5928085646
 40
0.8198521287
 40
1.0
 40
1.0
 40
1.0
 40
1.0
 10
78.8501219532
 20
238.9143603406
 30
0.0
 10
78.8501219532
 20
238.5293758815
 30
0.0
 10
78.7756629132
 20
237.7958429087
 30
0.0
 10
78.4444371543
 20
236.8325955377
 30
0.0
 10
77.9382989486
 20
236.127188557
 30
0.0
 10
77.4380860622
 20
235.914544834
 30
0.0
 10
77.2162047402
 20
235.9145371471
 30
0.0
  0
SPLINE
  5
3B7
100
AcDbEntity
  8
0
100
AcDbSpline
 62
7
  6
CONTINUOUS
 70
0
 71
3
 72
11
 73
7
 74
0
 42
0.0000001
 43
0.0000001
 44
0.0000000001
 40
0.0
 40
0.0
 40
0.0
 40
0.0
 40
0.3125730914
 40
0.5928085646
 40
0.8198521287
 40
1.0
 40
1.0
 40
1.0
 40
1.0
 10
78.8501219532
 20
228.9143603406
 30
0.0
 10
78.8501219532
 20
228.5293758815
 30
0.0
 10
78.7756629132
 20
227.7958429087
 30
0.0
 10
78.4444371543
 20
226.8325955377
 30
0.0
 10
77.9382989486
 20
226.127188557
 30
0.0
 10
77.4380860622
 20
225.914544834
 30
0.0
 10
77.2162047402
 20
225.9145371471
 30
0.0
  0
SPLINE
  5
3B8
100
AcDbEntity
  8
0
100
AcDbSpline
 62
7
  6
CONTINUOUS
 70
0
 71
3
 72
12
 73
8
 74
0
 42
0.0000001
 43
0.0000001
 44
0.0000000001
 40
0.0
 40
0.0
 40
0.0
 40
0.0
 40
0.3116523874
 40
0.5262710316
 40
0.7123247504
 40
0.8673150286
 40
1.0
 40
1.0
 40
1.0
 40
1.0
 10
73.621587217
 20
233.9143603406
 30
0.0
 10
73.621587217
 20
234.1195953352
 30
0.0
 10
73.6573229661
 20
234.4677692162
 30
0.0
 10
73.7985913376
 20
234.9178429543
 30
0.0
 10
73.9824637877
 20
235.2383582988
 30
0.0
 10
74.2146046184
 20
235.4570507045
 30
0.0
 10
74.4056319307
 20
235.5141775643
 30
0.0
 10
74.4930100497
 20
235.5141808084
 30
0.0
  0
SPLINE
  5
3B9
100
AcDbEntity
  8
0
100
AcDbSpline
 62
7
  6
CONTINUOUS
 70
0
 71
3
 72
12
 73
8
 74
0
 42
0.0000001
 43
0.0000001
 44
0.0000000001
 40
0.0
 40
0.0
 40
0.0
 40
0.0
 40
0.3116523874
 40
0.5262710316
 40
0.7123247504
 40
0.8673150286
 40
1.0
 40
1.0
 40
1.0
 40
1.0
 10
73.621587217
 20
243.9143603406
 30
0.0
 10
73.621587217
 20
244.1195953352
 30
0.0
 10
73.6573229661
 20
244.4677692162
 30
0.0
 10
73.7985913376
 20
244.9178429543
 30
0.0
 10
73.9824637877
 20
245.2383582988
 30
0.0
 10
74.2146046184
 20
245.4570507045
 30
0.0
 10
74.4056319307
 20
245.5141775643
 30
0.0
 10
74.4930100497
 20
245.5141808084
 30
0.0
  0
SPLINE
  5
3BA
100
AcDbEntity
  8
0
100
AcDbSpline
 62
7
  6
CONTINUOUS
 70
0
 71
3
 72
12
 73
8
 74
0
 42
0.0000001
 43
0.0000001
 44
0.0000000001
 40
0.0
 40
0.0
 40
0.0
 40
0.0
 40
0.3116523874
 40
0.5262710316
 40
0.7123247504
 40
0.8673150286
 40
1.0
 40
1.0
 40
1.0
 40
1.0
 10
73.621587217
 20
253.9143603406
 30
0.0
 10
73.621587217
 20
254.1195953352
 30
0.0
 10
73.6573229661
 20
254.4677692162
 30
0.0
 10
73.7985913376
 20
254.9178429543
 30
0.0
 10
73.9824637877
 20
255.2383582988
 30
0.0
 10
74.2146046184
 20
255.4570507045
 30
0.0
 10
74.4056319307
 20
255.5141775643
 30
0.0
 10
74.4930100497
 20
255.5141808084
 30
0.0
  0
SPLINE
  5
3BB
100
AcDbEntity
  8
0
100
AcDbSpline
 62
7
  6
CONTINUOUS
 70
0
 71
3
 72
11
 73
7
 74
0
 42
0.0000001
 43
0.0000001
 44
0.0000000001
 40
0.0
 40
0.0
 40
0.0
 40
0.0
 40
0.1801363399
 40
0.4071769511
 40
0.6874275874
 40
1.0
 40
1.0
 40
1.0
 40
1.0
 10
71.7648462643
 20
235.9145371471
 30
0.0
 10
71.9867134829
 20
235.9145294608
 30
0.0
 10
72.4869126178
 20
236.1271711441
 30
0.0
 10
72.993065663
 20
236.832562178
 30
0.0
 10
73.3243000035
 20
237.795826682
 30
0.0
 10
73.3987632615
 20
238.5293765451
 30
0.0
 10
73.3987632615
 20
238.9143603406
 30
0.0
  0
SPLINE
  5
3BC
100
AcDbEntity
  8
0
100
AcDbSpline
 62
7
  6
CONTINUOUS
 70
0
 71
3
 72
11
 73
7
 74
0
 42
0.0000001
 43
0.0000001
 44
0.0000000001
 40
0.0
 40
0.0
 40
0.0
 40
0.0
 40
0.1801363399
 40
0.4071769511
 40
0.6874275874
 40
1.0
 40
1.0
 40
1.0
 40
1.0
 10
77.216204956
 20
241.9141835341
 30
0.0
 10
77.4380721746
 20
241.9141912204
 30
0.0
 10
77.9382713095
 20
241.701549537
 30
0.0
 10
78.4444243547
 20
240.9961585032
 30
0.0
 10
78.7756586951
 20
240.0328939992
 30
0.0
 10
78.8501219532
 20
239.2993441361
 30
0.0
 10
78.8501219532
 20
238.9143603406
 30
0.0
  0
SPLINE
  5
3BD
100
AcDbEntity
  8
0
100
AcDbSpline
 62
7
  6
CONTINUOUS
 70
0
 71
3
 72
11
 73
7
 74
0
 42
0.0000001
 43
0.0000001
 44
0.0000000001
 40
0.0
 40
0.0
 40
0.0
 40
0.0
 40
0.1801363399
 40
0.4071769511
 40
0.6874275874
 40
1.0
 40
1.0
 40
1.0
 40
1.0
 10
66.3184559142
 20
255.9145371471
 30
0.0
 10
66.5403231328
 20
255.9145294608
 30
0.0
 10
67.0405222677
 20
256.1271711442
 30
0.0
 10
67.5466753129
 20
256.832562178
 30
0.0
 10
67.8779096533
 20
257.795826682
 30
0.0
 10
67.9523729113
 20
258.5293765451
 30
0.0
 10
67.9523729113
 20
258.9143603406
 30
0.0
  0
SPLINE
  5
3BE
100
AcDbEntity
  8
0
100
AcDbSpline
 62
7
  6
CONTINUOUS
 70
0
 71
3
 72
11
 73
7
 74
0
 42
0.0000001
 43
0.0000001
 44
0.0000000001
 40
0.0
 40
0.0
 40
0.0
 40
0.0
 40
0.1801947915
 40
0.3457588478
 40
0.5425843904
 40
1.0
 40
1.0
 40
1.0
 40
1.0
 10
79.944368373
 20
266.9144080074
 30
0.0
 10
79.8149426598
 20
266.9144184089
 30
0.0
 10
79.5664819702
 20
267.0192770227
 30
0.0
 10
79.3134139384
 20
267.3218367073
 30
0.0
 10
79.058717428
 20
267.8576904975
 30
0.0
 10
78.9912500534
 20
268.3358195364
 30
0.0
 10
78.9912500534
 20
268.6643603406
 30
0.0
  0
SPLINE
  5
3BF
100
AcDbEntity
  8
0
100
AcDbSpline
 62
7
  6
CONTINUOUS
 70
0
 71
3
 72
11
 73
7
 74
0
 42
0.0000001
 43
0.0000001
 44
0.0000000001
 40
0.0
 40
0.0
 40
0.0
 40
0.0
 40
0.2840652502
 40
0.5494820878
 40
0.7860775315
 40
1.0
 40
1.0
 40
1.0
 40
1.0
 10
192.2587321621
 20
255.1643603406
 30
0.0
 10
192.2587321621
 20
255.4222121188
 30
0.0
 10
192.329241625
 20
255.9243179514
 30
0.0
 10
192.6387344546
 20
256.5806568994
 30
0.0
 10
193.1198551697
 20
257.0450736121
 30
0.0
 10
193.5339060502
 20
257.1643174332
 30
0.0
 10
193.7280878052
 20
257.1643058642
 30
0.0
  0
SPLINE
  5
3C0
100
AcDbEntity
  8
0
100
AcDbSpline
 62
7
  6
CONTINUOUS
 70
0
 71
3
 72
11
 73
7
 74
0
 42
0.0000001
 43
0.0000001
 44
0.0000000001
 40
0.0
 40
0.0
 40
0.0
 40
0.0
 40
0.2840652502
 40
0.5494820878
 40
0.7860775315
 40
1.0
 40
1.0
 40
1.0
 40
1.0
 10
192.2587321621
 20
225.1643603406
 30
0.0
 10
192.2587321621
 20
225.4222121188
 30
0.0
 10
192.329241625
 20
225.9243179514
 30
0.0
 10
192.6387344546
 20
226.5806568994
 30
0.0
 10
193.1198551697
 20
227.0450736121
 30
0.0
 10
193.5339060502
 20
227.1643174332
 30
0.0
 10
193.7280878052
 20
227.1643058642
 30
0.0
  0
SPLINE
  5
3C1
100
AcDbEntity
  8
0
100
AcDbSpline
 62
7
  6
CONTINUOUS
 70
0
 71
3
 72
13
 73
9
 74
0
 42
0.0000001
 43
0.0000001
 44
0.0000000001
 40
0.0
 40
0.0
 40
0.0
 40
0.0
 40
0.0780848787
 40
0.1663537947
 40
0.2701886088
 40
0.3910918172
 40
0.6771987045
 40
1.0
 40
1.0
 40
1.0
 40
1.0
 10
87.3171374458
 20
264.4143606485
 30
0.0
 10
87.4491243123
 20
264.4143698883
 30
0.0
 10
87.7322545459
 20
264.4784855015
 30
0.0
 10
88.1164468216
 20
264.7383110778
 30
0.0
 10
88.4657928242
 20
265.1414345101
 30
0.0
 10
88.8973021809
 20
265.8938186761
 30
0.0
 10
89.2601324625
 20
267.0875386755
 30
0.0
 10
89.3561622758
 20
268.1187293257
 30
0.0
 10
89.3561622758
 20
268.6643603406
 30
0.0
  0
SPLINE
  5
3C2
100
AcDbEntity
  8
0
100
AcDbSpline
 62
7
  6
CONTINUOUS
 70
0
 71
3
 72
13
 73
9
 74
0
 42
0.0000001
 43
0.0000001
 44
0.0000000001
 40
0.0
 40
0.0
 40
0.0
 40
0.0
 40
0.087331936
 40
0.1819342167
 40
0.2886386236
 40
0.4093703285
 40
0.6885840695
 40
1.0
 40
1.0
 40
1.0
 40
1.0
 10
79.9443685175
 20
264.4146108165
 30
0.0
 10
80.0973160193
 20
264.4146055178
 30
0.0
 10
80.4183039285
 20
264.4750032765
 30
0.0
 10
80.861732114
 20
264.7326800882
 30
0.0
 10
81.2620438338
 20
265.1371894572
 30
0.0
 10
81.746638701
 20
265.8860580051
 30
0.0
 10
82.1528741119
 20
267.0820078261
 30
0.0
 10
82.2590842635
 20
268.1189666302
 30
0.0
 10
82.2590842635
 20
268.6643603406
 30
0.0
  0
SPLINE
  5
3C3
100
AcDbEntity
  8
0
100
AcDbSpline
 62
7
  6
CONTINUOUS
 70
0
 71
3
 72
9
 73
5
 74
0
 42
0.0000001
 43
0.0000001
 44
0.0000000001
 40
0.0
 40
0.0
 40
0.0
 40
0.0
 40
0.4193889912
 40
1.0
 40
1.0
 40
1.0
 40
1.0
 10
87.0973794175
 20
272.9143605132
 30
0.0
 10
87.4684475794
 20
272.9142268709
 30
0.0
 10
88.3103082302
 20
272.4221221988
 30
0.0
 10
88.7849514791
 20
271.6484377564
 30
0.0
 10
88.9569160373
 20
271.1643603406
 30
0.0
  0
SPLINE
  5
3C4
100
AcDbEntity
  8
0
100
AcDbSpline
 62
7
  6
CONTINUOUS
 70
0
 71
3
 72
11
 73
7
 74
0
 42
0.0000001
 43
0.0000001
 44
0.0000000001
 40
0.0
 40
0.0
 40
0.0
 40
0.0
 40
0.1801947915
 40
0.3457588478
 40
0.5425843904
 40
1.0
 40
1.0
 40
1.0
 40
1.0
 10
66.3184558164
 20
236.8144175408
 30
0.0
 10
66.1631449604
 20
236.8144300225
 30
0.0
 10
65.8649921329
 20
236.9402603591
 30
0.0
 10
65.5613104948
 20
237.3033319807
 30
0.0
 10
65.2556746823
 20
237.9463565289
 30
0.0
 10
65.1747138328
 20
238.5201113755
 30
0.0
 10
65.1747138328
 20
238.9143603406
 30
0.0
  0
SPLINE
  5
3C5
100
AcDbEntity
  8
0
100
AcDbSpline
 62
7
  6
CONTINUOUS
 70
0
 71
3
 72
11
 73
7
 74
0
 42
0.0000001
 43
0.0000001
 44
0.0000000001
 40
0.0
 40
0.0
 40
0.0
 40
0.0
 40
0.1801363399
 40
0.4071769511
 40
0.6874275874
 40
1.0
 40
1.0
 40
1.0
 40
1.0
 10
66.3184559142
 20
235.9145371471
 30
0.0
 10
66.5403231328
 20
235.9145294608
 30
0.0
 10
67.0405222677
 20
236.1271711442
 30
0.0
 10
67.5466753129
 20
236.832562178
 30
0.0
 10
67.8779096533
 20
237.795826682
 30
0.0
 10
67.9523729113
 20
238.5293765451
 30
0.0
 10
67.9523729113
 20
238.9143603406
 30
0.0
  0
SPLINE
  5
3C6
100
AcDbEntity
  8
0
100
AcDbSpline
 62
7
  6
CONTINUOUS
 70
0
 71
3
 72
8
 73
4
 74
0
 42
0.0000001
 43
0.0000001
 44
0.0000000001
 40
0.0
 40
0.0
 40
0.0
 40
0.0
 40
1.0
 40
1.0
 40
1.0
 40
1.0
 10
356.8609265259
 20
356.1696105443
 30
0.0
 10
356.8292888608
 20
356.1659704228
 30
0.0
 10
356.7970497683
 20
356.1629292533
 30
0.0
 10
356.7654308405
 20
356.1667286922
 30
0.0
  0
SPLINE
  5
3C7
100
AcDbEntity
  8
0
100
AcDbSpline
 62
7
  6
CONTINUOUS
 70
0
 71
3
 72
12
 73
8
 74
0
 42
0.0000001
 43
0.0000001
 44
0.0000000001
 40
0.0
 40
0.0
 40
0.0
 40
0.0
 40
0.041846601
 40
0.1075776819
 40
0.3216993297
 40
0.6308452028
 40
1.0
 40
1.0
 40
1.0
 40
1.0
 10
359.4572453199
 20
356.1827645658
 30
0.0
 10
359.4416833119
 20
356.2161373997
 30
0.0
 10
359.3568571552
 20
356.2748907655
 30
0.0
 10
359.0819914575
 20
356.3367334535
 30
0.0
 10
358.55777037
 20
356.3398459852
 30
0.0
 10
357.7768466323
 20
356.2789546437
 30
0.0
 10
357.1836346989
 20
356.2067402432
 30
0.0
 10
356.8609265259
 20
356.1696105443
 30
0.0
  0
SPLINE
  5
3C8
100
AcDbEntity
  8
0
100
AcDbSpline
 62
7
  6
CONTINUOUS
 70
0
 71
3
 72
13
 73
9
 74
0
 42
0.0000001
 43
0.0000001
 44
0.0000000001
 40
0.0
 40
0.0
 40
0.0
 40
0.0
 40
0.3773424306
 40
0.6978819573
 40
0.8213036345
 40
0.9140522462
 40
0.9730547923
 40
1.0
 40
1.0
 40
1.0
 40
1.0
 10
50.1644508369
 20
352.1643603406
 30
0.0
 10
50.1644508369
 20
352.0367742007
 30
0.0
 10
50.1687348561
 20
351.8010853354
 30
0.0
 10
50.185631199
 20
351.5228091176
 30
0.0
 10
50.2057667826
 20
351.3438179346
 30
0.0
 10
50.2229965879
 20
351.2496401461
 30
0.0
 10
50.2366882728
 20
351.1960163466
 30
0.0
 10
50.2548882421
 20
351.1643603523
 30
0.0
 10
50.2639988927
 20
351.1643603406
 30
0.0
  0
SPLINE
  5
3C9
100
AcDbEntity
  8
0
100
AcDbSpline
 62
7
  6
CONTINUOUS
 70
0
 71
3
 72
11
 73
7
 74
0
 42
0.0000001
 43
0.0000001
 44
0.0000000001
 40
0.0
 40
0.0
 40
0.0
 40
0.0
 40
0.1801947915
 40
0.3457588478
 40
0.5425843904
 40
1.0
 40
1.0
 40
1.0
 40
1.0
 10
66.3184558164
 20
226.8144175408
 30
0.0
 10
66.1631449604
 20
226.8144300225
 30
0.0
 10
65.8649921329
 20
226.9402603591
 30
0.0
 10
65.5613104948
 20
227.3033319807
 30
0.0
 10
65.2556746823
 20
227.9463565289
 30
0.0
 10
65.1747138328
 20
228.5201113755
 30
0.0
 10
65.1747138328
 20
228.9143603406
 30
0.0
  0
SPLINE
  5
3CA
100
AcDbEntity
  8
0
100
AcDbSpline
 62
7
  6
CONTINUOUS
 70
0
 71
3
 72
11
 73
7
 74
0
 42
0.0000001
 43
0.0000001
 44
0.0000000001
 40
0.0
 40
0.0
 40
0.0
 40
0.0
 40
0.1801363399
 40
0.4071769511
 40
0.6874275874
 40
1.0
 40
1.0
 40
1.0
 40
1.0
 10
66.3184559142
 20
225.9145371471
 30
0.0
 10
66.5403231328
 20
225.9145294608
 30
0.0
 10
67.0405222677
 20
226.1271711442
 30
0.0
 10
67.5466753129
 20
226.832562178
 30
0.0
 10
67.8779096533
 20
227.795826682
 30
0.0
 10
67.9523729113
 20
228.5293765451
 30
0.0
 10
67.9523729113
 20
228.9143603406
 30
0.0
  0
SPLINE
  5
3CB
100
AcDbEntity
  8
0
100
AcDbSpline
 62
7
  6
CONTINUOUS
 70
0
 71
3
 72
21
 73
17
 74
0
 42
0.0000001
 43
0.0000001
 44
0.0000000001
 40
0.0
 40
0.0
 40
0.0
 40
0.0
 40
0.0017277564
 40
0.0055580451
 40
0.0116164068
 40
0.0199323786
 40
0.0433863863
 40
0.0758287055
 40
0.1169297785
 40
0.1663288567
 40
0.2235842853
 40
0.2882238537
 40
0.4374117158
 40
0.6090443694
 40
0.7983009784
 40
1.0
 40
1.0
 40
1.0
 40
1.0
 10
52.1585744705
 20
370.1115760254
 30
0.0
 10
52.1498727961
 20
370.1115541573
 30
0.0
 10
52.1300952674
 20
370.0846984558
 30
0.0
 10
52.1008067509
 20
370.0389713396
 30
0.0
 10
52.0578840187
 20
369.9553587005
 30
0.0
 10
51.9753861153
 20
369.7851068731
 30
0.0
 10
51.8410769179
 20
369.4898034788
 30
0.0
 10
51.6423903765
 20
369.0440316459
 30
0.0
 10
51.395337682
 20
368.4760559003
 30
0.0
 10
51.1030880319
 20
367.7917522735
 30
0.0
 10
50.7680986466
 20
366.9967118768
 30
0.0
 10
50.2423348323
 20
365.7367273163
 30
0.0
 10
49.5018475155
 20
363.9421510836
 30
0.0
 10
48.5269547296
 20
361.5653499732
 30
0.0
 10
47.4674986364
 20
358.9374391223
 30
0.0
 10
46.7335700194
 20
357.1103084907
 30
0.0
 10
46.3500899394
 20
356.1696306724
 30
0.0
  0
SPLINE
  5
3CC
100
AcDbEntity
  8
0
100
AcDbSpline
 62
7
  6
CONTINUOUS
 70
0
 71
3
 72
22
 73
18
 74
0
 42
0.0000001
 43
0.0000001
 44
0.0000000001
 40
0.0
 40
0.0
 40
0.0
 40
0.0
 40
0.0016011341
 40
0.0054043113
 40
0.0114780761
 40
0.0198318356
 40
0.0304653988
 40
0.0433607203
 40
0.0758059327
 40
0.1168966547
 40
0.1662852635
 40
0.2235532075
 40
0.2882035337
 40
0.4373890789
 40
0.6090367072
 40
0.7982671933
 40
1.0
 40
1.0
 40
1.0
 40
1.0
 10
351.0520762945
 20
370.1115480128
 30
0.0
 10
351.0601397656
 20
370.1115009311
 30
0.0
 10
351.0772763845
 20
370.0830256559
 30
0.0
 10
351.1070463965
 20
370.0393842846
 30
0.0
 10
351.1501381576
 20
369.9551107971
 30
0.0
 10
351.2061310666
 20
369.843356123
 30
0.0
 10
351.2748937599
 20
369.6977307443
 30
0.0
 10
351.3926379574
 20
369.4418430218
 30
0.0
 10
351.5694319519
 20
369.0439061408
 30
0.0
 10
351.8158020175
 20
368.4760352898
 30
0.0
 10
352.1077265164
 20
367.7915808652
 30
0.0
 10
352.4427869125
 20
366.9965755657
 30
0.0
 10
352.9688905111
 20
365.7366737992
 30
0.0
 10
353.7096913427
 20
363.9421992746
 30
0.0
 10
354.681576145
 20
361.5643711207
 30
0.0
 10
355.7465056729
 20
358.9386959747
 30
0.0
 10
356.4823316501
 20
357.1123919302
 30
0.0
 10
356.8609272965
 20
356.1696046006
 30
0.0
  0
SPLINE
  5
3CD
100
AcDbEntity
  8
0
100
AcDbSpline
 62
7
  6
CONTINUOUS
 70
0
 71
3
 72
13
 73
9
 74
0
 42
0.0000001
 43
0.0000001
 44
0.0000000001
 40
0.0
 40
0.0
 40
0.0
 40
0.0
 40
0.3773288272
 40
0.6978563671
 40
0.8212739721
 40
0.9140212361
 40
0.9730288029
 40
1.0
 40
1.0
 40
1.0
 40
1.0
 10
353.04751948
 20
352.1643603406
 30
0.0
 10
353.04751948
 20
352.0367702542
 30
0.0
 10
353.0432251034
 20
351.8010727394
 30
0.0
 10
353.0262851744
 20
351.5227942103
 30
0.0
 10
353.0061009222
 20
351.3437954972
 30
0.0
 10
352.9888244444
 20
351.2496307307
 30
0.0
 10
352.9751028514
 20
351.1959797827
 30
0.0
 10
352.956843018
 20
351.1643557655
 30
0.0
 10
352.9477229702
 20
351.1643603418
 30
0.0
  0
SPLINE
  5
3CE
100
AcDbEntity
  8
0
100
AcDbSpline
 62
7
  6
CONTINUOUS
 70
0
 71
3
 72
11
 73
7
 74
0
 42
0.0000001
 43
0.0000001
 44
0.0000000001
 40
0.0
 40
0.0
 40
0.0
 40
0.0
 40
0.1801947915
 40
0.3457588478
 40
0.5425843904
 40
1.0
 40
1.0
 40
1.0
 40
1.0
 10
71.7648461665
 20
226.8144175408
 30
0.0
 10
71.6095353106
 20
226.8144300225
 30
0.0
 10
71.3113824831
 20
226.9402603591
 30
0.0
 10
71.007700845
 20
227.3033319807
 30
0.0
 10
70.7020650325
 20
227.9463565289
 30
0.0
 10
70.6211041829
 20
228.5201113755
 30
0.0
 10
70.6211041829
 20
228.9143603406
 30
0.0
  0
ENDSEC
  0
SECTION
  2
OBJECTS
  0
DICTIONARY
  5
C
100
AcDbDictionary
280
0
281
1
  3
ACAD_GROUP
350
D
  3
ACAD_MLINESTYLE
350
17
  3
ACAD_LAYOUT
350
1A
  3
ACAD_PLOTSETTINGS
350
19
  3
ACAD_PLOTSTYLENAME
350
E
  0
DICTIONARY
  5
D
102
{ACAD_REACTORS
330
C
102
}
100
AcDbDictionary
280
0
281
1
  0
ACDBDICTIONARYWDFLT
  5
E
102
{ACAD_REACTORS
330
C
102
}
100
AcDbDictionary
281
1
  3
Normal
350
F
100
AcDbDictionaryWithDefault
340
F
  0
DICTIONARY
  5
17
102
{ACAD_REACTORS
330
C
102
}
100
AcDbDictionary
280
0
281
1
  3
Standard
350
18
  0
DICTIONARY
  5
19
102
{ACAD_REACTORS
330
C
102
}
100
AcDbDictionary
281
1
  0
DICTIONARY
  5
1A
102
{ACAD_REACTORS
330
C
102
}
100
AcDbDictionary
281
1
  3
Model
350
3CF
  3
Layout1
350
3D0
  0
ACDBPLACEHOLDER
  5
F
102
{ACAD_REACTORS
330
E
102
}
  0
MLINESTYLE
  5
18
102
{ACAD_REACTORS
330
17
102
}
100
AcDbMlineStyle
  2
STANDARD
 70
0
  3

 62
256
 51
90.0
 52
90.0
 71
2
 49
0.5
 62
256
  6
BYLAYER
 49
-0.5
 62
256
  6
BYLAYER
  0
LAYOUT
  5
3CF
102
{ACAD_REACTORS
330
1A
102
}
100
AcDbPlotSettings
  1

  2
none_device
  4

  6

 40
0.0
 41
0.0
 42
0.0
 43
0.0
 44
210.0
 45
297.0
 46
0.0
 47
0.0
 48
0.0
 49
0.0
140
0.0
141
0.0
142
1.0
143
1.0
 70
1024
 72
1
 73
0
 74
0
  7

 75
0
147
1.0
148
0.0
149
0.0
100
AcDbLayout
  1
Model
 70
0
 71
0
 10
0.0
 20
0.0
 11
210.0
 21
297.0
 12
0.0
 22
0.0
 32
0.0
 14
0.0
 24
0.0
 34
0.0
 15
0.0
 25
0.0
 35
0.0
146
0.0
 13
0.0
 23
0.0
 33
0.0
 16
1.0
 26
0.0
 36
0.0
 17
0.0
 27
1.0
 37
0.0
 76
0
330
210
345
0
346
0
  0
LAYOUT
  5
3D0
102
{ACAD_REACTORS
330
1A
102
}
100
AcDbPlotSettings
  1

  2
none_device
  4

  6

 40
0.0
 41
0.0
 42
0.0
 43
0.0
 44
210.0
 45
297.0
 46
0.0
 47
0.0
 48
0.0
 49
0.0
140
0.0
141
0.0
142
1.0
143
1.0
 70
0
 72
1
 73
0
 74
0
  7

 75
0
147
1.0
148
0.0
149
0.0
100
AcDbLayout
  1
Layout1
 70
0
 71
1
 10
0.0
 20
0.0
 11
210.0
 21
297.0
 12
0.0
 22
0.0
 32
0.0
 14
0.0
 24
0.0
 34
0.0
 15
0.0
 25
0.0
 35
0.0
146
0.0
 13
0.0
 23
0.0
 33
0.0
 16
1.0
 26
0.0
 36
0.0
 17
0.0
 27
1.0
 37
0.0
 76
0
330
211
345
0
346
0
  0
ENDSEC
  0
EOF
