999
DXF file: C:\Users\sesa63760\Dev\_Creo\CAD\MCADID0003428_3D-CAD\drw0001_1.dxf
999
Pro/ENGINEER 2019471 by Parametric Technology Corporation
  0
SECTION
  2
HEADER
  9
$ACADVER
  1
AC1024
  9
$DWGCODEPAGE
  3
ANSI_1252
  9
$EXTMAX
 10
102.0992270103
 20
144.3974782004
 30
0.0
  9
$EXTMIN
 10
0.0
 20
0.0
 30
0.0
  9
$LIMMIN
 10
0.0
 20
0.0
  9
$LIMMAX
 10
102.0992270103
 20
144.3974782004
  9
$VIEWCTR
 10
51.0496135052
 20
72.1987391002
  9
$VIEWSIZE
 40
144.3974782004
  9
$CLAYER
  8
0
  9
$LTSCALE
 40
9.4125763568
  9
$CELTYPE
  6
BYLAYER
  9
$DIMSCALE
 40
1.0
  9
$DIMASZ
 40
1.2154669882
  9
$DIMEXO
 40
1.0
  9
$DIMDLI
 40
6.5032345738
  9
$DIMEXE
 40
1.0
  9
$DIMCEN
 40
1.5402397675
  9
$DIMLFAC
 40
1.0
  9
$DIMBLK
  1
_FILLED
  9
$DIMALT
 70
0
  9
$DIMALTF
 40
0.0393700787
  9
$DIMTXT
 40
1.7016537835
  9
$DIMTOL
 70
1
  9
$DIMLIM
 70
0
  9
$DIMTFAC
 40
1.0
  9
$DIMTP
 40
0.01
  9
$DIMTM
 40
0.01
  9
$DIMGAP
 40
0.625
  9
$DIMDSEP
 70
46
  9
$AUNITS
 70
0
  9
$PDMODE
 70
3
  9
$PDSIZE
 40
0.3125
  9
$HANDSEED
  5
340
  9
$TILEMODE
 70
1
  9
$MEASUREMENT
 70
1
  9
$INSUNITS
 70
4
  0
ENDSEC
  0
SECTION
  2
CLASSES
  0
CLASS
  1
ACDBDICTIONARYWDFLT
  2
AcDbDictionaryWithDefault
  3
AutoCAD 2000
 90
0
 91
1
280
0
281
0
  0
CLASS
  1
ACDBPLACEHOLDER
  2
AcDbPlaceHolder
  3
AutoCAD 2000
 90
0
 91
1
280
0
281
0
  0
CLASS
  1
LAYOUT
  2
AcDbLayout
  3
AutoCAD 2000
 90
0
 91
0
280
0
281
0
  0
ENDSEC
  0
SECTION
  2
TABLES
  0
TABLE
  2
VPORT
  5
8
100
AcDbSymbolTable
 70
2
  0
VPORT
  5
1F4
100
AcDbSymbolTableRecord
100
AcDbViewportTableRecord
  2
*ACTIVE
 70
0
 10
0.0
 20
0.0
 11
1.0
 21
1.0
 12
51.0496135052
 22
72.1987391002
 13
0.0
 23
0.0
 14
1.0
 24
1.0
 15
0.0
 25
0.0
 16
0.0
 26
0.0
 36
1.0
 17
0.0
 27
0.0
 37
0.0
 40
144.3974782004
 41
0.7070707071
 42
50.0
 43
0.0
 44
0.0
 50
0.0
 51
0.0
 71
0
 72
100
 73
1
 74
1
 75
0
 76
0
 77
0
 78
0
  0
ENDTAB
  0
TABLE
  2
LTYPE
  5
5
100
AcDbSymbolTable
 70
6
  0
LTYPE
  5
14
100
AcDbSymbolTableRecord
100
AcDbLinetypeTableRecord
  2
BYBLOCK
 70
0
  3

 72
65
 73
0
 40
0.0
  0
LTYPE
  5
15
100
AcDbSymbolTableRecord
100
AcDbLinetypeTableRecord
  2
BYLAYER
 70
0
  3

 72
65
 73
0
 40
0.0
  0
LTYPE
  5
16
100
AcDbSymbolTableRecord
100
AcDbLinetypeTableRecord
  2
CONTINUOUS
 70
64
  3
Solid line
 72
65
 73
0
 40
0.0
  0
LTYPE
  5
1F5
100
AcDbSymbolTableRecord
100
AcDbLinetypeTableRecord
  2
CENTER
 70
64
  3
____ _ ____ _ ____ _ ____ _ ____ _ ____ _ ____
 72
65
 73
4
 40
0.6
 49
0.375
 74
0
 49
-0.075
 74
0
 49
0.075
 74
0
 49
-0.075
 74
0
  0
LTYPE
  5
1F6
100
AcDbSymbolTableRecord
100
AcDbLinetypeTableRecord
  2
HIDDEN
 70
64
  3
- - - - - - - - - - - - - - - - - - - -
 72
65
 73
2
 40
0.2
 49
0.1
 74
0
 49
-0.1
 74
0
  0
LTYPE
  5
1F7
100
AcDbSymbolTableRecord
100
AcDbLinetypeTableRecord
  2
PHANTOM
 70
64
  3
_____ _ _ _____ _ _ _____ _ _ _____
 72
65
 73
6
 40
0.8
 49
0.45
 74
0
 49
-0.05
 74
0
 49
0.1
 74
0
 49
-0.05
 74
0
 49
0.1
 74
0
 49
-0.05
 74
0
  0
LTYPE
  5
1F8
100
AcDbSymbolTableRecord
100
AcDbLinetypeTableRecord
  2
DOT
 70
64
  3
. . . . . . . . . . . . . . . . . . . .
 72
65
 73
2
 40
0.2
 49
0.1
 74
0
 49
-0.1
 74
0
  0
LTYPE
  5
1F9
100
AcDbSymbolTableRecord
100
AcDbLinetypeTableRecord
  2
DASHED
 70
64
  3
- - - - - - - - - - - - - - - - - - - -
 72
65
 73
2
 40
0.2
 49
0.1
 74
0
 49
-0.1
 74
0
  0
ENDTAB
  0
TABLE
  2
LAYER
  5
2
100
AcDbSymbolTable
 70
36
  0
LAYER
  5
10
100
AcDbSymbolTableRecord
100
AcDbLayerTableRecord
  2
0
 70
0
 62
7
  6
CONTINUOUS
370
-3
390
F
  0
LAYER
  5
1FA
100
AcDbSymbolTableRecord
100
AcDbLayerTableRecord
  2
DEFAULT_1
 70
0
 62
7
  6
CENTER
370
-3
390
F
  0
LAYER
  5
1FB
100
AcDbSymbolTableRecord
100
AcDbLayerTableRecord
  2
DEFAULT_2
 70
0
 62
7
  6
HIDDEN
370
-3
390
F
  0
LAYER
  5
1FC
100
AcDbSymbolTableRecord
100
AcDbLayerTableRecord
  2
DEFAULT_3
 70
0
 62
7
  6
PHANTOM
370
-3
390
F
  0
LAYER
  5
1FD
100
AcDbSymbolTableRecord
100
AcDbLayerTableRecord
  2
00_COMPONENTS
 70
0
 62
7
  6
CONTINUOUS
370
-3
390
F
  0
LAYER
  5
1FE
100
AcDbSymbolTableRecord
100
AcDbLayerTableRecord
  2
01_1_DEFAULT_DATUMS
 70
0
 62
7
  6
CONTINUOUS
370
-3
390
F
  0
LAYER
  5
1FF
100
AcDbSymbolTableRecord
100
AcDbLayerTableRecord
  2
01_PLANES
 70
0
 62
7
  6
CONTINUOUS
370
-3
390
F
  0
LAYER
  5
200
100
AcDbSymbolTableRecord
100
AcDbLayerTableRecord
  2
02_COORD_SYS
 70
0
 62
7
  6
CONTINUOUS
370
-3
390
F
  0
LAYER
  5
201
100
AcDbSymbolTableRecord
100
AcDbLayerTableRecord
  2
03_AXES
 70
0
 62
7
  6
CONTINUOUS
370
-3
390
F
  0
LAYER
  5
202
100
AcDbSymbolTableRecord
100
AcDbLayerTableRecord
  2
04_POINTS
 70
0
 62
7
  6
CONTINUOUS
370
-3
390
F
  0
LAYER
  5
203
100
AcDbSymbolTableRecord
100
AcDbLayerTableRecord
  2
05_CURVES
 70
0
 62
7
  6
CONTINUOUS
370
-3
390
F
  0
LAYER
  5
204
100
AcDbSymbolTableRecord
100
AcDbLayerTableRecord
  2
06_SURFS
 70
0
 62
7
  6
CONTINUOUS
370
-3
390
F
  0
LAYER
  5
205
100
AcDbSymbolTableRecord
100
AcDbLayerTableRecord
  2
07_COSMETICS
 70
0
 62
7
  6
CONTINUOUS
370
-3
390
F
  0
LAYER
  5
206
100
AcDbSymbolTableRecord
100
AcDbLayerTableRecord
  2
10_NOTES
 70
0
 62
7
  6
CONTINUOUS
370
-3
390
F
  0
LAYER
  5
207
100
AcDbSymbolTableRecord
100
AcDbLayerTableRecord
  2
11_NOTES_PUB
 70
0
 62
7
  6
CONTINUOUS
370
-3
390
F
  0
LAYER
  5
208
100
AcDbSymbolTableRecord
100
AcDbLayerTableRecord
  2
13_REF_GTOL
 70
0
 62
7
  6
CONTINUOUS
370
-3
390
F
  0
LAYER
  5
209
100
AcDbSymbolTableRecord
100
AcDbLayerTableRecord
  2
16_MISC
 70
0
 62
7
  6
CONTINUOUS
370
-3
390
F
  0
LAYER
  5
20A
100
AcDbSymbolTableRecord
100
AcDbLayerTableRecord
  2
17_NO_PRINT
 70
0
 62
7
  6
CONTINUOUS
370
-3
390
F
  0
LAYER
  5
20B
100
AcDbSymbolTableRecord
100
AcDbLayerTableRecord
  2
18_DATUM_CAMS_JOINTS
 70
0
 62
7
  6
CONTINUOUS
370
-3
390
F
  0
LAYER
  5
20C
100
AcDbSymbolTableRecord
100
AcDbLayerTableRecord
  2
19_DATUM_FUNCTIONAL
 70
0
 62
7
  6
CONTINUOUS
370
-3
390
F
  0
LAYER
  5
20D
100
AcDbSymbolTableRecord
100
AcDbLayerTableRecord
  2
20_DATUM_KINEMATIC_SCHEME
 70
0
 62
7
  6
CONTINUOUS
370
-3
390
F
  0
ENDTAB
  0
TABLE
  2
STYLE
  5
3
100
AcDbSymbolTable
 70
1
  0
STYLE
  5
11
100
AcDbSymbolTableRecord
100
AcDbTextStyleTableRecord
  2
STANDARD
 70
0
 40
0.0
 41
1.0
 50
0.0
 71
0
 42
0.2
  3
ARIAL.TTF
  4

  0
STYLE
  5
20E
100
AcDbSymbolTableRecord
100
AcDbTextStyleTableRecord
  2
TEXTSTYLE_1
 70
0
 40
0.0
 41
0.8
 50
0.0
 71
0
 42
0.2
  3
gdt
  4

  0
ENDTAB
  0
TABLE
  2
VIEW
  5
6
100
AcDbSymbolTable
 70
0
  0
ENDTAB
  0
TABLE
  2
UCS
  5
7
100
AcDbSymbolTable
 70
0
  0
ENDTAB
  0
TABLE
  2
APPID
  5
9
100
AcDbSymbolTable
 70
1
  0
APPID
  5
20F
100
AcDbSymbolTableRecord
100
AcDbRegAppTableRecord
  2
ACAD
 70
0
  0
ENDTAB
  0
TABLE
  2
BLOCK_RECORD
  5
1
100
AcDbSymbolTable
 70
0
  0
BLOCK_RECORD
  5
210
100
AcDbSymbolTableRecord
100
AcDbBlockTableRecord
  2
*Model_Space
  0
BLOCK_RECORD
  5
211
100
AcDbSymbolTableRecord
100
AcDbBlockTableRecord
  2
*Paper_Space
  0
BLOCK_RECORD
  5
212
100
AcDbSymbolTableRecord
100
AcDbBlockTableRecord
  2
_FILLED
  0
ENDTAB
  0
TABLE
  2
DIMSTYLE
  5
A
100
AcDbSymbolTable
 70
1
100
AcDbDimStyleTable
 71
0
  0
DIMSTYLE
105
213
100
AcDbSymbolTableRecord
100
AcDbDimStyleTableRecord
  2
STANDARD
 70
0
  3

  4

 40
1.0
 41
1.2154669882
 42
1.0
 43
0.38
 44
1.0
 45
0.0
 46
0.0
 47
0.01
 48
0.01
140
1.7016537835
141
0.09
142
0.0
143
25.4
144
1.0
145
0.0
146
1.0
147
0.625
 71
1
 72
0
 73
0
 74
0
 75
0
 76
0
 77
1
 78
8
 79
2
170
0
171
1
172
0
173
0
174
0
175
0
176
0
177
0
178
0
270
2
179
2
271
2
272
2
273
2
274
2
275
0
280
0
281
0
282
0
283
1
284
8
285
0
286
0
287
3
288
0
340
11
278
46
341
212
342
212
343
212
344
212
  0
ENDTAB
  0
ENDSEC
  0
SECTION
  2
BLOCKS
  0
BLOCK
  5
20
100
AcDbEntity
  8
0
100
AcDbBlockBegin
  2
*Model_Space
 70
0
 10
0.0
 20
0.0
 30
0.0
  3
*Model_Space
  1

  0
ENDBLK
  5
21
100
AcDbEntity
  8
0
100
AcDbBlockEnd
  0
BLOCK
  5
1C
100
AcDbEntity
  8
0
100
AcDbBlockBegin
  2
*Paper_Space
 70
0
 10
0.0
 20
0.0
 30
0.0
  3
*Paper_Space
  1

  0
ENDBLK
  5
1D
100
AcDbEntity
  8
0
100
AcDbBlockEnd
  0
BLOCK
  5
214
100
AcDbEntity
  8
0
100
AcDbBlockBegin
  2
_FILLED
 70
64
 10
0.0
 20
0.0
  3
_FILLED
  1

  0
SOLID
  5
215
100
AcDbEntity
  8
0
  6
BYBLOCK
 62
0
100
AcDbTrace
 10
0.0
 20
0.0
 11
-1.0
 21
0.25
 12
-1.0
 22
-0.25
 13
-1.0
 23
-0.25
  0
ENDBLK
  5
216
100
AcDbEntity
  8
0
  6
BYBLOCK
 62
0
100
AcDbBlockEnd
  0
ENDSEC
  0
SECTION
  2
ENTITIES
  0
LINE
  5
217
100
AcDbEntity
  8
0
100
AcDbLine
 62
7
  6
BYLAYER
 10
24.2036202635
 20
131.1558370206
 11
27.7391394496
 21
133.19705779
  0
LINE
  5
218
100
AcDbEntity
  8
0
100
AcDbLine
 62
7
  6
BYLAYER
 10
23.4134128488
 20
125.7637682237
 11
25.1811724419
 21
126.7843786083
  0
LINE
  5
219
100
AcDbEntity
  8
0
100
AcDbLine
 62
7
  6
BYLAYER
 10
26.7262219111
 20
126.0597062549
 11
28.4939815042
 21
127.0803166396
  0
LINE
  5
21A
100
AcDbEntity
  8
0
100
AcDbLine
 62
7
  6
BYLAYER
 10
30.0390309735
 20
121.9385523538
 11
31.8067905665
 21
122.9591627385
  0
LINE
  5
21B
100
AcDbEntity
  8
0
100
AcDbLine
 62
7
  6
BYLAYER
 10
31.7112509721
 20
19.3550667024
 11
35.6963847351
 21
17.0543007019
  0
LINE
  5
21C
100
AcDbEntity
  8
0
100
AcDbLine
 62
7
  6
BYLAYER
 10
37.2967366961
 20
16.1303579688
 11
44.4392260248
 21
12.0067331211
  0
LINE
  5
21D
100
AcDbEntity
  8
0
100
AcDbLine
 62
7
  6
BYLAYER
 10
30.0390309735
 20
117.5214604215
 11
31.8067905665
 21
118.5420708062
  0
LINE
  5
21E
100
AcDbEntity
  8
0
100
AcDbLine
 62
7
  6
BYLAYER
 10
30.3676948021
 20
26.744251894
 11
31.004141247
 21
26.3768076804
  0
LINE
  5
21F
100
AcDbEntity
  8
0
100
AcDbLine
 62
7
  6
BYLAYER
 10
50.4596579655
 20
15.1444139764
 11
57.2378643577
 21
11.2311032222
  0
LINE
  5
220
100
AcDbEntity
  8
0
100
AcDbLine
 62
7
  6
BYLAYER
 10
33.7035777332
 20
114.7013297939
 11
37.2390969193
 21
116.7425505632
  0
LINE
  5
221
100
AcDbEntity
  8
0
100
AcDbLine
 62
7
  6
BYLAYER
 10
51.5103232762
 20
19.5186598991
 11
48.6818843756
 21
21.1516229172
  0
LINE
  5
222
100
AcDbEntity
  8
0
100
AcDbLine
 62
7
  6
BYLAYER
 10
27.4685926212
 20
33.3988455528
 11
24.6401537206
 21
35.0318085709
  0
LINE
  5
223
100
AcDbEntity
  8
0
100
AcDbLine
 62
7
  6
BYLAYER
 10
55.469895743
 20
122.2340029075
 11
38.8490686583
 21
112.6380211963
  0
LINE
  5
224
100
AcDbEntity
  8
0
100
AcDbLine
 62
7
  6
BYLAYER
 10
35.437761028
 20
110.668513574
 11
32.1354691149
 21
108.7619458298
  0
LINE
  5
225
100
AcDbEntity
  8
0
100
AcDbLine
 62
7
  6
BYLAYER
 10
37.7432616055
 20
110.8972612619
 11
38.9453381288
 21
111.5912763235
  0
LINE
  5
226
100
AcDbEntity
  8
0
100
AcDbLine
 62
7
  6
BYLAYER
 10
33.3947471067
 20
98.4820841337
 11
35.437761028
 21
100.1483089007
  0
LINE
  5
227
100
AcDbEntity
  8
0
100
AcDbLine
 62
7
  6
BYLAYER
 10
33.1467049107
 20
98.6252881226
 11
27.0090436037
 21
95.081728867
  0
LINE
  5
228
100
AcDbEntity
  8
0
100
AcDbLine
 62
7
  6
BYLAYER
 10
37.3062287663
 20
16.1467990885
 11
35.0214873223
 21
22.0353618604
  0
LINE
  5
229
100
AcDbEntity
  8
0
100
AcDbLine
 62
7
  6
BYLAYER
 10
35.450149812
 20
22.0736549014
 11
37.7348912559
 21
16.1850921295
  0
LINE
  5
22A
100
AcDbEntity
  8
0
100
AcDbLine
 62
7
  6
BYLAYER
 10
35.9407223107
 20
22.5660792604
 11
36.0070343367
 21
22.3951704125
  0
LINE
  5
22B
100
AcDbEntity
  8
0
100
AcDbLine
 62
7
  6
BYLAYER
 10
23.325921857
 20
84.2911750945
 11
23.3259186702
 21
84.7330938712
  0
LINE
  5
22C
100
AcDbEntity
  8
0
100
AcDbLine
 62
7
  6
BYLAYER
 10
23.4134128488
 20
125.7637682237
 11
23.4134128488
 21
121.3466762913
  0
LINE
  5
22D
100
AcDbEntity
  8
0
100
AcDbLine
 62
7
  6
BYLAYER
 10
23.9330439955
 20
73.8973131722
 11
23.9330439955
 21
36.2565517425
  0
LWPOLYLINE
  5
22E
100
AcDbEntity
  8
0
100
AcDbPolyline
 62
7
  6
BYLAYER
 90
3
 70
0
 10
27.611474101
 20
93.6954499693
 10
27.3997001429
 20
92.7336151307
 10
27.4342697448
 20
92.4893265756
  0
LINE
  5
22F
100
AcDbEntity
  8
0
100
AcDbLine
 62
7
  6
BYLAYER
 10
28.4613185134
 20
92.7540984278
 11
29.8048158041
 21
93.5297623201
  0
LINE
  5
230
100
AcDbEntity
  8
0
100
AcDbLine
 62
7
  6
BYLAYER
 10
28.4309006236
 20
92.1591873481
 11
28.7113173941
 21
92.3210850797
  0
LINE
  5
231
100
AcDbEntity
  8
0
100
AcDbLine
 62
7
  6
BYLAYER
 10
24.1653445296
 20
89.3043624033
 11
26.4232688881
 21
90.607967858
  0
LINE
  5
232
100
AcDbEntity
  8
0
100
AcDbLine
 62
7
  6
BYLAYER
 10
31.7749631512
 20
92.3301861816
 11
35.437761028
 21
94.4448908986
  0
LINE
  5
233
100
AcDbEntity
  8
0
100
AcDbLine
 62
7
  6
BYLAYER
 10
27.7539263848
 20
89.6249356175
 11
29.6010831058
 21
90.6913856818
  0
LINE
  5
234
100
AcDbEntity
  8
0
100
AcDbLine
 62
7
  6
BYLAYER
 10
26.0220033774
 20
92.5710191645
 11
26.0220033774
 21
93.7059575243
  0
LINE
  5
235
100
AcDbEntity
  8
0
100
AcDbLine
 62
7
  6
BYLAYER
 10
28.3663409029
 20
115.638196642
 11
28.3663409029
 21
95.8653601504
  0
LINE
  5
236
100
AcDbEntity
  8
0
100
AcDbLine
 62
7
  6
BYLAYER
 10
28.3663409029
 20
94.0947438857
 11
28.3663409029
 21
92.6663919395
  0
LINE
  5
237
100
AcDbEntity
  8
0
100
AcDbLine
 62
7
  6
BYLAYER
 10
28.3663409029
 20
80.0043690199
 11
28.3663409029
 21
70.0164457858
  0
LINE
  5
238
100
AcDbEntity
  8
0
100
AcDbLine
 62
7
  6
BYLAYER
 10
29.6605850769
 20
31.2490956929
 11
29.6605850769
 21
27.9689950656
  0
LINE
  5
239
100
AcDbEntity
  8
0
100
AcDbLine
 62
7
  6
BYLAYER
 10
35.437761028
 20
93.3099525388
 11
31.7749631512
 21
91.1952478217
  0
LINE
  5
23A
100
AcDbEntity
  8
0
100
AcDbLine
 62
7
  6
BYLAYER
 10
23.9472545609
 20
86.1064720932
 11
25.9333324637
 21
87.2531278603
  0
LINE
  5
23B
100
AcDbEntity
  8
0
100
AcDbLine
 62
7
  6
BYLAYER
 10
28.3663409029
 20
70.0164457858
 11
31.2733844199
 21
60.7768367455
  0
LINE
  5
23C
100
AcDbEntity
  8
0
100
AcDbLine
 62
7
  6
BYLAYER
 10
30.0390309735
 20
117.5214604215
 11
30.0390309735
 21
121.9385523538
  0
LINE
  5
23D
100
AcDbEntity
  8
0
100
AcDbLine
 62
7
  6
BYLAYER
 10
30.6718414805
 20
114.5506066157
 11
30.6718414805
 21
97.1964335841
  0
LINE
  5
23E
100
AcDbEntity
  8
0
100
AcDbLine
 62
7
  6
BYLAYER
 10
30.6718414805
 20
94.0129827216
 11
30.6718414805
 21
93.7305166384
  0
LINE
  5
23F
100
AcDbEntity
  8
0
100
AcDbLine
 62
7
  6
BYLAYER
 10
30.6718414805
 20
80.2427925955
 11
30.6718414805
 21
68.4065583561
  0
LINE
  5
240
100
AcDbEntity
  8
0
100
AcDbLine
 62
7
  6
BYLAYER
 10
31.004141247
 20
20.5798098741
 11
31.004141247
 21
27.2751296945
  0
LINE
  5
241
100
AcDbEntity
  8
0
100
AcDbLine
 62
7
  6
BYLAYER
 10
31.7749631512
 20
91.1952478217
 11
31.7749631512
 21
92.3301861816
  0
LINE
  5
242
100
AcDbEntity
  8
0
100
AcDbLine
 62
7
  6
BYLAYER
 10
31.8067905665
 20
122.9591627385
 11
31.8067905665
 21
118.5420708062
  0
LINE
  5
243
100
AcDbEntity
  8
0
100
AcDbLine
 62
7
  6
BYLAYER
 10
31.8739180037
 20
69.1005734177
 11
31.8739180037
 21
80.682736397
  0
LINE
  5
244
100
AcDbEntity
  8
0
100
AcDbLine
 62
7
  6
BYLAYER
 10
31.8739180037
 20
97.8904486457
 11
31.8739180037
 21
114.3622252536
  0
LINE
  5
245
100
AcDbEntity
  8
0
100
AcDbLine
 62
7
  6
BYLAYER
 10
32.1354691149
 20
98.0414543487
 11
32.1354691149
 21
108.7619458298
  0
LINE
  5
246
100
AcDbEntity
  8
0
100
AcDbLine
 62
7
  6
BYLAYER
 10
31.3425082399
 20
85.160718745
 11
33.6004325984
 21
86.4643241997
  0
LINE
  5
247
100
AcDbEntity
  8
0
100
AcDbLine
 62
7
  6
BYLAYER
 10
26.9472411303
 20
80.9103119163
 11
28.933319033
 21
82.0569676835
  0
LINE
  5
248
100
AcDbEntity
  8
0
100
AcDbLine
 62
7
  6
BYLAYER
 10
78.8045166728
 20
108.7620580084
 11
55.4700900448
 21
95.2900009306
  0
LINE
  5
249
100
AcDbEntity
  8
0
100
AcDbLine
 62
7
  6
BYLAYER
 10
81.4208197119
 20
31.4801341526
 11
81.2794007109
 21
31.5617806039
  0
LINE
  5
24A
100
AcDbEntity
  8
0
100
AcDbLine
 62
7
  6
BYLAYER
 10
31.2733844199
 20
60.7768367455
 11
31.8705094674
 21
60.4320942377
  0
LINE
  5
24B
100
AcDbEntity
  8
0
100
AcDbLine
 62
7
  6
BYLAYER
 10
34.239093041
 20
59.0646228102
 11
34.8362180885
 21
58.7198803024
  0
LINE
  5
24C
100
AcDbEntity
  8
0
100
AcDbLine
 62
7
  6
BYLAYER
 10
35.437761028
 20
65.6550156706
 11
35.437761028
 21
81.7708407506
  0
LINE
  5
24D
100
AcDbEntity
  8
0
100
AcDbLine
 62
7
  6
BYLAYER
 10
35.437761028
 20
90.9821853921
 11
35.437761028
 21
112.195653447
  0
LINE
  5
24E
100
AcDbEntity
  8
0
100
AcDbLine
 62
7
  6
BYLAYER
 10
37.7432616055
 20
64.602800567
 11
37.7432616055
 21
110.8972612619
  0
LINE
  5
24F
100
AcDbEntity
  8
0
100
AcDbLine
 62
7
  6
BYLAYER
 10
31.3425082399
 20
80.3759286582
 11
33.6004325984
 21
81.6795341129
  0
LINE
  5
250
100
AcDbEntity
  8
0
100
AcDbLine
 62
7
  6
BYLAYER
 10
33.3324380503
 20
81.1326886259
 11
34.7112905329
 21
81.928764726
  0
LINE
  5
251
100
AcDbEntity
  8
0
100
AcDbLine
 62
7
  6
BYLAYER
 10
34.9612894136
 20
81.4957513779
 11
36.3047867044
 21
82.2714152702
  0
LINE
  5
252
100
AcDbEntity
  8
0
100
AcDbLine
 62
7
  6
BYLAYER
 10
28.3663409029
 20
76.7950735641
 11
24.1401559591
 21
74.3550991138
  0
LINE
  5
253
100
AcDbEntity
  8
0
100
AcDbLine
 62
7
  6
BYLAYER
 10
24.6401537206
 20
74.3055748348
 11
28.3663409029
 21
76.456877166
  0
LINE
  5
254
100
AcDbEntity
  8
0
100
AcDbLine
 62
7
  6
BYLAYER
 10
39.1068560646
 20
80.1941449042
 11
40.3796429716
 21
80.9289843811
  0
LINE
  5
255
100
AcDbEntity
  8
0
100
AcDbLine
 62
7
  6
BYLAYER
 10
46.7435775065
 20
84.603181766
 11
48.652757867
 21
85.7054409814
  0
LINE
  5
256
100
AcDbEntity
  8
0
100
AcDbLine
 62
7
  6
BYLAYER
 10
46.2709517296
 20
84.3789635674
 11
46.7435775065
 21
84.603181766
  0
LINE
  5
257
100
AcDbEntity
  8
0
100
AcDbLine
 62
7
  6
BYLAYER
 10
41.8860734306
 20
82.7133058193
 11
46.2709517296
 21
84.3789635674
  0
LINE
  5
258
100
AcDbEntity
  8
0
100
AcDbLine
 62
7
  6
BYLAYER
 10
35.437761028
 20
74.6066904707
 11
35.0214873223
 21
75.6795706658
  0
LINE
  5
259
100
AcDbEntity
  8
0
100
AcDbLine
 62
7
  6
BYLAYER
 10
37.7432616055
 20
110.8972612619
 11
37.2073539383
 21
116.724223854
  0
LINE
  5
25A
100
AcDbEntity
  8
0
100
AcDbLine
 62
7
  6
BYLAYER
 10
38.3650977076
 20
117.9002721367
 11
38.9453381288
 21
111.5912763235
  0
LINE
  5
25B
100
AcDbEntity
  8
0
100
AcDbLine
 62
7
  6
BYLAYER
 10
38.9453381288
 20
111.5912763235
 11
38.9453381288
 21
65.2968156286
  0
LINE
  5
25C
100
AcDbEntity
  8
0
100
AcDbLine
 62
7
  6
BYLAYER
 10
34.8362180885
 20
58.7198803024
 11
37.7432616055
 21
64.602800567
  0
LINE
  5
25D
100
AcDbEntity
  8
0
100
AcDbLine
 62
7
  6
BYLAYER
 10
28.3663409029
 20
73.1909239349
 11
27.4685926212
 21
72.6726118167
  0
LINE
  5
25E
100
AcDbEntity
  8
0
100
AcDbLine
 62
7
  6
BYLAYER
 10
35.437761028
 20
75.9642536811
 11
34.753196564
 21
75.5690225628
  0
LINE
  5
25F
100
AcDbEntity
  8
0
100
AcDbLine
 62
7
  6
BYLAYER
 10
35.0214873223
 20
75.6795706658
 11
35.437761028
 21
75.9199049672
  0
LINE
  5
260
100
AcDbEntity
  8
0
100
AcDbLine
 62
7
  6
BYLAYER
 10
35.0214873223
 20
75.6795706658
 11
34.7532611382
 21
75.5689105922
  0
LINE
  5
261
100
AcDbEntity
  8
0
100
AcDbLine
 62
7
  6
BYLAYER
 10
24.6401537206
 20
74.3055748348
 11
27.4685926212
 21
72.6726118167
  0
LINE
  5
262
100
AcDbEntity
  8
0
100
AcDbLine
 62
7
  6
BYLAYER
 10
48.6818843756
 20
60.4253891811
 11
51.5103232762
 21
58.792426163
  0
LINE
  5
263
100
AcDbEntity
  8
0
100
AcDbLine
 62
7
  6
BYLAYER
 10
45.1463357499
 20
73.2444248598
 11
45.1463357499
 21
66.5491050394
  0
LINE
  5
264
100
AcDbEntity
  8
0
100
AcDbLine
 62
7
  6
BYLAYER
 10
45.1463357499
 20
19.1103146041
 11
45.1463357499
 21
12.4149947837
  0
LINE
  5
265
100
AcDbEntity
  8
0
100
AcDbLine
 62
7
  6
BYLAYER
 10
38.9453381288
 20
65.2968156286
 11
36.0382946118
 21
59.413895364
  0
LINE
  5
266
100
AcDbEntity
  8
0
100
AcDbLine
 62
7
  6
BYLAYER
 10
31.8739180037
 20
69.1005734177
 11
30.6718414805
 21
68.4065583561
  0
LINE
  5
267
100
AcDbEntity
  8
0
100
AcDbLine
 62
7
  6
BYLAYER
 10
50.1667671062
 20
77.7759456778
 11
44.4392260248
 21
74.4691680315
  0
LINE
  5
268
100
AcDbEntity
  8
0
100
AcDbLine
 62
7
  6
BYLAYER
 10
39.7002312235
 20
70.9196350072
 11
38.9453381288
 21
70.4837998773
  0
LINE
  5
269
100
AcDbEntity
  8
0
100
AcDbLine
 62
7
  6
BYLAYER
 10
45.1463357499
 20
73.2444248598
 11
50.8738768313
 21
76.5512025062
  0
LINE
  5
26A
100
AcDbEntity
  8
0
100
AcDbLine
 62
7
  6
BYLAYER
 10
32.0377405424
 20
60.8524908287
 11
32.1894758276
 21
60.8906356912
  0
LINE
  5
26B
100
AcDbEntity
  8
0
100
AcDbLine
 62
7
  6
BYLAYER
 10
54.4094254571
 20
63.7321668275
 11
57.2378643577
 21
62.0992038094
  0
LINE
  5
26C
100
AcDbEntity
  8
0
100
AcDbLine
 62
7
  6
BYLAYER
 10
25.0645278937
 20
81.2798545383
 11
25.4472478456
 21
81.0588847533
  0
LINE
  5
26D
100
AcDbEntity
  8
0
100
AcDbLine
 62
7
  6
BYLAYER
 10
50.8738768313
 20
19.8861041127
 11
50.8738768313
 21
15.72177243
  0
LINE
  5
26E
100
AcDbEntity
  8
0
100
AcDbLine
 62
7
  6
BYLAYER
 10
50.8738768313
 20
69.8558826857
 11
50.8738768313
 21
76.5512025062
  0
LINE
  5
26F
100
AcDbEntity
  8
0
100
AcDbLine
 62
7
  6
BYLAYER
 10
52.2174330014
 20
19.9269215617
 11
52.2174330014
 21
57.5676829914
  0
LINE
  5
270
100
AcDbEntity
  8
0
100
AcDbLine
 62
7
  6
BYLAYER
 10
37.7432616055
 20
64.602800567
 11
38.9453381288
 21
65.2968156286
  0
LINE
  5
271
100
AcDbEntity
  8
0
100
AcDbLine
 62
7
  6
BYLAYER
 10
55.5408004285
 20
74.836614676
 11
55.4700900448
 21
74.7957902606
  0
LINE
  5
272
100
AcDbEntity
  8
0
100
AcDbLine
 62
7
  6
BYLAYER
 10
55.5408004285
 20
74.7549644343
 11
78.8045166728
 21
88.1861970967
  0
LINE
  5
273
100
AcDbEntity
  8
0
100
AcDbLine
 62
7
  6
BYLAYER
 10
31.8705094674
 20
60.4320942377
 11
32.4920611491
 21
60.7909451264
  0
LINE
  5
274
100
AcDbEntity
  8
0
100
AcDbLine
 62
7
  6
BYLAYER
 10
44.4392260248
 20
74.4691680315
 11
38.9453381288
 21
77.6409939308
  0
LINE
  5
275
100
AcDbEntity
  8
0
100
AcDbLine
 62
7
  6
BYLAYER
 10
35.437761028
 20
79.6660487013
 11
33.0259387353
 21
81.0584834502
  0
LINE
  5
276
100
AcDbEntity
  8
0
100
AcDbLine
 62
7
  6
BYLAYER
 10
52.5355846854
 20
19.7723949182
 11
52.5355846854
 21
19.7022462805
  0
LINE
  5
277
100
AcDbEntity
  8
0
100
AcDbLine
 62
7
  6
BYLAYER
 10
55.4700900448
 20
95.2900009306
 11
55.4700900448
 21
74.7957902606
  0
LINE
  5
278
100
AcDbEntity
  8
0
100
AcDbLine
 62
7
  6
BYLAYER
 10
55.5408004285
 20
74.7549644343
 11
55.5408004285
 21
74.836614676
  0
LINE
  5
279
100
AcDbEntity
  8
0
100
AcDbLine
 62
7
  6
BYLAYER
 10
56.2832662287
 20
17.5385702816
 11
56.2832662287
 21
21.9361069505
  0
LINE
  5
27A
100
AcDbEntity
  8
0
100
AcDbLine
 62
7
  6
BYLAYER
 10
80.5722909857
 20
87.1655952104
 11
57.2378643577
 21
73.6935381326
  0
LINE
  5
27B
100
AcDbEntity
  8
0
100
AcDbLine
 62
7
  6
BYLAYER
 10
50.8738768313
 20
69.8558826857
 11
45.1463357499
 21
66.5491050394
  0
LINE
  5
27C
100
AcDbEntity
  8
0
100
AcDbLine
 62
7
  6
BYLAYER
 10
81.4208197119
 20
86.4307468255
 11
81.1926409957
 21
86.2990085686
  0
LINE
  5
27D
100
AcDbEntity
  8
0
100
AcDbLine
 62
7
  6
BYLAYER
 10
57.9449740828
 20
72.468794961
 11
81.2794007109
 21
85.9408520387
  0
LINE
  5
27E
100
AcDbEntity
  8
0
100
AcDbLine
 62
7
  6
BYLAYER
 10
34.8362180885
 20
58.7198803024
 11
36.0382946118
 21
59.413895364
  0
LINE
  5
27F
100
AcDbEntity
  8
0
100
AcDbLine
 62
7
  6
BYLAYER
 10
34.2568777775
 20
80.6745304106
 11
35.437761028
 21
80.267932633
  0
LINE
  5
280
100
AcDbEntity
  8
0
100
AcDbLine
 62
7
  6
BYLAYER
 10
57.2378643577
 20
73.6935381326
 11
50.1667671062
 21
77.7759456778
  0
LINE
  5
281
100
AcDbEntity
  8
0
100
AcDbLine
 62
7
  6
BYLAYER
 10
55.5408004285
 20
74.7549644343
 11
41.8435276763
 21
82.6629117341
  0
LWPOLYLINE
  5
282
100
AcDbEntity
  8
0
100
AcDbPolyline
 62
7
  6
BYLAYER
 90
5
 70
0
 10
38.9453381288
 20
94.0465610774
 10
40.2203952053
 20
92.3997230579
 10
41.7897938478
 20
88.9517180165
 10
42.3868423191
 20
85.5506470259
 10
41.959574217
 20
83.024682089
  0
LINE
  5
283
100
AcDbEntity
  8
0
100
AcDbLine
 62
7
  6
BYLAYER
 10
57.9449740828
 20
11.6393648848
 11
57.9449740828
 21
23.2336992081
  0
LINE
  5
284
100
AcDbEntity
  8
0
100
AcDbLine
 62
7
  6
BYLAYER
 10
57.9449740828
 20
60.8744606377
 11
57.9449740828
 21
72.468794961
  0
LINE
  5
285
100
AcDbEntity
  8
0
100
AcDbLine
 62
7
  6
BYLAYER
 10
81.4208197119
 20
80.1845033344
 11
81.2794007109
 21
80.1028555235
  0
LINE
  5
286
100
AcDbEntity
  8
0
100
AcDbLine
 62
7
  6
BYLAYER
 10
48.6818843756
 20
60.4253891811
 11
54.4094254571
 21
63.7321668275
  0
LINE
  5
287
100
AcDbEntity
  8
0
100
AcDbLine
 62
7
  6
BYLAYER
 10
31.4638877345
 20
92.5673052639
 11
31.4538111321
 21
92.5724809672
  0
LINE
  5
288
100
AcDbEntity
  8
0
100
AcDbLine
 62
7
  6
BYLAYER
 10
23.4134128488
 20
121.3466762913
 11
26.7262219111
 21
117.2255223902
  0
LINE
  5
289
100
AcDbEntity
  8
0
100
AcDbLine
 62
7
  6
BYLAYER
 10
57.2378643577
 20
62.0992038094
 11
51.5103232762
 21
58.792426163
  0
LINE
  5
28A
100
AcDbEntity
  8
0
100
AcDbLine
 62
7
  6
BYLAYER
 10
52.2174330014
 20
57.5676829914
 11
57.9449740828
 21
60.8744606377
  0
LINE
  5
28B
100
AcDbEntity
  8
0
100
AcDbLine
 62
7
  6
BYLAYER
 10
31.4649281006
 20
92.544485467
 11
31.4549218315
 21
92.5490461919
  0
LINE
  5
28C
100
AcDbEntity
  8
0
100
AcDbLine
 62
7
  6
BYLAYER
 10
35.437761028
 20
97.3025761803
 11
33.1467049107
 21
98.6252881226
  0
LINE
  5
28D
100
AcDbEntity
  8
0
100
AcDbLine
 62
7
  6
BYLAYER
 10
30.0390309735
 20
121.9385523538
 11
26.7262219111
 21
126.0597062549
  0
LINE
  5
28E
100
AcDbEntity
  8
0
100
AcDbLine
 62
7
  6
BYLAYER
 10
28.4939815042
 20
127.0803166396
 11
31.8067905665
 21
122.9591627385
  0
LINE
  5
28F
100
AcDbEntity
  8
0
100
AcDbLine
 62
7
  6
BYLAYER
 10
32.1354691149
 20
108.7619458298
 11
35.437761028
 21
106.8554098365
  0
LINE
  5
290
100
AcDbEntity
  8
0
100
AcDbLine
 62
7
  6
BYLAYER
 10
38.9453381288
 20
104.830355066
 11
55.4700900448
 21
95.2900009306
  0
LINE
  5
291
100
AcDbEntity
  8
0
100
AcDbLine
 62
7
  6
BYLAYER
 10
78.8045166728
 20
88.1861970967
 11
78.8045166728
 21
108.7620580084
  0
LINE
  5
292
100
AcDbEntity
  8
0
100
AcDbLine
 62
7
  6
BYLAYER
 10
81.4208197119
 20
86.4307468255
 11
81.0650848093
 21
86.636125821
  0
LINE
  5
293
100
AcDbEntity
  8
0
100
AcDbLine
 62
7
  6
BYLAYER
 10
78.8045166728
 20
88.1861970967
 11
80.5722909857
 21
87.1655952104
  0
LINE
  5
294
100
AcDbEntity
  8
0
100
AcDbLine
 62
7
  6
BYLAYER
 10
81.2794007109
 20
85.9408520387
 11
81.2794007109
 21
25.1114219626
  0
LINE
  5
295
100
AcDbEntity
  8
0
100
AcDbLine
 62
7
  6
BYLAYER
 10
81.4208197119
 20
25.2338906616
 11
81.4208197119
 21
31.4801341526
  0
LINE
  5
296
100
AcDbEntity
  8
0
100
AcDbLine
 62
7
  6
BYLAYER
 10
81.4208197119
 20
80.1845033344
 11
81.4208197119
 21
86.4307468255
  0
LINE
  5
297
100
AcDbEntity
  8
0
100
AcDbLine
 62
7
  6
BYLAYER
 10
36.4502457734
 20
22.9045997267
 11
34.753196564
 21
21.9248137574
  0
LINE
  5
298
100
AcDbEntity
  8
0
100
AcDbLine
 62
7
  6
BYLAYER
 10
35.0214873223
 20
22.0353618604
 11
35.9407223107
 21
22.5660792604
  0
LINE
  5
299
100
AcDbEntity
  8
0
100
AcDbLine
 62
7
  6
BYLAYER
 10
36.3693848003
 20
22.6043723014
 11
35.450149812
 21
22.0736549014
  0
LINE
  5
29A
100
AcDbEntity
  8
0
100
AcDbLine
 62
7
  6
BYLAYER
 10
35.0214873223
 20
22.0353618604
 11
34.7532611382
 21
21.9247017868
  0
LINE
  5
29B
100
AcDbEntity
  8
0
100
AcDbLine
 62
7
  6
BYLAYER
 10
37.6685792299
 20
16.3560009775
 11
37.3062287663
 21
16.1467990885
  0
LINE
  5
29C
100
AcDbEntity
  8
0
100
AcDbLine
 62
7
  6
BYLAYER
 10
39.7002312235
 20
17.2754262018
 11
38.0031820142
 21
16.2956402325
  0
LINE
  5
29D
100
AcDbEntity
  8
0
100
AcDbLine
 62
7
  6
BYLAYER
 10
45.1463357499
 20
19.1103146041
 11
48.6819149232
 21
21.1515700069
  0
LINE
  5
29E
100
AcDbEntity
  8
0
100
AcDbLine
 62
7
  6
BYLAYER
 10
57.9449740828
 20
23.2336992081
 11
52.2174330014
 21
19.9269215617
  0
LINE
  5
29F
100
AcDbEntity
  8
0
100
AcDbLine
 62
7
  6
BYLAYER
 10
57.7378621192
 20
22.7759132664
 11
52.0103210378
 21
19.4691356201
  0
LINE
  5
2A0
100
AcDbEntity
  8
0
100
AcDbLine
 62
7
  6
BYLAYER
 10
78.8045166728
 20
108.7620580084
 11
55.469895743
 21
122.2340029075
  0
LINE
  5
2A1
100
AcDbEntity
  8
0
100
AcDbLine
 62
7
  6
BYLAYER
 10
56.2832662287
 20
21.8659583128
 11
52.5355846854
 21
19.7022462805
  0
LINE
  5
2A2
100
AcDbEntity
  8
0
100
AcDbLine
 62
7
  6
BYLAYER
 10
50.8738768313
 20
15.72177243
 11
45.1463357499
 21
12.4149947837
  0
LINE
  5
2A3
100
AcDbEntity
  8
0
100
AcDbLine
 62
7
  6
BYLAYER
 10
50.6667648677
 20
15.2639864884
 11
44.9392237863
 21
11.9572088421
  0
LINE
  5
2A4
100
AcDbEntity
  8
0
100
AcDbLine
 62
7
  6
BYLAYER
 10
81.4208197119
 20
31.4801341526
 11
81.2794007109
 21
31.3984863417
  0
LINE
  5
2A5
100
AcDbEntity
  8
0
100
AcDbLine
 62
7
  6
BYLAYER
 10
37.7348912559
 20
16.1850921295
 11
38.00311744
 21
16.2957522032
  0
LINE
  5
2A6
100
AcDbEntity
  8
0
100
AcDbLine
 62
7
  6
BYLAYER
 10
26.7262219111
 20
117.2255223902
 11
30.0390309735
 21
117.5214604215
  0
LINE
  5
2A7
100
AcDbEntity
  8
0
100
AcDbLine
 62
7
  6
BYLAYER
 10
81.4208197119
 20
25.2338906616
 11
81.2794007109
 21
25.1522428506
  0
LINE
  5
2A8
100
AcDbEntity
  8
0
100
AcDbLine
 62
7
  6
BYLAYER
 10
81.2794007109
 20
25.1114219626
 11
57.9449740828
 21
11.6393648848
  0
LINE
  5
2A9
100
AcDbEntity
  8
0
100
AcDbLine
 62
7
  6
BYLAYER
 10
81.0722887473
 20
24.653636021
 11
57.7378621192
 21
11.1815789432
  0
LINE
  5
2AA
100
AcDbEntity
  8
0
100
AcDbLine
 62
7
  6
BYLAYER
 10
26.7262219111
 20
126.0597062549
 11
23.4134128488
 21
125.7637682237
  0
LINE
  5
2AB
100
AcDbEntity
  8
0
100
AcDbLine
 62
7
  6
BYLAYER
 10
25.1811724419
 20
126.7843786083
 11
28.4939815042
 21
127.0803166396
  0
ARC
  5
2AC
100
AcDbEntity
  8
0
100
AcDbCircle
 62
7
  6
BYLAYER
 10
36.0469491425
 20
90.8893091292
 40
13.6383391174
100
AcDbArc
 50
227.622094773
 51
228.18815496
  0
ARC
  5
2AD
100
AcDbEntity
  8
0
100
AcDbCircle
 62
7
  6
BYLAYER
 10
35.8160859079
 20
90.6358961186
 40
13.2955331719
100
AcDbArc
 50
227.313809632
 51
227.620963062
  0
ARC
  5
2AE
100
AcDbEntity
  8
0
100
AcDbCircle
 62
7
  6
BYLAYER
 10
39.6870716032
 20
89.9294733432
 40
10.7324007739
100
AcDbArc
 50
234.548882203
 51
235.0008494036
  0
ARC
  5
2AF
100
AcDbEntity
  8
0
100
AcDbCircle
 62
7
  6
BYLAYER
 10
31.2411038918
 20
86.6727506219
 40
7.3949025521
100
AcDbArc
 50
184.4458535369
 51
184.9182414494
  0
ARC
  5
2B0
100
AcDbEntity
  8
0
100
AcDbCircle
 62
7
  6
BYLAYER
 10
28.7601429106
 20
87.3222357685
 40
5.9009312896
100
AcDbArc
 50
59.9922029876
 51
62.7296584532
  0
ARC
  5
2B1
100
AcDbEntity
  8
0
100
AcDbCircle
 62
7
  6
BYLAYER
 10
29.730264432
 20
86.7951666631
 40
5.8882730625
100
AcDbArc
 50
186.7271458915
 51
187.1862588481
  0
ARC
  5
2B2
100
AcDbEntity
  8
0
100
AcDbCircle
 62
7
  6
BYLAYER
 10
37.4907953727
 20
82.9935789148
 40
3.2323987691
100
AcDbArc
 50
297.2175608783
 51
299.9970329956
  0
ARC
  5
2B3
100
AcDbEntity
  8
0
100
AcDbCircle
 62
7
  6
BYLAYER
 10
28.8108532913
 20
89.3974976649
 40
2.6251470905
100
AcDbArc
 50
148.6091235779
 51
152.1165703149
  0
ARC
  5
2B4
100
AcDbEntity
  8
0
100
AcDbCircle
 62
7
  6
BYLAYER
 10
32.6775100247
 20
60.4801157362
 40
0.8084280821
100
AcDbArc
 50
180.0290099443
 51
183.4054356746
  0
ARC
  5
2B5
100
AcDbEntity
  8
0
100
AcDbCircle
 62
7
  6
BYLAYER
 10
33.5130649904
 20
59.1101739189
 40
0.7274555889
100
AcDbArc
 50
356.4099597974
 51
0.0325176938
  0
SPLINE
  5
2B6
100
AcDbEntity
  8
0
100
AcDbSpline
 62
7
  6
BYLAYER
 70
0
 71
3
 72
11
 73
7
 74
0
 42
0.0000001
 43
0.0000001
 44
0.0000000001
 40
0.0
 40
0.0
 40
0.0
 40
0.0
 40
0.259292857
 40
0.5208886977
 40
0.7715928153
 40
1.0
 40
1.0
 40
1.0
 40
1.0
 10
33.9201266809
 20
59.8914665594
 30
0.0
 10
33.9689058121
 20
59.8354265667
 30
0.0
 10
34.0572531662
 20
59.7141601884
 30
0.0
 10
34.1582284521
 20
59.5164703235
 30
0.0
 10
34.2232863815
 20
59.3134686421
 30
0.0
 10
34.2405204621
 20
59.1760329442
 30
0.0
 10
34.2405204621
 20
59.1105867796
 30
0.0
  0
SPLINE
  5
2B7
100
AcDbEntity
  8
0
100
AcDbSpline
 62
7
  6
BYLAYER
 70
0
 71
3
 72
11
 73
7
 74
0
 42
0.0000001
 43
0.0000001
 44
0.0000000001
 40
0.0
 40
0.0
 40
0.0
 40
0.0
 40
0.220301117
 40
0.4611551456
 40
0.7218686349
 40
1.0
 40
1.0
 40
1.0
 40
1.0
 10
32.1894758276
 20
60.8906356912
 30
0.0
 10
32.3351651815
 20
60.8617478886
 30
0.0
 10
32.6343268315
 20
60.7701109193
 30
0.0
 10
33.0722406187
 20
60.5541027065
 30
0.0
 10
33.5088880987
 20
60.2589293273
 30
0.0
 10
33.7846119605
 20
60.0210715999
 30
0.0
 10
33.9201266809
 20
59.8914665594
 30
0.0
  0
SPLINE
  5
2B8
100
AcDbEntity
  8
0
100
AcDbSpline
 62
7
  6
BYLAYER
 70
0
 71
3
 72
12
 73
8
 74
0
 42
0.0000001
 43
0.0000001
 44
0.0000000001
 40
0.0
 40
0.0
 40
0.0
 40
0.0
 40
0.2895257925
 40
0.5486613473
 40
0.7816279157
 40
0.8918375484
 40
1.0
 40
1.0
 40
1.0
 40
1.0
 10
35.437761028
 20
65.6550156706
 30
0.0
 10
35.437761028
 20
65.4842384385
 30
0.0
 10
35.411826784
 20
65.1594639992
 30
0.0
 10
35.2806055064
 20
64.7134668879
 30
0.0
 10
35.0917882755
 20
64.4058033674
 30
0.0
 10
34.9012740946
 20
64.2183382759
 30
0.0
 10
34.7950416359
 20
64.1441844115
 30
0.0
 10
34.7397838404
 20
64.1122941474
 30
0.0
  0
SPLINE
  5
2B9
100
AcDbEntity
  8
0
100
AcDbSpline
 62
7
  6
BYLAYER
 70
0
 71
3
 72
14
 73
10
 74
0
 42
0.0000001
 43
0.0000001
 44
0.0000000001
 40
0.0
 40
0.0
 40
0.0
 40
0.0
 40
0.1080456467
 40
0.2181280915
 40
0.3321058034
 40
0.4515011059
 40
0.5774469982
 40
0.7107209893
 40
1.0
 40
1.0
 40
1.0
 40
1.0
 10
27.7391529305
 20
133.1970346997
 30
0.0
 10
27.8948954092
 20
133.2869716387
 30
0.0
 10
28.2255929841
 20
133.4418052189
 30
0.0
 10
28.7606577377
 20
133.5898071295
 30
0.0
 10
29.3310736143
 20
133.6533698017
 30
0.0
 10
29.930698927
 20
133.6325695723
 30
0.0
 10
30.5538890223
 20
133.5280306309
 30
0.0
 10
31.4318863763
 20
133.2720505556
 30
0.0
 10
32.0721123761
 20
132.9673301085
 30
0.0
 10
32.4891181844
 20
132.7265771394
 30
0.0
  0
SPLINE
  5
2BA
100
AcDbEntity
  8
0
100
AcDbSpline
 62
7
  6
BYLAYER
 70
0
 71
3
 72
17
 73
13
 74
0
 42
0.0000001
 43
0.0000001
 44
0.0000000001
 40
0.0
 40
0.0
 40
0.0
 40
0.0
 40
0.0467483478
 40
0.0941647395
 40
0.1428723736
 40
0.1934081406
 40
0.3014243293
 40
0.4205322823
 40
0.5512021011
 40
0.6926181563
 40
0.8430230142
 40
1.0
 40
1.0
 40
1.0
 40
1.0
 10
24.2036339568
 20
131.1558136216
 30
0.0
 10
24.0684287208
 20
131.077736344
 30
0.0
 10
23.8073646252
 20
130.8999697024
 30
0.0
 10
23.4552237276
 20
130.5756647802
 30
0.0
 10
23.1438914491
 20
130.1955170263
 30
0.0
 10
22.7781542223
 20
129.6058225857
 30
0.0
 10
22.4395928997
 20
128.733426279
 30
0.0
 10
22.2344277374
 20
127.5501420959
 30
0.0
 10
22.222242968
 20
126.2388174875
 30
0.0
 10
22.4021918975
 20
124.8354946898
 30
0.0
 10
22.7684715354
 20
123.3789152436
 30
0.0
 10
23.1247352884
 20
122.4138233095
 30
0.0
 10
23.3304362387
 20
121.9315922084
 30
0.0
  0
SPLINE
  5
2BB
100
AcDbEntity
  8
0
100
AcDbSpline
 62
7
  6
BYLAYER
 70
0
 71
3
 72
9
 73
5
 74
0
 42
0.0000001
 43
0.0000001
 44
0.0000000001
 40
0.0
 40
0.0
 40
0.0
 40
0.0
 40
0.5070950209
 40
1.0
 40
1.0
 40
1.0
 40
1.0
 10
24.0515484295
 20
120.4552579852
 30
0.0
 10
24.3921756834
 20
119.8387864295
 30
0.0
 10
25.1422260091
 20
118.6647756125
 30
0.0
 10
26.0389910816
 20
117.5976834947
 30
0.0
 10
26.5166123228
 20
117.1072064106
 30
0.0
  0
SPLINE
  5
2BC
100
AcDbEntity
  8
0
100
AcDbSpline
 62
7
  6
BYLAYER
 70
0
 71
3
 72
9
 73
5
 74
0
 42
0.0000001
 43
0.0000001
 44
0.0000000001
 40
0.0
 40
0.0
 40
0.0
 40
0.0
 40
0.5182700578
 40
1.0
 40
1.0
 40
1.0
 40
1.0
 10
26.5166123228
 20
117.1072064106
 30
0.0
 10
26.8925604934
 20
116.7211390698
 30
0.0
 10
27.6619045537
 20
116.0173786856
 30
0.0
 10
28.5198208074
 20
115.4222467342
 30
0.0
 10
28.9535989984
 20
115.1718104445
 30
0.0
  0
SPLINE
  5
2BD
100
AcDbEntity
  8
0
100
AcDbSpline
 62
7
  6
BYLAYER
 70
0
 71
3
 72
11
 73
7
 74
0
 42
0.0000001
 43
0.0000001
 44
0.0000000001
 40
0.0
 40
0.0
 40
0.0
 40
0.0
 40
0.2629098844
 40
0.5237139171
 40
0.7722579181
 40
1.0
 40
1.0
 40
1.0
 40
1.0
 10
34.3797707206
 20
115.0935159365
 30
0.0
 10
34.5431039253
 20
114.8730658627
 30
0.0
 10
34.8369142107
 20
114.4096881495
 30
0.0
 10
35.1706581982
 20
113.6732121907
 30
0.0
 10
35.3827982758
 20
112.9308986035
 30
0.0
 10
35.437761028
 20
112.4333180778
 30
0.0
 10
35.437761028
 20
112.195653447
 30
0.0
  0
SPLINE
  5
2BE
100
AcDbEntity
  8
0
100
AcDbSpline
 62
7
  6
BYLAYER
 70
0
 71
3
 72
16
 73
12
 74
0
 42
0.0000001
 43
0.0000001
 44
0.0000000001
 40
0.0
 40
0.0
 40
0.0
 40
0.0
 40
0.1211664509
 40
0.2535024195
 40
0.3922908707
 40
0.5319300844
 40
0.666727712
 40
0.7916118245
 40
0.8492106895
 40
0.9031707869
 40
1.0
 40
1.0
 40
1.0
 40
1.0
 10
31.8739180037
 20
69.1005734177
 30
0.0
 10
31.8739180037
 20
68.8586745864
 30
0.0
 10
31.9308524913
 20
68.3520139949
 30
0.0
 10
32.1499700765
 20
67.5970784984
 30
0.0
 10
32.4942085767
 20
66.8495497011
 30
0.0
 10
32.9432323452
 20
66.1541213777
 30
0.0
 10
33.4702553477
 20
65.5520823835
 30
0.0
 10
33.961886639
 20
65.146717993
 30
0.0
 10
34.3684023509
 20
64.9047533565
 30
0.0
 10
34.7477965351
 20
64.733442249
 30
0.0
 10
35.0461797149
 20
64.6613212434
 30
0.0
 10
35.2392025003
 20
64.6507592073
 30
0.0
  0
SPLINE
  5
2BF
100
AcDbEntity
  8
0
100
AcDbSpline
 62
7
  6
BYLAYER
 70
0
 71
3
 72
10
 73
6
 74
0
 42
0.0000001
 43
0.0000001
 44
0.0000000001
 40
0.0
 40
0.0
 40
0.0
 40
0.0
 40
0.2325970798
 40
0.4782149044
 40
1.0
 40
1.0
 40
1.0
 40
1.0
 10
32.4891181844
 20
132.7265771394
 30
0.0
 10
32.7781259892
 20
132.5597221802
 30
0.0
 10
33.3535554697
 20
132.1833183802
 30
0.0
 10
34.474655984
 20
131.2857205207
 30
0.0
 10
35.2403931311
 20
130.4854785251
 30
0.0
 10
35.7172998759
 20
129.9084185329
 30
0.0
  0
SPLINE
  5
2C0
100
AcDbEntity
  8
0
100
AcDbSpline
 62
7
  6
BYLAYER
 70
0
 71
3
 72
9
 73
5
 74
0
 42
0.0000001
 43
0.0000001
 44
0.0000000001
 40
0.0
 40
0.0
 40
0.0
 40
0.0
 40
0.4970557884
 40
1.0
 40
1.0
 40
1.0
 40
1.0
 10
35.7172998759
 20
129.9084185329
 30
0.0
 10
36.1001359882
 20
129.4451845644
 30
0.0
 10
36.8157703426
 20
128.4670528821
 30
0.0
 10
37.4189762059
 20
127.4160740336
 30
0.0
 10
37.691898507
 20
126.8726864336
 30
0.0
  0
SPLINE
  5
2C1
100
AcDbEntity
  8
0
100
AcDbSpline
 62
7
  6
BYLAYER
 70
0
 71
3
 72
18
 73
14
 74
0
 42
0.0000001
 43
0.0000001
 44
0.0000000001
 40
0.0
 40
0.0
 40
0.0
 40
0.0
 40
0.1562925724
 40
0.3072379867
 40
0.4498135053
 40
0.5816670613
 40
0.7014601361
 40
0.7568770157
 40
0.8094704371
 40
0.8595570602
 40
0.9075958222
 40
0.954177162
 40
1.0
 40
1.0
 40
1.0
 40
1.0
 10
37.691898507
 20
126.8726864336
 30
0.0
 10
37.9495437658
 20
126.3597153856
 30
0.0
 10
38.4033324676
 20
125.3237007164
 30
0.0
 10
38.895774755
 20
123.7430607809
 30
0.0
 10
39.1773203601
 20
122.2017561053
 30
0.0
 10
39.2383866018
 20
120.7500522654
 30
0.0
 10
39.0988179883
 20
119.6235913572
 30
0.0
 10
38.8670989653
 20
118.8180491341
 30
0.0
 10
38.6435288316
 20
118.2806128003
 30
0.0
 10
38.3673294951
 20
117.7990128774
 30
0.0
 10
38.0404578132
 20
117.3775454513
 30
0.0
 10
37.6656318326
 20
117.0203441117
 30
0.0
 10
37.3848280465
 20
116.8267371011
 30
0.0
 10
37.2390834383
 20
116.7425736535
 30
0.0
  0
SPLINE
  5
2C2
100
AcDbEntity
  8
0
100
AcDbSpline
 62
7
  6
BYLAYER
 70
0
 71
3
 72
14
 73
10
 74
0
 42
0.0000001
 43
0.0000001
 44
0.0000000001
 40
0.0
 40
0.0
 40
0.0
 40
0.0
 40
0.2892767444
 40
0.42254939
 40
0.5484953197
 40
0.6678912633
 40
0.781869408
 40
0.8919528938
 40
1.0
 40
1.0
 40
1.0
 40
1.0
 10
28.9535989984
 20
115.1718104445
 30
0.0
 10
29.3706015899
 20
114.9310593326
 30
0.0
 10
30.0108217385
 20
114.6263410551
 30
0.0
 10
30.8888128041
 20
114.3703596817
 30
0.0
 10
31.51200165
 20
114.2658213086
 30
0.0
 10
32.1116288523
 20
114.2450134104
 30
0.0
 10
32.6820478855
 20
114.3085796411
 30
0.0
 10
33.2171191565
 20
114.4565767132
 30
0.0
 10
33.5478194507
 20
114.6114150078
 30
0.0
 10
33.70356404
 20
114.7013531929
 30
0.0
  0
SPLINE
  5
2C3
100
AcDbEntity
  8
0
100
AcDbSpline
 62
7
  6
BYLAYER
 70
0
 71
3
 72
11
 73
7
 74
0
 42
0.0000001
 43
0.0000001
 44
0.0000000001
 40
0.0
 40
0.0
 40
0.0
 40
0.0
 40
0.2896734658
 40
0.5491224765
 40
0.782236431
 40
1.0
 40
1.0
 40
1.0
 40
1.0
 10
31.8690820463
 20
60.4797064137
 30
0.0
 10
31.8690820463
 20
60.5209626045
 30
0.0
 10
31.87534454
 20
60.5994358833
 30
0.0
 10
31.9071242996
 20
60.7072479714
 30
0.0
 10
31.9606188489
 20
60.7947455745
 30
0.0
 10
32.0108820219
 20
60.8369820293
 30
0.0
 10
32.0377394939
 20
60.8524926445
 30
0.0
  0
SPLINE
  5
2C4
100
AcDbEntity
  8
0
100
AcDbSpline
 62
7
  6
BYLAYER
 70
0
 71
3
 72
20
 73
16
 74
0
 42
0.0000001
 43
0.0000001
 44
0.0000000001
 40
0.0
 40
0.0
 40
0.0
 40
0.0
 40
0.0428311439
 40
0.087431868
 40
0.1352332396
 40
0.1871654968
 40
0.2436344339
 40
0.3046155067
 40
0.3697407281
 40
0.4383753939
 40
0.5826264381
 40
0.7296917046
 40
0.871189392
 40
0.9376086193
 40
1.0
 40
1.0
 40
1.0
 40
1.0
 10
34.7397838404
 20
64.1122941474
 30
0.0
 10
34.6566950529
 20
64.0643421191
 30
0.0
 10
34.4735723758
 20
63.988180769
 30
0.0
 10
34.1712486569
 20
63.9439439639
 30
0.0
 10
33.8466084389
 20
63.9677692491
 30
0.0
 10
33.5068597798
 20
64.0580786908
 30
0.0
 10
33.1586617384
 20
64.211956073
 30
0.0
 10
32.8089396783
 20
64.4258776663
 30
0.0
 10
32.4648194338
 20
64.695315225
 30
0.0
 10
32.0157002175
 20
65.1278773938
 30
0.0
 10
31.5166433973
 20
65.7670348632
 30
0.0
 10
31.0533653015
 20
66.6231630218
 30
0.0
 10
30.7969297337
 20
67.381114585
 30
0.0
 10
30.6908480071
 20
67.9781019058
 30
0.0
 10
30.6718414805
 20
68.2668144035
 30
0.0
 10
30.6718414805
 20
68.4065583561
 30
0.0
  0
SPLINE
  5
2C5
100
AcDbEntity
  8
0
100
AcDbSpline
 62
7
  6
BYLAYER
 70
0
 71
3
 72
24
 73
20
 74
0
 42
0.0000001
 43
0.0000001
 44
0.0000000001
 40
0.0
 40
0.0
 40
0.0
 40
0.0
 40
0.0213341538
 40
0.0428965369
 40
0.0874755843
 40
0.1352553171
 40
0.1871605353
 40
0.243602196
 40
0.3045543089
 40
0.3696469018
 40
0.4382490867
 40
0.5095402385
 40
0.5825696642
 40
0.6563064965
 40
0.7296873759
 40
0.8016700529
 40
0.8712629967
 40
0.9376184627
 40
1.0
 40
1.0
 40
1.0
 40
1.0
 10
33.70356404
 20
114.7013531929
 30
0.0
 10
33.8202750912
 20
114.7687505913
 30
0.0
 10
34.0465343862
 20
114.9194942053
 30
0.0
 10
34.4650571957
 20
115.2822115468
 30
0.0
 10
34.9163401665
 20
115.8521723887
 30
0.0
 10
35.3152235481
 20
116.6782559817
 30
0.0
 10
35.5738357495
 20
117.6350272485
 30
0.0
 10
35.6889096912
 20
118.7020058491
 30
0.0
 10
35.6595218422
 20
119.8573638182
 30
0.0
 10
35.4868323879
 20
121.0772326721
 30
0.0
 10
35.1747445127
 20
122.3361267108
 30
0.0
 10
34.7299549081
 20
123.6074873949
 30
0.0
 10
34.161931892
 20
124.864322537
 30
0.0
 10
33.482784083
 20
126.0798453446
 30
0.0
 10
32.706980089
 20
127.2281395613
 30
0.0
 10
31.8510658152
 20
128.2846432668
 30
0.0
 10
30.9332065142
 20
129.2271220837
 30
0.0
 10
29.9729439142
 20
130.0351440867
 30
0.0
 10
29.294884656
 20
130.4883194613
 30
0.0
 10
28.9535989984
 20
130.68535637
 30
0.0
  0
SPLINE
  5
2C6
100
AcDbEntity
  8
0
100
AcDbSpline
 62
7
  6
BYLAYER
 70
0
 71
3
 72
11
 73
7
 74
0
 42
0.0000001
 43
0.0000001
 44
0.0000000001
 40
0.0
 40
0.0
 40
0.0
 40
0.0
 40
0.2278545233
 40
0.4769305416
 40
0.7379743842
 40
1.0
 40
1.0
 40
1.0
 40
1.0
 10
28.9535989984
 20
126.5211940426
 30
0.0
 10
29.2327631423
 20
126.3600221952
 30
0.0
 10
29.7790370543
 20
125.9552502834
 30
0.0
 10
30.5009505251
 20
125.1954556703
 30
0.0
 10
31.1276665526
 20
124.2960803945
 30
0.0
 10
31.4603152861
 20
123.6315491808
 30
0.0
 10
31.6005669325
 20
123.2884141136
 30
0.0
  0
SPLINE
  5
2C7
100
AcDbEntity
  8
0
100
AcDbSpline
 62
7
  6
BYLAYER
 70
0
 71
3
 72
11
 73
7
 74
0
 42
0.0000001
 43
0.0000001
 44
0.0000000001
 40
0.0
 40
0.0
 40
0.0
 40
0.0
 40
0.2814290432
 40
0.5435317293
 40
0.783278695
 40
1.0
 40
1.0
 40
1.0
 40
1.0
 10
31.8676627232
 20
122.5048341262
 30
0.0
 10
31.9307474352
 20
122.273645261
 30
0.0
 10
32.0276622879
 20
121.8197209142
 30
0.0
 10
32.0811638933
 20
121.1527042832
 30
0.0
 10
32.0367070762
 20
120.5398441697
 30
0.0
 10
31.936522813
 20
120.1608010694
 30
0.0
 10
31.8683668286
 20
119.9893064985
 30
0.0
  0
SPLINE
  5
2C8
100
AcDbEntity
  8
0
100
AcDbSpline
 62
7
  6
BYLAYER
 70
0
 71
3
 72
14
 73
10
 74
0
 42
0.0000001
 43
0.0000001
 44
0.0000000001
 40
0.0
 40
0.0
 40
0.0
 40
0.0
 40
0.2892767444
 40
0.42254939
 40
0.5484953197
 40
0.6678912633
 40
0.781869408
 40
0.8919528938
 40
1.0
 40
1.0
 40
1.0
 40
1.0
 10
28.9535989984
 20
130.68535637
 30
0.0
 10
28.5365964068
 20
130.926107482
 30
0.0
 10
27.8963762583
 20
131.2308257595
 30
0.0
 10
27.0183851926
 20
131.4868071329
 30
0.0
 10
26.3951963468
 20
131.5913455059
 30
0.0
 10
25.7955691445
 20
131.6121534042
 30
0.0
 10
25.2251501112
 20
131.5485871735
 30
0.0
 10
24.6900788402
 20
131.4005901013
 30
0.0
 10
24.3593785461
 20
131.2457518067
 30
0.0
 10
24.2036339568
 20
131.1558136216
 30
0.0
  0
SPLINE
  5
2C9
100
AcDbEntity
  8
0
100
AcDbSpline
 62
7
  6
BYLAYER
 70
0
 71
3
 72
11
 73
7
 74
0
 42
0.0000001
 43
0.0000001
 44
0.0000000001
 40
0.0
 40
0.0
 40
0.0
 40
0.0
 40
0.2897016594
 40
0.5490895814
 40
0.7822189142
 40
1.0
 40
1.0
 40
1.0
 40
1.0
 10
56.2832662287
 20
68.9373974399
 30
0.0
 10
56.2832662287
 20
68.8031273301
 30
0.0
 10
56.2629090482
 20
68.5477727278
 30
0.0
 10
56.1594989077
 20
68.1969262993
 30
0.0
 10
55.9853778892
 20
67.9122345101
 30
0.0
 10
55.8218249505
 20
67.774747176
 30
0.0
 10
55.7344150046
 20
67.7242725145
 30
0.0
  0
SPLINE
  5
2CA
100
AcDbEntity
  8
0
100
AcDbSpline
 62
7
  6
BYLAYER
 70
0
 71
3
 72
11
 73
7
 74
0
 42
0.0000001
 43
0.0000001
 44
0.0000000001
 40
0.0
 40
0.0
 40
0.0
 40
0.0
 40
0.2177827477
 40
0.4509152641
 40
0.7103063952
 40
1.0
 40
1.0
 40
1.0
 40
1.0
 10
32.2919900437
 20
93.7059575574
 30
0.0
 10
32.2919749516
 20
93.5955018973
 30
0.0
 10
32.2511802333
 20
93.3652746984
 30
0.0
 10
32.0766359684
 20
93.0444927614
 30
0.0
 10
31.8007227269
 20
92.754529854
 30
0.0
 10
31.5698648131
 20
92.5955228123
 30
0.0
 10
31.4426215804
 20
92.5220593362
 30
0.0
  0
SPLINE
  5
2CB
100
AcDbEntity
  8
0
100
AcDbSpline
 62
7
  6
BYLAYER
 70
0
 71
3
 72
15
 73
11
 74
0
 42
0.0000001
 43
0.0000001
 44
0.0000000001
 40
0.0
 40
0.0
 40
0.0
 40
0.0
 40
0.0965977051
 40
0.2077884687
 40
0.3325886681
 40
0.4674159844
 40
0.6071853383
 40
0.7461529574
 40
0.8786897553
 40
1.0
 40
1.0
 40
1.0
 40
1.0
 10
32.1119986107
 20
93.1516297716
 30
0.0
 10
32.0222935558
 20
93.2916623832
 30
0.0
 10
31.7728815806
 20
93.5572976301
 30
0.0
 10
31.2835293475
 20
93.8624954601
 30
0.0
 10
30.6830482944
 20
94.0893171996
 30
0.0
 10
30.0062154859
 20
94.2247756665
 30
0.0
 10
29.2927528215
 20
94.2614154194
 30
0.0
 10
28.5850877822
 20
94.196957449
 30
0.0
 10
27.9258113898
 20
94.0353627883
 30
0.0
 10
27.5222514716
 20
93.8593399345
 30
0.0
 10
27.3413851745
 20
93.7549173526
 30
0.0
  0
SPLINE
  5
2CC
100
AcDbEntity
  8
0
100
AcDbSpline
 62
7
  6
BYLAYER
 70
0
 71
3
 72
14
 73
10
 74
0
 42
0.0000001
 43
0.0000001
 44
0.0000000001
 40
0.0
 40
0.0
 40
0.0
 40
0.0
 40
0.1142021192
 40
0.237423855
 40
0.4997596221
 40
0.632851566
 40
0.7625425616
 40
0.8858265635
 40
1.0
 40
1.0
 40
1.0
 40
1.0
 10
23.3259320023
 20
84.2911692382
 30
0.0
 10
23.3259355671
 20
84.1537414717
 30
0.0
 10
23.351104184
 20
83.867719364
 30
0.0
 10
23.487782788
 20
83.2807406974
 30
0.0
 10
23.7422513609
 20
82.703268019
 30
0.0
 10
24.0887911662
 20
82.1738412965
 30
0.0
 10
24.3869459836
 20
81.8159594764
 30
0.0
 10
24.7104583223
 20
81.513404298
 30
0.0
 10
24.9455411755
 20
81.348549998
 30
0.0
 10
25.0645278937
 20
81.2798545383
 30
0.0
  0
SPLINE
  5
2CD
100
AcDbEntity
  8
0
100
AcDbSpline
 62
7
  6
BYLAYER
 70
0
 71
3
 72
11
 73
7
 74
0
 42
0.0000001
 43
0.0000001
 44
0.0000000001
 40
0.0
 40
0.0
 40
0.0
 40
0.0
 40
0.2177770773
 40
0.4509583744
 40
0.7102025308
 40
1.0
 40
1.0
 40
1.0
 40
1.0
 10
23.9472545614
 20
86.1064720923
 30
0.0
 10
23.8482918621
 20
86.0493450898
 30
0.0
 10
23.6630936111
 20
85.8936849613
 30
0.0
 10
23.4661137275
 20
85.5713668259
 30
0.0
 10
23.3488921356
 20
85.1742289866
 30
0.0
 10
23.3259175674
 20
84.8851507107
 30
0.0
 10
23.3259186702
 20
84.7330938712
 30
0.0
  0
SPLINE
  5
2CE
100
AcDbEntity
  8
0
100
AcDbSpline
 62
7
  6
BYLAYER
 70
0
 71
3
 72
9
 73
5
 74
0
 42
0.0000001
 43
0.0000001
 44
0.0000000001
 40
0.0
 40
0.0
 40
0.0
 40
0.0
 40
0.2603540042
 40
1.0
 40
1.0
 40
1.0
 40
1.0
 10
81.2794007109
 20
25.1114219626
 30
0.0
 10
81.2794007109
 20
25.0972363596
 30
0.0
 10
81.2781496987
 20
25.0427669194
 30
0.0
 10
81.2717734255
 20
24.9883445495
 30
0.0
 10
81.2635541769
 20
24.9488913882
 30
0.0
  0
SPLINE
  5
2CF
100
AcDbEntity
  8
0
100
AcDbSpline
 62
7
  6
BYLAYER
 70
0
 71
3
 72
10
 73
6
 74
0
 42
0.0000001
 43
0.0000001
 44
0.0000000001
 40
0.0
 40
0.0
 40
0.0
 40
0.0
 40
0.530716897
 40
0.7698379681
 40
1.0
 40
1.0
 40
1.0
 40
1.0
 10
81.2635541769
 20
24.9488913882
 30
0.0
 10
81.2505255297
 20
24.8863526646
 30
0.0
 10
81.2179914065
 20
24.7964569098
 30
0.0
 10
81.1418165874
 20
24.7020905761
 30
0.0
 10
81.0962533399
 20
24.6675365056
 30
0.0
 10
81.0722607712
 20
24.6536844779
 30
0.0
  0
SPLINE
  5
2D0
100
AcDbEntity
  8
0
100
AcDbSpline
 62
7
  6
BYLAYER
 70
0
 71
3
 72
10
 73
6
 74
0
 42
0.0000001
 43
0.0000001
 44
0.0000000001
 40
0.0
 40
0.0
 40
0.0
 40
0.0
 40
0.2278987987
 40
0.4763423532
 40
1.0
 40
1.0
 40
1.0
 40
1.0
 10
80.5722909857
 20
87.1655952104
 30
0.0
 10
80.6307909856
 20
87.1318209838
 30
0.0
 10
80.7457150955
 20
87.0481164443
 30
0.0
 10
80.9544127741
 20
86.8366393111
 30
0.0
 10
81.0790513465
 20
86.6400687391
 30
0.0
 10
81.1441541766
 20
86.4991691019
 30
0.0
  0
SPLINE
  5
2D1
100
AcDbEntity
  8
0
100
AcDbSpline
 62
7
  6
BYLAYER
 70
0
 71
3
 72
9
 73
5
 74
0
 42
0.0000001
 43
0.0000001
 44
0.0000000001
 40
0.0
 40
0.0
 40
0.0
 40
0.0
 40
0.5244779787
 40
1.0
 40
1.0
 40
1.0
 40
1.0
 10
81.1441541766
 20
86.4991691019
 30
0.0
 10
81.1865161767
 20
86.4074865987
 30
0.0
 10
81.2520136939
 20
86.2251464268
 30
0.0
 10
81.2794007109
 20
86.0324209719
 30
0.0
 10
81.2794007109
 20
85.9408520387
 30
0.0
  0
SPLINE
  5
2D2
100
AcDbEntity
  8
0
100
AcDbSpline
 62
7
  6
BYLAYER
 70
0
 71
3
 72
9
 73
5
 74
0
 42
0.0000001
 43
0.0000001
 44
0.0000000001
 40
0.0
 40
0.0
 40
0.0
 40
0.0
 40
0.2444703219
 40
1.0
 40
1.0
 40
1.0
 40
1.0
 10
26.9537033098
 20
91.2424358423
 30
0.0
 10
26.9173264289
 20
91.2081176912
 30
0.0
 10
26.7735290601
 20
91.0624798138
 30
0.0
 10
26.6504628429
 20
90.8967890045
 30
0.0
 10
26.5699391357
 20
90.7648677661
 30
0.0
  0
SPLINE
  5
2D3
100
AcDbEntity
  8
0
100
AcDbSpline
 62
7
  6
BYLAYER
 70
0
 71
3
 72
10
 73
6
 74
0
 42
0.0000001
 43
0.0000001
 44
0.0000000001
 40
0.0
 40
0.0
 40
0.0
 40
0.0
 40
0.2374249056
 40
0.4804031308
 40
1.0
 40
1.0
 40
1.0
 40
1.0
 10
29.8048286802
 20
93.5297400158
 30
0.0
 10
29.923775497
 20
93.5983978601
 30
0.0
 10
30.1784701972
 20
93.7145449785
 30
0.0
 10
30.7426669241
 20
93.8532564
 30
0.0
 10
31.1935223381
 20
93.841462404
 30
0.0
 10
31.4903414659
 20
93.7941642595
 30
0.0
  0
SPLINE
  5
2D4
100
AcDbEntity
  8
0
100
AcDbSpline
 62
7
  6
BYLAYER
 70
0
 71
3
 72
9
 73
5
 74
0
 42
0.0000001
 43
0.0000001
 44
0.0000000001
 40
0.0
 40
0.0
 40
0.0
 40
0.0
 40
0.4963524986
 40
1.0
 40
1.0
 40
1.0
 40
1.0
 10
28.4613294903
 20
92.7540794057
 30
0.0
 10
28.3676471936
 20
92.700004821
 30
0.0
 10
28.1868687452
 20
92.5766565836
 30
0.0
 10
28.0263838329
 20
92.4279659691
 30
0.0
 10
27.9512571777
 20
92.3479480071
 30
0.0
  0
SPLINE
  5
2D5
100
AcDbEntity
  8
0
100
AcDbSpline
 62
7
  6
BYLAYER
 70
0
 71
3
 72
11
 73
7
 74
0
 42
0.0000001
 43
0.0000001
 44
0.0000000001
 40
0.0
 40
0.0
 40
0.0
 40
0.0
 40
0.2372539654
 40
0.5000012591
 40
0.7627478695
 40
1.0
 40
1.0
 40
1.0
 40
1.0
 10
31.004141247
 20
20.5798098741
 30
0.0
 10
31.004141247
 20
20.463883991
 30
0.0
 10
31.0476055126
 20
20.2194109664
 30
0.0
 10
31.1992112678
 20
19.875934668
 30
0.0
 10
31.420868506
 20
19.5729038686
 30
0.0
 10
31.610856421
 20
19.4130282123
 30
0.0
 10
31.7112509721
 20
19.3550667024
 30
0.0
  0
SPLINE
  5
2D6
100
AcDbEntity
  8
0
100
AcDbSpline
 62
7
  6
BYLAYER
 70
0
 71
3
 72
15
 73
11
 74
0
 42
0.0000001
 43
0.0000001
 44
0.0000000001
 40
0.0
 40
0.0
 40
0.0
 40
0.0
 40
0.1141465952
 40
0.2373352439
 40
0.366975646
 40
0.4999989181
 40
0.6330223406
 40
0.7626631822
 40
0.8858525235
 40
1.0
 40
1.0
 40
1.0
 40
1.0
 10
27.4685926212
 20
33.3988455528
 30
0.0
 10
27.7106116558
 20
33.2591189591
 30
0.0
 10
28.1886752684
 20
32.9239663698
 30
0.0
 10
28.8465046393
 20
32.3085947402
 30
0.0
 10
29.4526542108
 20
31.5810743539
 30
0.0
 10
29.984436453
 20
30.7688974716
 30
0.0
 10
30.4219157365
 20
29.9022732189
 30
0.0
 10
30.7488978312
 20
29.0135708915
 30
0.0
 10
30.9529172876
 20
28.1361846582
 30
0.0
 10
31.004141247
 20
27.5545897811
 30
0.0
 10
31.004141247
 20
27.2751296945
 30
0.0
  0
SPLINE
  5
2D7
100
AcDbEntity
  8
0
100
AcDbSpline
 62
7
  6
BYLAYER
 70
0
 71
3
 72
11
 73
7
 74
0
 42
0.0000001
 43
0.0000001
 44
0.0000000001
 40
0.0
 40
0.0
 40
0.0
 40
0.0
 40
0.2372539654
 40
0.5000012591
 40
0.7627478695
 40
1.0
 40
1.0
 40
1.0
 40
1.0
 10
23.9330439955
 20
36.2565517425
 30
0.0
 10
23.9330439955
 20
36.1406258594
 30
0.0
 10
23.9765082611
 20
35.8961528349
 30
0.0
 10
24.1281140164
 20
35.5526765364
 30
0.0
 10
24.3497712545
 20
35.249645737
 30
0.0
 10
24.5397591695
 20
35.0897700807
 30
0.0
 10
24.6401537206
 20
35.0318085709
 30
0.0
  0
SPLINE
  5
2D8
100
AcDbEntity
  8
0
100
AcDbSpline
 62
7
  6
BYLAYER
 70
0
 71
3
 72
11
 73
7
 74
0
 42
0.0000001
 43
0.0000001
 44
0.0000000001
 40
0.0
 40
0.0
 40
0.0
 40
0.0
 40
0.2895391946
 40
0.5491157945
 40
0.7822541179
 40
1.0
 40
1.0
 40
1.0
 40
1.0
 10
51.5103232762
 20
19.5186598991
 30
0.0
 10
51.554176534
 20
19.4933417817
 30
0.0
 10
51.6414875922
 20
19.4518617227
 30
0.0
 10
51.7756317777
 20
19.4193926554
 30
0.0
 10
51.901563189
 20
19.4225561103
 30
0.0
 10
51.977313676
 20
19.4501435177
 30
0.0
 10
52.0102930611
 20
19.4691840766
 30
0.0
  0
SPLINE
  5
2D9
100
AcDbEntity
  8
0
100
AcDbSpline
 62
7
  6
BYLAYER
 70
0
 71
3
 72
11
 73
7
 74
0
 42
0.0000001
 43
0.0000001
 44
0.0000000001
 40
0.0
 40
0.0
 40
0.0
 40
0.0
 40
0.2895391946
 40
0.5491157945
 40
0.7822541179
 40
1.0
 40
1.0
 40
1.0
 40
1.0
 10
44.4392260248
 20
12.0067331211
 30
0.0
 10
44.4830792826
 20
11.9814150036
 30
0.0
 10
44.5703903407
 20
11.9399349447
 30
0.0
 10
44.7045345263
 20
11.9074658774
 30
0.0
 10
44.8304659375
 20
11.9106293322
 30
0.0
 10
44.9062164246
 20
11.9382167397
 30
0.0
 10
44.9391958096
 20
11.9572572986
 30
0.0
  0
SPLINE
  5
2DA
100
AcDbEntity
  8
0
100
AcDbSpline
 62
7
  6
BYLAYER
 70
0
 71
3
 72
11
 73
7
 74
0
 42
0.0000001
 43
0.0000001
 44
0.0000000001
 40
0.0
 40
0.0
 40
0.0
 40
0.0
 40
0.2895391946
 40
0.5491157945
 40
0.7822541179
 40
1.0
 40
1.0
 40
1.0
 40
1.0
 10
57.2378643577
 20
11.2311032222
 30
0.0
 10
57.2817176155
 20
11.2057851048
 30
0.0
 10
57.3690286736
 20
11.1643050458
 30
0.0
 10
57.5031728592
 20
11.1318359785
 30
0.0
 10
57.6291042704
 20
11.1349994334
 30
0.0
 10
57.7048547575
 20
11.1625868408
 30
0.0
 10
57.7378341425
 20
11.1816273997
 30
0.0
  0
SPLINE
  5
2DB
100
AcDbEntity
  8
0
100
AcDbSpline
 62
7
  6
BYLAYER
 70
0
 71
3
 72
9
 73
5
 74
0
 42
0.0000001
 43
0.0000001
 44
0.0000000001
 40
0.0
 40
0.0
 40
0.0
 40
0.0
 40
0.2548619614
 40
1.0
 40
1.0
 40
1.0
 40
1.0
 10
33.531349747
 20
81.1379140502
 30
0.0
 10
33.5912701351
 20
81.0959594464
 30
0.0
 10
33.8280644483
 20
80.9337699643
 30
0.0
 10
34.0716663684
 20
80.7814598484
 30
0.0
 10
34.2568777775
 20
80.6745304106
 30
0.0
  0
SPLINE
  5
2DC
100
AcDbEntity
  8
0
100
AcDbSpline
 62
7
  6
BYLAYER
 70
0
 71
3
 72
11
 73
7
 74
0
 42
0.0000001
 43
0.0000001
 44
0.0000000001
 40
0.0
 40
0.0
 40
0.0
 40
0.0
 40
0.2372539654
 40
0.5000012591
 40
0.7627478695
 40
1.0
 40
1.0
 40
1.0
 40
1.0
 10
29.6605850769
 20
27.9689950656
 30
0.0
 10
29.6605850769
 20
27.8530691825
 30
0.0
 10
29.7040493426
 20
27.608596158
 30
0.0
 10
29.8556550978
 20
27.2651198595
 30
0.0
 10
30.0773123359
 20
26.9620890601
 30
0.0
 10
30.267300251
 20
26.8022134038
 30
0.0
 10
30.3676948021
 20
26.744251894
 30
0.0
  0
SPLINE
  5
2DD
100
AcDbEntity
  8
0
100
AcDbSpline
 62
7
  6
BYLAYER
 70
0
 71
3
 72
11
 73
7
 74
0
 42
0.0000001
 43
0.0000001
 44
0.0000000001
 40
0.0
 40
0.0
 40
0.0
 40
0.0
 40
0.2178537284
 40
0.4509656275
 40
0.7102665038
 40
1.0
 40
1.0
 40
1.0
 40
1.0
 10
34.7532225123
 20
21.9247686999
 30
0.0
 10
34.6459681382
 20
21.8628754178
 30
0.0
 10
34.4453164148
 20
21.694259742
 30
0.0
 10
34.2319021167
 20
21.3450557822
 30
0.0
 10
34.1049844496
 20
20.9148525092
 30
0.0
 10
34.0800826824
 20
20.6016987505
 30
0.0
 10
34.0800826824
 20
20.4370094471
 30
0.0
  0
SPLINE
  5
2DE
100
AcDbEntity
  8
0
100
AcDbSpline
 62
7
  6
BYLAYER
 70
0
 71
3
 72
11
 73
7
 74
0
 42
0.0000001
 43
0.0000001
 44
0.0000000001
 40
0.0
 40
0.0
 40
0.0
 40
0.0
 40
0.2286534553
 40
0.4798536567
 40
0.7416017345
 40
1.0
 40
1.0
 40
1.0
 40
1.0
 10
34.0800826824
 20
74.0812182526
 30
0.0
 10
34.0800826824
 20
73.8134938944
 30
0.0
 10
34.1522919494
 20
73.2510089227
 30
0.0
 10
34.423795709
 20
72.4220595937
 30
0.0
 10
34.843857334
 20
71.6182333427
 30
0.0
 10
35.2109725825
 20
71.1280406258
 30
0.0
 10
35.4133203498
 20
70.9031118363
 30
0.0
  0
SPLINE
  5
2DF
100
AcDbEntity
  8
0
100
AcDbSpline
 62
7
  6
BYLAYER
 70
0
 71
3
 72
15
 73
11
 74
0
 42
0.0000001
 43
0.0000001
 44
0.0000000001
 40
0.0
 40
0.0
 40
0.0
 40
0.0
 40
0.1210012121
 40
0.253131227
 40
0.3917216424
 40
0.5312425953
 40
0.6660464528
 40
0.7910978651
 40
0.9027925188
 40
1.0
 40
1.0
 40
1.0
 40
1.0
 10
34.0800826824
 20
20.4370094471
 30
0.0
 10
34.0800826824
 20
20.2048570461
 30
0.0
 10
34.1344666542
 20
19.7186611036
 30
0.0
 10
34.3438943193
 20
18.9939845259
 30
0.0
 10
34.6730939856
 20
18.2759691279
 30
0.0
 10
35.1027352514
 20
17.6072273231
 30
0.0
 10
35.6074862182
 20
17.026886179
 30
0.0
 10
36.1586098194
 20
16.5687969654
 30
0.0
 10
36.724670933
 20
16.259269646
 30
0.0
 10
37.1201519194
 20
16.1593827227
 30
0.0
 10
37.3062287663
 20
16.1467990885
 30
0.0
  0
SPLINE
  5
2E0
100
AcDbEntity
  8
0
100
AcDbSpline
 62
7
  6
BYLAYER
 70
0
 71
3
 72
11
 73
7
 74
0
 42
0.0000001
 43
0.0000001
 44
0.0000000001
 40
0.0
 40
0.0
 40
0.0
 40
0.0
 40
0.2178537284
 40
0.4509656275
 40
0.7102665038
 40
1.0
 40
1.0
 40
1.0
 40
1.0
 10
34.7532225123
 20
75.5689775053
 30
0.0
 10
34.6459681382
 20
75.5070842232
 30
0.0
 10
34.4453164148
 20
75.3384685475
 30
0.0
 10
34.2319021167
 20
74.9892645877
 30
0.0
 10
34.1049844496
 20
74.5590613146
 30
0.0
 10
34.0800826824
 20
74.2459075559
 30
0.0
 10
34.0800826824
 20
74.0812182526
 30
0.0
  0
SPLINE
  5
2E1
100
AcDbEntity
  8
0
100
AcDbSpline
 62
7
  6
BYLAYER
 70
0
 71
3
 72
11
 73
7
 74
0
 42
0.0000001
 43
0.0000001
 44
0.0000000001
 40
0.0
 40
0.0
 40
0.0
 40
0.0
 40
0.217745073
 40
0.4508830113
 40
0.7104597664
 40
1.0
 40
1.0
 40
1.0
 40
1.0
 10
24.1401839358
 20
74.3550506573
 30
0.0
 10
24.1072037911
 20
74.3360096598
 30
0.0
 10
24.0454355266
 20
74.284200318
 30
0.0
 10
23.9797291159
 20
74.1767191004
 30
0.0
 10
23.9407759849
 20
74.044308304
 30
0.0
 10
23.9330439955
 20
73.9479518024
 30
0.0
 10
23.9330439955
 20
73.8973131722
 30
0.0
  0
SPLINE
  5
2E2
100
AcDbEntity
  8
0
100
AcDbSpline
 62
7
  6
BYLAYER
 70
0
 71
3
 72
12
 73
8
 74
0
 42
0.0000001
 43
0.0000001
 44
0.0000000001
 40
0.0
 40
0.0
 40
0.0
 40
0.0
 40
0.1081614689
 40
0.2183687405
 40
0.4513480154
 40
0.7104447573
 40
1.0
 40
1.0
 40
1.0
 40
1.0
 10
46.1819139447
 20
21.3992124824
 30
0.0
 10
46.2638880483
 20
21.4465399735
 30
0.0
 10
46.4379423946
 20
21.5280772465
 30
0.0
 10
46.8201610491
 20
21.6337773879
 30
0.0
 10
47.3555053916
 20
21.6481330203
 30
0.0
 10
48.0259170759
 20
21.4859465244
 30
0.0
 10
48.4624334855
 20
21.2783200814
 30
0.0
 10
48.6818843756
 20
21.1516229172
 30
0.0
  0
SPLINE
  5
2E3
100
AcDbEntity
  8
0
100
AcDbSpline
 62
7
  6
BYLAYER
 70
0
 71
3
 72
17
 73
13
 74
0
 42
0.0000001
 43
0.0000001
 44
0.0000000001
 40
0.0
 40
0.0
 40
0.0
 40
0.0
 40
0.0428592926
 40
0.087485474
 40
0.1353198781
 40
0.1872819044
 40
0.3045421965
 40
0.4382074305
 40
0.582548911
 40
0.7297129633
 40
0.8713059682
 40
1.0
 40
1.0
 40
1.0
 40
1.0
 10
53.0844359096
 20
72.3141983643
 30
0.0
 10
53.1497642254
 20
72.351922042
 30
0.0
 10
53.2937921832
 20
72.4117275404
 30
0.0
 10
53.5314975365
 20
72.4466180689
 30
0.0
 10
53.7867857447
 20
72.4278090491
 30
0.0
 10
54.1577135145
 20
72.3291544791
 30
0.0
 10
54.6318871215
 20
72.0698734691
 30
0.0
 10
55.1557736142
 20
71.6059177181
 30
0.0
 10
55.6188877892
 20
71.0131752209
 30
0.0
 10
55.9833529405
 20
70.3395165995
 30
0.0
 10
56.2199018197
 20
69.6401996122
 30
0.0
 10
56.2832662287
 20
69.163915346
 30
0.0
 10
56.2832662287
 20
68.9373974399
 30
0.0
  0
SPLINE
  5
2E4
100
AcDbEntity
  8
0
100
AcDbSpline
 62
7
  6
BYLAYER
 70
0
 71
3
 72
11
 73
7
 74
0
 42
0.0000001
 43
0.0000001
 44
0.0000000001
 40
0.0
 40
0.0
 40
0.0
 40
0.0
 40
0.2896993757
 40
0.5490834079
 40
0.7822137218
 40
1.0
 40
1.0
 40
1.0
 40
1.0
 10
25.4472478456
 20
81.0588847533
 30
0.0
 10
25.5788836781
 20
80.9828864893
 30
0.0
 10
25.8407489227
 20
80.8583095181
 30
0.0
 10
26.2432433307
 20
80.7611059875
 30
0.0
 10
26.6209071332
 20
80.7706667719
 30
0.0
 10
26.8482783269
 20
80.8531848549
 30
0.0
 10
26.9472411298
 20
80.9103119171
 30
0.0
  0
SPLINE
  5
2E5
100
AcDbEntity
  8
0
100
AcDbSpline
 62
7
  6
BYLAYER
 70
0
 71
3
 72
9
 73
5
 74
0
 42
0.0000001
 43
0.0000001
 44
0.0000000001
 40
0.0
 40
0.0
 40
0.0
 40
0.0
 40
0.256153096
 40
1.0
 40
1.0
 40
1.0
 40
1.0
 10
42.0051873753
 20
82.9799605279
 30
0.0
 10
41.9833908163
 20
82.9204504498
 30
0.0
 10
41.8940940804
 20
82.6897038224
 30
0.0
 10
41.787459263
 20
82.4655578071
 30
0.0
 10
41.6979706067
 20
82.3047406763
 30
0.0
  0
SPLINE
  5
2E6
100
AcDbEntity
  8
0
100
AcDbSpline
 62
7
  6
BYLAYER
 70
0
 71
3
 72
10
 73
6
 74
0
 42
0.0000001
 43
0.0000001
 44
0.0000000001
 40
0.0
 40
0.0
 40
0.0
 40
0.0
 40
0.5120460434
 40
0.7576748717
 40
1.0
 40
1.0
 40
1.0
 40
1.0
 10
41.6979706067
 20
82.3047406763
 30
0.0
 10
41.5381588003
 20
82.0175481175
 30
0.0
 10
41.2503541021
 20
81.616618982
 30
0.0
 10
40.7745871314
 20
81.1834232269
 30
0.0
 10
40.5143398915
 20
81.0067611692
 30
0.0
 10
40.379635447
 20
80.9289974146
 30
0.0
  0
SPLINE
  5
2E7
100
AcDbEntity
  8
0
100
AcDbSpline
 62
7
  6
BYLAYER
 70
0
 71
3
 72
11
 73
7
 74
0
 42
0.0000001
 43
0.0000001
 44
0.0000000001
 40
0.0
 40
0.0
 40
0.0
 40
0.0
 40
0.2897048043
 40
0.5490913404
 40
0.7822177947
 40
1.0
 40
1.0
 40
1.0
 40
1.0
 10
27.0090436037
 20
95.081728867
 30
0.0
 10
26.8611726799
 20
94.996356059
 30
0.0
 10
26.5928975486
 20
94.8115764258
 30
0.0
 10
26.2722713895
 20
94.4746129417
 30
0.0
 10
26.0694537928
 20
94.1018496883
 30
0.0
 10
26.0220201695
 20
93.834314123
 30
0.0
 10
26.0220201933
 20
93.7059575243
 30
0.0
  0
SPLINE
  5
2E8
100
AcDbEntity
  8
0
100
AcDbSpline
 62
7
  6
BYLAYER
 70
0
 71
3
 72
17
 73
13
 74
0
 42
0.0000001
 43
0.0000001
 44
0.0000000001
 40
0.0
 40
0.0
 40
0.0
 40
0.0
 40
0.1286926208
 40
0.2702795078
 40
0.4174383051
 40
0.5617803148
 40
0.6954501289
 40
0.8127134773
 40
0.8646759206
 40
0.9125113962
 40
0.9571388332
 40
1.0
 40
1.0
 40
1.0
 40
1.0
 10
31.4426215804
 20
92.5220593362
 30
0.0
 10
31.2279468226
 20
92.3981175468
 30
0.0
 10
30.7419023885
 20
92.1975674558
 30
0.0
 10
29.9497347385
 20
92.0391082451
 30
0.0
 10
29.1118890828
 20
92.0159036343
 30
0.0
 10
28.2967273268
 20
92.1304603792
 30
0.0
 10
27.5703508034
 20
92.3730846299
 30
0.0
 10
27.0651395456
 20
92.6805854782
 30
0.0
 10
26.7686771008
 20
92.9781481836
 30
0.0
 10
26.6111421518
 20
93.2097913667
 30
0.0
 10
26.514147211
 20
93.4541714859
 30
0.0
 10
26.4920054309
 20
93.6233993242
 30
0.0
 10
26.4920167112
 20
93.7059574912
 30
0.0
  0
SPLINE
  5
2E9
100
AcDbEntity
  8
0
100
AcDbSpline
 62
7
  6
BYLAYER
 70
0
 71
3
 72
11
 73
7
 74
0
 42
0.0000001
 43
0.0000001
 44
0.0000000001
 40
0.0
 40
0.0
 40
0.0
 40
0.0
 40
0.2897052857
 40
0.5490919933
 40
0.7822182543
 40
1.0
 40
1.0
 40
1.0
 40
1.0
 10
27.009063446
 20
91.1952363659
 30
0.0
 10
26.8611897561
 20
91.2806093492
 30
0.0
 10
26.5929095332
 20
91.4653896872
 30
0.0
 10
26.2722768602
 20
91.8023556687
 30
0.0
 10
26.0694548949
 20
92.1751225333
 30
0.0
 10
26.0220201573
 20
92.4426611833
 30
0.0
 10
26.0220201933
 20
92.5710191644
 30
0.0
  0
SPLINE
  5
2EA
100
AcDbEntity
  8
0
100
AcDbSpline
 62
7
  6
BYLAYER
 70
0
 71
3
 72
15
 73
11
 74
0
 42
0.0000001
 43
0.0000001
 44
0.0000000001
 40
0.0
 40
0.0
 40
0.0
 40
0.0
 40
0.1141231812
 40
0.2373468278
 40
0.366971913
 40
0.4999994099
 40
0.6330269884
 40
0.76265231
 40
0.885876356
 40
1.0
 40
1.0
 40
1.0
 40
1.0
 10
31.7749631512
 20
91.1952478217
 30
0.0
 10
31.6118771409
 20
91.1010906319
 30
0.0
 10
31.2551032013
 20
90.9350348222
 30
0.0
 10
30.6742511083
 20
90.7583765326
 30
0.0
 10
30.045280391
 20
90.6497691976
 30
0.0
 10
29.3920176456
 20
90.6130377016
 30
0.0
 10
28.7387543339
 20
90.6497660224
 30
0.0
 10
28.1097818962
 20
90.7583703258
 30
0.0
 10
27.5289271027
 20
90.9350259235
 30
0.0
 10
27.1721507966
 20
91.1010799703
 30
0.0
 10
27.009063446
 20
91.1952363659
 30
0.0
  0
SPLINE
  5
2EB
100
AcDbEntity
  8
0
100
AcDbSpline
 62
7
  6
BYLAYER
 70
0
 71
3
 72
9
 73
5
 74
0
 42
0.0000001
 43
0.0000001
 44
0.0000000001
 40
0.0
 40
0.0
 40
0.0
 40
0.0
 40
0.2738787689
 40
1.0
 40
1.0
 40
1.0
 40
1.0
 10
27.3413851745
 20
93.7549173526
 30
0.0
 10
27.2694059361
 20
93.713360368
 30
0.0
 10
27.0141645989
 20
93.5501078371
 30
0.0
 10
26.7874883471
 20
93.3335012972
 30
0.0
 10
26.6693308241
 20
93.1475013472
 30
0.0
  0
SPLINE
  5
2EC
100
AcDbEntity
  8
0
100
AcDbSpline
 62
7
  6
BYLAYER
 70
0
 71
3
 72
9
 73
5
 74
0
 42
0.0000001
 43
0.0000001
 44
0.0000000001
 40
0.0
 40
0.0
 40
0.0
 40
0.0
 40
0.2413377145
 40
1.0
 40
1.0
 40
1.0
 40
1.0
 10
34.0446756075
 20
92.5118206375
 30
0.0
 10
34.1722578718
 20
92.4056833498
 30
0.0
 10
34.6873941578
 20
91.9497644966
 30
0.0
 10
35.1495028759
 20
91.435084584
 30
0.0
 10
35.469126151
 20
91.0227550555
 30
0.0
  0
SPLINE
  5
2ED
100
AcDbEntity
  8
0
100
AcDbSpline
 62
7
  6
BYLAYER
 70
0
 71
3
 72
17
 73
13
 74
0
 42
0.0000001
 43
0.0000001
 44
0.0000000001
 40
0.0
 40
0.0
 40
0.0
 40
0.0
 40
0.1501930751
 40
0.300542772
 40
0.4460431636
 40
0.5821991717
 40
0.7056338695
 40
0.8148281385
 40
0.8644893652
 40
0.9113757629
 40
0.9562283236
 40
1.0
 40
1.0
 40
1.0
 40
1.0
 10
35.469126151
 20
91.0227550555
 30
0.0
 10
35.7662590398
 20
90.6394392162
 30
0.0
 10
36.3094529588
 20
89.8312348794
 30
0.0
 10
36.9549592053
 20
88.5393835608
 30
0.0
 10
37.4099259432
 20
87.2159681343
 30
0.0
 10
37.6518140015
 20
85.9248282261
 30
0.0
 10
37.668639261
 20
84.7275677076
 30
0.0
 10
37.4846472961
 20
83.8238701682
 30
0.0
 10
37.2141131132
 20
83.2144650172
 30
0.0
 10
36.9634345486
 20
82.8301543164
 30
0.0
 10
36.6614716371
 20
82.5101591935
 30
0.0
 10
36.4271890979
 20
82.3420974606
 30
0.0
 10
36.3047738282
 20
82.2714375745
 30
0.0
  0
SPLINE
  5
2EE
100
AcDbEntity
  8
0
100
AcDbSpline
 62
7
  6
BYLAYER
 70
0
 71
3
 72
9
 73
5
 74
0
 42
0.0000001
 43
0.0000001
 44
0.0000000001
 40
0.0
 40
0.0
 40
0.0
 40
0.0
 40
0.2580054154
 40
1.0
 40
1.0
 40
1.0
 40
1.0
 10
33.0631517118
 20
81.2719389673
 30
0.0
 10
33.1169531368
 20
81.2599969371
 30
0.0
 10
33.3264540155
 20
81.2183232552
 30
0.0
 10
33.5399560855
 20
81.1958146598
 30
0.0
 10
33.6984047439
 20
81.1920826711
 30
0.0
  0
SPLINE
  5
2EF
100
AcDbEntity
  8
0
100
AcDbSpline
 62
7
  6
BYLAYER
 70
0
 71
3
 72
9
 73
5
 74
0
 42
0.0000001
 43
0.0000001
 44
0.0000000001
 40
0.0
 40
0.0
 40
0.0
 40
0.0
 40
0.5130715319
 40
1.0
 40
1.0
 40
1.0
 40
1.0
 10
33.6984047439
 20
81.1920826711
 30
0.0
 10
33.9226177127
 20
81.1868017159
 30
0.0
 10
34.3634410229
 20
81.2270110445
 30
0.0
 10
34.7769361534
 20
81.3893657454
 30
0.0
 10
34.9612784367
 20
81.4957703999
 30
0.0
  0
SPLINE
  5
2F0
100
AcDbEntity
  8
0
100
AcDbSpline
 62
7
  6
BYLAYER
 70
0
 71
3
 72
9
 73
5
 74
0
 42
0.0000001
 43
0.0000001
 44
0.0000000001
 40
0.0
 40
0.0
 40
0.0
 40
0.0
 40
0.512992837
 40
1.0
 40
1.0
 40
1.0
 40
1.0
 10
32.1701682473
 20
80.8522868139
 30
0.0
 10
32.3765179425
 20
80.8476806824
 30
0.0
 10
32.7821944957
 20
80.8852351586
 30
0.0
 10
33.1627237198
 20
81.0347507867
 30
0.0
 10
33.3324172538
 20
81.1327246469
 30
0.0
  0
SPLINE
  5
2F1
100
AcDbEntity
  8
0
100
AcDbSpline
 62
7
  6
BYLAYER
 70
0
 71
3
 72
11
 73
7
 74
0
 42
0.0000001
 43
0.0000001
 44
0.0000000001
 40
0.0
 40
0.0
 40
0.0
 40
0.0
 40
0.2657833947
 40
0.5202315855
 40
0.764286362
 40
1.0
 40
1.0
 40
1.0
 40
1.0
 10
33.9210333361
 20
84.2570269736
 30
0.0
 10
33.9210333361
 20
84.4553045872
 30
0.0
 10
33.9080136777
 20
84.8436015497
 30
0.0
 10
33.8443055749
 20
85.4107889704
 30
0.0
 10
33.7409931177
 20
85.949193086
 30
0.0
 10
33.6497472051
 20
86.2955355782
 30
0.0
 10
33.6004326997
 20
86.4643242581
 30
0.0
  0
SPLINE
  5
2F2
100
AcDbEntity
  8
0
100
AcDbSpline
 62
7
  6
BYLAYER
 70
0
 71
3
 72
10
 73
6
 74
0
 42
0.0000001
 43
0.0000001
 44
0.0000000001
 40
0.0
 40
0.0
 40
0.0
 40
0.0
 40
0.5149437103
 40
0.7619725676
 40
1.0
 40
1.0
 40
1.0
 40
1.0
 10
33.6004325984
 20
81.6795341129
 30
0.0
 10
33.6957533076
 20
82.1158544113
 30
0.0
 10
33.8182256921
 20
82.7664420931
 30
0.0
 10
33.9062618429
 20
83.6297587333
 30
0.0
 10
33.9210333361
 20
84.050585605
 30
0.0
 10
33.9210333361
 20
84.2570269736
 30
0.0
  0
SPLINE
  5
2F3
100
AcDbEntity
  8
0
100
AcDbSpline
 62
7
  6
BYLAYER
 70
0
 71
3
 72
10
 73
6
 74
0
 42
0.0000001
 43
0.0000001
 44
0.0000000001
 40
0.0
 40
0.0
 40
0.0
 40
0.0
 40
0.4935955799
 40
0.7452168313
 40
1.0
 40
1.0
 40
1.0
 40
1.0
 10
33.6004325984
 20
86.4643241997
 30
0.0
 10
33.403898729
 20
86.8877899958
 30
0.0
 10
33.0799465452
 20
87.5158518084
 30
0.0
 10
32.5657429031
 20
88.310454619
 30
0.0
 10
32.2777209923
 20
88.6937122096
 30
0.0
 10
32.1267424085
 20
88.8815304533
 30
0.0
  0
SPLINE
  5
2F4
100
AcDbEntity
  8
0
100
AcDbSpline
 62
7
  6
BYLAYER
 70
0
 71
3
 72
9
 73
5
 74
0
 42
0.0000001
 43
0.0000001
 44
0.0000000001
 40
0.0
 40
0.0
 40
0.0
 40
0.0
 40
0.5570559647
 40
1.0
 40
1.0
 40
1.0
 40
1.0
 10
29.2276166759
 20
80.0305442922
 30
0.0
 10
28.9544887083
 20
80.0061453753
 30
0.0
 10
28.4616372221
 20
79.9808973934
 30
0.0
 10
27.9694070771
 20
80.0220263493
 30
0.0
 10
27.7539263848
 20
80.055355444
 30
0.0
  0
SPLINE
  5
2F5
100
AcDbEntity
  8
0
100
AcDbSpline
 62
7
  6
BYLAYER
 70
0
 71
3
 72
9
 73
5
 74
0
 42
0.0000001
 43
0.0000001
 44
0.0000000001
 40
0.0
 40
0.0
 40
0.0
 40
0.0
 40
0.5332619174
 40
1.0
 40
1.0
 40
1.0
 40
1.0
 10
31.3425083412
 20
80.3759287166
 30
0.0
 10
30.9696677776
 20
80.297134635
 30
0.0
 10
30.2685140505
 20
80.1583394824
 30
0.0
 10
29.559830576
 20
80.060221441
 30
0.0
 10
29.2276166759
 20
80.0305442922
 30
0.0
  0
SPLINE
  5
2F6
100
AcDbEntity
  8
0
100
AcDbSpline
 62
7
  6
BYLAYER
 70
0
 71
3
 72
9
 73
5
 74
0
 42
0.0000001
 43
0.0000001
 44
0.0000000001
 40
0.0
 40
0.0
 40
0.0
 40
0.0
 40
0.497318819
 40
1.0
 40
1.0
 40
1.0
 40
1.0
 10
32.1267424085
 20
88.8815304533
 30
0.0
 10
31.857636433
 20
89.2162998649
 30
0.0
 10
31.2756433262
 20
89.8576250044
 30
0.0
 10
30.6266111628
 20
90.4294913538
 30
0.0
 10
30.2907079279
 20
90.7045505539
 30
0.0
  0
SPLINE
  5
2F7
100
AcDbEntity
  8
0
100
AcDbSpline
 62
7
  6
BYLAYER
 70
0
 71
3
 72
9
 73
5
 74
0
 42
0.0000001
 43
0.0000001
 44
0.0000000001
 40
0.0
 40
0.0
 40
0.0
 40
0.0
 40
0.2502563867
 40
1.0
 40
1.0
 40
1.0
 40
1.0
 10
27.753926486
 20
80.0553555024
 30
0.0
 10
27.6856494578
 20
80.1092035853
 30
0.0
 10
27.4141519663
 20
80.3260450074
 30
0.0
 10
27.148616385
 20
80.5504489335
 30
0.0
 10
26.9544515892
 20
80.7241341613
 30
0.0
  0
SPLINE
  5
2F8
100
AcDbEntity
  8
0
100
AcDbSpline
 62
7
  6
BYLAYER
 70
0
 71
3
 72
9
 73
5
 74
0
 42
0.0000001
 43
0.0000001
 44
0.0000000001
 40
0.0
 40
0.0
 40
0.0
 40
0.0
 40
0.4808522673
 40
1.0
 40
1.0
 40
1.0
 40
1.0
 10
27.9454694572
 20
90.8846526628
 30
0.0
 10
27.6998498554
 20
90.8502429724
 30
0.0
 10
27.1909349322
 20
90.7651730183
 30
0.0
 10
26.6852530349
 20
90.6633341942
 30
0.0
 10
26.4232689894
 20
90.6079679165
 30
0.0
  0
SPLINE
  5
2F9
100
AcDbEntity
  8
0
100
AcDbSpline
 62
7
  6
BYLAYER
 70
0
 71
3
 72
10
 73
6
 74
0
 42
0.0000001
 43
0.0000001
 44
0.0000000001
 40
0.0
 40
0.0
 40
0.0
 40
0.0
 40
0.2380277071
 40
0.4850565727
 40
1.0
 40
1.0
 40
1.0
 40
1.0
 10
23.8447438932
 20
86.7268696011
 30
0.0
 10
23.8447438932
 20
86.9333112013
 30
0.0
 10
23.8595161285
 20
87.354138268
 30
0.0
 10
23.9475508505
 20
88.2174550054
 30
0.0
 10
24.0700238591
 20
88.8680423625
 30
0.0
 10
24.1653445296
 20
89.3043624033
 30
0.0
  0
SPLINE
  5
2FA
100
AcDbEntity
  8
0
100
AcDbSpline
 62
7
  6
BYLAYER
 70
0
 71
3
 72
9
 73
5
 74
0
 42
0.0000001
 43
0.0000001
 44
0.0000000001
 40
0.0
 40
0.0
 40
0.0
 40
0.0
 40
0.245862816
 40
1.0
 40
1.0
 40
1.0
 40
1.0
 10
23.8684523421
 20
86.0995204045
 30
0.0
 10
23.8644628651
 20
86.1508235339
 30
0.0
 10
23.8503965336
 20
86.3596538896
 30
0.0
 10
23.8447438932
 20
86.5690319866
 30
0.0
 10
23.8447438932
 20
86.7268696011
 30
0.0
  0
SPLINE
  5
2FB
100
AcDbEntity
  8
0
100
AcDbSpline
 62
7
  6
BYLAYER
 70
0
 71
3
 72
11
 73
7
 74
0
 42
0.0000001
 43
0.0000001
 44
0.0000000001
 40
0.0
 40
0.0
 40
0.0
 40
0.0
 40
0.2372539654
 40
0.5000012591
 40
0.7627478695
 40
1.0
 40
1.0
 40
1.0
 40
1.0
 10
52.2174330014
 20
57.5676829914
 30
0.0
 10
52.2174330014
 20
57.6836088745
 30
0.0
 10
52.1739687357
 20
57.928081899
 30
0.0
 10
52.0223629805
 20
58.2715581975
 30
0.0
 10
51.8007057424
 20
58.5745889969
 30
0.0
 10
51.6107178273
 20
58.7344646532
 30
0.0
 10
51.5103232762
 20
58.792426163
 30
0.0
  0
SPLINE
  5
2FC
100
AcDbEntity
  8
0
100
AcDbSpline
 62
7
  6
BYLAYER
 70
0
 71
3
 72
17
 73
13
 74
0
 42
0.0000001
 43
0.0000001
 44
0.0000000001
 40
0.0
 40
0.0
 40
0.0
 40
0.0
 40
0.0428592926
 40
0.087485474
 40
0.1353198781
 40
0.1872819044
 40
0.3045421965
 40
0.4382074305
 40
0.582548911
 40
0.7297129633
 40
0.8713059682
 40
1.0
 40
1.0
 40
1.0
 40
1.0
 10
36.4502513175
 20
22.9045901363
 30
0.0
 10
36.5303709501
 20
22.9508550241
 30
0.0
 10
36.7070090116
 20
23.02420139
 30
0.0
 10
36.998534445
 20
23.0669916608
 30
0.0
 10
37.3116237569
 20
23.043923995
 30
0.0
 10
37.7665351727
 20
22.9229325413
 30
0.0
 10
38.3480688417
 20
22.6049463969
 30
0.0
 10
38.990571144
 20
22.0359440608
 30
0.0
 10
39.5585413586
 20
21.3089957152
 30
0.0
 10
40.0055269216
 20
20.4828106135
 30
0.0
 10
40.2956340375
 20
19.6251577045
 30
0.0
 10
40.3733451052
 20
19.0410354913
 30
0.0
 10
40.3733451052
 20
18.7632305121
 30
0.0
  0
SPLINE
  5
2FD
100
AcDbEntity
  8
0
100
AcDbSpline
 62
7
  6
BYLAYER
 70
0
 71
3
 72
12
 73
8
 74
0
 42
0.0000001
 43
0.0000001
 44
0.0000000001
 40
0.0
 40
0.0
 40
0.0
 40
0.0
 40
0.289556229
 40
0.5486533222
 40
0.7816321932
 40
0.8918390364
 40
1.0
 40
1.0
 40
1.0
 40
1.0
 10
45.1463357499
 20
19.1103146041
 30
0.0
 10
45.1463357499
 20
19.3637208767
 30
0.0
 10
45.1847807227
 20
19.8455828673
 30
0.0
 10
45.3795289602
 20
20.507289849
 30
0.0
 10
45.659638541
 20
20.9637473587
 30
0.0
 10
45.9422935655
 20
21.2419151123
 30
0.0
 10
46.0999380304
 20
21.3518839458
 30
0.0
 10
46.1819139447
 20
21.3992124824
 30
0.0
  0
SPLINE
  5
2FE
100
AcDbEntity
  8
0
100
AcDbSpline
 62
7
  6
BYLAYER
 70
0
 71
3
 72
19
 73
15
 74
0
 42
0.0000001
 43
0.0000001
 44
0.0000000001
 40
0.0
 40
0.0
 40
0.0
 40
0.0
 40
0.0428549138
 40
0.0871810293
 40
0.1342157473
 40
0.1848219709
 40
0.2394709172
 40
0.2982819064
 40
0.3610790671
 40
0.4274646856
 40
0.5684407776
 40
0.7154137644
 40
0.8615172048
 40
1.0
 40
1.0
 40
1.0
 40
1.0
 10
34.9612784367
 20
81.4957703999
 30
0.0
 10
35.1066509311
 20
81.5796812085
 30
0.0
 10
35.3831842372
 20
81.7860740778
 30
0.0
 10
35.7257013699
 20
82.1899793023
 30
0.0
 10
35.9934503186
 20
82.6812266656
 30
0.0
 10
36.1829648778
 20
83.2495840215
 30
0.0
 10
36.2922581786
 20
83.8849634418
 30
0.0
 10
36.3200626747
 20
84.5764280061
 30
0.0
 10
36.2664822335
 20
85.3122093541
 30
0.0
 10
36.0841008745
 20
86.3559770936
 30
0.0
 10
35.6580769593
 20
87.6844629093
 30
0.0
 10
34.8898053038
 20
89.2082319076
 30
0.0
 10
33.9063059078
 20
90.5906178434
 30
0.0
 10
33.1186103695
 20
91.3888365555
 30
0.0
 10
32.701660632
 20
91.7357548535
 30
0.0
  0
SPLINE
  5
2FF
100
AcDbEntity
  8
0
100
AcDbSpline
 62
7
  6
BYLAYER
 70
0
 71
3
 72
11
 73
7
 74
0
 42
0.0000001
 43
0.0000001
 44
0.0000000001
 40
0.0
 40
0.0
 40
0.0
 40
0.0
 40
0.2897016594
 40
0.5490895814
 40
0.7822189142
 40
1.0
 40
1.0
 40
1.0
 40
1.0
 10
40.3733451052
 20
72.4074393175
 30
0.0
 10
40.3733451052
 20
72.2427684281
 30
0.0
 10
40.3483787517
 20
71.9295976895
 30
0.0
 10
40.2215549944
 20
71.4993143337
 30
0.0
 10
40.0080103492
 20
71.1501640263
 30
0.0
 10
39.8074265564
 20
70.9815474844
 30
0.0
 10
39.7002256793
 20
70.9196445976
 30
0.0
  0
SPLINE
  5
300
100
AcDbEntity
  8
0
100
AcDbSpline
 62
7
  6
BYLAYER
 70
0
 71
3
 72
11
 73
7
 74
0
 42
0.0000001
 43
0.0000001
 44
0.0000000001
 40
0.0
 40
0.0
 40
0.0
 40
0.0
 40
0.2897016594
 40
0.5490895814
 40
0.7822189142
 40
1.0
 40
1.0
 40
1.0
 40
1.0
 10
40.3733451052
 20
18.7632305121
 30
0.0
 10
40.3733451052
 20
18.5985596227
 30
0.0
 10
40.3483787517
 20
18.285388884
 30
0.0
 10
40.2215549944
 20
17.8551055282
 30
0.0
 10
40.0080103492
 20
17.5059552209
 30
0.0
 10
39.8074265564
 20
17.337338679
 30
0.0
 10
39.7002256793
 20
17.2754357922
 30
0.0
  0
SPLINE
  5
301
100
AcDbEntity
  8
0
100
AcDbSpline
 62
7
  6
BYLAYER
 70
0
 71
3
 72
9
 73
5
 74
0
 42
0.0000001
 43
0.0000001
 44
0.0000000001
 40
0.0
 40
0.0
 40
0.0
 40
0.0
 40
0.259753175
 40
1.0
 40
1.0
 40
1.0
 40
1.0
 10
36.3693848003
 20
22.6043723014
 30
0.0
 10
36.3321139683
 20
22.606892779
 30
0.0
 10
36.188370742
 20
22.6114004819
 30
0.0
 10
36.0435706472
 20
22.5935635052
 30
0.0
 10
35.9407223107
 20
22.5660792604
 30
0.0
  0
SPLINE
  5
302
100
AcDbEntity
  8
0
100
AcDbSpline
 62
7
  6
BYLAYER
 70
0
 71
3
 72
11
 73
7
 74
0
 42
0.0000001
 43
0.0000001
 44
0.0000000001
 40
0.0
 40
0.0
 40
0.0
 40
0.0
 40
0.2372539654
 40
0.5000012591
 40
0.7627478695
 40
1.0
 40
1.0
 40
1.0
 40
1.0
 10
57.9449740828
 20
72.468794961
 30
0.0
 10
57.9449740828
 20
72.5847208441
 30
0.0
 10
57.9015098172
 20
72.8291938686
 30
0.0
 10
57.7499040619
 20
73.1726701671
 30
0.0
 10
57.5282468238
 20
73.4757009665
 30
0.0
 10
57.3382589088
 20
73.6355766228
 30
0.0
 10
57.2378643577
 20
73.6935381326
 30
0.0
  0
SPLINE
  5
303
100
AcDbEntity
  8
0
100
AcDbSpline
 62
7
  6
BYLAYER
 70
0
 71
3
 72
15
 73
11
 74
0
 42
0.0000001
 43
0.0000001
 44
0.0000000001
 40
0.0
 40
0.0
 40
0.0
 40
0.0
 40
0.1210012121
 40
0.253131227
 40
0.3917216424
 40
0.5312425953
 40
0.6660464528
 40
0.7910978651
 40
0.9027925188
 40
1.0
 40
1.0
 40
1.0
 40
1.0
 10
38.6762958958
 20
17.7834445428
 30
0.0
 10
38.6762958958
 20
18.0155969438
 30
0.0
 10
38.621911924
 20
18.5017928863
 30
0.0
 10
38.4124842589
 20
19.226469464
 30
0.0
 10
38.0832845926
 20
19.944484862
 30
0.0
 10
37.6536433268
 20
20.6132266668
 30
0.0
 10
37.14889236
 20
21.1935678109
 30
0.0
 10
36.5977687588
 20
21.6516570245
 30
0.0
 10
36.0317076453
 20
21.9611843439
 30
0.0
 10
35.6362266588
 20
22.0610712672
 30
0.0
 10
35.450149812
 20
22.0736549014
 30
0.0
  0
SPLINE
  5
304
100
AcDbEntity
  8
0
100
AcDbSpline
 62
7
  6
BYLAYER
 70
0
 71
3
 72
11
 73
7
 74
0
 42
0.0000001
 43
0.0000001
 44
0.0000000001
 40
0.0
 40
0.0
 40
0.0
 40
0.0
 40
0.2177817009
 40
0.4509079353
 40
0.7102947134
 40
1.0
 40
1.0
 40
1.0
 40
1.0
 10
26.0220201933
 20
93.7059575243
 30
0.0
 10
26.0220202171
 20
93.57759957
 30
0.0
 10
26.0694548383
 20
93.3100609632
 30
0.0
 10
26.2722768184
 20
92.9372940813
 30
0.0
 10
26.5929095308
 20
92.6003281156
 30
0.0
 10
26.8611897561
 20
92.415547709
 30
0.0
 10
27.009063446
 20
92.3301747257
 30
0.0
  0
SPLINE
  5
305
100
AcDbEntity
  8
0
100
AcDbSpline
 62
7
  6
BYLAYER
 70
0
 71
3
 72
11
 73
7
 74
0
 42
0.0000001
 43
0.0000001
 44
0.0000000001
 40
0.0
 40
0.0
 40
0.0
 40
0.0
 40
0.257141564
 40
0.5190686722
 40
0.7709875524
 40
1.0
 40
1.0
 40
1.0
 40
1.0
 10
38.9666763927
 20
75.6653647658
 30
0.0
 10
39.1792900822
 20
75.4393007214
 30
0.0
 10
39.5658566729
 20
74.9415354771
 30
0.0
 10
40.0089229627
 20
74.1186041911
 30
0.0
 10
40.2964238453
 20
73.2649072078
 30
0.0
 10
40.3733451052
 20
72.6838287575
 30
0.0
 10
40.3733451052
 20
72.4074393175
 30
0.0
  0
SPLINE
  5
306
100
AcDbEntity
  8
0
100
AcDbSpline
 62
7
  6
BYLAYER
 70
0
 71
3
 72
11
 73
7
 74
0
 42
0.0000001
 43
0.0000001
 44
0.0000000001
 40
0.0
 40
0.0
 40
0.0
 40
0.0
 40
0.2177827477
 40
0.4509152641
 40
0.7103063952
 40
1.0
 40
1.0
 40
1.0
 40
1.0
 10
26.4920167112
 20
93.7059574912
 30
0.0
 10
26.4920318033
 20
93.8164131512
 30
0.0
 10
26.5328265216
 20
94.0466403501
 30
0.0
 10
26.7073707865
 20
94.3674222871
 30
0.0
 10
26.983284028
 20
94.6573851946
 30
0.0
 10
27.2141419418
 20
94.8163922363
 30
0.0
 10
27.3413851745
 20
94.8898557124
 30
0.0
  0
SPLINE
  5
307
100
AcDbEntity
  8
0
100
AcDbSpline
 62
7
  6
BYLAYER
 70
0
 71
3
 72
11
 73
7
 74
0
 42
0.0000001
 43
0.0000001
 44
0.0000000001
 40
0.0
 40
0.0
 40
0.0
 40
0.0
 40
0.2302876554
 40
0.4693177827
 40
0.7242320062
 40
1.0
 40
1.0
 40
1.0
 40
1.0
 10
28.711339555
 20
92.321046708
 30
0.0
 10
28.8527353921
 20
92.4026854696
 30
0.0
 10
29.1628071809
 20
92.5337319736
 30
0.0
 10
29.6737287943
 20
92.6169876852
 30
0.0
 10
30.2222219169
 20
92.5893928816
 30
0.0
 10
30.5903296698
 20
92.5022039549
 30
0.0
 10
30.7767203013
 20
92.443166767
 30
0.0
  0
SPLINE
  5
308
100
AcDbEntity
  8
0
100
AcDbSpline
 62
7
  6
BYLAYER
 70
0
 71
3
 72
9
 73
5
 74
0
 42
0.0000001
 43
0.0000001
 44
0.0000000001
 40
0.0
 40
0.0
 40
0.0
 40
0.0
 40
0.2370005723
 40
1.0
 40
1.0
 40
1.0
 40
1.0
 10
28.3726152663
 20
72.2863944652
 30
0.0
 10
28.2975541331
 20
72.306806343
 30
0.0
 10
27.9841463341
 20
72.4050106802
 30
0.0
 10
27.6854703553
 20
72.5474002312
 30
0.0
 10
27.4685926212
 20
72.6726118167
 30
0.0
  0
SPLINE
  5
309
100
AcDbEntity
  8
0
100
AcDbSpline
 62
7
  6
BYLAYER
 70
0
 71
3
 72
11
 73
7
 74
0
 42
0.0000001
 43
0.0000001
 44
0.0000000001
 40
0.0
 40
0.0
 40
0.0
 40
0.0
 40
0.217745073
 40
0.4508830113
 40
0.7104597664
 40
1.0
 40
1.0
 40
1.0
 40
1.0
 10
57.7378341425
 20
11.1816273997
 30
0.0
 10
57.7708142872
 20
11.2006683972
 30
0.0
 10
57.8325825516
 20
11.252477739
 30
0.0
 10
57.8982889624
 20
11.3599589567
 30
0.0
 10
57.9372420934
 20
11.492369753
 30
0.0
 10
57.9449740828
 20
11.5887262546
 30
0.0
 10
57.9449740828
 20
11.6393648848
 30
0.0
  0
SPLINE
  5
30A
100
AcDbEntity
  8
0
100
AcDbSpline
 62
7
  6
BYLAYER
 70
0
 71
3
 72
11
 73
7
 74
0
 42
0.0000001
 43
0.0000001
 44
0.0000000001
 40
0.0
 40
0.0
 40
0.0
 40
0.0
 40
0.217745073
 40
0.4508830113
 40
0.7104597664
 40
1.0
 40
1.0
 40
1.0
 40
1.0
 10
52.0102930611
 20
19.4691840766
 30
0.0
 10
52.0432732057
 20
19.4882250741
 30
0.0
 10
52.1050414702
 20
19.5400344159
 30
0.0
 10
52.1707478809
 20
19.6475156336
 30
0.0
 10
52.2097010119
 20
19.7799264299
 30
0.0
 10
52.2174330014
 20
19.8762829315
 30
0.0
 10
52.2174330014
 20
19.9269215617
 30
0.0
  0
SPLINE
  5
30B
100
AcDbEntity
  8
0
100
AcDbSpline
 62
7
  6
BYLAYER
 70
0
 71
3
 72
11
 73
7
 74
0
 42
0.0000001
 43
0.0000001
 44
0.0000000001
 40
0.0
 40
0.0
 40
0.0
 40
0.0
 40
0.2372523758
 40
0.4999990758
 40
0.7627462798
 40
1.0
 40
1.0
 40
1.0
 40
1.0
 10
57.2378643577
 20
62.0992038094
 30
0.0
 10
57.3382590125
 20
62.0412422396
 30
0.0
 10
57.5282470336
 20
61.88136644
 30
0.0
 10
57.749904267
 20
61.5783354887
 30
0.0
 10
57.9015098883
 20
61.2348592621
 30
0.0
 10
57.9449740828
 20
60.990386401
 30
0.0
 10
57.9449740828
 20
60.8744606377
 30
0.0
  0
SPLINE
  5
30C
100
AcDbEntity
  8
0
100
AcDbSpline
 62
7
  6
BYLAYER
 70
0
 71
3
 72
11
 73
7
 74
0
 42
0.0000001
 43
0.0000001
 44
0.0000000001
 40
0.0
 40
0.0
 40
0.0
 40
0.0
 40
0.217745073
 40
0.4508830113
 40
0.7104597664
 40
1.0
 40
1.0
 40
1.0
 40
1.0
 10
44.9391958096
 20
11.9572572986
 30
0.0
 10
44.9721759543
 20
11.9762982961
 30
0.0
 10
45.0339442187
 20
12.0281076378
 30
0.0
 10
45.0996506295
 20
12.1355888555
 30
0.0
 10
45.1386037604
 20
12.2679996519
 30
0.0
 10
45.1463357499
 20
12.3643561534
 30
0.0
 10
45.1463357499
 20
12.4149947837
 30
0.0
  0
SPLINE
  5
30D
100
AcDbEntity
  8
0
100
AcDbSpline
 62
7
  6
BYLAYER
 70
0
 71
3
 72
15
 73
11
 74
0
 42
0.0000001
 43
0.0000001
 44
0.0000000001
 40
0.0
 40
0.0
 40
0.0
 40
0.0
 40
0.1141474765
 40
0.2373368178
 40
0.3669776594
 40
0.5000010819
 40
0.633024354
 40
0.7626647561
 40
0.8858534048
 40
1.0
 40
1.0
 40
1.0
 40
1.0
 10
50.8738768313
 20
69.8558826857
 30
0.0
 10
50.8738768313
 20
69.5764225991
 30
0.0
 10
50.9251007907
 20
68.994827722
 30
0.0
 10
51.1291202471
 20
68.1174414888
 30
0.0
 10
51.4561023418
 20
67.2287391613
 30
0.0
 10
51.8935816253
 20
66.3621149087
 30
0.0
 10
52.4253638675
 20
65.5499380263
 30
0.0
 10
53.031513439
 20
64.8224176401
 30
0.0
 10
53.6893428099
 20
64.2070460105
 30
0.0
 10
54.1674064225
 20
63.8718934212
 30
0.0
 10
54.4094254571
 20
63.7321668275
 30
0.0
  0
SPLINE
  5
30E
100
AcDbEntity
  8
0
100
AcDbSpline
 62
7
  6
BYLAYER
 70
0
 71
3
 72
11
 73
7
 74
0
 42
0.0000001
 43
0.0000001
 44
0.0000000001
 40
0.0
 40
0.0
 40
0.0
 40
0.0
 40
0.2895401978
 40
0.5491171512
 40
0.782255066
 40
1.0
 40
1.0
 40
1.0
 40
1.0
 10
50.8738768313
 20
15.72177243
 30
0.0
 10
50.8738768313
 20
15.6711338069
 30
0.0
 10
50.8661447815
 20
15.5747772884
 30
0.0
 10
50.8271917123
 20
15.4423664462
 30
0.0
 10
50.7614852469
 20
15.3348852591
 30
0.0
 10
50.6997170249
 20
15.2830759128
 30
0.0
 10
50.6667368917
 20
15.2640349453
 30
0.0
  0
SPLINE
  5
30F
100
AcDbEntity
  8
0
100
AcDbSpline
 62
7
  6
BYLAYER
 70
0
 71
3
 72
11
 73
7
 74
0
 42
0.0000001
 43
0.0000001
 44
0.0000000001
 40
0.0
 40
0.0
 40
0.0
 40
0.0
 40
0.2372523758
 40
0.4999990758
 40
0.7627462798
 40
1.0
 40
1.0
 40
1.0
 40
1.0
 10
50.1667671062
 20
77.7759456778
 30
0.0
 10
50.2671617611
 20
77.7179841081
 30
0.0
 10
50.4571497822
 20
77.5581083085
 30
0.0
 10
50.6788070155
 20
77.2550773572
 30
0.0
 10
50.8304126368
 20
76.9116011305
 30
0.0
 10
50.8738768313
 20
76.6671282695
 30
0.0
 10
50.8738768313
 20
76.5512025062
 30
0.0
  0
SPLINE
  5
310
100
AcDbEntity
  8
0
100
AcDbSpline
 62
7
  6
BYLAYER
 70
0
 71
3
 72
9
 73
5
 74
0
 42
0.0000001
 43
0.0000001
 44
0.0000000001
 40
0.0
 40
0.0
 40
0.0
 40
0.0
 40
0.4961195704
 40
1.0
 40
1.0
 40
1.0
 40
1.0
 10
33.3324172538
 20
81.1327246469
 30
0.0
 10
33.421734168
 20
81.1842924507
 30
0.0
 10
33.5939622579
 20
81.3023740887
 30
0.0
 10
33.7460536388
 20
81.4453616282
 30
0.0
 10
33.8170269084
 20
81.5224001342
 30
0.0
  0
SPLINE
  5
311
100
AcDbEntity
  8
0
100
AcDbSpline
 62
7
  6
BYLAYER
 70
0
 71
3
 72
14
 73
10
 74
0
 42
0.0000001
 43
0.0000001
 44
0.0000000001
 40
0.0
 40
0.0
 40
0.0
 40
0.0
 40
0.0965501556
 40
0.1999863405
 40
0.3119460678
 40
0.433152091
 40
0.563523683
 40
0.7023539808
 40
1.0
 40
1.0
 40
1.0
 40
1.0
 10
33.8170269084
 20
81.5224001342
 30
0.0
 10
33.932660504
 20
81.64791555
 30
0.0
 10
34.142137567
 20
81.9367456492
 30
0.0
 10
34.3700535844
 20
82.4421557518
 30
0.0
 10
34.5183366139
 20
83.0210092045
 30
0.0
 10
34.5848716245
 20
83.6620971011
 30
0.0
 10
34.569209677
 20
84.3536502216
 30
0.0
 10
34.4364875189
 20
85.3482170166
 30
0.0
 10
34.2201705681
 20
86.0947454404
 30
0.0
 10
34.0336651638
 20
86.5866949287
 30
0.0
  0
SPLINE
  5
312
100
AcDbEntity
  8
0
100
AcDbSpline
 62
7
  6
BYLAYER
 70
0
 71
3
 72
11
 73
7
 74
0
 42
0.0000001
 43
0.0000001
 44
0.0000000001
 40
0.0
 40
0.0
 40
0.0
 40
0.0
 40
0.2572100519
 40
0.5159010886
 40
0.7663597922
 40
1.0
 40
1.0
 40
1.0
 40
1.0
 10
34.0336651638
 20
86.5866949287
 30
0.0
 10
33.8661511175
 20
87.0285504858
 30
0.0
 10
33.4651482232
 20
87.8913557946
 30
0.0
 10
32.7018159925
 20
89.0794651407
 30
0.0
 10
31.8092803684
 20
90.1176092877
 30
0.0
 10
31.1288188231
 20
90.6982185724
 30
0.0
 10
30.7770187397
 20
90.9441549161
 30
0.0
  0
SPLINE
  5
313
100
AcDbEntity
  8
0
100
AcDbSpline
 62
7
  6
BYLAYER
 70
0
 71
3
 72
11
 73
7
 74
0
 42
0.0000001
 43
0.0000001
 44
0.0000000001
 40
0.0
 40
0.0
 40
0.0
 40
0.0
 40
0.2895401978
 40
0.5491171512
 40
0.782255066
 40
1.0
 40
1.0
 40
1.0
 40
1.0
 10
57.9449740828
 20
23.2336992081
 30
0.0
 10
57.9449740828
 20
23.1830605849
 30
0.0
 10
57.937242033
 20
23.0867040664
 30
0.0
 10
57.8982889638
 20
22.9542932242
 30
0.0
 10
57.8325824983
 20
22.8468120371
 30
0.0
 10
57.7708142764
 20
22.7950026908
 30
0.0
 10
57.7378341432
 20
22.7759617234
 30
0.0
  0
SPLINE
  5
314
100
AcDbEntity
  8
0
100
AcDbSpline
 62
7
  6
BYLAYER
 70
0
 71
3
 72
11
 73
7
 74
0
 42
0.0000001
 43
0.0000001
 44
0.0000000001
 40
0.0
 40
0.0
 40
0.0
 40
0.0
 40
0.4361603457
 40
0.5671445744
 40
0.7055744632
 40
1.0
 40
1.0
 40
1.0
 40
1.0
 10
56.2832662287
 20
17.5385702816
 30
0.0
 10
55.6378854959
 20
17.4879380048
 30
0.0
 10
54.7773645856
 20
17.7929120538
 30
0.0
 10
53.9068506249
 20
18.3656105413
 30
0.0
 10
53.2537459501
 20
18.8927193325
 30
0.0
 10
52.8108334671
 20
19.3628293669
 30
0.0
 10
52.5355846854
 20
19.7022462805
 30
0.0
  0
SPLINE
  5
315
100
AcDbEntity
  8
0
100
AcDbSpline
 62
7
  6
BYLAYER
 70
0
 71
3
 72
17
 73
13
 74
0
 42
0.0000001
 43
0.0000001
 44
0.0000000001
 40
0.0
 40
0.0
 40
0.0
 40
0.0
 40
0.0428592926
 40
0.087485474
 40
0.1353198781
 40
0.1872819044
 40
0.3045421965
 40
0.4382074305
 40
0.582548911
 40
0.7297129633
 40
0.8713059682
 40
1.0
 40
1.0
 40
1.0
 40
1.0
 10
55.7344150046
 20
67.7242725145
 30
0.0
 10
55.6690866888
 20
67.6865488367
 30
0.0
 10
55.525058731
 20
67.6267433384
 30
0.0
 10
55.2873533776
 20
67.5918528099
 30
0.0
 10
55.0320651694
 20
67.6106618297
 30
0.0
 10
54.6611373996
 20
67.7093163996
 30
0.0
 10
54.1869637926
 20
67.9685974097
 30
0.0
 10
53.6630772999
 20
68.4325531607
 30
0.0
 10
53.1999631249
 20
69.0252956578
 30
0.0
 10
52.8354979736
 20
69.6989542793
 30
0.0
 10
52.5989490944
 20
70.3982712666
 30
0.0
 10
52.5355846854
 20
70.8745555327
 30
0.0
 10
52.5355846854
 20
71.1010734389
 30
0.0
  0
SPLINE
  5
316
100
AcDbEntity
  8
0
100
AcDbSpline
 62
7
  6
BYLAYER
 70
0
 71
3
 72
18
 73
14
 74
0
 42
0.0000001
 43
0.0000001
 44
0.0000000001
 40
0.0
 40
0.0
 40
0.0
 40
0.0
 40
0.0448529509
 40
0.090585934
 40
0.1379976579
 40
0.1877392531
 40
0.2402955811
 40
0.295967152
 40
0.4169565535
 40
0.5504349837
 40
0.6943186835
 40
0.8454432077
 40
1.0
 40
1.0
 40
1.0
 40
1.0
 10
39.1068497941
 20
80.194155776
 30
0.0
 10
39.2691848574
 20
80.2878733757
 30
0.0
 10
39.5810378018
 20
80.506424419
 30
0.0
 10
39.9918633914
 20
80.9147893164
 30
0.0
 10
40.343395556
 20
81.4004918212
 30
0.0
 10
40.6326068604
 20
81.9575808202
 30
0.0
 10
40.8568619562
 20
82.5803669122
 30
0.0
 10
41.0731383476
 20
83.5154652842
 30
0.0
 10
41.1588933729
 20
84.8175198168
 30
0.0
 10
40.9884975511
 20
86.4795424992
 30
0.0
 10
40.5556696796
 20
88.2226896035
 30
0.0
 10
39.8775603657
 20
89.9793963273
 30
0.0
 10
39.2804387411
 20
91.112529185
 30
0.0
 10
38.9470777934
 20
91.6657638005
 30
0.0
  0
SPLINE
  5
317
100
AcDbEntity
  8
0
100
AcDbSpline
 62
7
  6
BYLAYER
 70
0
 71
3
 72
11
 73
7
 74
0
 42
0.0000001
 43
0.0000001
 44
0.0000000001
 40
0.0
 40
0.0
 40
0.0
 40
0.0
 40
0.2897016594
 40
0.5490895814
 40
0.7822189142
 40
1.0
 40
1.0
 40
1.0
 40
1.0
 10
52.5355846854
 20
71.1010734389
 30
0.0
 10
52.5355846854
 20
71.2353435486
 30
0.0
 10
52.5559418659
 20
71.4906981509
 30
0.0
 10
52.6593520065
 20
71.8415445795
 30
0.0
 10
52.8334730249
 20
72.1262363686
 30
0.0
 10
52.9970259637
 20
72.2637237027
 30
0.0
 10
53.0844359096
 20
72.3141983643
 30
0.0
  0
SPLINE
  5
318
100
AcDbEntity
  8
0
100
AcDbSpline
 62
7
  6
BYLAYER
 70
0
 71
3
 72
23
 73
19
 74
0
 42
0.0000001
 43
0.0000001
 44
0.0000000001
 40
0.0
 40
0.0
 40
0.0
 40
0.0
 40
0.0623830285
 40
0.1287483266
 40
0.1983454258
 40
0.2703347928
 40
0.3437228734
 40
0.417465687
 40
0.4905026874
 40
0.5618016967
 40
0.6304101429
 40
0.695507715
 40
0.7564651194
 40
0.8129119876
 40
0.864820677
 40
0.9126030416
 40
0.9571852506
 40
1.0
 40
1.0
 40
1.0
 40
1.0
 10
43.8027795799
 20
102.0259733802
 30
0.0
 10
44.1512286197
 20
101.8248007844
 30
0.0
 10
44.8435520235
 20
101.3620668676
 30
0.0
 10
45.8240445068
 20
100.5370667509
 30
0.0
 10
46.7612369035
 20
99.5747291222
 30
0.0
 10
47.6351752552
 20
98.4959906557
 30
0.0
 10
48.4273017686
 20
97.3235057965
 30
0.0
 10
49.1207437193
 20
96.082378253
 30
0.0
 10
49.700754374
 20
94.7990783209
 30
0.0
 10
50.154931464
 20
93.5009354684
 30
0.0
 10
50.4735550664
 20
92.2155188839
 30
0.0
 10
50.6498461711
 20
90.9699650962
 30
0.0
 10
50.6798805437
 20
89.7902929063
 30
0.0
 10
50.5623856232
 20
88.7008322504
 30
0.0
 10
50.2984058223
 20
87.7239949913
 30
0.0
 10
49.8907402073
 20
86.880367943
 30
0.0
 10
49.345211394
 20
86.1905261072
 30
0.0
 10
48.8918977868
 20
85.8435233403
 30
0.0
 10
48.6527521139
 20
85.7054509443
 30
0.0
  0
SPLINE
  5
319
100
AcDbEntity
  8
0
100
AcDbSpline
 62
7
  6
BYLAYER
 70
0
 71
3
 72
9
 73
5
 74
0
 42
0.0000001
 43
0.0000001
 44
0.0000000001
 40
0.0
 40
0.0
 40
0.0
 40
0.0
 40
0.4855022743
 40
1.0
 40
1.0
 40
1.0
 40
1.0
 10
34.1717434056
 20
98.1433117576
 30
0.0
 10
34.3714980981
 20
98.1773391011
 30
0.0
 10
34.7902184973
 20
98.2083746257
 30
0.0
 10
35.2076253188
 20
98.1694428947
 30
0.0
 10
35.4194789748
 20
98.1343904791
 30
0.0
  0
SPLINE
  5
31A
100
AcDbEntity
  8
0
100
AcDbSpline
 62
7
  6
BYLAYER
 70
0
 71
3
 72
15
 73
11
 74
0
 42
0.0000001
 43
0.0000001
 44
0.0000000001
 40
0.0
 40
0.0
 40
0.0
 40
0.0
 40
0.1499845236
 40
0.2868564555
 40
0.4113972308
 40
0.5267304498
 40
0.637698564
 40
0.7501531879
 40
0.8696048548
 40
1.0
 40
1.0
 40
1.0
 40
1.0
 10
25.0645278937
 20
85.2950051746
 30
0.0
 10
24.9728943023
 20
85.3479086564
 30
0.0
 10
24.7903193018
 20
85.4373275182
 30
0.0
 10
24.5104180193
 20
85.5199505019
 30
0.0
 10
24.2432311907
 20
85.5416466836
 30
0.0
 10
23.9962706491
 20
85.4999933567
 30
0.0
 10
23.7779950889
 20
85.3946501843
 30
0.0
 10
23.597314755
 20
85.2289640683
 30
0.0
 10
23.4599695208
 20
85.0104200088
 30
0.0
 10
23.401553208
 20
84.8425992549
 30
0.0
 10
23.3791529553
 20
84.7533791229
 30
0.0
  0
SPLINE
  5
31B
100
AcDbEntity
  8
0
100
AcDbSpline
 62
7
  6
BYLAYER
 70
0
 71
3
 72
9
 73
5
 74
0
 42
0.0000001
 43
0.0000001
 44
0.0000000001
 40
0.0
 40
0.0
 40
0.0
 40
0.0
 40
0.2374395489
 40
1.0
 40
1.0
 40
1.0
 40
1.0
 10
23.3791529553
 20
84.7533791229
 30
0.0
 10
23.3701729024
 20
84.7176116022
 30
0.0
 10
23.3377823311
 20
84.5656197523
 30
0.0
 10
23.3259289301
 20
84.4096052543
 30
0.0
 10
23.3259320023
 20
84.2911692382
 30
0.0
  0
SPLINE
  5
31C
100
AcDbEntity
  8
0
100
AcDbSpline
 62
7
  6
BYLAYER
 70
0
 71
3
 72
9
 73
5
 74
0
 42
0.0000001
 43
0.0000001
 44
0.0000000001
 40
0.0
 40
0.0
 40
0.0
 40
0.0
 40
0.2625438195
 40
1.0
 40
1.0
 40
1.0
 40
1.0
 10
25.0645278937
 20
81.2798545383
 30
0.0
 10
25.0998359864
 20
81.2594698627
 30
0.0
 10
25.2363283694
 20
81.1854552012
 30
0.0
 10
25.381276104
 20
81.1262734746
 30
0.0
 10
25.4914031035
 20
81.0948644442
 30
0.0
  0
SPLINE
  5
31D
100
AcDbEntity
  8
0
100
AcDbSpline
 62
7
  6
BYLAYER
 70
0
 71
3
 72
21
 73
17
 74
0
 42
0.0000001
 43
0.0000001
 44
0.0000000001
 40
0.0
 40
0.0
 40
0.0
 40
0.0
 40
0.0524920762
 40
0.100257288
 40
0.1453623983
 40
0.1905477886
 40
0.2385469402
 40
0.2913373738
 40
0.3498900075
 40
0.4142707306
 40
0.4838681078
 40
0.5575940921
 40
0.7113565142
 40
0.8628336243
 40
0.9339098329
 40
1.0
 40
1.0
 40
1.0
 40
1.0
 10
25.4914031035
 20
81.0948644442
 30
0.0
 10
25.5877358869
 20
81.0673896256
 30
0.0
 10
25.7778102317
 20
81.0325742885
 30
0.0
 10
26.0579597468
 20
81.0525772178
 30
0.0
 10
26.3075782342
 20
81.1497918569
 30
0.0
 10
26.5138078609
 20
81.3213882227
 30
0.0
 10
26.6680314931
 20
81.5575658577
 30
0.0
 10
26.7672710057
 20
81.8476637946
 30
0.0
 10
26.8104813139
 20
82.1820486812
 30
0.0
 10
26.7974891415
 20
82.5505916611
 30
0.0
 10
26.7291652132
 20
82.9421562662
 30
0.0
 10
26.5649012419
 20
83.4859520101
 30
0.0
 10
26.2427765524
 20
84.1395841798
 30
0.0
 10
25.7992193302
 20
84.7120458264
 30
0.0
 10
25.390030734
 20
85.0825427741
 30
0.0
 10
25.1737554155
 20
85.2319440621
 30
0.0
 10
25.0645278937
 20
85.2950051746
 30
0.0
  0
SPLINE
  5
31E
100
AcDbEntity
  8
0
100
AcDbSpline
 62
7
  6
BYLAYER
 70
0
 71
3
 72
9
 73
5
 74
0
 42
0.0000001
 43
0.0000001
 44
0.0000000001
 40
0.0
 40
0.0
 40
0.0
 40
0.0
 40
0.2750561779
 40
1.0
 40
1.0
 40
1.0
 40
1.0
 10
41.8935992194
 20
100.9237141647
 30
0.0
 10
41.6445456359
 20
101.0675020653
 30
0.0
 10
40.7174215365
 20
101.5466514771
 30
0.0
 10
39.6748518861
 20
101.8415652653
 30
0.0
 10
38.9170658794
 20
101.8575065214
 30
0.0
  0
SPLINE
  5
31F
100
AcDbEntity
  8
0
100
AcDbSpline
 62
7
  6
BYLAYER
 70
0
 71
3
 72
9
 73
5
 74
0
 42
0.0000001
 43
0.0000001
 44
0.0000000001
 40
0.0
 40
0.0
 40
0.0
 40
0.0
 40
0.5184325687
 40
1.0
 40
1.0
 40
1.0
 40
1.0
 10
35.4161884578
 20
98.4553331012
 30
0.0
 10
35.1234415312
 20
98.5091926435
 30
0.0
 10
34.5471008698
 20
98.5614523852
 30
0.0
 10
33.9718683466
 20
98.4812816104
 30
0.0
 10
33.7054796706
 20
98.4072141933
 30
0.0
  0
SPLINE
  5
320
100
AcDbEntity
  8
0
100
AcDbSpline
 62
7
  6
BYLAYER
 70
0
 71
3
 72
18
 73
14
 74
0
 42
0.0000001
 43
0.0000001
 44
0.0000000001
 40
0.0
 40
0.0
 40
0.0
 40
0.0
 40
0.1376946072
 40
0.2819047716
 40
0.4268071984
 40
0.5664963092
 40
0.6957503596
 40
0.7553162836
 40
0.8110987613
 40
0.8630714904
 40
0.9114706916
 40
0.9568296055
 40
1.0
 40
1.0
 40
1.0
 40
1.0
 10
38.9720387689
 20
96.2572064346
 30
0.0
 10
39.4726809191
 20
95.8156414756
 30
0.0
 10
40.4185958348
 20
94.8195300147
 30
0.0
 10
41.6091014421
 20
93.1191358481
 30
0.0
 10
42.5525436403
 20
91.258442915
 30
0.0
 10
43.1921401295
 20
89.3491466658
 30
0.0
 10
43.4478311836
 20
87.7671567398
 30
0.0
 10
43.4558507982
 20
86.5792520223
 30
0.0
 10
43.368766156
 20
85.7707087572
 30
0.0
 10
43.1896049684
 20
85.03263822
 30
0.0
 10
42.9202020509
 20
84.3760893764
 30
0.0
 10
42.5636031821
 20
83.8118898319
 30
0.0
 10
42.2650603722
 20
83.4985483341
 30
0.0
 10
42.1052029811
 20
83.3634604869
 30
0.0
  0
SPLINE
  5
321
100
AcDbEntity
  8
0
100
AcDbSpline
 62
7
  6
BYLAYER
 70
0
 71
3
 72
11
 73
7
 74
0
 42
0.0000001
 43
0.0000001
 44
0.0000000001
 40
0.0
 40
0.0
 40
0.0
 40
0.0
 40
0.2896993757
 40
0.5490834079
 40
0.7822137218
 40
1.0
 40
1.0
 40
1.0
 40
1.0
 10
25.4472478456
 20
85.9578992561
 30
0.0
 10
25.3156120131
 20
86.0338975201
 30
0.0
 10
25.0537467685
 20
86.1584744914
 30
0.0
 10
24.6512523605
 20
86.2556780219
 30
0.0
 10
24.273588558
 20
86.2461172375
 30
0.0
 10
24.0462173643
 20
86.1635991546
 30
0.0
 10
23.9472545614
 20
86.1064720923
 30
0.0
  0
SPLINE
  5
322
100
AcDbEntity
  8
0
100
AcDbSpline
 62
7
  6
BYLAYER
 70
0
 71
3
 72
15
 73
11
 74
0
 42
0.0000001
 43
0.0000001
 44
0.0000000001
 40
0.0
 40
0.0
 40
0.0
 40
0.0
 40
0.1141236058
 40
0.2373475862
 40
0.3669728832
 40
0.5000004526
 40
0.6330279586
 40
0.7626530685
 40
0.8858767805
 40
1.0
 40
1.0
 40
1.0
 40
1.0
 10
27.009063446
 20
92.3301747257
 30
0.0
 10
27.172150742
 20
92.2360183616
 30
0.0
 10
27.5289268668
 20
92.0699643338
 30
0.0
 10
28.1097814611
 20
91.8933088055
 30
0.0
 10
28.7387537212
 20
91.7847044569
 30
0.0
 10
29.392016989
 20
91.7479760615
 30
0.0
 10
30.0452797783
 20
91.7847074828
 30
0.0
 10
30.6742506732
 20
91.8933147725
 30
0.0
 10
31.2551029654
 20
92.0699731316
 30
0.0
 10
31.6118770863
 20
92.2360289601
 30
0.0
 10
31.7749631512
 20
92.3301861816
 30
0.0
  0
SPLINE
  5
323
100
AcDbEntity
  8
0
100
AcDbSpline
 62
7
  6
BYLAYER
 70
0
 71
3
 72
17
 73
13
 74
0
 42
0.0000001
 43
0.0000001
 44
0.0000000001
 40
0.0
 40
0.0
 40
0.0
 40
0.0
 40
0.1286926208
 40
0.2702795078
 40
0.4174383051
 40
0.5617803148
 40
0.6954501289
 40
0.8127134773
 40
0.8646759206
 40
0.9125113962
 40
0.9571388332
 40
1.0
 40
1.0
 40
1.0
 40
1.0
 10
27.3413851745
 20
94.8898557124
 30
0.0
 10
27.5560599323
 20
95.0137975017
 30
0.0
 10
28.0421043664
 20
95.2143475927
 30
0.0
 10
28.8342720164
 20
95.3728068035
 30
0.0
 10
29.6721176721
 20
95.3960114142
 30
0.0
 10
30.4872794281
 20
95.2814546693
 30
0.0
 10
31.2136559515
 20
95.0388304187
 30
0.0
 10
31.7188672093
 20
94.7313295704
 30
0.0
 10
32.015329654
 20
94.433766865
 30
0.0
 10
32.1728646031
 20
94.2021236818
 30
0.0
 10
32.2698595438
 20
93.9577435627
 30
0.0
 10
32.292001324
 20
93.7885157244
 30
0.0
 10
32.2919900437
 20
93.7059575574
 30
0.0
  0
SPLINE
  5
324
100
AcDbEntity
  8
0
100
AcDbSpline
 62
7
  6
BYLAYER
 70
0
 71
3
 72
14
 73
10
 74
0
 42
0.0000001
 43
0.0000001
 44
0.0000000001
 40
0.0
 40
0.0
 40
0.0
 40
0.0
 40
0.3068852192
 40
0.4477427037
 40
0.577909799
 40
0.6968513223
 40
0.8051581529
 40
0.9049707712
 40
1.0
 40
1.0
 40
1.0
 40
1.0
 10
29.2704507041
 20
84.8191608048
 30
0.0
 10
29.3814165386
 20
84.5331637683
 30
0.0
 10
29.5054428599
 20
84.0982924333
 30
0.0
 10
29.5624359574
 20
83.5221614925
 30
0.0
 10
29.5477671516
 20
83.131166381
 30
0.0
 10
29.4771277288
 20
82.7790751604
 30
0.0
 10
29.3508418882
 20
82.4747479213
 30
0.0
 10
29.1708222883
 20
82.2270984951
 30
0.0
 10
29.0155815593
 20
82.1044717986
 30
0.0
 10
28.9333118199
 20
82.0569801795
 30
0.0
  0
SPLINE
  5
325
100
AcDbEntity
  8
0
100
AcDbSpline
 62
7
  6
BYLAYER
 70
0
 71
3
 72
11
 73
7
 74
0
 42
0.0000001
 43
0.0000001
 44
0.0000000001
 40
0.0
 40
0.0
 40
0.0
 40
0.0
 40
0.2279721954
 40
0.4775428193
 40
0.7387711519
 40
1.0
 40
1.0
 40
1.0
 40
1.0
 10
27.4333257484
 20
87.1045550233
 30
0.0
 10
27.6294993292
 20
86.9912967159
 30
0.0
 10
28.0128537661
 20
86.7052207707
 30
0.0
 10
28.516638432
 20
86.1672445174
 30
0.0
 10
28.9500118258
 20
85.5308596806
 30
0.0
 10
29.1765598391
 20
85.0611497851
 30
0.0
 10
29.2704507041
 20
84.8191608048
 30
0.0
  0
SPLINE
  5
326
100
AcDbEntity
  8
0
100
AcDbSpline
 62
7
  6
BYLAYER
 70
0
 71
3
 72
9
 73
5
 74
0
 42
0.0000001
 43
0.0000001
 44
0.0000000001
 40
0.0
 40
0.0
 40
0.0
 40
0.0
 40
0.500000377
 40
1.0
 40
1.0
 40
1.0
 40
1.0
 10
30.5411287985
 20
84.9326723192
 30
0.0
 10
30.3822963981
 20
85.3420379225
 30
0.0
 10
29.9991717593
 20
86.136480858
 30
0.0
 10
29.5027228777
 20
86.8654956941
 30
0.0
 10
29.2276166759
 20
87.2077294224
 30
0.0
  0
SPLINE
  5
327
100
AcDbEntity
  8
0
100
AcDbSpline
 62
7
  6
BYLAYER
 70
0
 71
3
 72
13
 73
9
 74
0
 42
0.0000001
 43
0.0000001
 44
0.0000000001
 40
0.0
 40
0.0
 40
0.0
 40
0.0
 40
0.2933233539
 40
0.4311921088
 40
0.5615643965
 40
0.6836986623
 40
0.7972882365
 40
1.0
 40
1.0
 40
1.0
 40
1.0
 10
29.2276166759
 20
87.2077294224
 30
0.0
 10
28.9647743723
 20
87.5347067896
 30
0.0
 10
28.5406240888
 20
87.9877450277
 30
0.0
 10
27.9160774358
 20
88.4943025727
 30
0.0
 10
27.4487419502
 20
88.8016026487
 30
0.0
 10
26.9802648968
 20
89.0390096656
 30
0.0
 10
26.3887543676
 20
89.2486082581
 30
0.0
 10
25.9278120882
 20
89.3053481431
 30
0.0
 10
25.6390348208
 20
89.2795512516
 30
0.0
  0
SPLINE
  5
328
100
AcDbEntity
  8
0
100
AcDbSpline
 62
7
  6
BYLAYER
 70
0
 71
3
 72
19
 73
15
 74
0
 42
0.0000001
 43
0.0000001
 44
0.0000000001
 40
0.0
 40
0.0
 40
0.0
 40
0.0
 40
0.0428843607
 40
0.0873203392
 40
0.1344694249
 40
0.1851428436
 40
0.2397776932
 40
0.2984823476
 40
0.3610959801
 40
0.4272384112
 40
0.5676882262
 40
0.714334331
 40
0.8606113309
 40
1.0
 40
1.0
 40
1.0
 40
1.0
 10
41.9352559123
 20
82.7859374572
 30
0.0
 10
42.1271603971
 20
82.9029977531
 30
0.0
 10
42.491611984
 20
83.1874281779
 30
0.0
 10
42.9420846137
 20
83.7359433484
 30
0.0
 10
43.2947045361
 20
84.3979021637
 30
0.0
 10
43.5447023365
 20
85.1604896227
 30
0.0
 10
43.689637278
 20
86.0106277593
 30
0.0
 10
43.7280315133
 20
86.9342828199
 30
0.0
 10
43.659652656
 20
87.9163490471
 30
0.0
 10
43.4231781982
 20
89.3093921197
 30
0.0
 10
42.8670708669
 20
91.0853900286
 30
0.0
 10
41.8596534251
 20
93.1306457907
 30
0.0
 10
40.5643504224
 20
94.9997794263
 30
0.0
 10
39.5249060476
 20
96.0893439631
 30
0.0
 10
38.9733230483
 20
96.5685047366
 30
0.0
  0
SPLINE
  5
329
100
AcDbEntity
  8
0
100
AcDbSpline
 62
7
  6
BYLAYER
 70
0
 71
3
 72
11
 73
7
 74
0
 42
0.0000001
 43
0.0000001
 44
0.0000000001
 40
0.0
 40
0.0
 40
0.0
 40
0.0
 40
0.2177849011
 40
0.4509184398
 40
0.7103088704
 40
1.0
 40
1.0
 40
1.0
 40
1.0
 10
25.9333393313
 20
87.2531158967
 30
0.0
 10
26.0323051157
 20
87.3102354449
 30
0.0
 10
26.2596668092
 20
87.3927729787
 30
0.0
 10
26.6373376233
 20
87.4023270813
 30
0.0
 10
27.0398297388
 20
87.3051255969
 30
0.0
 10
27.3016941831
 20
87.1805508237
 30
0.0
 10
27.4333257484
 20
87.1045550233
 30
0.0
  0
SPLINE
  5
32A
100
AcDbEntity
  8
0
100
AcDbSpline
 62
7
  6
BYLAYER
 70
0
 71
3
 72
15
 73
11
 74
0
 42
0.0000001
 43
0.0000001
 44
0.0000000001
 40
0.0
 40
0.0
 40
0.0
 40
0.0
 40
0.1152144646
 40
0.2268509926
 40
0.3384251724
 40
0.4536853383
 40
0.5757269093
 40
0.70676841
 40
0.8481440145
 40
1.0
 40
1.0
 40
1.0
 40
1.0
 10
25.6390348208
 20
89.2795512516
 30
0.0
 10
25.5070815815
 20
89.2677636776
 30
0.0
 10
25.2485553772
 20
89.2188271991
 30
0.0
 10
24.8884285088
 20
89.0630352937
 30
0.0
 10
24.5732083051
 20
88.8289947045
 30
0.0
 10
24.3097453631
 20
88.522515585
 30
0.0
 10
24.1019250831
 20
88.1506173038
 30
0.0
 10
23.9525120469
 20
87.720240931
 30
0.0
 10
23.8631969904
 20
87.2390949857
 30
0.0
 10
23.8447438932
 20
86.901480338
 30
0.0
 10
23.8447438932
 20
86.7268696011
 30
0.0
  0
SPLINE
  5
32B
100
AcDbEntity
  8
0
100
AcDbSpline
 62
7
  6
BYLAYER
 70
0
 71
3
 72
23
 73
19
 74
0
 42
0.0000001
 43
0.0000001
 44
0.0000000001
 40
0.0
 40
0.0
 40
0.0
 40
0.0
 40
0.0428147452
 40
0.0873969745
 40
0.1351796187
 40
0.1870887444
 40
0.2435362
 40
0.3044941378
 40
0.369591932
 40
0.4382001608
 40
0.5094985314
 40
0.5825345471
 40
0.6562773538
 40
0.7296665417
 40
0.801655683
 40
0.8712521223
 40
0.9376170698
 40
1.0
 40
1.0
 40
1.0
 40
1.0
 10
46.7435775068
 20
84.6031817656
 30
0.0
 10
46.9827230708
 20
84.7412548976
 30
0.0
 10
47.4360418695
 20
85.0882519717
 30
0.0
 10
47.9815694102
 20
85.7780994933
 30
0.0
 10
48.3892390444
 20
86.6217304244
 30
0.0
 10
48.6532214078
 20
87.5985772421
 30
0.0
 10
48.7707145913
 20
88.6880494755
 30
0.0
 10
48.7406758649
 20
89.8677315194
 30
0.0
 10
48.5643808636
 20
91.1132896401
 30
0.0
 10
48.2457534206
 20
92.3987025904
 30
0.0
 10
47.7915760677
 20
93.6968341849
 30
0.0
 10
47.2115695908
 20
94.980126208
 30
0.0
 10
46.5181213553
 20
96.2212528494
 30
0.0
 10
45.725991789
 20
97.393744266
 30
0.0
 10
44.8520487783
 20
98.4724828858
 30
0.0
 10
43.9148589597
 20
99.434813833
 30
0.0
 10
42.9343698711
 20
100.259808963
 30
0.0
 10
42.2420480899
 20
100.7225416667
 30
0.0
 10
41.8935992194
 20
100.9237141647
 30
0.0
  0
SPLINE
  5
32C
100
AcDbEntity
  8
0
100
AcDbSpline
 62
7
  6
BYLAYER
 70
0
 71
3
 72
9
 73
5
 74
0
 42
0.0000001
 43
0.0000001
 44
0.0000000001
 40
0.0
 40
0.0
 40
0.0
 40
0.0
 40
0.2435368916
 40
1.0
 40
1.0
 40
1.0
 40
1.0
 10
23.8447438932
 20
86.7268696011
 30
0.0
 10
23.8447438932
 20
86.6763101783
 30
0.0
 10
23.8480545379
 20
86.4687121039
 30
0.0
 10
23.8641353754
 20
86.2613711492
 30
0.0
 10
23.8825305915
 20
86.1054068577
 30
0.0
  0
SPLINE
  5
32D
100
AcDbEntity
  8
0
100
AcDbSpline
 62
7
  6
BYLAYER
 70
0
 71
3
 72
11
 73
7
 74
0
 42
0.0000001
 43
0.0000001
 44
0.0000000001
 40
0.0
 40
0.0
 40
0.0
 40
0.0
 40
0.2830478017
 40
0.4807867295
 40
0.6658184965
 40
1.0
 40
1.0
 40
1.0
 40
1.0
 10
27.0581928118
 20
80.7505864001
 30
0.0
 10
27.2381797307
 20
80.6248438453
 30
0.0
 10
27.5570064113
 20
80.4288720535
 30
0.0
 10
28.0286930469
 20
80.2153588462
 30
0.0
 10
28.5598201539
 20
80.048791678
 30
0.0
 10
28.969420767
 20
80.0074792777
 30
0.0
 10
29.2276166759
 20
80.0305442922
 30
0.0
  0
SPLINE
  5
32E
100
AcDbEntity
  8
0
100
AcDbSpline
 62
7
  6
BYLAYER
 70
0
 71
3
 72
15
 73
11
 74
0
 42
0.0000001
 43
0.0000001
 44
0.0000000001
 40
0.0
 40
0.0
 40
0.0
 40
0.0
 40
0.1152144646
 40
0.2268509926
 40
0.3384251724
 40
0.4536853383
 40
0.5757269093
 40
0.70676841
 40
0.8481440145
 40
1.0
 40
1.0
 40
1.0
 40
1.0
 10
29.2276166759
 20
80.0305442922
 30
0.0
 10
29.3595699152
 20
80.0423318662
 30
0.0
 10
29.6180961195
 20
80.0912683447
 30
0.0
 10
29.9782229879
 20
80.2470602501
 30
0.0
 10
30.2934431916
 20
80.4811008393
 30
0.0
 10
30.5569061336
 20
80.7875799588
 30
0.0
 10
30.7647264136
 20
81.1594782401
 30
0.0
 10
30.9141394498
 20
81.5898546128
 30
0.0
 10
31.0034545063
 20
82.0710005581
 30
0.0
 10
31.0219076035
 20
82.4086152058
 30
0.0
 10
31.0219076035
 20
82.5832259427
 30
0.0
  0
SPLINE
  5
32F
100
AcDbEntity
  8
0
100
AcDbSpline
 62
7
  6
BYLAYER
 70
0
 71
3
 72
12
 73
8
 74
0
 42
0.0000001
 43
0.0000001
 44
0.0000000001
 40
0.0
 40
0.0
 40
0.0
 40
0.0
 40
0.2863823031
 40
0.544248767
 40
0.7786027192
 40
0.8901974665
 40
1.0
 40
1.0
 40
1.0
 40
1.0
 10
31.4538111321
 20
92.5724809672
 30
0.0
 10
31.1886623162
 20
92.7083339917
 30
0.0
 10
30.6627344593
 20
92.9277998644
 30
0.0
 10
29.8614602322
 20
93.084114071
 30
0.0
 10
29.2254228378
 20
93.045791034
 30
0.0
 10
28.7692773583
 20
92.910630788
 30
0.0
 10
28.5602602251
 20
92.8111834541
 30
0.0
 10
28.4613294903
 20
92.7540794057
 30
0.0
  0
SPLINE
  5
330
100
AcDbEntity
  8
0
100
AcDbSpline
 62
7
  6
BYLAYER
 70
0
 71
3
 72
19
 73
15
 74
0
 42
0.0000001
 43
0.0000001
 44
0.0000000001
 40
0.0
 40
0.0
 40
0.0
 40
0.0
 40
0.1355163349
 40
0.2803068083
 40
0.4273944632
 40
0.5694220465
 40
0.6365009148
 40
0.7000024041
 40
0.759454782
 40
0.8146314712
 40
0.8656036691
 40
0.9128297362
 40
0.9571966378
 40
1.0
 40
1.0
 40
1.0
 40
1.0
 10
32.3353173723
 20
91.6103267354
 30
0.0
 10
32.7408135402
 20
91.3066473563
 30
0.0
 10
33.5128045253
 20
90.5871717255
 30
0.0
 10
34.4845538466
 20
89.3108862784
 30
0.0
 10
35.2568626355
 20
87.8770846892
 30
0.0
 10
35.6962876645
 20
86.6125245999
 30
0.0
 10
35.8950290604
 20
85.6115664388
 30
0.0
 10
35.9625772573
 20
84.9029932908
 30
0.0
 10
35.9500641873
 20
84.2355715178
 30
0.0
 10
35.8574939001
 20
83.621373018
 30
0.0
 10
35.6856076933
 20
83.0716334584
 30
0.0
 10
35.4363742877
 20
82.5966948606
 30
0.0
 10
35.1132176836
 20
82.2068616367
 30
0.0
 10
34.8498421215
 20
82.0088124496
 30
0.0
 10
34.711268372
 20
81.9288030976
 30
0.0
  0
SPLINE
  5
331
100
AcDbEntity
  8
0
100
AcDbSpline
 62
7
  6
BYLAYER
 70
0
 71
3
 72
9
 73
5
 74
0
 42
0.0000001
 43
0.0000001
 44
0.0000000001
 40
0.0
 40
0.0
 40
0.0
 40
0.0
 40
0.4773852748
 40
1.0
 40
1.0
 40
1.0
 40
1.0
 10
31.0219076035
 20
82.5832259427
 30
0.0
 10
31.0219076035
 20
82.9664247776
 30
0.0
 10
30.9271404764
 20
83.7698789977
 30
0.0
 10
30.6928734729
 20
84.5415742179
 30
0.0
 10
30.5411287985
 20
84.9326723192
 30
0.0
  0
SPLINE
  5
332
100
AcDbEntity
  8
0
100
AcDbSpline
 62
7
  6
BYLAYER
 70
0
 71
3
 72
10
 73
6
 74
0
 42
0.0000001
 43
0.0000001
 44
0.0000000001
 40
0.0
 40
0.0
 40
0.0
 40
0.0
 40
0.5149437102
 40
0.7619725676
 40
1.0
 40
1.0
 40
1.0
 40
1.0
 10
31.3425083412
 20
85.1607188034
 30
0.0
 10
31.2471876236
 20
84.724398507
 30
0.0
 10
31.124715251
 20
84.0738108227
 30
0.0
 10
31.0366790958
 20
83.2104941832
 30
0.0
 10
31.0219076035
 20
82.7896673113
 30
0.0
 10
31.0219076035
 20
82.5832259427
 30
0.0
  0
SPLINE
  5
333
100
AcDbEntity
  8
0
100
AcDbSpline
 62
7
  6
BYLAYER
 70
0
 71
3
 72
11
 73
7
 74
0
 42
0.0000001
 43
0.0000001
 44
0.0000000001
 40
0.0
 40
0.0
 40
0.0
 40
0.0
 40
0.2657833948
 40
0.5202315852
 40
0.7642863626
 40
1.0
 40
1.0
 40
1.0
 40
1.0
 10
31.0219076035
 20
82.5832259427
 30
0.0
 10
31.0219076035
 20
82.384948329
 30
0.0
 10
31.0349272609
 20
81.9966513667
 30
0.0
 10
31.0986353667
 20
81.4294639459
 30
0.0
 10
31.2019478201
 20
80.8910598299
 30
0.0
 10
31.293193729
 20
80.544717336
 30
0.0
 10
31.3425082399
 20
80.3759286582
 30
0.0
  0
SPLINE
  5
334
100
AcDbEntity
  8
0
100
AcDbSpline
 62
7
  6
BYLAYER
 70
0
 71
3
 72
14
 73
10
 74
0
 42
0.0000001
 43
0.0000001
 44
0.0000000001
 40
0.0
 40
0.0
 40
0.0
 40
0.0
 40
0.1080450863
 40
0.218127701
 40
0.3321085657
 40
0.4514981416
 40
0.5774431955
 40
0.7107279701
 40
1.0
 40
1.0
 40
1.0
 40
1.0
 10
38.9528070458
 20
102.5063489237
 30
0.0
 10
39.111835325
 20
102.5981649924
 30
0.0
 10
39.4495049462
 20
102.756224685
 30
0.0
 10
39.9958244806
 20
102.9074003527
 30
0.0
 10
40.5782524826
 20
102.9722346186
 30
0.0
 10
41.1904949241
 20
102.951067312
 30
0.0
 10
41.8268097672
 20
102.8442935761
 30
0.0
 10
42.7232928551
 20
102.5829235875
 30
0.0
 10
43.3770052458
 20
102.2717887455
 30
0.0
 10
43.8027795799
 20
102.0259733802
 30
0.0
  0
SPLINE
  5
335
100
AcDbEntity
  8
0
100
AcDbSpline
 62
7
  6
BYLAYER
 70
0
 71
3
 72
10
 73
6
 74
0
 42
0.0000001
 43
0.0000001
 44
0.0000000001
 40
0.0
 40
0.0
 40
0.0
 40
0.0
 40
0.4935955798
 40
0.7452168313
 40
1.0
 40
1.0
 40
1.0
 40
1.0
 10
27.753926486
 20
89.624935676
 30
0.0
 10
27.9504603662
 20
89.201469885
 30
0.0
 10
28.2744125349
 20
88.5734080651
 30
0.0
 10
28.7886161824
 20
87.7788052574
 30
0.0
 10
29.0766380922
 20
87.395547666
 30
0.0
 10
29.2276166759
 20
87.2077294224
 30
0.0
  0
SPLINE
  5
336
100
AcDbEntity
  8
0
100
AcDbSpline
 62
7
  6
BYLAYER
 70
0
 71
3
 72
10
 73
6
 74
0
 42
0.0000001
 43
0.0000001
 44
0.0000000001
 40
0.0
 40
0.0
 40
0.0
 40
0.0
 40
0.2476796305
 40
0.4973796039
 40
1.0
 40
1.0
 40
1.0
 40
1.0
 10
29.2276166759
 20
87.2077294224
 30
0.0
 10
29.3801594897
 20
87.0179652675
 30
0.0
 10
29.6991782796
 20
86.6468598617
 30
0.0
 10
30.3891217724
 20
85.9457900789
 30
0.0
 10
30.9545567795
 20
85.4666846312
 30
0.0
 10
31.3425082399
 20
85.160718745
 30
0.0
  0
SPLINE
  5
337
100
AcDbEntity
  8
0
100
AcDbSpline
 62
7
  6
BYLAYER
 70
0
 71
3
 72
11
 73
7
 74
0
 42
0.0000001
 43
0.0000001
 44
0.0000000001
 40
0.0
 40
0.0
 40
0.0
 40
0.0
 40
0.2895391946
 40
0.5491157945
 40
0.7822541179
 40
1.0
 40
1.0
 40
1.0
 40
1.0
 10
24.6401537206
 20
74.3055748348
 30
0.0
 10
24.5963004628
 20
74.3308929522
 30
0.0
 10
24.5089894046
 20
74.3723730112
 30
0.0
 10
24.3748452191
 20
74.4048420785
 30
0.0
 10
24.2489138079
 20
74.4016786237
 30
0.0
 10
24.1731633208
 20
74.3740912162
 30
0.0
 10
24.1401839358
 20
74.3550506573
 30
0.0
  0
SPLINE
  5
338
100
AcDbEntity
  8
0
100
AcDbSpline
 62
7
  6
BYLAYER
 70
0
 71
3
 72
17
 73
13
 74
0
 42
0.0000001
 43
0.0000001
 44
0.0000000001
 40
0.0
 40
0.0
 40
0.0
 40
0.0
 40
0.0428612795
 40
0.087489383
 40
0.1353252659
 40
0.1872889204
 40
0.3045549195
 40
0.4382258395
 40
0.5825707627
 40
0.729729838
 40
0.8713119594
 40
1.0
 40
1.0
 40
1.0
 40
1.0
 10
26.9472411298
 20
80.9103119171
 30
0.0
 10
27.0212079697
 20
80.9530098617
 30
0.0
 10
27.1613729963
 20
81.0603709489
 30
0.0
 10
27.3301428803
 20
81.2736768985
 30
0.0
 10
27.456203298
 20
81.5346255665
 30
0.0
 10
27.5694427968
 20
81.9541495228
 30
0.0
 10
27.5836279376
 20
82.56582892
 30
0.0
 10
27.4252787055
 20
83.3421003701
 30
0.0
 10
27.1062616489
 20
84.1316619888
 30
0.0
 10
26.6520957621
 20
84.8702779415
 30
0.0
 10
26.1003881318
 20
85.4979945665
 30
0.0
 10
25.6693205659
 20
85.8296884118
 30
0.0
 10
25.4472478456
 20
85.9578992561
 30
0.0
  0
SPLINE
  5
339
100
AcDbEntity
  8
0
100
AcDbSpline
 62
7
  6
BYLAYER
 70
0
 71
3
 72
11
 73
7
 74
0
 42
0.0000001
 43
0.0000001
 44
0.0000000001
 40
0.0
 40
0.0
 40
0.0
 40
0.0
 40
0.2178537284
 40
0.4509656275
 40
0.7102665038
 40
1.0
 40
1.0
 40
1.0
 40
1.0
 10
38.003156066
 20
16.29568529
 30
0.0
 10
38.1104104401
 20
16.3575785721
 30
0.0
 10
38.3110621635
 20
16.5261942479
 30
0.0
 10
38.5244764616
 20
16.8753982077
 30
0.0
 10
38.6513941286
 20
17.3056014807
 30
0.0
 10
38.6762958958
 20
17.6187552394
 30
0.0
 10
38.6762958958
 20
17.7834445428
 30
0.0
  0
SPLINE
  5
33A
100
AcDbEntity
  8
0
100
AcDbSpline
 62
7
  6
BYLAYER
 70
0
 71
3
 72
9
 73
5
 74
0
 42
0.0000001
 43
0.0000001
 44
0.0000000001
 40
0.0
 40
0.0
 40
0.0
 40
0.0
 40
0.4429444559
 40
1.0
 40
1.0
 40
1.0
 40
1.0
 10
24.1653446309
 20
89.3043624618
 30
0.0
 10
24.3808255141
 20
89.2710333542
 30
0.0
 10
24.8730556304
 20
89.2299045491
 30
0.0
 10
25.36590708
 20
89.2551523549
 30
0.0
 10
25.6390348208
 20
89.2795512516
 30
0.0
  0
SPLINE
  5
33B
100
AcDbEntity
  8
0
100
AcDbSpline
 62
7
  6
BYLAYER
 70
0
 71
3
 72
9
 73
5
 74
0
 42
0.0000001
 43
0.0000001
 44
0.0000000001
 40
0.0
 40
0.0
 40
0.0
 40
0.0
 40
0.4667383356
 40
1.0
 40
1.0
 40
1.0
 40
1.0
 10
25.6390348208
 20
89.2795512516
 30
0.0
 10
25.9712488845
 20
89.309228415
 30
0.0
 10
26.6799323422
 20
89.4073463248
 30
0.0
 10
27.3810860179
 20
89.5461415702
 30
0.0
 10
27.7539263848
 20
89.6249356175
 30
0.0
  0
SPLINE
  5
33C
100
AcDbEntity
  8
0
100
AcDbSpline
 62
7
  6
BYLAYER
 70
0
 71
3
 72
11
 73
7
 74
0
 42
0.0000001
 43
0.0000001
 44
0.0000000001
 40
0.0
 40
0.0
 40
0.0
 40
0.0
 40
0.2372539654
 40
0.5000012591
 40
0.7627478695
 40
1.0
 40
1.0
 40
1.0
 40
1.0
 10
45.1463357499
 20
73.2444248598
 30
0.0
 10
45.1463357499
 20
73.360350743
 30
0.0
 10
45.1028714843
 20
73.6048237675
 30
0.0
 10
44.951265729
 20
73.948300066
 30
0.0
 10
44.7296084909
 20
74.2513308654
 30
0.0
 10
44.5396205758
 20
74.4112065216
 30
0.0
 10
44.4392260248
 20
74.4691680315
 30
0.0
  0
SPLINE
  5
33D
100
AcDbEntity
  8
0
100
AcDbSpline
 62
7
  6
BYLAYER
 70
0
 71
3
 72
15
 73
11
 74
0
 42
0.0000001
 43
0.0000001
 44
0.0000000001
 40
0.0
 40
0.0
 40
0.0
 40
0.0
 40
0.1141465952
 40
0.2373352439
 40
0.366975646
 40
0.4999989181
 40
0.6330223406
 40
0.7626631822
 40
0.8858525235
 40
1.0
 40
1.0
 40
1.0
 40
1.0
 10
48.6818843756
 20
60.4253891811
 30
0.0
 10
48.4398653411
 20
60.5651157748
 30
0.0
 10
47.9618017284
 20
60.9002683641
 30
0.0
 10
47.3039723576
 20
61.5156399937
 30
0.0
 10
46.697822786
 20
62.24316038
 30
0.0
 10
46.1660405439
 20
63.0553372623
 30
0.0
 10
45.7285612604
 20
63.921961515
 30
0.0
 10
45.4015791657
 20
64.8106638425
 30
0.0
 10
45.1975597093
 20
65.6880500757
 30
0.0
 10
45.1463357499
 20
66.2696449528
 30
0.0
 10
45.1463357499
 20
66.5491050394
 30
0.0
  0
ENDSEC
  0
SECTION
  2
OBJECTS
  0
DICTIONARY
  5
C
100
AcDbDictionary
280
0
281
1
  3
ACAD_GROUP
350
D
  3
ACAD_MLINESTYLE
350
17
  3
ACAD_LAYOUT
350
1A
  3
ACAD_PLOTSETTINGS
350
19
  3
ACAD_PLOTSTYLENAME
350
E
  0
DICTIONARY
  5
D
102
{ACAD_REACTORS
330
C
102
}
100
AcDbDictionary
280
0
281
1
  0
ACDBDICTIONARYWDFLT
  5
E
102
{ACAD_REACTORS
330
C
102
}
100
AcDbDictionary
281
1
  3
Normal
350
F
100
AcDbDictionaryWithDefault
340
F
  0
DICTIONARY
  5
17
102
{ACAD_REACTORS
330
C
102
}
100
AcDbDictionary
280
0
281
1
  3
Standard
350
18
  0
DICTIONARY
  5
19
102
{ACAD_REACTORS
330
C
102
}
100
AcDbDictionary
281
1
  0
DICTIONARY
  5
1A
102
{ACAD_REACTORS
330
C
102
}
100
AcDbDictionary
281
1
  3
Model
350
33E
  3
Layout1
350
33F
  0
ACDBPLACEHOLDER
  5
F
102
{ACAD_REACTORS
330
E
102
}
  0
MLINESTYLE
  5
18
102
{ACAD_REACTORS
330
17
102
}
100
AcDbMlineStyle
  2
STANDARD
 70
0
  3

 62
256
 51
90.0
 52
90.0
 71
2
 49
0.5
 62
256
  6
BYLAYER
 49
-0.5
 62
256
  6
BYLAYER
  0
LAYOUT
  5
33E
102
{ACAD_REACTORS
330
1A
102
}
100
AcDbPlotSettings
  1

  2
none_device
  4

  6

 40
0.0
 41
0.0
 42
0.0
 43
0.0
 44
210.0
 45
297.0
 46
0.0
 47
0.0
 48
0.0
 49
0.0
140
0.0
141
0.0
142
1.0
143
1.0
 70
1024
 72
1
 73
0
 74
0
  7

 75
0
147
1.0
148
0.0
149
0.0
100
AcDbLayout
  1
Model
 70
0
 71
0
 10
0.0
 20
0.0
 11
210.0
 21
297.0
 12
0.0
 22
0.0
 32
0.0
 14
0.0
 24
0.0
 34
0.0
 15
0.0
 25
0.0
 35
0.0
146
0.0
 13
0.0
 23
0.0
 33
0.0
 16
1.0
 26
0.0
 36
0.0
 17
0.0
 27
1.0
 37
0.0
 76
0
330
210
345
0
346
0
  0
LAYOUT
  5
33F
102
{ACAD_REACTORS
330
1A
102
}
100
AcDbPlotSettings
  1

  2
none_device
  4

  6

 40
0.0
 41
0.0
 42
0.0
 43
0.0
 44
210.0
 45
297.0
 46
0.0
 47
0.0
 48
0.0
 49
0.0
140
0.0
141
0.0
142
1.0
143
1.0
 70
0
 72
1
 73
0
 74
0
  7

 75
0
147
1.0
148
0.0
149
0.0
100
AcDbLayout
  1
Layout1
 70
0
 71
1
 10
0.0
 20
0.0
 11
210.0
 21
297.0
 12
0.0
 22
0.0
 32
0.0
 14
0.0
 24
0.0
 34
0.0
 15
0.0
 25
0.0
 35
0.0
146
0.0
 13
0.0
 23
0.0
 33
0.0
 16
1.0
 26
0.0
 36
0.0
 17
0.0
 27
1.0
 37
0.0
 76
0
330
211
345
0
346
0
  0
ENDSEC
  0
EOF
