999
DXF file: C:\Users\sesa63760\Dev\_Creo\CAD\MCADPD0005309_3D-CAD\drw0001_7.dxf
999
Pro/ENGINEER 2019471 by Parametric Technology Corporation
  0
SECTION
  2
HEADER
  9
$ACADVER
  1
AC1024
  9
$DWGCODEPAGE
  3
ANSI_1252
  9
$EXTMAX
 10
178.4856883938
 20
252.4297592998
 30
0.0
  9
$EXTMIN
 10
0.0
 20
0.0
 30
0.0
  9
$LIMMIN
 10
0.0
 20
0.0
  9
$LIMMAX
 10
178.4856883938
 20
252.4297592998
  9
$VIEWCTR
 10
89.2428441969
 20
126.2148796499
  9
$VIEWSIZE
 40
252.4297592998
  9
$CLAYER
  8
0
  9
$LTSCALE
 40
16.4546806062
  9
$CELTYPE
  6
BYLAYER
  9
$DIMSCALE
 40
1.0
  9
$DIMASZ
 40
2.1248296237
  9
$DIMEXO
 40
1.0
  9
$DIMDLI
 40
11.3686884188
  9
$DIMEXE
 40
1.0
  9
$DIMCEN
 40
2.6925840992
  9
$DIMLFAC
 40
1.0
  9
$DIMBLK
  1
_FILLED
  9
$DIMALT
 70
0
  9
$DIMALTF
 40
0.0393700787
  9
$DIMTXT
 40
2.9747614732
  9
$DIMTOL
 70
1
  9
$DIMLIM
 70
0
  9
$DIMTFAC
 40
1.0
  9
$DIMTP
 40
0.01
  9
$DIMTM
 40
0.01
  9
$DIMGAP
 40
0.625
  9
$DIMDSEP
 70
46
  9
$AUNITS
 70
0
  9
$PDMODE
 70
3
  9
$PDSIZE
 40
0.3125
  9
$HANDSEED
  5
264
  9
$TILEMODE
 70
1
  9
$MEASUREMENT
 70
1
  9
$INSUNITS
 70
4
  0
ENDSEC
  0
SECTION
  2
CLASSES
  0
CLASS
  1
ACDBDICTIONARYWDFLT
  2
AcDbDictionaryWithDefault
  3
AutoCAD 2000
 90
0
 91
1
280
0
281
0
  0
CLASS
  1
ACDBPLACEHOLDER
  2
AcDbPlaceHolder
  3
AutoCAD 2000
 90
0
 91
1
280
0
281
0
  0
CLASS
  1
LAYOUT
  2
AcDbLayout
  3
AutoCAD 2000
 90
0
 91
0
280
0
281
0
  0
ENDSEC
  0
SECTION
  2
TABLES
  0
TABLE
  2
VPORT
  5
8
100
AcDbSymbolTable
 70
2
  0
VPORT
  5
1F4
100
AcDbSymbolTableRecord
100
AcDbViewportTableRecord
  2
*ACTIVE
 70
0
 10
0.0
 20
0.0
 11
1.0
 21
1.0
 12
89.2428441969
 22
126.2148796499
 13
0.0
 23
0.0
 14
1.0
 24
1.0
 15
0.0
 25
0.0
 16
0.0
 26
0.0
 36
1.0
 17
0.0
 27
0.0
 37
0.0
 40
252.4297592998
 41
0.7070707071
 42
50.0
 43
0.0
 44
0.0
 50
0.0
 51
0.0
 71
0
 72
100
 73
1
 74
1
 75
0
 76
0
 77
0
 78
0
  0
ENDTAB
  0
TABLE
  2
LTYPE
  5
5
100
AcDbSymbolTable
 70
6
  0
LTYPE
  5
14
100
AcDbSymbolTableRecord
100
AcDbLinetypeTableRecord
  2
BYBLOCK
 70
0
  3

 72
65
 73
0
 40
0.0
  0
LTYPE
  5
15
100
AcDbSymbolTableRecord
100
AcDbLinetypeTableRecord
  2
BYLAYER
 70
0
  3

 72
65
 73
0
 40
0.0
  0
LTYPE
  5
16
100
AcDbSymbolTableRecord
100
AcDbLinetypeTableRecord
  2
CONTINUOUS
 70
64
  3
Solid line
 72
65
 73
0
 40
0.0
  0
LTYPE
  5
1F5
100
AcDbSymbolTableRecord
100
AcDbLinetypeTableRecord
  2
CENTER
 70
64
  3
____ _ ____ _ ____ _ ____ _ ____ _ ____ _ ____
 72
65
 73
4
 40
0.6
 49
0.375
 74
0
 49
-0.075
 74
0
 49
0.075
 74
0
 49
-0.075
 74
0
  0
LTYPE
  5
1F6
100
AcDbSymbolTableRecord
100
AcDbLinetypeTableRecord
  2
HIDDEN
 70
64
  3
- - - - - - - - - - - - - - - - - - - -
 72
65
 73
2
 40
0.2
 49
0.1
 74
0
 49
-0.1
 74
0
  0
LTYPE
  5
1F7
100
AcDbSymbolTableRecord
100
AcDbLinetypeTableRecord
  2
PHANTOM
 70
64
  3
_____ _ _ _____ _ _ _____ _ _ _____
 72
65
 73
6
 40
0.8
 49
0.45
 74
0
 49
-0.05
 74
0
 49
0.1
 74
0
 49
-0.05
 74
0
 49
0.1
 74
0
 49
-0.05
 74
0
  0
LTYPE
  5
1F8
100
AcDbSymbolTableRecord
100
AcDbLinetypeTableRecord
  2
DOT
 70
64
  3
. . . . . . . . . . . . . . . . . . . .
 72
65
 73
2
 40
0.2
 49
0.1
 74
0
 49
-0.1
 74
0
  0
LTYPE
  5
1F9
100
AcDbSymbolTableRecord
100
AcDbLinetypeTableRecord
  2
DASHED
 70
64
  3
- - - - - - - - - - - - - - - - - - - -
 72
65
 73
2
 40
0.2
 49
0.1
 74
0
 49
-0.1
 74
0
  0
ENDTAB
  0
TABLE
  2
LAYER
  5
2
100
AcDbSymbolTable
 70
36
  0
LAYER
  5
10
100
AcDbSymbolTableRecord
100
AcDbLayerTableRecord
  2
0
 70
0
 62
7
  6
CONTINUOUS
370
-3
390
F
  0
LAYER
  5
1FA
100
AcDbSymbolTableRecord
100
AcDbLayerTableRecord
  2
DEFAULT_1
 70
0
 62
7
  6
CENTER
370
-3
390
F
  0
LAYER
  5
1FB
100
AcDbSymbolTableRecord
100
AcDbLayerTableRecord
  2
DEFAULT_2
 70
0
 62
7
  6
HIDDEN
370
-3
390
F
  0
LAYER
  5
1FC
100
AcDbSymbolTableRecord
100
AcDbLayerTableRecord
  2
DEFAULT_3
 70
0
 62
7
  6
PHANTOM
370
-3
390
F
  0
LAYER
  5
1FD
100
AcDbSymbolTableRecord
100
AcDbLayerTableRecord
  2
00_COMPONENTS
 70
0
 62
7
  6
CONTINUOUS
370
-3
390
F
  0
LAYER
  5
1FE
100
AcDbSymbolTableRecord
100
AcDbLayerTableRecord
  2
01_1_DEFAULT_DATUMS
 70
0
 62
7
  6
CONTINUOUS
370
-3
390
F
  0
LAYER
  5
1FF
100
AcDbSymbolTableRecord
100
AcDbLayerTableRecord
  2
01_PLANES
 70
0
 62
7
  6
CONTINUOUS
370
-3
390
F
  0
LAYER
  5
200
100
AcDbSymbolTableRecord
100
AcDbLayerTableRecord
  2
02_COORD_SYS
 70
0
 62
7
  6
CONTINUOUS
370
-3
390
F
  0
LAYER
  5
201
100
AcDbSymbolTableRecord
100
AcDbLayerTableRecord
  2
03_AXES
 70
0
 62
7
  6
CONTINUOUS
370
-3
390
F
  0
LAYER
  5
202
100
AcDbSymbolTableRecord
100
AcDbLayerTableRecord
  2
04_POINTS
 70
0
 62
7
  6
CONTINUOUS
370
-3
390
F
  0
LAYER
  5
203
100
AcDbSymbolTableRecord
100
AcDbLayerTableRecord
  2
05_CURVES
 70
0
 62
7
  6
CONTINUOUS
370
-3
390
F
  0
LAYER
  5
204
100
AcDbSymbolTableRecord
100
AcDbLayerTableRecord
  2
06_SURFS
 70
0
 62
7
  6
CONTINUOUS
370
-3
390
F
  0
LAYER
  5
205
100
AcDbSymbolTableRecord
100
AcDbLayerTableRecord
  2
07_COSMETICS
 70
0
 62
7
  6
CONTINUOUS
370
-3
390
F
  0
LAYER
  5
206
100
AcDbSymbolTableRecord
100
AcDbLayerTableRecord
  2
10_NOTES
 70
0
 62
7
  6
CONTINUOUS
370
-3
390
F
  0
LAYER
  5
207
100
AcDbSymbolTableRecord
100
AcDbLayerTableRecord
  2
11_NOTES_PUB
 70
0
 62
7
  6
CONTINUOUS
370
-3
390
F
  0
LAYER
  5
208
100
AcDbSymbolTableRecord
100
AcDbLayerTableRecord
  2
13_REF_GTOL
 70
0
 62
7
  6
CONTINUOUS
370
-3
390
F
  0
LAYER
  5
209
100
AcDbSymbolTableRecord
100
AcDbLayerTableRecord
  2
16_MISC
 70
0
 62
7
  6
CONTINUOUS
370
-3
390
F
  0
LAYER
  5
20A
100
AcDbSymbolTableRecord
100
AcDbLayerTableRecord
  2
17_NO_PRINT
 70
0
 62
7
  6
CONTINUOUS
370
-3
390
F
  0
LAYER
  5
20B
100
AcDbSymbolTableRecord
100
AcDbLayerTableRecord
  2
18_DATUM_CAMS_JOINTS
 70
0
 62
7
  6
CONTINUOUS
370
-3
390
F
  0
LAYER
  5
20C
100
AcDbSymbolTableRecord
100
AcDbLayerTableRecord
  2
19_DATUM_FUNCTIONAL
 70
0
 62
7
  6
CONTINUOUS
370
-3
390
F
  0
LAYER
  5
20D
100
AcDbSymbolTableRecord
100
AcDbLayerTableRecord
  2
20_DATUM_KINEMATIC_SCHEME
 70
0
 62
7
  6
CONTINUOUS
370
-3
390
F
  0
ENDTAB
  0
TABLE
  2
STYLE
  5
3
100
AcDbSymbolTable
 70
1
  0
STYLE
  5
11
100
AcDbSymbolTableRecord
100
AcDbTextStyleTableRecord
  2
STANDARD
 70
0
 40
0.0
 41
1.0
 50
0.0
 71
0
 42
0.2
  3
ARIAL.TTF
  4

  0
STYLE
  5
20E
100
AcDbSymbolTableRecord
100
AcDbTextStyleTableRecord
  2
TEXTSTYLE_1
 70
0
 40
0.0
 41
0.8
 50
0.0
 71
0
 42
0.2
  3
gdt
  4

  0
ENDTAB
  0
TABLE
  2
VIEW
  5
6
100
AcDbSymbolTable
 70
0
  0
ENDTAB
  0
TABLE
  2
UCS
  5
7
100
AcDbSymbolTable
 70
0
  0
ENDTAB
  0
TABLE
  2
APPID
  5
9
100
AcDbSymbolTable
 70
1
  0
APPID
  5
20F
100
AcDbSymbolTableRecord
100
AcDbRegAppTableRecord
  2
ACAD
 70
0
  0
ENDTAB
  0
TABLE
  2
BLOCK_RECORD
  5
1
100
AcDbSymbolTable
 70
0
  0
BLOCK_RECORD
  5
210
100
AcDbSymbolTableRecord
100
AcDbBlockTableRecord
  2
*Model_Space
  0
BLOCK_RECORD
  5
211
100
AcDbSymbolTableRecord
100
AcDbBlockTableRecord
  2
*Paper_Space
  0
BLOCK_RECORD
  5
212
100
AcDbSymbolTableRecord
100
AcDbBlockTableRecord
  2
_FILLED
  0
ENDTAB
  0
TABLE
  2
DIMSTYLE
  5
A
100
AcDbSymbolTable
 70
1
100
AcDbDimStyleTable
 71
0
  0
DIMSTYLE
105
213
100
AcDbSymbolTableRecord
100
AcDbDimStyleTableRecord
  2
STANDARD
 70
0
  3

  4

 40
1.0
 41
2.1248296237
 42
1.0
 43
0.38
 44
1.0
 45
0.0
 46
0.0
 47
0.01
 48
0.01
140
2.9747614732
141
0.09
142
0.0
143
25.4
144
1.0
145
0.0
146
1.0
147
0.625
 71
1
 72
0
 73
0
 74
0
 75
0
 76
0
 77
1
 78
8
 79
2
170
0
171
1
172
0
173
0
174
0
175
0
176
0
177
0
178
0
270
2
179
2
271
2
272
2
273
2
274
2
275
0
280
0
281
0
282
0
283
1
284
8
285
0
286
0
287
3
288
0
340
11
278
46
341
212
342
212
343
212
344
212
  0
ENDTAB
  0
ENDSEC
  0
SECTION
  2
BLOCKS
  0
BLOCK
  5
20
100
AcDbEntity
  8
0
100
AcDbBlockBegin
  2
*Model_Space
 70
0
 10
0.0
 20
0.0
 30
0.0
  3
*Model_Space
  1

  0
ENDBLK
  5
21
100
AcDbEntity
  8
0
100
AcDbBlockEnd
  0
BLOCK
  5
1C
100
AcDbEntity
  8
0
100
AcDbBlockBegin
  2
*Paper_Space
 70
0
 10
0.0
 20
0.0
 30
0.0
  3
*Paper_Space
  1

  0
ENDBLK
  5
1D
100
AcDbEntity
  8
0
100
AcDbBlockEnd
  0
BLOCK
  5
214
100
AcDbEntity
  8
0
100
AcDbBlockBegin
  2
_FILLED
 70
64
 10
0.0
 20
0.0
  3
_FILLED
  1

  0
SOLID
  5
215
100
AcDbEntity
  8
0
  6
BYBLOCK
 62
0
100
AcDbTrace
 10
0.0
 20
0.0
 11
-1.0
 21
0.25
 12
-1.0
 22
-0.25
 13
-1.0
 23
-0.25
  0
ENDBLK
  5
216
100
AcDbEntity
  8
0
  6
BYBLOCK
 62
0
100
AcDbBlockEnd
  0
ENDSEC
  0
SECTION
  2
ENTITIES
  0
LINE
  5
217
100
AcDbEntity
  8
0
100
AcDbLine
 62
7
  6
BYLAYER
 10
18.9518157505
 20
50.7328227571
 11
108.9518157505
 21
50.7328227571
  0
LINE
  5
218
100
AcDbEntity
  8
0
100
AcDbLine
 62
7
  6
BYLAYER
 10
18.9518157505
 20
50.7328227571
 11
18.9518157505
 21
145.9328227571
  0
LINE
  5
219
100
AcDbEntity
  8
0
100
AcDbLine
 62
7
  6
BYLAYER
 10
20.9518157505
 20
115.7328227571
 11
20.9518157505
 21
65.2328227571
  0
LINE
  5
21A
100
AcDbEntity
  8
0
100
AcDbLine
 62
7
  6
BYLAYER
 10
66.9518157505
 20
55.7328227571
 11
30.9518157505
 21
55.7328227571
  0
LINE
  5
21B
100
AcDbEntity
  8
0
100
AcDbLine
 62
7
  6
BYLAYER
 10
28.9518157505
 20
57.7328227571
 11
68.9518157505
 21
57.7328227571
  0
LINE
  5
21C
100
AcDbEntity
  8
0
100
AcDbLine
 62
7
  6
BYLAYER
 10
22.4518157505
 20
147.9328227571
 11
22.4518157505
 21
138.4328227571
  0
LINE
  5
21D
100
AcDbEntity
  8
0
100
AcDbLine
 62
7
  6
BYLAYER
 10
23.9518157505
 20
68.7328227571
 11
23.9518157505
 21
93.7328227571
  0
LINE
  5
21E
100
AcDbEntity
  8
0
100
AcDbLine
 62
7
  6
BYLAYER
 10
108.9518157505
 20
63.2328227571
 11
18.9518157505
 21
63.2328227571
  0
LINE
  5
21F
100
AcDbEntity
  8
0
100
AcDbLine
 62
7
  6
BYLAYER
 10
20.9518157505
 20
65.2328227571
 11
106.9518157505
 21
65.2328227571
  0
LINE
  5
220
100
AcDbEntity
  8
0
100
AcDbLine
 62
7
  6
BYLAYER
 10
28.9518157505
 20
57.7328227571
 11
28.9518157505
 21
50.7328227571
  0
LINE
  5
221
100
AcDbEntity
  8
0
100
AcDbLine
 62
7
  6
BYLAYER
 10
103.9518157505
 20
68.7328227571
 11
83.9518157505
 21
68.7328227571
  0
LINE
  5
222
100
AcDbEntity
  8
0
100
AcDbLine
 62
7
  6
BYLAYER
 10
73.9518157505
 20
68.7328227571
 11
53.9518157505
 21
68.7328227571
  0
LINE
  5
223
100
AcDbEntity
  8
0
100
AcDbLine
 62
7
  6
BYLAYER
 10
43.9518157505
 20
68.7328227571
 11
23.9518157505
 21
68.7328227571
  0
LINE
  5
224
100
AcDbEntity
  8
0
100
AcDbLine
 62
7
  6
BYLAYER
 10
18.9518157505
 20
117.7328227571
 11
20.9518157505
 21
115.7328227571
  0
LINE
  5
225
100
AcDbEntity
  8
0
100
AcDbLine
 62
7
  6
BYLAYER
 10
38.7581181114
 20
50.7328227571
 11
38.7581181114
 21
55.7328227571
  0
LINE
  5
226
100
AcDbEntity
  8
0
100
AcDbLine
 62
7
  6
BYLAYER
 10
41.814616099
 20
50.7328227571
 11
41.814616099
 21
55.7328227571
  0
LINE
  5
227
100
AcDbEntity
  8
0
100
AcDbLine
 62
7
  6
BYLAYER
 10
41.9518157505
 20
147.9328227571
 11
41.9518157505
 21
201.4328227571
  0
LINE
  5
228
100
AcDbEntity
  8
0
100
AcDbLine
 62
7
  6
BYLAYER
 10
43.7884826945
 20
201.4328227571
 11
43.7884826945
 21
171.9328226816
  0
LINE
  5
229
100
AcDbEntity
  8
0
100
AcDbLine
 62
7
  6
BYLAYER
 10
43.9518157505
 20
93.7328227571
 11
43.9518157505
 21
68.7328227571
  0
LINE
  5
22A
100
AcDbEntity
  8
0
100
AcDbLine
 62
7
  6
BYLAYER
 10
45.6215129707
 20
202.9328227571
 11
45.6215129707
 21
171.9328227613
  0
LINE
  5
22B
100
AcDbEntity
  8
0
100
AcDbLine
 62
7
  6
BYLAYER
 10
53.1930494683
 20
201.4328227571
 11
53.1930494683
 21
202.9328227571
  0
LINE
  5
22C
100
AcDbEntity
  8
0
100
AcDbLine
 62
7
  6
BYLAYER
 10
53.2518157505
 20
202.9328227571
 11
53.2518157505
 21
201.4328227571
  0
LINE
  5
22D
100
AcDbEntity
  8
0
100
AcDbLine
 62
7
  6
BYLAYER
 10
53.9518157505
 20
68.7328227571
 11
53.9518157505
 21
93.7328227571
  0
LINE
  5
22E
100
AcDbEntity
  8
0
100
AcDbLine
 62
7
  6
BYLAYER
 10
56.089015402
 20
50.7328227571
 11
56.089015402
 21
55.7328227571
  0
LINE
  5
22F
100
AcDbEntity
  8
0
100
AcDbLine
 62
7
  6
BYLAYER
 10
59.1455133896
 20
55.7328227571
 11
59.1455133896
 21
50.7328227571
  0
LINE
  5
230
100
AcDbEntity
  8
0
100
AcDbLine
 62
7
  6
BYLAYER
 10
23.9518157505
 20
93.7328227571
 11
43.9518157505
 21
93.7328227571
  0
LINE
  5
231
100
AcDbEntity
  8
0
100
AcDbLine
 62
7
  6
BYLAYER
 10
53.9518157505
 20
93.7328227571
 11
73.9518157505
 21
93.7328227571
  0
LINE
  5
232
100
AcDbEntity
  8
0
100
AcDbLine
 62
7
  6
BYLAYER
 10
83.9518157505
 20
93.7328227571
 11
103.9518157505
 21
93.7328227571
  0
LINE
  5
233
100
AcDbEntity
  8
0
100
AcDbLine
 62
7
  6
BYLAYER
 10
108.9518157505
 20
63.2328227571
 11
106.9518157505
 21
65.2328227571
  0
LINE
  5
234
100
AcDbEntity
  8
0
100
AcDbLine
 62
7
  6
BYLAYER
 10
68.9518157505
 20
50.7328227571
 11
68.9518157505
 21
57.7328227571
  0
LINE
  5
235
100
AcDbEntity
  8
0
100
AcDbLine
 62
7
  6
BYLAYER
 10
73.9518157505
 20
93.7328227571
 11
73.9518157505
 21
68.7328227571
  0
LINE
  5
236
100
AcDbEntity
  8
0
100
AcDbLine
 62
7
  6
BYLAYER
 10
82.2821185302
 20
171.9328227642
 11
82.2821185303
 21
185.3328227571
  0
LINE
  5
237
100
AcDbEntity
  8
0
100
AcDbLine
 62
7
  6
BYLAYER
 10
106.9518157505
 20
115.7328227571
 11
20.9518157505
 21
115.7328227571
  0
LINE
  5
238
100
AcDbEntity
  8
0
100
AcDbLine
 62
7
  6
BYLAYER
 10
18.9518157505
 20
117.7328227571
 11
108.9518157505
 21
117.7328227571
  0
LINE
  5
239
100
AcDbEntity
  8
0
100
AcDbLine
 62
7
  6
BYLAYER
 10
83.9518157505
 20
68.7328227571
 11
83.9518157505
 21
93.7328227571
  0
LINE
  5
23A
100
AcDbEntity
  8
0
100
AcDbLine
 62
7
  6
BYLAYER
 10
84.1151488083
 20
171.9328227574
 11
84.1151488083
 21
182.4762513857
  0
LINE
  5
23B
100
AcDbEntity
  8
0
100
AcDbLine
 62
7
  6
BYLAYER
 10
85.9518157505
 20
147.9328227571
 11
85.9518157505
 21
181.3328227571
  0
LINE
  5
23C
100
AcDbEntity
  8
0
100
AcDbLine
 62
7
  6
BYLAYER
 10
18.9518157505
 20
63.2328227571
 11
20.9518157505
 21
65.2328227571
  0
LINE
  5
23D
100
AcDbEntity
  8
0
100
AcDbLine
 62
7
  6
BYLAYER
 10
103.9518157505
 20
93.7328227571
 11
103.9518157505
 21
68.7328227571
  0
LINE
  5
23E
100
AcDbEntity
  8
0
100
AcDbLine
 62
7
  6
BYLAYER
 10
20.9518157505
 20
138.4328227571
 11
106.9518157505
 21
138.4328227571
  0
LINE
  5
23F
100
AcDbEntity
  8
0
100
AcDbLine
 62
7
  6
BYLAYER
 10
18.9518157505
 20
140.4328227571
 11
108.9518157505
 21
140.4328227571
  0
LINE
  5
240
100
AcDbEntity
  8
0
100
AcDbLine
 62
7
  6
BYLAYER
 10
105.4518157505
 20
138.4328227571
 11
105.4518157505
 21
147.9328227571
  0
LINE
  5
241
100
AcDbEntity
  8
0
100
AcDbLine
 62
7
  6
BYLAYER
 10
106.9518157505
 20
65.2328227571
 11
106.9518157505
 21
115.7328227571
  0
LINE
  5
242
100
AcDbEntity
  8
0
100
AcDbLine
 62
7
  6
BYLAYER
 10
108.9518157505
 20
50.7328227571
 11
108.9518157505
 21
145.9328227571
  0
LINE
  5
243
100
AcDbEntity
  8
0
100
AcDbLine
 62
7
  6
BYLAYER
 10
108.9518157505
 20
117.7328227571
 11
106.9518157505
 21
115.7328227571
  0
LINE
  5
244
100
AcDbEntity
  8
0
100
AcDbLine
 62
7
  6
BYLAYER
 10
108.9518157505
 20
145.9328227571
 11
18.9518157505
 21
145.9328227571
  0
LINE
  5
245
100
AcDbEntity
  8
0
100
AcDbLine
 62
7
  6
BYLAYER
 10
20.9518157505
 20
147.9328227571
 11
106.9518157505
 21
147.9328227571
  0
LINE
  5
246
100
AcDbEntity
  8
0
100
AcDbLine
 62
7
  6
BYLAYER
 10
73.5413934296
 20
161.9328227571
 11
54.3622380751
 21
161.9328227571
  0
LINE
  5
247
100
AcDbEntity
  8
0
100
AcDbLine
 62
7
  6
BYLAYER
 10
72.6696136369
 20
163.9328227571
 11
55.2340178645
 21
163.9328227571
  0
LINE
  5
248
100
AcDbEntity
  8
0
100
AcDbLine
 62
7
  6
BYLAYER
 10
43.7884826927
 20
171.9328227675
 11
84.1151488083
 21
171.9328228487
  0
LINE
  5
249
100
AcDbEntity
  8
0
100
AcDbLine
 62
7
  6
BYLAYER
 10
85.117826239
 20
181.3328227571
 11
156.1518157505
 21
181.3328227571
  0
LINE
  5
24A
100
AcDbEntity
  8
0
100
AcDbLine
 62
7
  6
BYLAYER
 10
150.1518157505
 20
181.3328227571
 11
150.1518157505
 21
202.9328227571
  0
LINE
  5
24B
100
AcDbEntity
  8
0
100
AcDbLine
 62
7
  6
BYLAYER
 10
82.2821185303
 20
185.3328227571
 11
160.1518157505
 21
185.3328227571
  0
LINE
  5
24C
100
AcDbEntity
  8
0
100
AcDbLine
 62
7
  6
BYLAYER
 10
160.1518157505
 20
185.3328227571
 11
160.1518157505
 21
201.4328227571
  0
LINE
  5
24D
100
AcDbEntity
  8
0
100
AcDbLine
 62
7
  6
BYLAYER
 10
41.9518400394
 20
201.4328227571
 11
160.1518157505
 21
201.4328227571
  0
LINE
  5
24E
100
AcDbEntity
  8
0
100
AcDbLine
 62
7
  6
BYLAYER
 10
43.4521846584
 20
202.9328227571
 11
53.1930494683
 21
202.9328227571
  0
LINE
  5
24F
100
AcDbEntity
  8
0
100
AcDbLine
 62
7
  6
BYLAYER
 10
53.2518157505
 20
202.9328227571
 11
158.6512561495
 21
202.9328227571
  0
ARC
  5
250
100
AcDbEntity
  8
0
100
AcDbCircle
 62
7
  6
BYLAYER
 10
156.1518157505
 20
185.3328227571
 40
4.0
100
AcDbArc
 50
270.0
 51
360.0
  0
ARC
  5
251
100
AcDbEntity
  8
0
100
AcDbCircle
 62
7
  6
BYLAYER
 10
20.9518157505
 20
140.4328227571
 40
2.0
100
AcDbArc
 50
180.0
 51
269.9999999999
  0
ARC
  5
252
100
AcDbEntity
  8
0
100
AcDbCircle
 62
7
  6
BYLAYER
 10
20.9518157505
 20
145.9328227571
 40
2.0
100
AcDbArc
 50
90.0000000001
 51
180.0
  0
ARC
  5
253
100
AcDbEntity
  8
0
100
AcDbCircle
 62
7
  6
BYLAYER
 10
106.9518157505
 20
140.4328227571
 40
2.0
100
AcDbArc
 50
270.0000000001
 51
360.0
  0
ARC
  5
254
100
AcDbEntity
  8
0
100
AcDbCircle
 62
7
  6
BYLAYER
 10
106.9518157505
 20
145.9328227571
 40
2.0
100
AcDbArc
 50
0.0
 51
89.9999999999
  0
ARC
  5
255
100
AcDbEntity
  8
0
100
AcDbCircle
 62
7
  6
BYLAYER
 10
158.6518157505
 20
201.4328227571
 40
1.5
100
AcDbArc
 50
0.0
 51
90.0
  0
ARC
  5
256
100
AcDbEntity
  8
0
100
AcDbCircle
 62
7
  6
BYLAYER
 10
43.4518157505
 20
201.4328227571
 40
1.5
100
AcDbArc
 50
90.0
 51
180.0
  0
SPLINE
  5
257
100
AcDbEntity
  8
0
100
AcDbSpline
 62
7
  6
BYLAYER
 70
0
 71
3
 72
15
 73
11
 74
0
 42
0.0000001
 43
0.0000001
 44
0.0000000001
 40
0.0
 40
0.0
 40
0.0
 40
0.0
 40
0.0693687158
 40
0.15235867
 40
0.2562193257
 40
0.382002995
 40
0.5270141563
 40
0.6839655145
 40
0.8441739946
 40
1.0
 40
1.0
 40
1.0
 40
1.0
 10
55.2340157407
 20
163.9328227572
 30
0.0
 10
55.1799178907
 20
163.9328227574
 30
0.0
 10
55.06027042
 20
163.9055606611
 30
0.0
 10
54.8936605877
 20
163.7887649836
 30
0.0
 10
54.7402869842
 20
163.5963833856
 30
0.0
 10
54.6041536717
 20
163.3363815716
 30
0.0
 10
54.4958313417
 20
163.0198456185
 30
0.0
 10
54.4170186675
 20
162.6675221119
 30
0.0
 10
54.3721119599
 20
162.3009026004
 30
0.0
 10
54.3622356527
 20
162.0543451432
 30
0.0
 10
54.3622356476
 20
161.9328227571
 30
0.0
  0
SPLINE
  5
258
100
AcDbEntity
  8
0
100
AcDbSpline
 62
7
  6
BYLAYER
 70
0
 71
3
 72
16
 73
12
 74
0
 42
0.0000001
 43
0.0000001
 44
0.0000000001
 40
0.0
 40
0.0
 40
0.0
 40
0.0
 40
0.1381038205
 40
0.2680009934
 40
0.3860494094
 40
0.441836375
 40
0.4968391886
 40
0.6089434592
 40
0.7294305093
 40
0.8600878495
 40
1.0
 40
1.0
 40
1.0
 40
1.0
 10
82.2821273662
 20
171.9328227568
 30
0.0
 10
82.2821047242
 20
171.2600339907
 30
0.0
 10
82.1949296562
 20
169.9521896951
 30
0.0
 10
81.77667953
 20
168.108659599
 30
0.0
 10
81.1162976979
 20
166.7602939196
 30
0.0
 10
80.3959762868
 20
165.9031465079
 30
0.0
 10
79.5683952293
 20
165.1929534594
 30
0.0
 10
78.2989288249
 20
164.5531010083
 30
0.0
 10
76.5692351261
 20
164.1406015656
 30
0.0
 10
74.669850092
 20
163.9554269443
 30
0.0
 10
73.3512150741
 20
163.9328303743
 30
0.0
 10
72.6696168184
 20
163.9328227571
 30
0.0
  0
SPLINE
  5
259
100
AcDbEntity
  8
0
100
AcDbSpline
 62
7
  6
BYLAYER
 70
0
 71
3
 72
16
 73
12
 74
0
 42
0.0000001
 43
0.0000001
 44
0.0000000001
 40
0.0
 40
0.0
 40
0.0
 40
0.0
 40
0.1399888773
 40
0.2707148235
 40
0.3912417916
 40
0.5033471143
 40
0.5583525585
 40
0.6141412887
 40
0.7321720997
 40
0.8620153687
 40
1.0
 40
1.0
 40
1.0
 40
1.0
 10
55.2340169776
 20
163.9328227571
 30
0.0
 10
54.5520451346
 20
163.9328296519
 30
0.0
 10
53.2327024104
 20
163.9554282308
 30
0.0
 10
51.3324193971
 20
164.1408202517
 30
0.0
 10
49.6022993697
 20
164.5539184813
 30
0.0
 10
48.3328917376
 20
165.1944303744
 30
0.0
 10
47.5057335567
 20
165.9051599116
 30
0.0
 10
46.7859129426
 20
166.7626329034
 30
0.0
 10
46.1262110854
 20
168.1109244656
 30
0.0
 10
45.7086478104
 20
169.9536280343
 30
0.0
 10
45.6215135961
 20
171.2606148276
 30
0.0
 10
45.6215105068
 20
171.9328227571
 30
0.0
  0
SPLINE
  5
25A
100
AcDbEntity
  8
0
100
AcDbSpline
 62
7
  6
BYLAYER
 70
0
 71
3
 72
18
 73
14
 74
0
 42
0.0000001
 43
0.0000001
 44
0.0000000001
 40
0.0
 40
0.0
 40
0.0
 40
0.0
 40
0.1498880973
 40
0.2213098113
 40
0.288975325
 40
0.4117093223
 40
0.4680089851
 40
0.5223273847
 40
0.5760434596
 40
0.6303975815
 40
0.7442050612
 40
0.867437943
 40
1.0
 40
1.0
 40
1.0
 40
1.0
 10
43.7884826945
 20
171.9328226816
 30
0.0
 10
43.788483932
 20
171.080163868
 30
0.0
 10
43.8625610568
 20
169.8186702377
 30
0.0
 10
44.1376906801
 20
168.1960802451
 30
0.0
 10
44.5137825615
 20
166.7543588319
 30
0.0
 10
45.0804219886
 20
165.4499822678
 30
0.0
 10
45.8760740206
 20
164.3808767912
 30
0.0
 10
46.5509183493
 20
163.7278818603
 30
0.0
 10
47.3124318801
 20
163.1983727618
 30
0.0
 10
48.4470954643
 20
162.6366023254
 30
0.0
 10
50.0584916295
 20
162.1937967727
 30
0.0
 10
52.1521234707
 20
161.9632197971
 30
0.0
 10
53.6081407965
 20
161.9328262378
 30
0.0
 10
54.3622380751
 20
161.9328227571
 30
0.0
  0
SPLINE
  5
25B
100
AcDbEntity
  8
0
100
AcDbSpline
 62
7
  6
BYLAYER
 70
0
 71
3
 72
11
 73
7
 74
0
 42
0.0000001
 43
0.0000001
 44
0.0000000001
 40
0.0
 40
0.0
 40
0.0
 40
0.0
 40
0.2599839575
 40
0.5141365666
 40
0.7600431681
 40
1.0
 40
1.0
 40
1.0
 40
1.0
 10
43.7884826927
 20
201.4328227571
 30
0.0
 10
43.7884826927
 20
201.627326398
 30
0.0
 10
43.857980271
 20
202.0157023272
 30
0.0
 10
44.1593383442
 20
202.513330902
 30
0.0
 10
44.6158032918
 20
202.8521714289
 30
0.0
 10
44.9837347957
 20
202.9328227571
 30
0.0
 10
45.1632554012
 20
202.9328227571
 30
0.0
  0
SPLINE
  5
25C
100
AcDbEntity
  8
0
100
AcDbSpline
 62
7
  6
BYLAYER
 70
0
 71
3
 72
15
 73
11
 74
0
 42
0.0000001
 43
0.0000001
 44
0.0000000001
 40
0.0
 40
0.0
 40
0.0
 40
0.0
 40
0.155825899
 40
0.3160343042
 40
0.4729856328
 40
0.6179968079
 40
0.7437805244
 40
0.8476412382
 40
0.9306312426
 40
1.0
 40
1.0
 40
1.0
 40
1.0
 10
73.5413934027
 20
161.9328227571
 30
0.0
 10
73.5413934028
 20
162.0543450518
 30
0.0
 10
73.5315171233
 20
162.3009023508
 30
0.0
 10
73.4866104956
 20
162.6675216796
 30
0.0
 10
73.4077979284
 20
163.0198451109
 30
0.0
 10
73.2994756997
 20
163.336381099
 30
0.0
 10
73.1633424609
 20
163.5963830321
 30
0.0
 10
73.0099688908
 20
163.7887647896
 30
0.0
 10
72.84335903
 20
163.905560613
 30
0.0
 10
72.7237114957
 20
163.9328227571
 30
0.0
 10
72.669613617
 20
163.9328227571
 30
0.0
  0
SPLINE
  5
25D
100
AcDbEntity
  8
0
100
AcDbSpline
 62
7
  6
BYLAYER
 70
0
 71
3
 72
18
 73
14
 74
0
 42
0.0000001
 43
0.0000001
 44
0.0000000001
 40
0.0
 40
0.0
 40
0.0
 40
0.0
 40
0.1499734084
 40
0.2214154001
 40
0.2891025862
 40
0.4118262539
 40
0.4681368278
 40
0.5224534606
 40
0.5761556634
 40
0.63051192
 40
0.7442900432
 40
0.8674918385
 40
1.0
 40
1.0
 40
1.0
 40
1.0
 10
84.1151488083
 20
171.9328227574
 30
0.0
 10
84.1137940068
 20
171.0796819106
 30
0.0
 10
84.0416299356
 20
169.8175475416
 30
0.0
 10
83.7655118153
 20
168.1943344896
 30
0.0
 10
83.3891781884
 20
166.7524980989
 30
0.0
 10
82.8219432304
 20
165.4483027415
 30
0.0
 10
82.0267122279
 20
164.3789488649
 30
0.0
 10
81.3517547449
 20
163.7259542114
 30
0.0
 10
80.5889679168
 20
163.1983860848
 30
0.0
 10
79.4543786861
 20
162.6373460871
 30
0.0
 10
77.8438912447
 20
162.1925635242
 30
0.0
 10
75.7506655827
 20
161.9629903319
 30
0.0
 10
74.2951821761
 20
161.9327807762
 30
0.0
 10
73.5413934296
 20
161.9328227571
 30
0.0
  0
SPLINE
  5
25E
100
AcDbEntity
  8
0
100
AcDbSpline
 62
7
  6
BYLAYER
 70
0
 71
3
 72
11
 73
7
 74
0
 42
0.0000001
 43
0.0000001
 44
0.0000000001
 40
0.0
 40
0.0
 40
0.0
 40
0.0
 40
0.2189326459
 40
0.466684744
 40
0.7300332296
 40
1.0
 40
1.0
 40
1.0
 40
1.0
 10
84.1151488083
 20
182.4762513857
 30
0.0
 10
84.0142869535
 20
182.7027781669
 30
0.0
 10
83.7561552636
 20
183.1657859957
 30
0.0
 10
83.3093022997
 20
183.8612896308
 30
0.0
 10
82.8073897882
 20
184.5899959122
 30
0.0
 10
82.458654238
 20
185.083163565
 30
0.0
 10
82.2821185303
 20
185.3328227571
 30
0.0
  0
SPLINE
  5
25F
100
AcDbEntity
  8
0
100
AcDbSpline
 62
7
  6
BYLAYER
 70
0
 71
3
 72
12
 73
8
 74
0
 42
0.0000001
 43
0.0000001
 44
0.0000000001
 40
0.0
 40
0.0
 40
0.0
 40
0.0
 40
0.346797893
 40
0.6285108843
 40
0.7440652559
 40
0.8432796378
 40
1.0
 40
1.0
 40
1.0
 40
1.0
 10
84.1151488083
 20
182.4762513857
 30
0.0
 10
84.1893152751
 20
182.3096800785
 30
0.0
 10
84.3398818794
 20
182.01459427
 30
0.0
 10
84.5644393451
 20
181.6918143848
 30
0.0
 10
84.748164793
 20
181.5047602759
 30
0.0
 10
84.9024574629
 20
181.3861210187
 30
0.0
 10
85.0354270341
 20
181.3328227571
 30
0.0
 10
85.117826239
 20
181.3328227571
 30
0.0
  0
ELLIPSE
  5
260
100
AcDbEntity
  8
0
100
AcDbEllipse
 62
7
  6
BYLAYER
 10
66.9518157505
 20
57.7328227571
 30
0.0
 11
2.0
 21
0.0
 31
0.0
 40
1.0
 41
-1.5707963268
 42
-0.0
  0
ELLIPSE
  5
261
100
AcDbEntity
  8
0
100
AcDbEllipse
 62
7
  6
BYLAYER
 10
30.9518157505
 20
57.7328227571
 30
0.0
 11
0.0
 21
2.0
 31
0.0
 40
1.0
 41
-4.7123889804
 42
-3.1415926536
  0
ENDSEC
  0
SECTION
  2
OBJECTS
  0
DICTIONARY
  5
C
100
AcDbDictionary
280
0
281
1
  3
ACAD_GROUP
350
D
  3
ACAD_MLINESTYLE
350
17
  3
ACAD_LAYOUT
350
1A
  3
ACAD_PLOTSETTINGS
350
19
  3
ACAD_PLOTSTYLENAME
350
E
  0
DICTIONARY
  5
D
102
{ACAD_REACTORS
330
C
102
}
100
AcDbDictionary
280
0
281
1
  0
ACDBDICTIONARYWDFLT
  5
E
102
{ACAD_REACTORS
330
C
102
}
100
AcDbDictionary
281
1
  3
Normal
350
F
100
AcDbDictionaryWithDefault
340
F
  0
DICTIONARY
  5
17
102
{ACAD_REACTORS
330
C
102
}
100
AcDbDictionary
280
0
281
1
  3
Standard
350
18
  0
DICTIONARY
  5
19
102
{ACAD_REACTORS
330
C
102
}
100
AcDbDictionary
281
1
  0
DICTIONARY
  5
1A
102
{ACAD_REACTORS
330
C
102
}
100
AcDbDictionary
281
1
  3
Model
350
262
  3
Layout1
350
263
  0
ACDBPLACEHOLDER
  5
F
102
{ACAD_REACTORS
330
E
102
}
  0
MLINESTYLE
  5
18
102
{ACAD_REACTORS
330
17
102
}
100
AcDbMlineStyle
  2
STANDARD
 70
0
  3

 62
256
 51
90.0
 52
90.0
 71
2
 49
0.5
 62
256
  6
BYLAYER
 49
-0.5
 62
256
  6
BYLAYER
  0
LAYOUT
  5
262
102
{ACAD_REACTORS
330
1A
102
}
100
AcDbPlotSettings
  1

  2
none_device
  4

  6

 40
0.0
 41
0.0
 42
0.0
 43
0.0
 44
210.0
 45
297.0
 46
0.0
 47
0.0
 48
0.0
 49
0.0
140
0.0
141
0.0
142
1.0
143
1.0
 70
1024
 72
1
 73
0
 74
0
  7

 75
0
147
1.0
148
0.0
149
0.0
100
AcDbLayout
  1
Model
 70
0
 71
0
 10
0.0
 20
0.0
 11
210.0
 21
297.0
 12
0.0
 22
0.0
 32
0.0
 14
0.0
 24
0.0
 34
0.0
 15
0.0
 25
0.0
 35
0.0
146
0.0
 13
0.0
 23
0.0
 33
0.0
 16
1.0
 26
0.0
 36
0.0
 17
0.0
 27
1.0
 37
0.0
 76
0
330
210
345
0
346
0
  0
LAYOUT
  5
263
102
{ACAD_REACTORS
330
1A
102
}
100
AcDbPlotSettings
  1

  2
none_device
  4

  6

 40
0.0
 41
0.0
 42
0.0
 43
0.0
 44
210.0
 45
297.0
 46
0.0
 47
0.0
 48
0.0
 49
0.0
140
0.0
141
0.0
142
1.0
143
1.0
 70
0
 72
1
 73
0
 74
0
  7

 75
0
147
1.0
148
0.0
149
0.0
100
AcDbLayout
  1
Layout1
 70
0
 71
1
 10
0.0
 20
0.0
 11
210.0
 21
297.0
 12
0.0
 22
0.0
 32
0.0
 14
0.0
 24
0.0
 34
0.0
 15
0.0
 25
0.0
 35
0.0
146
0.0
 13
0.0
 23
0.0
 33
0.0
 16
1.0
 26
0.0
 36
0.0
 17
0.0
 27
1.0
 37
0.0
 76
0
330
211
345
0
346
0
  0
ENDSEC
  0
EOF
