999
DXF file: C:\Users\sesa63760\Dev\_Creo\CAD\MCADID0004241_3D-CAD\drw0001_2.dxf
999
Pro/ENGINEER 2019471 by Parametric Technology Corporation
  0
SECTION
  2
HEADER
  9
$ACADVER
  1
AC1024
  9
$DWGCODEPAGE
  3
ANSI_1252
  9
$EXTMAX
 10
568.7453124276
 20
804.3683704334
 30
0.0
  9
$EXTMIN
 10
0.0
 20
0.0
 30
0.0
  9
$LIMMIN
 10
0.0
 20
0.0
  9
$LIMMAX
 10
568.7453124276
 20
804.3683704334
  9
$VIEWCTR
 10
284.3726562138
 20
402.1841852167
  9
$VIEWSIZE
 40
804.3683704334
  9
$CLAYER
  8
0
  9
$LTSCALE
 40
52.4329011838
  9
$CELTYPE
  6
BYLAYER
  9
$DIMSCALE
 40
1.0
  9
$DIMASZ
 40
6.7707775289
  9
$DIMEXO
 40
1.0
  9
$DIMDLI
 40
36.2263680906
  9
$DIMEXE
 40
1.0
  9
$DIMCEN
 40
8.5799292846
  9
$DIMLFAC
 40
1.0
  9
$DIMBLK
  1
_FILLED
  9
$DIMALT
 70
0
  9
$DIMALTF
 40
0.0393700787
  9
$DIMTXT
 40
9.4790885405
  9
$DIMTOL
 70
1
  9
$DIMLIM
 70
0
  9
$DIMTFAC
 40
1.0
  9
$DIMTP
 40
0.01
  9
$DIMTM
 40
0.01
  9
$DIMGAP
 40
0.625
  9
$DIMDSEP
 70
46
  9
$AUNITS
 70
0
  9
$PDMODE
 70
3
  9
$PDSIZE
 40
0.3125
  9
$HANDSEED
  5
435
  9
$TILEMODE
 70
1
  9
$MEASUREMENT
 70
1
  9
$INSUNITS
 70
4
  0
ENDSEC
  0
SECTION
  2
CLASSES
  0
CLASS
  1
ACDBDICTIONARYWDFLT
  2
AcDbDictionaryWithDefault
  3
AutoCAD 2000
 90
0
 91
1
280
0
281
0
  0
CLASS
  1
ACDBPLACEHOLDER
  2
AcDbPlaceHolder
  3
AutoCAD 2000
 90
0
 91
1
280
0
281
0
  0
CLASS
  1
LAYOUT
  2
AcDbLayout
  3
AutoCAD 2000
 90
0
 91
0
280
0
281
0
  0
ENDSEC
  0
SECTION
  2
TABLES
  0
TABLE
  2
VPORT
  5
8
100
AcDbSymbolTable
 70
2
  0
VPORT
  5
1F4
100
AcDbSymbolTableRecord
100
AcDbViewportTableRecord
  2
*ACTIVE
 70
0
 10
0.0
 20
0.0
 11
1.0
 21
1.0
 12
284.3726562138
 22
402.1841852167
 13
0.0
 23
0.0
 14
1.0
 24
1.0
 15
0.0
 25
0.0
 16
0.0
 26
0.0
 36
1.0
 17
0.0
 27
0.0
 37
0.0
 40
804.3683704334
 41
0.7070707071
 42
50.0
 43
0.0
 44
0.0
 50
0.0
 51
0.0
 71
0
 72
100
 73
1
 74
1
 75
0
 76
0
 77
0
 78
0
  0
ENDTAB
  0
TABLE
  2
LTYPE
  5
5
100
AcDbSymbolTable
 70
6
  0
LTYPE
  5
14
100
AcDbSymbolTableRecord
100
AcDbLinetypeTableRecord
  2
BYBLOCK
 70
0
  3

 72
65
 73
0
 40
0.0
  0
LTYPE
  5
15
100
AcDbSymbolTableRecord
100
AcDbLinetypeTableRecord
  2
BYLAYER
 70
0
  3

 72
65
 73
0
 40
0.0
  0
LTYPE
  5
16
100
AcDbSymbolTableRecord
100
AcDbLinetypeTableRecord
  2
CONTINUOUS
 70
64
  3
Solid line
 72
65
 73
0
 40
0.0
  0
LTYPE
  5
1F5
100
AcDbSymbolTableRecord
100
AcDbLinetypeTableRecord
  2
CENTER
 70
64
  3
____ _ ____ _ ____ _ ____ _ ____ _ ____ _ ____
 72
65
 73
4
 40
0.6
 49
0.375
 74
0
 49
-0.075
 74
0
 49
0.075
 74
0
 49
-0.075
 74
0
  0
LTYPE
  5
1F6
100
AcDbSymbolTableRecord
100
AcDbLinetypeTableRecord
  2
HIDDEN
 70
64
  3
- - - - - - - - - - - - - - - - - - - -
 72
65
 73
2
 40
0.2
 49
0.1
 74
0
 49
-0.1
 74
0
  0
LTYPE
  5
1F7
100
AcDbSymbolTableRecord
100
AcDbLinetypeTableRecord
  2
PHANTOM
 70
64
  3
_____ _ _ _____ _ _ _____ _ _ _____
 72
65
 73
6
 40
0.8
 49
0.45
 74
0
 49
-0.05
 74
0
 49
0.1
 74
0
 49
-0.05
 74
0
 49
0.1
 74
0
 49
-0.05
 74
0
  0
LTYPE
  5
1F8
100
AcDbSymbolTableRecord
100
AcDbLinetypeTableRecord
  2
DOT
 70
64
  3
. . . . . . . . . . . . . . . . . . . .
 72
65
 73
2
 40
0.2
 49
0.1
 74
0
 49
-0.1
 74
0
  0
LTYPE
  5
1F9
100
AcDbSymbolTableRecord
100
AcDbLinetypeTableRecord
  2
DASHED
 70
64
  3
- - - - - - - - - - - - - - - - - - - -
 72
65
 73
2
 40
0.2
 49
0.1
 74
0
 49
-0.1
 74
0
  0
ENDTAB
  0
TABLE
  2
LAYER
  5
2
100
AcDbSymbolTable
 70
36
  0
LAYER
  5
10
100
AcDbSymbolTableRecord
100
AcDbLayerTableRecord
  2
0
 70
0
 62
7
  6
CONTINUOUS
370
-3
390
F
  0
LAYER
  5
1FA
100
AcDbSymbolTableRecord
100
AcDbLayerTableRecord
  2
DEFAULT_1
 70
0
 62
7
  6
CENTER
370
-3
390
F
  0
LAYER
  5
1FB
100
AcDbSymbolTableRecord
100
AcDbLayerTableRecord
  2
DEFAULT_2
 70
0
 62
7
  6
HIDDEN
370
-3
390
F
  0
LAYER
  5
1FC
100
AcDbSymbolTableRecord
100
AcDbLayerTableRecord
  2
DEFAULT_3
 70
0
 62
7
  6
PHANTOM
370
-3
390
F
  0
LAYER
  5
1FD
100
AcDbSymbolTableRecord
100
AcDbLayerTableRecord
  2
00_COMPONENTS
 70
0
 62
7
  6
CONTINUOUS
370
-3
390
F
  0
LAYER
  5
1FE
100
AcDbSymbolTableRecord
100
AcDbLayerTableRecord
  2
01_1_DEFAULT_DATUMS
 70
0
 62
7
  6
CONTINUOUS
370
-3
390
F
  0
LAYER
  5
1FF
100
AcDbSymbolTableRecord
100
AcDbLayerTableRecord
  2
01_PLANES
 70
0
 62
7
  6
CONTINUOUS
370
-3
390
F
  0
LAYER
  5
200
100
AcDbSymbolTableRecord
100
AcDbLayerTableRecord
  2
02_COORD_SYS
 70
0
 62
7
  6
CONTINUOUS
370
-3
390
F
  0
LAYER
  5
201
100
AcDbSymbolTableRecord
100
AcDbLayerTableRecord
  2
03_AXES
 70
0
 62
7
  6
CONTINUOUS
370
-3
390
F
  0
LAYER
  5
202
100
AcDbSymbolTableRecord
100
AcDbLayerTableRecord
  2
04_POINTS
 70
0
 62
7
  6
CONTINUOUS
370
-3
390
F
  0
LAYER
  5
203
100
AcDbSymbolTableRecord
100
AcDbLayerTableRecord
  2
05_CURVES
 70
0
 62
7
  6
CONTINUOUS
370
-3
390
F
  0
LAYER
  5
204
100
AcDbSymbolTableRecord
100
AcDbLayerTableRecord
  2
06_SURFS
 70
0
 62
7
  6
CONTINUOUS
370
-3
390
F
  0
LAYER
  5
205
100
AcDbSymbolTableRecord
100
AcDbLayerTableRecord
  2
07_COSMETICS
 70
0
 62
7
  6
CONTINUOUS
370
-3
390
F
  0
LAYER
  5
206
100
AcDbSymbolTableRecord
100
AcDbLayerTableRecord
  2
10_NOTES
 70
0
 62
7
  6
CONTINUOUS
370
-3
390
F
  0
LAYER
  5
207
100
AcDbSymbolTableRecord
100
AcDbLayerTableRecord
  2
11_NOTES_PUB
 70
0
 62
7
  6
CONTINUOUS
370
-3
390
F
  0
LAYER
  5
208
100
AcDbSymbolTableRecord
100
AcDbLayerTableRecord
  2
13_REF_GTOL
 70
0
 62
7
  6
CONTINUOUS
370
-3
390
F
  0
LAYER
  5
209
100
AcDbSymbolTableRecord
100
AcDbLayerTableRecord
  2
16_MISC
 70
0
 62
7
  6
CONTINUOUS
370
-3
390
F
  0
LAYER
  5
20A
100
AcDbSymbolTableRecord
100
AcDbLayerTableRecord
  2
17_NO_PRINT
 70
0
 62
7
  6
CONTINUOUS
370
-3
390
F
  0
LAYER
  5
20B
100
AcDbSymbolTableRecord
100
AcDbLayerTableRecord
  2
18_DATUM_CAMS_JOINTS
 70
0
 62
7
  6
CONTINUOUS
370
-3
390
F
  0
LAYER
  5
20C
100
AcDbSymbolTableRecord
100
AcDbLayerTableRecord
  2
19_DATUM_FUNCTIONAL
 70
0
 62
7
  6
CONTINUOUS
370
-3
390
F
  0
LAYER
  5
20D
100
AcDbSymbolTableRecord
100
AcDbLayerTableRecord
  2
20_DATUM_KINEMATIC_SCHEME
 70
0
 62
7
  6
CONTINUOUS
370
-3
390
F
  0
LAYER
  5
20E
100
AcDbSymbolTableRecord
100
AcDbLayerTableRecord
  2
3
 70
0
 62
7
  6
CONTINUOUS
370
-3
390
F
  0
LAYER
  5
20F
100
AcDbSymbolTableRecord
100
AcDbLayerTableRecord
  2
4
 70
0
 62
7
  6
CONTINUOUS
370
-3
390
F
  0
ENDTAB
  0
TABLE
  2
STYLE
  5
3
100
AcDbSymbolTable
 70
1
  0
STYLE
  5
11
100
AcDbSymbolTableRecord
100
AcDbTextStyleTableRecord
  2
STANDARD
 70
0
 40
0.0
 41
1.0
 50
0.0
 71
0
 42
0.2
  3
ARIAL.TTF
  4

  0
STYLE
  5
210
100
AcDbSymbolTableRecord
100
AcDbTextStyleTableRecord
  2
TEXTSTYLE_1
 70
0
 40
0.0
 41
0.8
 50
0.0
 71
0
 42
0.2
  3
gdt
  4

  0
ENDTAB
  0
TABLE
  2
VIEW
  5
6
100
AcDbSymbolTable
 70
0
  0
ENDTAB
  0
TABLE
  2
UCS
  5
7
100
AcDbSymbolTable
 70
0
  0
ENDTAB
  0
TABLE
  2
APPID
  5
9
100
AcDbSymbolTable
 70
1
  0
APPID
  5
211
100
AcDbSymbolTableRecord
100
AcDbRegAppTableRecord
  2
ACAD
 70
0
  0
ENDTAB
  0
TABLE
  2
BLOCK_RECORD
  5
1
100
AcDbSymbolTable
 70
0
  0
BLOCK_RECORD
  5
212
100
AcDbSymbolTableRecord
100
AcDbBlockTableRecord
  2
*Model_Space
  0
BLOCK_RECORD
  5
213
100
AcDbSymbolTableRecord
100
AcDbBlockTableRecord
  2
*Paper_Space
  0
BLOCK_RECORD
  5
214
100
AcDbSymbolTableRecord
100
AcDbBlockTableRecord
  2
_FILLED
  0
ENDTAB
  0
TABLE
  2
DIMSTYLE
  5
A
100
AcDbSymbolTable
 70
1
100
AcDbDimStyleTable
 71
0
  0
DIMSTYLE
105
215
100
AcDbSymbolTableRecord
100
AcDbDimStyleTableRecord
  2
STANDARD
 70
0
  3

  4

 40
1.0
 41
6.7707775289
 42
1.0
 43
0.38
 44
1.0
 45
0.0
 46
0.0
 47
0.01
 48
0.01
140
9.4790885405
141
0.09
142
0.0
143
25.4
144
1.0
145
0.0
146
1.0
147
0.625
 71
1
 72
0
 73
0
 74
0
 75
0
 76
0
 77
1
 78
8
 79
2
170
0
171
1
172
0
173
0
174
0
175
0
176
0
177
0
178
0
270
2
179
2
271
2
272
2
273
2
274
2
275
0
280
0
281
0
282
0
283
1
284
8
285
0
286
0
287
3
288
0
340
11
278
46
341
214
342
214
343
214
344
214
  0
ENDTAB
  0
ENDSEC
  0
SECTION
  2
BLOCKS
  0
BLOCK
  5
20
100
AcDbEntity
  8
0
100
AcDbBlockBegin
  2
*Model_Space
 70
0
 10
0.0
 20
0.0
 30
0.0
  3
*Model_Space
  1

  0
ENDBLK
  5
21
100
AcDbEntity
  8
0
100
AcDbBlockEnd
  0
BLOCK
  5
1C
100
AcDbEntity
  8
0
100
AcDbBlockBegin
  2
*Paper_Space
 70
0
 10
0.0
 20
0.0
 30
0.0
  3
*Paper_Space
  1

  0
ENDBLK
  5
1D
100
AcDbEntity
  8
0
100
AcDbBlockEnd
  0
BLOCK
  5
216
100
AcDbEntity
  8
0
100
AcDbBlockBegin
  2
_FILLED
 70
64
 10
0.0
 20
0.0
  3
_FILLED
  1

  0
SOLID
  5
217
100
AcDbEntity
  8
0
  6
BYBLOCK
 62
0
100
AcDbTrace
 10
0.0
 20
0.0
 11
-1.0
 21
0.25
 12
-1.0
 22
-0.25
 13
-1.0
 23
-0.25
  0
ENDBLK
  5
218
100
AcDbEntity
  8
0
  6
BYBLOCK
 62
0
100
AcDbBlockEnd
  0
ENDSEC
  0
SECTION
  2
ENTITIES
  0
LINE
  5
219
100
AcDbEntity
  8
0
100
AcDbLine
 62
7
  6
BYLAYER
 10
391.0295127482
 20
53.6573759959
 11
385.430089461
 21
53.6573759959
  0
LINE
  5
21A
100
AcDbEntity
  8
0
100
AcDbLine
 62
7
  6
BYLAYER
 10
349.0299877912
 20
53.6573759959
 11
343.4296144239
 21
53.6573759959
  0
LINE
  5
21B
100
AcDbEntity
  8
0
100
AcDbLine
 62
7
  6
BYLAYER
 10
243.3803818597
 20
53.6573759959
 11
237.7809585724
 21
53.6573759959
  0
LINE
  5
21C
100
AcDbEntity
  8
0
100
AcDbLine
 62
7
  6
BYLAYER
 10
201.3808569027
 20
53.6573759959
 11
195.7804835354
 21
53.6573759959
  0
LINE
  5
21D
100
AcDbEntity
  8
0
100
AcDbLine
 62
7
  6
BYLAYER
 10
195.5808571493
 20
53.7572658574
 11
196.4080629883
 21
53.7572658574
  0
LINE
  5
21E
100
AcDbEntity
  8
0
100
AcDbLine
 62
7
  6
BYLAYER
 10
201.7536513103
 20
53.7572658574
 11
237.4080629854
 21
53.7572658574
  0
LINE
  5
21F
100
AcDbEntity
  8
0
100
AcDbLine
 62
7
  6
BYLAYER
 10
242.7536513074
 20
53.7572658574
 11
243.5808571493
 21
53.7572658574
  0
LINE
  5
220
100
AcDbEntity
  8
0
100
AcDbLine
 62
7
  6
BYLAYER
 10
343.2299880378
 20
53.7572658574
 11
344.0571938769
 21
53.7572658574
  0
LINE
  5
221
100
AcDbEntity
  8
0
100
AcDbLine
 62
7
  6
BYLAYER
 10
349.4027821988
 20
53.7572658574
 11
385.057193874
 21
53.7572658574
  0
LINE
  5
222
100
AcDbEntity
  8
0
100
AcDbLine
 62
7
  6
BYLAYER
 10
390.4027821959
 20
53.7572658574
 11
391.2299880378
 21
53.7572658574
  0
LINE
  5
223
100
AcDbEntity
  8
0
100
AcDbLine
 62
7
  6
BYLAYER
 10
371.3714362181
 20
54.2572658574
 11
363.0895043836
 21
54.2572658574
  0
LINE
  5
224
100
AcDbEntity
  8
0
100
AcDbLine
 62
7
  6
BYLAYER
 10
223.7223053296
 20
54.2572658574
 11
215.4403734951
 21
54.2572658574
  0
LINE
  5
225
100
AcDbEntity
  8
0
100
AcDbLine
 62
7
  6
BYLAYER
 10
391.0299880349
 20
54.6573759959
 11
384.4299880349
 21
54.6573759959
  0
LINE
  5
226
100
AcDbEntity
  8
0
100
AcDbLine
 62
7
  6
BYLAYER
 10
350.0299880378
 20
54.6573759959
 11
343.4299880378
 21
54.6573759959
  0
LINE
  5
227
100
AcDbEntity
  8
0
100
AcDbLine
 62
7
  6
BYLAYER
 10
243.3808571464
 20
54.6573759959
 11
236.7808571464
 21
54.6573759959
  0
LINE
  5
228
100
AcDbEntity
  8
0
100
AcDbLine
 62
7
  6
BYLAYER
 10
202.3808571493
 20
54.6573759959
 11
195.7808571493
 21
54.6573759959
  0
LINE
  5
229
100
AcDbEntity
  8
0
100
AcDbLine
 62
7
  6
BYLAYER
 10
392.2299880378
 20
54.7572658574
 11
391.0299880349
 21
54.7572658574
  0
LINE
  5
22A
100
AcDbEntity
  8
0
100
AcDbLine
 62
7
  6
BYLAYER
 10
384.4299880349
 20
54.7572658574
 11
371.2299880378
 21
54.757265864
  0
LINE
  5
22B
100
AcDbEntity
  8
0
100
AcDbLine
 62
7
  6
BYLAYER
 10
363.2299880378
 20
54.7572658574
 11
350.0299880378
 21
54.7572658574
  0
LINE
  5
22C
100
AcDbEntity
  8
0
100
AcDbLine
 62
7
  6
BYLAYER
 10
343.4299880378
 20
54.7572658574
 11
342.2299880378
 21
54.7572658574
  0
LINE
  5
22D
100
AcDbEntity
  8
0
100
AcDbLine
 62
7
  6
BYLAYER
 10
244.5808571493
 20
54.7572658574
 11
243.3808571464
 21
54.7572658574
  0
LINE
  5
22E
100
AcDbEntity
  8
0
100
AcDbLine
 62
7
  6
BYLAYER
 10
236.7808571464
 20
54.7572658574
 11
223.5808571493
 21
54.757265864
  0
LINE
  5
22F
100
AcDbEntity
  8
0
100
AcDbLine
 62
7
  6
BYLAYER
 10
215.5808571493
 20
54.7572658574
 11
202.3808571493
 21
54.7572658574
  0
LINE
  5
230
100
AcDbEntity
  8
0
100
AcDbLine
 62
7
  6
BYLAYER
 10
195.7808571493
 20
54.7572658574
 11
194.5808571493
 21
54.7572658574
  0
LINE
  5
231
100
AcDbEntity
  8
0
100
AcDbLine
 62
7
  6
BYLAYER
 10
194.5808571493
 20
55.7572657885
 11
195.7808571493
 21
55.7572658574
  0
LINE
  5
232
100
AcDbEntity
  8
0
100
AcDbLine
 62
7
  6
BYLAYER
 10
202.3808571493
 20
55.7572658574
 11
203.5808571493
 21
55.7572657884
  0
LINE
  5
233
100
AcDbEntity
  8
0
100
AcDbLine
 62
7
  6
BYLAYER
 10
235.5808571493
 20
55.7572657885
 11
236.7808571464
 21
55.7572658574
  0
LINE
  5
234
100
AcDbEntity
  8
0
100
AcDbLine
 62
7
  6
BYLAYER
 10
243.3808571464
 20
55.7572658574
 11
244.5808571493
 21
55.7572657884
  0
LINE
  5
235
100
AcDbEntity
  8
0
100
AcDbLine
 62
7
  6
BYLAYER
 10
342.2299880378
 20
55.7572657885
 11
343.4299880378
 21
55.7572658574
  0
LINE
  5
236
100
AcDbEntity
  8
0
100
AcDbLine
 62
7
  6
BYLAYER
 10
350.0299880378
 20
55.7572658574
 11
351.2299880378
 21
55.7572657884
  0
LINE
  5
237
100
AcDbEntity
  8
0
100
AcDbLine
 62
7
  6
BYLAYER
 10
383.2299880378
 20
55.7572657885
 11
384.4299880349
 21
55.7572658574
  0
LINE
  5
238
100
AcDbEntity
  8
0
100
AcDbLine
 62
7
  6
BYLAYER
 10
391.0299880349
 20
55.7572658574
 11
392.2299880378
 21
55.7572657884
  0
LINE
  5
239
100
AcDbEntity
  8
0
100
AcDbLine
 62
7
  6
BYLAYER
 10
195.0808571493
 20
56.2572658574
 11
202.0808571493
 21
56.2572658574
  0
LINE
  5
23A
100
AcDbEntity
  8
0
100
AcDbLine
 62
7
  6
BYLAYER
 10
237.0808571493
 20
56.2572658574
 11
244.0808571493
 21
56.2572658574
  0
LINE
  5
23B
100
AcDbEntity
  8
0
100
AcDbLine
 62
7
  6
BYLAYER
 10
342.7299880378
 20
56.2572658574
 11
349.7299880378
 21
56.2572658574
  0
LINE
  5
23C
100
AcDbEntity
  8
0
100
AcDbLine
 62
7
  6
BYLAYER
 10
384.7299880378
 20
56.2572658574
 11
391.7299880378
 21
56.2572658574
  0
LINE
  5
23D
100
AcDbEntity
  8
0
100
AcDbLine
 62
7
  6
BYLAYER
 10
392.2299880378
 20
56.7572658574
 11
384.7299880378
 21
56.7572658574
  0
LINE
  5
23E
100
AcDbEntity
  8
0
100
AcDbLine
 62
7
  6
BYLAYER
 10
349.7299880378
 20
56.7572658574
 11
342.2299880378
 21
56.7572658574
  0
LINE
  5
23F
100
AcDbEntity
  8
0
100
AcDbLine
 62
7
  6
BYLAYER
 10
244.5808571493
 20
56.7572658574
 11
237.0808571493
 21
56.7572658574
  0
LINE
  5
240
100
AcDbEntity
  8
0
100
AcDbLine
 62
7
  6
BYLAYER
 10
202.0808571493
 20
56.7572658574
 11
194.5808571493
 21
56.7572658574
  0
LINE
  5
241
100
AcDbEntity
  8
0
100
AcDbLine
 62
7
  6
BYLAYER
 10
194.5808571493
 20
71.2572658574
 11
244.5808571493
 21
71.2572658574
  0
LINE
  5
242
100
AcDbEntity
  8
0
100
AcDbLine
 62
7
  6
BYLAYER
 10
342.2299880378
 20
71.2572658574
 11
392.2299880378
 21
71.2572658574
  0
LINE
  5
243
100
AcDbEntity
  8
3
100
AcDbLine
 62
7
  6
BYLAYER
 10
194.5803821063
 20
71.2573888044
 11
244.5803821063
 21
71.2573888044
  0
LINE
  5
244
100
AcDbEntity
  8
3
100
AcDbLine
 62
7
  6
BYLAYER
 10
342.2295129948
 20
71.2573888044
 11
392.2295129948
 21
71.2573888044
  0
LINE
  5
245
100
AcDbEntity
  8
0
100
AcDbLine
 62
7
  6
BYLAYER
 10
205.0801273597
 20
747.7573759959
 11
204.5801293383
 21
747.2573781544
  0
LINE
  5
246
100
AcDbEntity
  8
0
100
AcDbLine
 62
7
  6
BYLAYER
 10
203.3301293383
 20
743.7573759959
 11
202.8301293383
 21
743.2573759959
  0
LINE
  5
247
100
AcDbEntity
  8
0
100
AcDbLine
 62
7
  6
BYLAYER
 10
221.3301293383
 20
743.7573759959
 11
220.8301293383
 21
743.2573759959
  0
LINE
  5
248
100
AcDbEntity
  8
4
100
AcDbLine
 62
7
  6
BYLAYER
 10
184.3916364228
 20
98.6055511191
 11
229.3916364228
 21
98.6055511191
  0
LINE
  5
249
100
AcDbEntity
  8
3
100
AcDbLine
 62
7
  6
BYLAYER
 10
332.0407673113
 20
98.6055511191
 11
377.0407673113
 21
98.6055511191
  0
LINE
  5
24A
100
AcDbEntity
  8
3
100
AcDbLine
 62
7
  6
BYLAYER
 10
335.0407673113
 20
103.6055511191
 11
332.0407673113
 21
103.6055511191
  0
LINE
  5
24B
100
AcDbEntity
  8
4
100
AcDbLine
 62
7
  6
BYLAYER
 10
187.3916364228
 20
103.6055511191
 11
184.3916364228
 21
103.6055511191
  0
LINE
  5
24C
100
AcDbEntity
  8
3
100
AcDbLine
 62
7
  6
BYLAYER
 10
369.9299880364
 20
103.9290139387
 11
364.5299880364
 21
103.9290139387
  0
LINE
  5
24D
100
AcDbEntity
  8
4
100
AcDbLine
 62
7
  6
BYLAYER
 10
222.2808571479
 20
103.9290139387
 11
216.8808571479
 21
103.9290139387
  0
LINE
  5
24E
100
AcDbEntity
  8
4
100
AcDbLine
 62
7
  6
BYLAYER
 10
212.6916364228
 20
105.3555511191
 11
214.176547679
 21
105.3555511191
  0
LINE
  5
24F
100
AcDbEntity
  8
4
100
AcDbLine
 62
7
  6
BYLAYER
 10
224.9848290771
 20
105.3555511191
 11
226.1916364228
 21
105.3555511191
  0
LINE
  5
250
100
AcDbEntity
  8
3
100
AcDbLine
 62
7
  6
BYLAYER
 10
360.3407673113
 20
105.3555511191
 11
361.8256785675
 21
105.3555511191
  0
LINE
  5
251
100
AcDbEntity
  8
3
100
AcDbLine
 62
7
  6
BYLAYER
 10
372.6339599656
 20
105.3555511191
 11
373.8407673113
 21
105.3555511191
  0
LINE
  5
252
100
AcDbEntity
  8
3
100
AcDbLine
 62
7
  6
BYLAYER
 10
373.8407673113
 20
111.8555511191
 11
372.6342975052
 21
111.8555511191
  0
LINE
  5
253
100
AcDbEntity
  8
3
100
AcDbLine
 62
7
  6
BYLAYER
 10
361.8260161072
 20
111.8555511191
 11
360.3407673113
 21
111.8555511191
  0
LINE
  5
254
100
AcDbEntity
  8
4
100
AcDbLine
 62
7
  6
BYLAYER
 10
226.1916364228
 20
111.8555511191
 11
224.9851666167
 21
111.8555511191
  0
LINE
  5
255
100
AcDbEntity
  8
4
100
AcDbLine
 62
7
  6
BYLAYER
 10
214.1768852186
 20
111.8555511191
 11
212.6916364228
 21
111.8555511191
  0
LINE
  5
256
100
AcDbEntity
  8
4
100
AcDbLine
 62
7
  6
BYLAYER
 10
216.8808571479
 20
113.2820882995
 11
222.2808571479
 21
113.2820882995
  0
LINE
  5
257
100
AcDbEntity
  8
3
100
AcDbLine
 62
7
  6
BYLAYER
 10
364.5299880364
 20
113.2820882995
 11
369.9299880364
 21
113.2820882995
  0
LINE
  5
258
100
AcDbEntity
  8
3
100
AcDbLine
 62
7
  6
BYLAYER
 10
369.9299880364
 20
133.9290139387
 11
364.5299880364
 21
133.9290139387
  0
LINE
  5
259
100
AcDbEntity
  8
4
100
AcDbLine
 62
7
  6
BYLAYER
 10
222.2808571479
 20
133.9290139387
 11
216.8808571479
 21
133.9290139387
  0
LINE
  5
25A
100
AcDbEntity
  8
4
100
AcDbLine
 62
7
  6
BYLAYER
 10
212.6916364228
 20
135.3555511191
 11
214.176547679
 21
135.3555511191
  0
LINE
  5
25B
100
AcDbEntity
  8
4
100
AcDbLine
 62
7
  6
BYLAYER
 10
224.9848290771
 20
135.3555511191
 11
226.1916364228
 21
135.3555511191
  0
LINE
  5
25C
100
AcDbEntity
  8
3
100
AcDbLine
 62
7
  6
BYLAYER
 10
360.3407673113
 20
135.3555511191
 11
361.8256785675
 21
135.3555511191
  0
LINE
  5
25D
100
AcDbEntity
  8
3
100
AcDbLine
 62
7
  6
BYLAYER
 10
372.6339599656
 20
135.3555511191
 11
373.8407673113
 21
135.3555511191
  0
LINE
  5
25E
100
AcDbEntity
  8
3
100
AcDbLine
 62
7
  6
BYLAYER
 10
373.8407673113
 20
141.8555511191
 11
372.6342975052
 21
141.8555511191
  0
LINE
  5
25F
100
AcDbEntity
  8
3
100
AcDbLine
 62
7
  6
BYLAYER
 10
361.8260161072
 20
141.8555511191
 11
360.3407673113
 21
141.8555511191
  0
LINE
  5
260
100
AcDbEntity
  8
4
100
AcDbLine
 62
7
  6
BYLAYER
 10
226.1916364228
 20
141.8555511191
 11
224.9851666167
 21
141.8555511191
  0
LINE
  5
261
100
AcDbEntity
  8
4
100
AcDbLine
 62
7
  6
BYLAYER
 10
214.1768852186
 20
141.8555511191
 11
212.6916364228
 21
141.8555511191
  0
LINE
  5
262
100
AcDbEntity
  8
4
100
AcDbLine
 62
7
  6
BYLAYER
 10
216.8808571479
 20
143.2820882995
 11
222.2808571479
 21
143.2820882995
  0
LINE
  5
263
100
AcDbEntity
  8
3
100
AcDbLine
 62
7
  6
BYLAYER
 10
364.5299880364
 20
143.2820882995
 11
369.9299880364
 21
143.2820882995
  0
LINE
  5
264
100
AcDbEntity
  8
4
100
AcDbLine
 62
7
  6
BYLAYER
 10
184.3916364228
 20
143.6055511191
 11
187.3916364228
 21
143.6055511191
  0
LINE
  5
265
100
AcDbEntity
  8
3
100
AcDbLine
 62
7
  6
BYLAYER
 10
332.0407673113
 20
143.6055511191
 11
335.0407673113
 21
143.6055511191
  0
LINE
  5
266
100
AcDbEntity
  8
4
100
AcDbLine
 62
7
  6
BYLAYER
 10
184.3916364228
 20
148.6055511191
 11
229.3916364228
 21
148.6055511191
  0
LINE
  5
267
100
AcDbEntity
  8
3
100
AcDbLine
 62
7
  6
BYLAYER
 10
332.0407673113
 20
148.6055511191
 11
377.0407673113
 21
148.6055511191
  0
LINE
  5
268
100
AcDbEntity
  8
4
100
AcDbLine
 62
7
  6
BYLAYER
 10
216.8808571479
 20
689.6169907604
 11
214.1808571479
 21
684.9404535799
  0
LINE
  5
269
100
AcDbEntity
  8
4
100
AcDbLine
 62
7
  6
BYLAYER
 10
222.2808571479
 20
680.2639163995
 11
224.9808571479
 21
684.9404535799
  0
LINE
  5
26A
100
AcDbEntity
  8
4
100
AcDbLine
 62
7
  6
BYLAYER
 10
216.8808571479
 20
659.6169907604
 11
214.1808571479
 21
654.9404535799
  0
LINE
  5
26B
100
AcDbEntity
  8
0
100
AcDbLine
 62
7
  6
BYLAYER
 10
352.7292582482
 20
747.7573759959
 11
352.2292602268
 21
747.2573781544
  0
LINE
  5
26C
100
AcDbEntity
  8
0
100
AcDbLine
 62
7
  6
BYLAYER
 10
350.9792602268
 20
743.7573759959
 11
350.4792602268
 21
743.2573759959
  0
LINE
  5
26D
100
AcDbEntity
  8
4
100
AcDbLine
 62
7
  6
BYLAYER
 10
214.1808571479
 20
108.6055511191
 11
216.8808571479
 21
103.9290139387
  0
LINE
  5
26E
100
AcDbEntity
  8
4
100
AcDbLine
 62
7
  6
BYLAYER
 10
224.9808571479
 20
108.6055511191
 11
222.2808571479
 21
113.2820882995
  0
LINE
  5
26F
100
AcDbEntity
  8
4
100
AcDbLine
 62
7
  6
BYLAYER
 10
214.1808571479
 20
138.6055511191
 11
216.8808571479
 21
133.9290139387
  0
LINE
  5
270
100
AcDbEntity
  8
4
100
AcDbLine
 62
7
  6
BYLAYER
 10
222.2808571479
 20
650.2639163995
 11
224.9808571479
 21
654.9404535799
  0
LINE
  5
271
100
AcDbEntity
  8
0
100
AcDbLine
 62
7
  6
BYLAYER
 10
368.9792602268
 20
743.7573759959
 11
368.4792602268
 21
743.2573759959
  0
LINE
  5
272
100
AcDbEntity
  8
4
100
AcDbLine
 62
7
  6
BYLAYER
 10
224.9808571479
 20
138.6055511191
 11
222.2808571479
 21
143.2820882995
  0
LINE
  5
273
100
AcDbEntity
  8
4
100
AcDbLine
 62
7
  6
BYLAYER
 10
184.3916364228
 20
98.6055511191
 11
184.3916364228
 21
148.6055511191
  0
LINE
  5
274
100
AcDbEntity
  8
4
100
AcDbLine
 62
7
  6
BYLAYER
 10
184.3916364228
 20
644.9404535799
 11
184.3916364228
 21
694.9404535799
  0
LINE
  5
275
100
AcDbEntity
  8
4
100
AcDbLine
 62
7
  6
BYLAYER
 10
187.3916364228
 20
694.9404535799
 11
187.3916364228
 21
644.9404535799
  0
LINE
  5
276
100
AcDbEntity
  8
4
100
AcDbLine
 62
7
  6
BYLAYER
 10
187.3916364228
 20
148.6055511191
 11
187.3916364228
 21
98.6055511191
  0
LINE
  5
277
100
AcDbEntity
  8
4
100
AcDbLine
 62
7
  6
BYLAYER
 10
191.3916364228
 20
98.6055511191
 11
191.3916364228
 21
148.6055511191
  0
LINE
  5
278
100
AcDbEntity
  8
4
100
AcDbLine
 62
7
  6
BYLAYER
 10
191.3916364228
 20
644.9404535799
 11
191.3916364228
 21
694.9404535799
  0
LINE
  5
279
100
AcDbEntity
  8
0
100
AcDbLine
 62
7
  6
BYLAYER
 10
194.5801293383
 20
736.2573759959
 11
194.5801293383
 21
734.2693097016
  0
LINE
  5
27A
100
AcDbEntity
  8
0
100
AcDbLine
 62
7
  6
BYLAYER
 10
194.5801293383
 20
734.2573759959
 11
194.5801293383
 21
719.7573759959
  0
LINE
  5
27B
100
AcDbEntity
  8
3
100
AcDbLine
 62
7
  6
BYLAYER
 10
194.5803821063
 20
719.7573888044
 11
194.5803821063
 21
694.9404535799
  0
LINE
  5
27C
100
AcDbEntity
  8
3
100
AcDbLine
 62
7
  6
BYLAYER
 10
194.5803821063
 20
644.9404535799
 11
194.5803821063
 21
148.6055511191
  0
LINE
  5
27D
100
AcDbEntity
  8
3
100
AcDbLine
 62
7
  6
BYLAYER
 10
194.5803821063
 20
98.6055511191
 11
194.5803821063
 21
71.2573888044
  0
LINE
  5
27E
100
AcDbEntity
  8
0
100
AcDbLine
 62
7
  6
BYLAYER
 10
194.5808571493
 20
54.7572658574
 11
194.5808571493
 21
71.2572658574
  0
LINE
  5
27F
100
AcDbEntity
  8
0
100
AcDbLine
 62
7
  6
BYLAYER
 10
195.5801293366
 20
735.2573759959
 11
195.5801293383
 21
737.2573759959
  0
LINE
  5
280
100
AcDbEntity
  8
0
100
AcDbLine
 62
7
  6
BYLAYER
 10
195.5808571493
 20
53.7572658574
 11
195.5808571476
 21
55.7572658574
  0
LINE
  5
281
100
AcDbEntity
  8
0
100
AcDbLine
 62
7
  6
BYLAYER
 10
195.7801293383
 20
734.7573759959
 11
195.7801293383
 21
736.3573759959
  0
LINE
  5
282
100
AcDbEntity
  8
0
100
AcDbLine
 62
7
  6
BYLAYER
 10
195.7808571493
 20
54.6573759959
 11
195.7808571493
 21
56.2573759959
  0
LINE
  5
283
100
AcDbEntity
  8
0
100
AcDbLine
 62
7
  6
BYLAYER
 10
198.5801293383
 20
719.7573759959
 11
198.5801293383
 21
734.7573759959
  0
LINE
  5
284
100
AcDbEntity
  8
3
100
AcDbLine
 62
7
  6
BYLAYER
 10
198.5803821063
 20
71.2573888044
 11
198.5803821063
 21
98.6055511191
  0
LINE
  5
285
100
AcDbEntity
  8
3
100
AcDbLine
 62
7
  6
BYLAYER
 10
198.5803821063
 20
148.6055511191
 11
198.5803821063
 21
644.9404535799
  0
LINE
  5
286
100
AcDbEntity
  8
3
100
AcDbLine
 62
7
  6
BYLAYER
 10
198.5803821063
 20
694.9404535799
 11
198.5803821063
 21
719.7573888044
  0
LINE
  5
287
100
AcDbEntity
  8
0
100
AcDbLine
 62
7
  6
BYLAYER
 10
198.5808571493
 20
56.2572658574
 11
198.5808571493
 21
71.2572658574
  0
LINE
  5
288
100
AcDbEntity
  8
0
100
AcDbLine
 62
7
  6
BYLAYER
 10
202.0801292654
 20
734.7573759959
 11
202.0801292654
 21
734.2573759959
  0
LINE
  5
289
100
AcDbEntity
  8
0
100
AcDbLine
 62
7
  6
BYLAYER
 10
202.0808570768
 20
56.7572658574
 11
202.0808570768
 21
56.2572658574
  0
LINE
  5
28A
100
AcDbEntity
  8
0
100
AcDbLine
 62
7
  6
BYLAYER
 10
202.3801293383
 20
736.3573759959
 11
202.3801293383
 21
734.8615584307
  0
LINE
  5
28B
100
AcDbEntity
  8
0
100
AcDbLine
 62
7
  6
BYLAYER
 10
202.3808571493
 20
56.1531988632
 11
202.3808571493
 21
54.6573759959
  0
LINE
  5
28C
100
AcDbEntity
  8
0
100
AcDbLine
 62
7
  6
BYLAYER
 10
202.5801293383
 20
736.2573759959
 11
202.5801293383
 21
735.2573759959
  0
LINE
  5
28D
100
AcDbEntity
  8
0
100
AcDbLine
 62
7
  6
BYLAYER
 10
202.5808571493
 20
55.7572658574
 11
202.5808571493
 21
54.7572658574
  0
LINE
  5
28E
100
AcDbEntity
  8
0
100
AcDbLine
 62
7
  6
BYLAYER
 10
202.8301293383
 20
737.2573759959
 11
202.8301293383
 21
743.2573759959
  0
LINE
  5
28F
100
AcDbEntity
  8
0
100
AcDbLine
 62
7
  6
BYLAYER
 10
203.5801293383
 20
735.2573759959
 11
203.5801293383
 21
737.2573759959
  0
LINE
  5
290
100
AcDbEntity
  8
0
100
AcDbLine
 62
7
  6
BYLAYER
 10
203.5808571493
 20
53.7572658574
 11
203.5808571493
 21
55.7572658574
  0
LINE
  5
291
100
AcDbEntity
  8
0
100
AcDbLine
 62
7
  6
BYLAYER
 10
204.5801293383
 20
743.7573759959
 11
204.5801293383
 21
747.2573750584
  0
LINE
  5
292
100
AcDbEntity
  8
0
100
AcDbLine
 62
7
  6
BYLAYER
 10
206.4559093383
 20
744.9573759959
 11
206.4559093383
 21
743.7573759959
  0
LINE
  5
293
100
AcDbEntity
  8
0
100
AcDbLine
 62
7
  6
BYLAYER
 10
214.7059093383
 20
744.9573759959
 11
214.7059093383
 21
743.7573759959
  0
LINE
  5
294
100
AcDbEntity
  8
0
100
AcDbLine
 62
7
  6
BYLAYER
 10
215.0801293383
 20
736.2573759959
 11
215.0801293383
 21
719.7573759959
  0
LINE
  5
295
100
AcDbEntity
  8
3
100
AcDbLine
 62
7
  6
BYLAYER
 10
215.0803821063
 20
719.7573888044
 11
215.0803821063
 21
694.9404535799
  0
LINE
  5
296
100
AcDbEntity
  8
3
100
AcDbLine
 62
7
  6
BYLAYER
 10
215.0803821063
 20
644.9404535799
 11
215.0803821063
 21
148.6055511191
  0
LINE
  5
297
100
AcDbEntity
  8
3
100
AcDbLine
 62
7
  6
BYLAYER
 10
215.0803821063
 20
98.6055511191
 11
215.0803821063
 21
71.2573888044
  0
LINE
  5
298
100
AcDbEntity
  8
0
100
AcDbLine
 62
7
  6
BYLAYER
 10
215.0808571493
 20
71.2572658574
 11
215.0808571493
 21
54.7572658574
  0
LINE
  5
299
100
AcDbEntity
  8
0
100
AcDbLine
 62
7
  6
BYLAYER
 10
215.5801293383
 20
719.7573759959
 11
215.5801293383
 21
736.2573759958
  0
LINE
  5
29A
100
AcDbEntity
  8
3
100
AcDbLine
 62
7
  6
BYLAYER
 10
215.5803821063
 20
71.2573888044
 11
215.5803821063
 21
98.6055511191
  0
LINE
  5
29B
100
AcDbEntity
  8
3
100
AcDbLine
 62
7
  6
BYLAYER
 10
215.5803821063
 20
148.6055511191
 11
215.5803821063
 21
644.9404535799
  0
LINE
  5
29C
100
AcDbEntity
  8
3
100
AcDbLine
 62
7
  6
BYLAYER
 10
215.5803821063
 20
694.9404535799
 11
215.5803821063
 21
719.7573888044
  0
LINE
  5
29D
100
AcDbEntity
  8
0
100
AcDbLine
 62
7
  6
BYLAYER
 10
215.5808571493
 20
54.7572658574
 11
215.5808571493
 21
71.2572658574
  0
LINE
  5
29E
100
AcDbEntity
  8
0
100
AcDbLine
 62
7
  6
BYLAYER
 10
216.5801293383
 20
747.2573750584
 11
216.5801293383
 21
743.7573759959
  0
LINE
  5
29F
100
AcDbEntity
  8
0
100
AcDbLine
 62
7
  6
BYLAYER
 10
218.3301293383
 20
737.2573759959
 11
218.3301293383
 21
743.2573759959
  0
LINE
  5
2A0
100
AcDbEntity
  8
3
100
AcDbLine
 62
7
  6
BYLAYER
 10
364.5299880364
 20
689.6169907604
 11
361.8299880364
 21
684.9404535799
  0
LINE
  5
2A1
100
AcDbEntity
  8
3
100
AcDbLine
 62
7
  6
BYLAYER
 10
361.8299880364
 20
108.6055511191
 11
364.5299880364
 21
103.9290139387
  0
LINE
  5
2A2
100
AcDbEntity
  8
3
100
AcDbLine
 62
7
  6
BYLAYER
 10
372.6299880364
 20
108.6055511191
 11
369.9299880364
 21
113.2820882995
  0
LINE
  5
2A3
100
AcDbEntity
  8
0
100
AcDbLine
 62
7
  6
BYLAYER
 10
220.8301293383
 20
737.2573759959
 11
220.8301293383
 21
743.2573759959
  0
LINE
  5
2A4
100
AcDbEntity
  8
0
100
AcDbLine
 62
7
  6
BYLAYER
 10
223.5801293383
 20
736.2573759958
 11
223.5801293383
 21
719.7573759959
  0
LINE
  5
2A5
100
AcDbEntity
  8
3
100
AcDbLine
 62
7
  6
BYLAYER
 10
223.5803821063
 20
719.7573888044
 11
223.5803821063
 21
694.9404535799
  0
LINE
  5
2A6
100
AcDbEntity
  8
3
100
AcDbLine
 62
7
  6
BYLAYER
 10
223.5803821063
 20
644.9404535799
 11
223.5803821063
 21
148.6055511191
  0
LINE
  5
2A7
100
AcDbEntity
  8
3
100
AcDbLine
 62
7
  6
BYLAYER
 10
223.5803821063
 20
98.6055511191
 11
223.5803821063
 21
71.2573888044
  0
LINE
  5
2A8
100
AcDbEntity
  8
0
100
AcDbLine
 62
7
  6
BYLAYER
 10
223.5808571493
 20
71.2572658574
 11
223.5808571493
 21
54.7572658574
  0
LINE
  5
2A9
100
AcDbEntity
  8
0
100
AcDbLine
 62
7
  6
BYLAYER
 10
224.0801293383
 20
719.7573759959
 11
224.0801293383
 21
736.2573759959
  0
LINE
  5
2AA
100
AcDbEntity
  8
3
100
AcDbLine
 62
7
  6
BYLAYER
 10
224.0803821063
 20
71.2573888044
 11
224.0803821063
 21
98.6055511191
  0
LINE
  5
2AB
100
AcDbEntity
  8
3
100
AcDbLine
 62
7
  6
BYLAYER
 10
224.0803821063
 20
148.6055511191
 11
224.0803821063
 21
644.9404535799
  0
LINE
  5
2AC
100
AcDbEntity
  8
3
100
AcDbLine
 62
7
  6
BYLAYER
 10
224.0803821063
 20
694.9404535799
 11
224.0803821063
 21
719.7573888044
  0
LINE
  5
2AD
100
AcDbEntity
  8
0
100
AcDbLine
 62
7
  6
BYLAYER
 10
224.0808571493
 20
54.7572658574
 11
224.0808571493
 21
71.2572658574
  0
LINE
  5
2AE
100
AcDbEntity
  8
0
100
AcDbLine
 62
7
  6
BYLAYER
 10
224.4568893383
 20
744.9573759959
 11
224.4568893383
 21
743.7573759959
  0
LINE
  5
2AF
100
AcDbEntity
  8
0
100
AcDbLine
 62
7
  6
BYLAYER
 10
232.7068893383
 20
744.9573759959
 11
232.7068893383
 21
743.7573759959
  0
LINE
  5
2B0
100
AcDbEntity
  8
4
100
AcDbLine
 62
7
  6
BYLAYER
 10
234.3916364228
 20
689.9404535799
 11
234.3916364228
 21
649.9404535799
  0
LINE
  5
2B1
100
AcDbEntity
  8
4
100
AcDbLine
 62
7
  6
BYLAYER
 10
234.3916364228
 20
143.6055511191
 11
234.3916364228
 21
103.6055511191
  0
LINE
  5
2B2
100
AcDbEntity
  8
0
100
AcDbLine
 62
7
  6
BYLAYER
 10
235.5801293383
 20
737.2573759959
 11
235.5801293383
 21
735.2573759959
  0
LINE
  5
2B3
100
AcDbEntity
  8
0
100
AcDbLine
 62
7
  6
BYLAYER
 10
235.5808571493
 20
55.7572658574
 11
235.5808571493
 21
53.7572658574
  0
LINE
  5
2B4
100
AcDbEntity
  8
0
100
AcDbLine
 62
7
  6
BYLAYER
 10
236.3301293383
 20
737.2573759959
 11
236.3301293383
 21
743.2573759959
  0
LINE
  5
2B5
100
AcDbEntity
  8
0
100
AcDbLine
 62
7
  6
BYLAYER
 10
236.5801293383
 20
735.2573759959
 11
236.5801293383
 21
736.2573759959
  0
LINE
  5
2B6
100
AcDbEntity
  8
0
100
AcDbLine
 62
7
  6
BYLAYER
 10
236.5808571493
 20
54.7572658574
 11
236.5808571493
 21
55.7572658574
  0
LINE
  5
2B7
100
AcDbEntity
  8
0
100
AcDbLine
 62
7
  6
BYLAYER
 10
236.7801293383
 20
734.8614429899
 11
236.7801293383
 21
736.3573759959
  0
LINE
  5
2B8
100
AcDbEntity
  8
0
100
AcDbLine
 62
7
  6
BYLAYER
 10
236.7808571464
 20
54.6573759959
 11
236.7808571464
 21
56.1530834207
  0
LINE
  5
2B9
100
AcDbEntity
  8
0
100
AcDbLine
 62
7
  6
BYLAYER
 10
237.0801294108
 20
734.2573759959
 11
237.0801294108
 21
734.7573759959
  0
LINE
  5
2BA
100
AcDbEntity
  8
0
100
AcDbLine
 62
7
  6
BYLAYER
 10
237.0808572222
 20
56.2572658574
 11
237.0808572222
 21
56.7572658574
  0
LINE
  5
2BB
100
AcDbEntity
  8
0
100
AcDbLine
 62
7
  6
BYLAYER
 10
240.5801293383
 20
734.7573759959
 11
240.5801293383
 21
719.7573759959
  0
LINE
  5
2BC
100
AcDbEntity
  8
3
100
AcDbLine
 62
7
  6
BYLAYER
 10
240.5803821063
 20
719.7573888044
 11
240.5803821063
 21
71.2573888044
  0
LINE
  5
2BD
100
AcDbEntity
  8
0
100
AcDbLine
 62
7
  6
BYLAYER
 10
240.5808571493
 20
71.2572658574
 11
240.5808571493
 21
56.2572658574
  0
LINE
  5
2BE
100
AcDbEntity
  8
3
100
AcDbLine
 62
7
  6
BYLAYER
 10
369.9299880364
 20
680.2639163995
 11
372.6299880364
 21
684.9404535799
  0
LINE
  5
2BF
100
AcDbEntity
  8
3
100
AcDbLine
 62
7
  6
BYLAYER
 10
364.5299880364
 20
659.6169907604
 11
361.8299880364
 21
654.9404535799
  0
LINE
  5
2C0
100
AcDbEntity
  8
3
100
AcDbLine
 62
7
  6
BYLAYER
 10
369.9299880364
 20
650.2639163995
 11
372.6299880364
 21
654.9404535799
  0
LINE
  5
2C1
100
AcDbEntity
  8
3
100
AcDbLine
 62
7
  6
BYLAYER
 10
361.8299880364
 20
138.6055511191
 11
364.5299880364
 21
133.9290139387
  0
LINE
  5
2C2
100
AcDbEntity
  8
3
100
AcDbLine
 62
7
  6
BYLAYER
 10
372.6299880364
 20
138.6055511191
 11
369.9299880364
 21
143.2820882995
  0
LINE
  5
2C3
100
AcDbEntity
  8
0
100
AcDbLine
 62
7
  6
BYLAYER
 10
243.3801293383
 20
736.3573759959
 11
243.3801293383
 21
734.7573759959
  0
LINE
  5
2C4
100
AcDbEntity
  8
0
100
AcDbLine
 62
7
  6
BYLAYER
 10
243.3808571464
 20
56.2573759959
 11
243.3808571464
 21
54.6573759959
  0
LINE
  5
2C5
100
AcDbEntity
  8
0
100
AcDbLine
 62
7
  6
BYLAYER
 10
243.5801293383
 20
737.2573759959
 11
243.58012934
 21
735.2573759959
  0
LINE
  5
2C6
100
AcDbEntity
  8
0
100
AcDbLine
 62
7
  6
BYLAYER
 10
243.580857151
 20
55.7572658574
 11
243.5808571493
 21
53.7572658574
  0
LINE
  5
2C7
100
AcDbEntity
  8
0
100
AcDbLine
 62
7
  6
BYLAYER
 10
244.5801293383
 20
719.7573759959
 11
244.5801293383
 21
736.2573759959
  0
LINE
  5
2C8
100
AcDbEntity
  8
3
100
AcDbLine
 62
7
  6
BYLAYER
 10
244.5803821063
 20
71.2573888044
 11
244.5803821063
 21
719.7573888044
  0
LINE
  5
2C9
100
AcDbEntity
  8
0
100
AcDbLine
 62
7
  6
BYLAYER
 10
244.5808571493
 20
54.7572658574
 11
244.5808571493
 21
71.2572658574
  0
LINE
  5
2CA
100
AcDbEntity
  8
3
100
AcDbLine
 62
7
  6
BYLAYER
 10
332.0407673113
 20
98.6055511191
 11
332.0407673113
 21
148.6055511191
  0
LINE
  5
2CB
100
AcDbEntity
  8
3
100
AcDbLine
 62
7
  6
BYLAYER
 10
332.0407673113
 20
644.9404535799
 11
332.0407673113
 21
694.9404535799
  0
LINE
  5
2CC
100
AcDbEntity
  8
3
100
AcDbLine
 62
7
  6
BYLAYER
 10
335.0407673113
 20
694.9404535799
 11
335.0407673113
 21
644.9404535799
  0
LINE
  5
2CD
100
AcDbEntity
  8
3
100
AcDbLine
 62
7
  6
BYLAYER
 10
335.0407673113
 20
148.6055511191
 11
335.0407673113
 21
98.6055511191
  0
LINE
  5
2CE
100
AcDbEntity
  8
3
100
AcDbLine
 62
7
  6
BYLAYER
 10
339.0407673113
 20
98.6055511191
 11
339.0407673113
 21
148.6055511191
  0
LINE
  5
2CF
100
AcDbEntity
  8
3
100
AcDbLine
 62
7
  6
BYLAYER
 10
339.0407673113
 20
644.9404535799
 11
339.0407673113
 21
694.9404535799
  0
LINE
  5
2D0
100
AcDbEntity
  8
0
100
AcDbLine
 62
7
  6
BYLAYER
 10
342.2292602268
 20
736.2573759959
 11
342.2292602268
 21
734.2692263273
  0
LINE
  5
2D1
100
AcDbEntity
  8
0
100
AcDbLine
 62
7
  6
BYLAYER
 10
342.2292602268
 20
734.2573759959
 11
342.2292602268
 21
719.7573759959
  0
LINE
  5
2D2
100
AcDbEntity
  8
3
100
AcDbLine
 62
7
  6
BYLAYER
 10
342.2295129948
 20
719.7573888044
 11
342.2295129948
 21
694.9404535799
  0
LINE
  5
2D3
100
AcDbEntity
  8
3
100
AcDbLine
 62
7
  6
BYLAYER
 10
342.2295129948
 20
644.9404535799
 11
342.2295129948
 21
148.6055511191
  0
LINE
  5
2D4
100
AcDbEntity
  8
3
100
AcDbLine
 62
7
  6
BYLAYER
 10
342.2295129948
 20
98.6055511191
 11
342.2295129948
 21
71.2573888044
  0
LINE
  5
2D5
100
AcDbEntity
  8
0
100
AcDbLine
 62
7
  6
BYLAYER
 10
342.2299880378
 20
54.7572658574
 11
342.2299880378
 21
71.2572658574
  0
LINE
  5
2D6
100
AcDbEntity
  8
0
100
AcDbLine
 62
7
  6
BYLAYER
 10
343.2292602251
 20
735.2573759959
 11
343.2292602268
 21
737.2573759959
  0
LINE
  5
2D7
100
AcDbEntity
  8
0
100
AcDbLine
 62
7
  6
BYLAYER
 10
343.2299880378
 20
53.7572658574
 11
343.2299880361
 21
55.7572658574
  0
LINE
  5
2D8
100
AcDbEntity
  8
0
100
AcDbLine
 62
7
  6
BYLAYER
 10
343.4292602268
 20
734.7573759959
 11
343.4292602268
 21
736.3573759959
  0
LINE
  5
2D9
100
AcDbEntity
  8
0
100
AcDbLine
 62
7
  6
BYLAYER
 10
343.4299880378
 20
54.6573759959
 11
343.4299880378
 21
56.2573759959
  0
LINE
  5
2DA
100
AcDbEntity
  8
0
100
AcDbLine
 62
7
  6
BYLAYER
 10
346.2292602268
 20
719.7573759959
 11
346.2292602268
 21
734.7573759959
  0
LINE
  5
2DB
100
AcDbEntity
  8
3
100
AcDbLine
 62
7
  6
BYLAYER
 10
346.2295129948
 20
71.2573888044
 11
346.2295129948
 21
98.6055511191
  0
LINE
  5
2DC
100
AcDbEntity
  8
3
100
AcDbLine
 62
7
  6
BYLAYER
 10
346.2295129948
 20
148.6055511191
 11
346.2295129948
 21
644.9404535799
  0
LINE
  5
2DD
100
AcDbEntity
  8
3
100
AcDbLine
 62
7
  6
BYLAYER
 10
346.2295129948
 20
694.9404535799
 11
346.2295129948
 21
719.7573888044
  0
LINE
  5
2DE
100
AcDbEntity
  8
0
100
AcDbLine
 62
7
  6
BYLAYER
 10
346.2299880378
 20
56.2572658574
 11
346.2299880378
 21
71.2572658574
  0
LINE
  5
2DF
100
AcDbEntity
  8
0
100
AcDbLine
 62
7
  6
BYLAYER
 10
349.729260154
 20
734.7573759959
 11
349.729260154
 21
734.2573759959
  0
LINE
  5
2E0
100
AcDbEntity
  8
0
100
AcDbLine
 62
7
  6
BYLAYER
 10
349.7299879653
 20
56.7572658574
 11
349.7299879653
 21
56.2572658574
  0
LINE
  5
2E1
100
AcDbEntity
  8
0
100
AcDbLine
 62
7
  6
BYLAYER
 10
350.0292602268
 20
736.3573759959
 11
350.0292602268
 21
734.8615584307
  0
LINE
  5
2E2
100
AcDbEntity
  8
0
100
AcDbLine
 62
7
  6
BYLAYER
 10
350.0299880378
 20
56.1531988632
 11
350.0299880378
 21
54.6573759959
  0
LINE
  5
2E3
100
AcDbEntity
  8
0
100
AcDbLine
 62
7
  6
BYLAYER
 10
350.2292602268
 20
736.2573759959
 11
350.2292602268
 21
735.2573759959
  0
LINE
  5
2E4
100
AcDbEntity
  8
0
100
AcDbLine
 62
7
  6
BYLAYER
 10
350.2299880378
 20
55.7572658574
 11
350.2299880378
 21
54.7572658574
  0
LINE
  5
2E5
100
AcDbEntity
  8
0
100
AcDbLine
 62
7
  6
BYLAYER
 10
350.4792602268
 20
737.2573759959
 11
350.4792602268
 21
743.2573759959
  0
LINE
  5
2E6
100
AcDbEntity
  8
0
100
AcDbLine
 62
7
  6
BYLAYER
 10
351.2292602268
 20
735.2573759959
 11
351.2292602268
 21
737.2573759959
  0
LINE
  5
2E7
100
AcDbEntity
  8
0
100
AcDbLine
 62
7
  6
BYLAYER
 10
351.2299880378
 20
53.7572658574
 11
351.2299880378
 21
55.7572658574
  0
LINE
  5
2E8
100
AcDbEntity
  8
0
100
AcDbLine
 62
7
  6
BYLAYER
 10
352.2292602268
 20
743.7573759959
 11
352.2292602268
 21
747.2573750584
  0
LINE
  5
2E9
100
AcDbEntity
  8
0
100
AcDbLine
 62
7
  6
BYLAYER
 10
354.1050402268
 20
744.9573759959
 11
354.1050402268
 21
743.7573759959
  0
LINE
  5
2EA
100
AcDbEntity
  8
0
100
AcDbLine
 62
7
  6
BYLAYER
 10
362.3550402268
 20
744.9573759959
 11
362.3550402268
 21
743.7573759959
  0
LINE
  5
2EB
100
AcDbEntity
  8
0
100
AcDbLine
 62
7
  6
BYLAYER
 10
362.7292602268
 20
736.2573759959
 11
362.7292602268
 21
719.7573759959
  0
LINE
  5
2EC
100
AcDbEntity
  8
3
100
AcDbLine
 62
7
  6
BYLAYER
 10
362.7295129948
 20
719.7573888044
 11
362.7295129948
 21
694.9404535799
  0
LINE
  5
2ED
100
AcDbEntity
  8
3
100
AcDbLine
 62
7
  6
BYLAYER
 10
362.7295129948
 20
644.9404535799
 11
362.7295129948
 21
148.6055511191
  0
LINE
  5
2EE
100
AcDbEntity
  8
3
100
AcDbLine
 62
7
  6
BYLAYER
 10
362.7295129948
 20
98.6055511191
 11
362.7295129948
 21
71.2573888044
  0
LINE
  5
2EF
100
AcDbEntity
  8
0
100
AcDbLine
 62
7
  6
BYLAYER
 10
362.7299880378
 20
71.2572658574
 11
362.7299880378
 21
54.7572658574
  0
LINE
  5
2F0
100
AcDbEntity
  8
0
100
AcDbLine
 62
7
  6
BYLAYER
 10
363.2292602268
 20
719.7573759959
 11
363.2292602268
 21
736.2573759958
  0
LINE
  5
2F1
100
AcDbEntity
  8
3
100
AcDbLine
 62
7
  6
BYLAYER
 10
363.2295129948
 20
71.2573888044
 11
363.2295129948
 21
98.6055511191
  0
LINE
  5
2F2
100
AcDbEntity
  8
3
100
AcDbLine
 62
7
  6
BYLAYER
 10
363.2295129948
 20
148.6055511191
 11
363.2295129948
 21
644.9404535799
  0
LINE
  5
2F3
100
AcDbEntity
  8
3
100
AcDbLine
 62
7
  6
BYLAYER
 10
363.2295129948
 20
694.9404535799
 11
363.2295129948
 21
719.7573888044
  0
LINE
  5
2F4
100
AcDbEntity
  8
0
100
AcDbLine
 62
7
  6
BYLAYER
 10
363.2299880378
 20
54.7572658574
 11
363.2299880378
 21
71.2572658574
  0
LINE
  5
2F5
100
AcDbEntity
  8
4
100
AcDbLine
 62
7
  6
BYLAYER
 10
216.8808571479
 20
143.2820882995
 11
214.1808571479
 21
138.6055511191
  0
LINE
  5
2F6
100
AcDbEntity
  8
4
100
AcDbLine
 62
7
  6
BYLAYER
 10
214.1808571479
 20
654.9404535799
 11
216.8808571479
 21
650.2639163995
  0
LINE
  5
2F7
100
AcDbEntity
  8
4
100
AcDbLine
 62
7
  6
BYLAYER
 10
224.9808571479
 20
654.9404535799
 11
222.2808571479
 21
659.6169907604
  0
LINE
  5
2F8
100
AcDbEntity
  8
0
100
AcDbLine
 62
7
  6
BYLAYER
 10
364.2292602268
 20
747.2573750584
 11
364.2292602268
 21
743.7573759959
  0
LINE
  5
2F9
100
AcDbEntity
  8
0
100
AcDbLine
 62
7
  6
BYLAYER
 10
365.9792602268
 20
737.2573759959
 11
365.9792602268
 21
743.2573759959
  0
LINE
  5
2FA
100
AcDbEntity
  8
0
100
AcDbLine
 62
7
  6
BYLAYER
 10
368.4792602268
 20
737.2573759959
 11
368.4792602268
 21
743.2573759959
  0
LINE
  5
2FB
100
AcDbEntity
  8
0
100
AcDbLine
 62
7
  6
BYLAYER
 10
371.2292602268
 20
736.2573759958
 11
371.2292602268
 21
719.7573759959
  0
LINE
  5
2FC
100
AcDbEntity
  8
3
100
AcDbLine
 62
7
  6
BYLAYER
 10
371.2295129948
 20
719.7573888044
 11
371.2295129948
 21
694.9404535799
  0
LINE
  5
2FD
100
AcDbEntity
  8
3
100
AcDbLine
 62
7
  6
BYLAYER
 10
371.2295129948
 20
644.9404535799
 11
371.2295129948
 21
148.6055511191
  0
LINE
  5
2FE
100
AcDbEntity
  8
3
100
AcDbLine
 62
7
  6
BYLAYER
 10
371.2295129948
 20
98.6055511191
 11
371.2295129948
 21
71.2573888044
  0
LINE
  5
2FF
100
AcDbEntity
  8
0
100
AcDbLine
 62
7
  6
BYLAYER
 10
371.2299880378
 20
71.2572658574
 11
371.2299880378
 21
54.7572658574
  0
LINE
  5
300
100
AcDbEntity
  8
0
100
AcDbLine
 62
7
  6
BYLAYER
 10
371.7292602268
 20
719.7573759959
 11
371.7292602268
 21
736.2573759959
  0
LINE
  5
301
100
AcDbEntity
  8
3
100
AcDbLine
 62
7
  6
BYLAYER
 10
371.7295129948
 20
71.2573888044
 11
371.7295129948
 21
98.6055511191
  0
LINE
  5
302
100
AcDbEntity
  8
3
100
AcDbLine
 62
7
  6
BYLAYER
 10
371.7295129948
 20
148.6055511191
 11
371.7295129948
 21
644.9404535799
  0
LINE
  5
303
100
AcDbEntity
  8
3
100
AcDbLine
 62
7
  6
BYLAYER
 10
371.7295129948
 20
694.9404535799
 11
371.7295129948
 21
719.7573888044
  0
LINE
  5
304
100
AcDbEntity
  8
0
100
AcDbLine
 62
7
  6
BYLAYER
 10
371.7299880378
 20
54.7572658574
 11
371.7299880378
 21
71.2572658574
  0
LINE
  5
305
100
AcDbEntity
  8
0
100
AcDbLine
 62
7
  6
BYLAYER
 10
372.1060202268
 20
744.9573759959
 11
372.1060202268
 21
743.7573759959
  0
LINE
  5
306
100
AcDbEntity
  8
0
100
AcDbLine
 62
7
  6
BYLAYER
 10
380.3560202268
 20
744.9573759959
 11
380.3560202268
 21
743.7573759959
  0
LINE
  5
307
100
AcDbEntity
  8
3
100
AcDbLine
 62
7
  6
BYLAYER
 10
382.0407673113
 20
689.9404535799
 11
382.0407673113
 21
649.9404535799
  0
LINE
  5
308
100
AcDbEntity
  8
3
100
AcDbLine
 62
7
  6
BYLAYER
 10
382.0407673113
 20
143.6055511191
 11
382.0407673113
 21
103.6055511191
  0
LINE
  5
309
100
AcDbEntity
  8
0
100
AcDbLine
 62
7
  6
BYLAYER
 10
383.2292602268
 20
737.2573759959
 11
383.2292602268
 21
735.2573759959
  0
LINE
  5
30A
100
AcDbEntity
  8
0
100
AcDbLine
 62
7
  6
BYLAYER
 10
383.2299880378
 20
55.7572658574
 11
383.2299880378
 21
53.7572658574
  0
LINE
  5
30B
100
AcDbEntity
  8
0
100
AcDbLine
 62
7
  6
BYLAYER
 10
383.9792602268
 20
737.2573759959
 11
383.9792602268
 21
743.2573759959
  0
LINE
  5
30C
100
AcDbEntity
  8
0
100
AcDbLine
 62
7
  6
BYLAYER
 10
384.2292602268
 20
735.2573759959
 11
384.2292602268
 21
736.2573759959
  0
LINE
  5
30D
100
AcDbEntity
  8
0
100
AcDbLine
 62
7
  6
BYLAYER
 10
384.2299880378
 20
54.7572658574
 11
384.2299880378
 21
55.7572658574
  0
LINE
  5
30E
100
AcDbEntity
  8
0
100
AcDbLine
 62
7
  6
BYLAYER
 10
384.4292602268
 20
734.8614429899
 11
384.4292602268
 21
736.3573759959
  0
LINE
  5
30F
100
AcDbEntity
  8
0
100
AcDbLine
 62
7
  6
BYLAYER
 10
384.4299880349
 20
54.6573759959
 11
384.4299880349
 21
56.1530834207
  0
LINE
  5
310
100
AcDbEntity
  8
0
100
AcDbLine
 62
7
  6
BYLAYER
 10
384.7292602993
 20
734.2573759959
 11
384.7292602993
 21
734.7573759959
  0
LINE
  5
311
100
AcDbEntity
  8
0
100
AcDbLine
 62
7
  6
BYLAYER
 10
384.7299881107
 20
56.2572658574
 11
384.7299881107
 21
56.7572658574
  0
LINE
  5
312
100
AcDbEntity
  8
4
100
AcDbLine
 62
7
  6
BYLAYER
 10
222.2808571479
 20
133.9290139387
 11
224.9808571479
 21
138.6055511191
  0
LINE
  5
313
100
AcDbEntity
  8
4
100
AcDbLine
 62
7
  6
BYLAYER
 10
216.8808571479
 20
113.2820882995
 11
214.1808571479
 21
108.6055511191
  0
LINE
  5
314
100
AcDbEntity
  8
4
100
AcDbLine
 62
7
  6
BYLAYER
 10
222.2808571479
 20
103.9290139387
 11
224.9808571479
 21
108.6055511191
  0
LINE
  5
315
100
AcDbEntity
  8
4
100
AcDbLine
 62
7
  6
BYLAYER
 10
214.1808571479
 20
684.9404535799
 11
216.8808571479
 21
680.2639163995
  0
LINE
  5
316
100
AcDbEntity
  8
4
100
AcDbLine
 62
7
  6
BYLAYER
 10
224.9808571479
 20
684.9404535799
 11
222.2808571479
 21
689.6169907604
  0
LINE
  5
317
100
AcDbEntity
  8
0
100
AcDbLine
 62
7
  6
BYLAYER
 10
388.2292602268
 20
734.7573759959
 11
388.2292602268
 21
719.7573759959
  0
LINE
  5
318
100
AcDbEntity
  8
3
100
AcDbLine
 62
7
  6
BYLAYER
 10
388.2295129948
 20
719.7573888044
 11
388.2295129948
 21
71.2573888044
  0
LINE
  5
319
100
AcDbEntity
  8
0
100
AcDbLine
 62
7
  6
BYLAYER
 10
388.2299880378
 20
71.2572658574
 11
388.2299880378
 21
56.2572658574
  0
LINE
  5
31A
100
AcDbEntity
  8
0
100
AcDbLine
 62
7
  6
BYLAYER
 10
391.0292602268
 20
736.3573759959
 11
391.0292602268
 21
734.7573759959
  0
LINE
  5
31B
100
AcDbEntity
  8
0
100
AcDbLine
 62
7
  6
BYLAYER
 10
391.0299880349
 20
56.2573759959
 11
391.0299880349
 21
54.6573759959
  0
LINE
  5
31C
100
AcDbEntity
  8
0
100
AcDbLine
 62
7
  6
BYLAYER
 10
391.2292602268
 20
737.2573759959
 11
391.2292602285
 21
735.2573759959
  0
LINE
  5
31D
100
AcDbEntity
  8
0
100
AcDbLine
 62
7
  6
BYLAYER
 10
391.2299880395
 20
55.7572658574
 11
391.2299880378
 21
53.7572658574
  0
LINE
  5
31E
100
AcDbEntity
  8
0
100
AcDbLine
 62
7
  6
BYLAYER
 10
392.2292602268
 20
719.7573759959
 11
392.2292602268
 21
736.2573759959
  0
LINE
  5
31F
100
AcDbEntity
  8
3
100
AcDbLine
 62
7
  6
BYLAYER
 10
392.2295129948
 20
71.2573888044
 11
392.2295129948
 21
719.7573888044
  0
LINE
  5
320
100
AcDbEntity
  8
0
100
AcDbLine
 62
7
  6
BYLAYER
 10
392.2299880378
 20
54.7572658574
 11
392.2299880378
 21
71.2572658574
  0
LINE
  5
321
100
AcDbEntity
  8
3
100
AcDbLine
 62
7
  6
BYLAYER
 10
364.5299880364
 20
143.2820882995
 11
361.8299880364
 21
138.6055511191
  0
LINE
  5
322
100
AcDbEntity
  8
0
100
AcDbLine
 62
7
  6
BYLAYER
 10
217.8301293383
 20
743.7573759959
 11
218.3301293383
 21
743.2573759959
  0
LINE
  5
323
100
AcDbEntity
  8
0
100
AcDbLine
 62
7
  6
BYLAYER
 10
216.0801313169
 20
747.7573759959
 11
216.5801293383
 21
747.2573781544
  0
LINE
  5
324
100
AcDbEntity
  8
3
100
AcDbLine
 62
7
  6
BYLAYER
 10
361.8299880364
 20
654.9404535799
 11
364.5299880364
 21
650.2639163995
  0
LINE
  5
325
100
AcDbEntity
  8
3
100
AcDbLine
 62
7
  6
BYLAYER
 10
369.9299880364
 20
133.9290139387
 11
372.6299880364
 21
138.6055511191
  0
LINE
  5
326
100
AcDbEntity
  8
3
100
AcDbLine
 62
7
  6
BYLAYER
 10
364.5299880364
 20
113.2820882995
 11
361.8299880364
 21
108.6055511191
  0
LINE
  5
327
100
AcDbEntity
  8
3
100
AcDbLine
 62
7
  6
BYLAYER
 10
369.9299880364
 20
103.9290139387
 11
372.6299880364
 21
108.6055511191
  0
LINE
  5
328
100
AcDbEntity
  8
0
100
AcDbLine
 62
7
  6
BYLAYER
 10
235.8301293383
 20
743.7573759959
 11
236.3301293383
 21
743.2573759959
  0
LINE
  5
329
100
AcDbEntity
  8
3
100
AcDbLine
 62
7
  6
BYLAYER
 10
372.6299880364
 20
654.9404535799
 11
369.9299880364
 21
659.6169907604
  0
LINE
  5
32A
100
AcDbEntity
  8
3
100
AcDbLine
 62
7
  6
BYLAYER
 10
361.8299880364
 20
684.9404535799
 11
364.5299880364
 21
680.2639163995
  0
LINE
  5
32B
100
AcDbEntity
  8
3
100
AcDbLine
 62
7
  6
BYLAYER
 10
372.6299880364
 20
684.9404535799
 11
369.9299880364
 21
689.6169907604
  0
LINE
  5
32C
100
AcDbEntity
  8
4
100
AcDbLine
 62
7
  6
BYLAYER
 10
184.3916364228
 20
644.9404535799
 11
229.3916364228
 21
644.9404535799
  0
LINE
  5
32D
100
AcDbEntity
  8
3
100
AcDbLine
 62
7
  6
BYLAYER
 10
332.0407673113
 20
644.9404535799
 11
377.0407673113
 21
644.9404535799
  0
LINE
  5
32E
100
AcDbEntity
  8
3
100
AcDbLine
 62
7
  6
BYLAYER
 10
335.0407673113
 20
649.9404535799
 11
332.0407673113
 21
649.9404535799
  0
LINE
  5
32F
100
AcDbEntity
  8
4
100
AcDbLine
 62
7
  6
BYLAYER
 10
187.3916364228
 20
649.9404535799
 11
184.3916364228
 21
649.9404535799
  0
LINE
  5
330
100
AcDbEntity
  8
3
100
AcDbLine
 62
7
  6
BYLAYER
 10
369.9299880364
 20
650.2639163995
 11
364.5299880364
 21
650.2639163995
  0
LINE
  5
331
100
AcDbEntity
  8
4
100
AcDbLine
 62
7
  6
BYLAYER
 10
222.2808571479
 20
650.2639163995
 11
216.8808571479
 21
650.2639163995
  0
LINE
  5
332
100
AcDbEntity
  8
4
100
AcDbLine
 62
7
  6
BYLAYER
 10
212.6916364228
 20
651.6904535799
 11
214.176547679
 21
651.6904535799
  0
LINE
  5
333
100
AcDbEntity
  8
4
100
AcDbLine
 62
7
  6
BYLAYER
 10
224.9848290771
 20
651.6904535799
 11
226.1916364228
 21
651.6904535799
  0
LINE
  5
334
100
AcDbEntity
  8
3
100
AcDbLine
 62
7
  6
BYLAYER
 10
360.3407673113
 20
651.6904535799
 11
361.8256785675
 21
651.6904535799
  0
LINE
  5
335
100
AcDbEntity
  8
3
100
AcDbLine
 62
7
  6
BYLAYER
 10
372.6339599656
 20
651.6904535799
 11
373.8407673113
 21
651.6904535799
  0
LINE
  5
336
100
AcDbEntity
  8
3
100
AcDbLine
 62
7
  6
BYLAYER
 10
373.8407673113
 20
658.1904535799
 11
372.6342975052
 21
658.1904535799
  0
LINE
  5
337
100
AcDbEntity
  8
3
100
AcDbLine
 62
7
  6
BYLAYER
 10
361.8260161072
 20
658.1904535799
 11
360.3407673113
 21
658.1904535799
  0
LINE
  5
338
100
AcDbEntity
  8
4
100
AcDbLine
 62
7
  6
BYLAYER
 10
226.1916364228
 20
658.1904535799
 11
224.9851666167
 21
658.1904535799
  0
LINE
  5
339
100
AcDbEntity
  8
4
100
AcDbLine
 62
7
  6
BYLAYER
 10
214.1768852186
 20
658.1904535799
 11
212.6916364228
 21
658.1904535799
  0
LINE
  5
33A
100
AcDbEntity
  8
4
100
AcDbLine
 62
7
  6
BYLAYER
 10
216.8808571479
 20
659.6169907604
 11
222.2808571479
 21
659.6169907604
  0
LINE
  5
33B
100
AcDbEntity
  8
3
100
AcDbLine
 62
7
  6
BYLAYER
 10
364.5299880364
 20
659.6169907604
 11
369.9299880364
 21
659.6169907604
  0
LINE
  5
33C
100
AcDbEntity
  8
3
100
AcDbLine
 62
7
  6
BYLAYER
 10
369.9299880364
 20
680.2639163995
 11
364.5299880364
 21
680.2639163995
  0
LINE
  5
33D
100
AcDbEntity
  8
4
100
AcDbLine
 62
7
  6
BYLAYER
 10
222.2808571479
 20
680.2639163995
 11
216.8808571479
 21
680.2639163995
  0
LINE
  5
33E
100
AcDbEntity
  8
4
100
AcDbLine
 62
7
  6
BYLAYER
 10
212.6916364228
 20
681.6904535799
 11
214.176547679
 21
681.6904535799
  0
LINE
  5
33F
100
AcDbEntity
  8
4
100
AcDbLine
 62
7
  6
BYLAYER
 10
224.9848290771
 20
681.6904535799
 11
226.1916364228
 21
681.6904535799
  0
LINE
  5
340
100
AcDbEntity
  8
3
100
AcDbLine
 62
7
  6
BYLAYER
 10
360.3407673113
 20
681.6904535799
 11
361.8256785675
 21
681.6904535799
  0
LINE
  5
341
100
AcDbEntity
  8
3
100
AcDbLine
 62
7
  6
BYLAYER
 10
372.6339599656
 20
681.6904535799
 11
373.8407673113
 21
681.6904535799
  0
LINE
  5
342
100
AcDbEntity
  8
3
100
AcDbLine
 62
7
  6
BYLAYER
 10
373.8407673113
 20
688.1904535799
 11
372.6342975052
 21
688.1904535799
  0
LINE
  5
343
100
AcDbEntity
  8
3
100
AcDbLine
 62
7
  6
BYLAYER
 10
361.8260161072
 20
688.1904535799
 11
360.3407673113
 21
688.1904535799
  0
LINE
  5
344
100
AcDbEntity
  8
4
100
AcDbLine
 62
7
  6
BYLAYER
 10
226.1916364228
 20
688.1904535799
 11
224.9851666167
 21
688.1904535799
  0
LINE
  5
345
100
AcDbEntity
  8
4
100
AcDbLine
 62
7
  6
BYLAYER
 10
214.1768852186
 20
688.1904535799
 11
212.6916364228
 21
688.1904535799
  0
LINE
  5
346
100
AcDbEntity
  8
4
100
AcDbLine
 62
7
  6
BYLAYER
 10
216.8808571479
 20
689.6169907604
 11
222.2808571479
 21
689.6169907604
  0
LINE
  5
347
100
AcDbEntity
  8
3
100
AcDbLine
 62
7
  6
BYLAYER
 10
364.5299880364
 20
689.6169907604
 11
369.9299880364
 21
689.6169907604
  0
LINE
  5
348
100
AcDbEntity
  8
4
100
AcDbLine
 62
7
  6
BYLAYER
 10
184.3916364228
 20
689.9404535799
 11
187.3916364228
 21
689.9404535799
  0
LINE
  5
349
100
AcDbEntity
  8
3
100
AcDbLine
 62
7
  6
BYLAYER
 10
332.0407673113
 20
689.9404535799
 11
335.0407673113
 21
689.9404535799
  0
LINE
  5
34A
100
AcDbEntity
  8
4
100
AcDbLine
 62
7
  6
BYLAYER
 10
184.3916364228
 20
694.9404535799
 11
229.3916364228
 21
694.9404535799
  0
LINE
  5
34B
100
AcDbEntity
  8
3
100
AcDbLine
 62
7
  6
BYLAYER
 10
332.0407673113
 20
694.9404535799
 11
377.0407673113
 21
694.9404535799
  0
LINE
  5
34C
100
AcDbEntity
  8
0
100
AcDbLine
 62
7
  6
BYLAYER
 10
365.4792602268
 20
743.7573759959
 11
365.9792602268
 21
743.2573759959
  0
LINE
  5
34D
100
AcDbEntity
  8
0
100
AcDbLine
 62
7
  6
BYLAYER
 10
363.7292622054
 20
747.7573759959
 11
364.2292602268
 21
747.2573781544
  0
LINE
  5
34E
100
AcDbEntity
  8
0
100
AcDbLine
 62
7
  6
BYLAYER
 10
383.4792602268
 20
743.7573759959
 11
383.9792602268
 21
743.2573759959
  0
LINE
  5
34F
100
AcDbEntity
  8
0
100
AcDbLine
 62
7
  6
BYLAYER
 10
194.5801293383
 20
719.7573759959
 11
244.5801293383
 21
719.7573759959
  0
LINE
  5
350
100
AcDbEntity
  8
3
100
AcDbLine
 62
7
  6
BYLAYER
 10
194.5803821063
 20
719.7573888044
 11
244.5803821063
 21
719.7573888044
  0
LINE
  5
351
100
AcDbEntity
  8
0
100
AcDbLine
 62
7
  6
BYLAYER
 10
342.2292602268
 20
719.7573759959
 11
392.2292602268
 21
719.7573759959
  0
LINE
  5
352
100
AcDbEntity
  8
3
100
AcDbLine
 62
7
  6
BYLAYER
 10
342.2295129948
 20
719.7573888044
 11
392.2295129948
 21
719.7573888044
  0
LINE
  5
353
100
AcDbEntity
  8
0
100
AcDbLine
 62
7
  6
BYLAYER
 10
384.2292602268
 20
733.2573759959
 11
368.2292770407
 21
733.2573759959
  0
LINE
  5
354
100
AcDbEntity
  8
0
100
AcDbLine
 62
7
  6
BYLAYER
 10
366.2292602268
 20
733.2573759959
 11
350.2292770407
 21
733.2573759959
  0
LINE
  5
355
100
AcDbEntity
  8
0
100
AcDbLine
 62
7
  6
BYLAYER
 10
236.5801293383
 20
733.2573759959
 11
220.5801461522
 21
733.2573759959
  0
LINE
  5
356
100
AcDbEntity
  8
0
100
AcDbLine
 62
7
  6
BYLAYER
 10
218.5801293383
 20
733.2573759959
 11
202.5801461522
 21
733.2573759959
  0
LINE
  5
357
100
AcDbEntity
  8
0
100
AcDbLine
 62
7
  6
BYLAYER
 10
384.1240511979
 20
733.2685702469
 11
368.3344858485
 21
733.2685702469
  0
LINE
  5
358
100
AcDbEntity
  8
0
100
AcDbLine
 62
7
  6
BYLAYER
 10
366.1240511979
 20
733.2685702469
 11
350.3344858485
 21
733.2685702469
  0
LINE
  5
359
100
AcDbEntity
  8
0
100
AcDbLine
 62
7
  6
BYLAYER
 10
236.4749203094
 20
733.2685702469
 11
220.68535496
 21
733.2685702469
  0
LINE
  5
35A
100
AcDbEntity
  8
0
100
AcDbLine
 62
7
  6
BYLAYER
 10
218.4749203094
 20
733.2685702469
 11
202.68535496
 21
733.2685702469
  0
LINE
  5
35B
100
AcDbEntity
  8
0
100
AcDbLine
 62
7
  6
BYLAYER
 10
202.4746346781
 20
734.2461201791
 11
218.6856069628
 21
734.2461201791
  0
LINE
  5
35C
100
AcDbEntity
  8
0
100
AcDbLine
 62
7
  6
BYLAYER
 10
350.1237655666
 20
734.2461201791
 11
366.3347378514
 21
734.2461201791
  0
LINE
  5
35D
100
AcDbEntity
  8
0
100
AcDbLine
 62
7
  6
BYLAYER
 10
220.4748328536
 20
734.246162913
 11
236.6854087877
 21
734.246162913
  0
LINE
  5
35E
100
AcDbEntity
  8
0
100
AcDbLine
 62
7
  6
BYLAYER
 10
368.1239637422
 20
734.246162913
 11
384.3345396762
 21
734.246162913
  0
LINE
  5
35F
100
AcDbEntity
  8
0
100
AcDbLine
 62
7
  6
BYLAYER
 10
194.5801293383
 20
734.2573759959
 11
202.0801293383
 21
734.2573759959
  0
LINE
  5
360
100
AcDbEntity
  8
0
100
AcDbLine
 62
7
  6
BYLAYER
 10
237.0801293383
 20
734.2573759959
 11
244.5801293383
 21
734.2573759959
  0
LINE
  5
361
100
AcDbEntity
  8
0
100
AcDbLine
 62
7
  6
BYLAYER
 10
342.2292602268
 20
734.2573759959
 11
349.7292602268
 21
734.2573759959
  0
LINE
  5
362
100
AcDbEntity
  8
0
100
AcDbLine
 62
7
  6
BYLAYER
 10
384.7292602268
 20
734.2573759959
 11
392.2292602268
 21
734.2573759959
  0
LINE
  5
363
100
AcDbEntity
  8
0
100
AcDbLine
 62
7
  6
BYLAYER
 10
195.0801293383
 20
734.7573759959
 11
202.0801293383
 21
734.7573759959
  0
LINE
  5
364
100
AcDbEntity
  8
0
100
AcDbLine
 62
7
  6
BYLAYER
 10
237.0801293383
 20
734.7573759959
 11
244.0801293383
 21
734.7573759959
  0
LINE
  5
365
100
AcDbEntity
  8
0
100
AcDbLine
 62
7
  6
BYLAYER
 10
342.7292602268
 20
734.7573759959
 11
349.7292602268
 21
734.7573759959
  0
LINE
  5
366
100
AcDbEntity
  8
0
100
AcDbLine
 62
7
  6
BYLAYER
 10
384.7292602268
 20
734.7573759959
 11
391.7292602268
 21
734.7573759959
  0
LINE
  5
367
100
AcDbEntity
  8
0
100
AcDbLine
 62
7
  6
BYLAYER
 10
392.2292602268
 20
735.2573760648
 11
391.0292602268
 21
735.2573759959
  0
LINE
  5
368
100
AcDbEntity
  8
0
100
AcDbLine
 62
7
  6
BYLAYER
 10
384.4292602268
 20
735.2573759959
 11
383.2292602268
 21
735.2573760648
  0
LINE
  5
369
100
AcDbEntity
  8
0
100
AcDbLine
 62
7
  6
BYLAYER
 10
351.2292602268
 20
735.2573760648
 11
350.0292602268
 21
735.2573759959
  0
LINE
  5
36A
100
AcDbEntity
  8
0
100
AcDbLine
 62
7
  6
BYLAYER
 10
343.4292602268
 20
735.2573759959
 11
342.2292602268
 21
735.2573760648
  0
LINE
  5
36B
100
AcDbEntity
  8
0
100
AcDbLine
 62
7
  6
BYLAYER
 10
244.5801293383
 20
735.2573760648
 11
243.3801293383
 21
735.2573759959
  0
LINE
  5
36C
100
AcDbEntity
  8
0
100
AcDbLine
 62
7
  6
BYLAYER
 10
236.7801293383
 20
735.2573759959
 11
235.5801293383
 21
735.2573760648
  0
LINE
  5
36D
100
AcDbEntity
  8
0
100
AcDbLine
 62
7
  6
BYLAYER
 10
203.5801293383
 20
735.2573760648
 11
202.3801293383
 21
735.2573759959
  0
LINE
  5
36E
100
AcDbEntity
  8
0
100
AcDbLine
 62
7
  6
BYLAYER
 10
195.7801293383
 20
735.2573759959
 11
194.5801293383
 21
735.2573760648
  0
LINE
  5
36F
100
AcDbEntity
  8
0
100
AcDbLine
 62
7
  6
BYLAYER
 10
194.5801293383
 20
736.2573759959
 11
195.7801293383
 21
736.2573759959
  0
LINE
  5
370
100
AcDbEntity
  8
0
100
AcDbLine
 62
7
  6
BYLAYER
 10
202.3801293383
 20
736.2573759959
 11
215.5801293383
 21
736.2573759892
  0
LINE
  5
371
100
AcDbEntity
  8
0
100
AcDbLine
 62
7
  6
BYLAYER
 10
223.5801293383
 20
736.2573759958
 11
236.7801293383
 21
736.2573759959
  0
LINE
  5
372
100
AcDbEntity
  8
0
100
AcDbLine
 62
7
  6
BYLAYER
 10
243.3801293383
 20
736.2573759959
 11
244.5801293383
 21
736.2573759959
  0
LINE
  5
373
100
AcDbEntity
  8
0
100
AcDbLine
 62
7
  6
BYLAYER
 10
342.2292602268
 20
736.2573759959
 11
343.4292602268
 21
736.2573759959
  0
LINE
  5
374
100
AcDbEntity
  8
0
100
AcDbLine
 62
7
  6
BYLAYER
 10
350.0292602268
 20
736.2573759959
 11
363.2292602268
 21
736.2573759892
  0
LINE
  5
375
100
AcDbEntity
  8
0
100
AcDbLine
 62
7
  6
BYLAYER
 10
371.2292602268
 20
736.2573759958
 11
384.4292602268
 21
736.2573759959
  0
LINE
  5
376
100
AcDbEntity
  8
0
100
AcDbLine
 62
7
  6
BYLAYER
 10
391.0292602268
 20
736.2573759959
 11
392.2292602268
 21
736.2573759959
  0
LINE
  5
377
100
AcDbEntity
  8
0
100
AcDbLine
 62
7
  6
BYLAYER
 10
195.7801293383
 20
736.3573759959
 11
202.3801293383
 21
736.3573759959
  0
LINE
  5
378
100
AcDbEntity
  8
0
100
AcDbLine
 62
7
  6
BYLAYER
 10
236.7801293383
 20
736.3573759959
 11
243.3801293383
 21
736.3573759959
  0
LINE
  5
379
100
AcDbEntity
  8
0
100
AcDbLine
 62
7
  6
BYLAYER
 10
343.4292602268
 20
736.3573759959
 11
350.0292602268
 21
736.3573759959
  0
LINE
  5
37A
100
AcDbEntity
  8
0
100
AcDbLine
 62
7
  6
BYLAYER
 10
384.4292602268
 20
736.3573759959
 11
391.0292602268
 21
736.3573759959
  0
LINE
  5
37B
100
AcDbEntity
  8
0
100
AcDbLine
 62
7
  6
BYLAYER
 10
215.438681158
 20
736.7573759959
 11
223.7206129925
 21
736.7573759959
  0
LINE
  5
37C
100
AcDbEntity
  8
0
100
AcDbLine
 62
7
  6
BYLAYER
 10
363.0878120465
 20
736.7573759959
 11
371.369743881
 21
736.7573759959
  0
LINE
  5
37D
100
AcDbEntity
  8
0
100
AcDbLine
 62
7
  6
BYLAYER
 10
391.2292602268
 20
737.2573759959
 11
390.4024654303
 21
737.2573759959
  0
LINE
  5
37E
100
AcDbEntity
  8
0
100
AcDbLine
 62
7
  6
BYLAYER
 10
344.0560550233
 20
737.2573759959
 11
343.2292602268
 21
737.2573759959
  0
LINE
  5
37F
100
AcDbEntity
  8
0
100
AcDbLine
 62
7
  6
BYLAYER
 10
243.5801293383
 20
737.2573759959
 11
242.7533345418
 21
737.2573759959
  0
LINE
  5
380
100
AcDbEntity
  8
0
100
AcDbLine
 62
7
  6
BYLAYER
 10
196.4069241348
 20
737.2573759959
 11
195.5801293383
 21
737.2573759959
  0
LINE
  5
381
100
AcDbEntity
  8
0
100
AcDbLine
 62
7
  6
BYLAYER
 10
201.7533345418
 20
737.2573759959
 11
237.4069241348
 21
737.2573759959
  0
LINE
  5
382
100
AcDbEntity
  8
0
100
AcDbLine
 62
7
  6
BYLAYER
 10
349.4024654303
 20
737.2573759959
 11
385.0560550233
 21
737.2573759959
  0
LINE
  5
383
100
AcDbEntity
  8
0
100
AcDbLine
 62
7
  6
BYLAYER
 10
195.7801295849
 20
737.3573759959
 11
201.3800279123
 21
737.3573759959
  0
LINE
  5
384
100
AcDbEntity
  8
0
100
AcDbLine
 62
7
  6
BYLAYER
 10
237.7801295849
 20
737.3573759959
 11
243.3800279123
 21
737.3573759959
  0
LINE
  5
385
100
AcDbEntity
  8
0
100
AcDbLine
 62
7
  6
BYLAYER
 10
343.4292604734
 20
737.3573759959
 11
349.0291588008
 21
737.3573759959
  0
LINE
  5
386
100
AcDbEntity
  8
0
100
AcDbLine
 62
7
  6
BYLAYER
 10
385.4292604734
 20
737.3573759959
 11
391.0291588008
 21
737.3573759959
  0
LINE
  5
387
100
AcDbEntity
  8
0
100
AcDbLine
 62
7
  6
BYLAYER
 10
383.9792602268
 20
738.7573759959
 11
368.4792602268
 21
738.7573759959
  0
LINE
  5
388
100
AcDbEntity
  8
0
100
AcDbLine
 62
7
  6
BYLAYER
 10
365.9792602268
 20
738.7573759959
 11
350.4792602268
 21
738.7573759959
  0
LINE
  5
389
100
AcDbEntity
  8
0
100
AcDbLine
 62
7
  6
BYLAYER
 10
236.3301293383
 20
738.7573759959
 11
220.8301293383
 21
738.7573759959
  0
LINE
  5
38A
100
AcDbEntity
  8
0
100
AcDbLine
 62
7
  6
BYLAYER
 10
218.3301293383
 20
738.7573759959
 11
202.8301293383
 21
738.7573759959
  0
LINE
  5
38B
100
AcDbEntity
  8
0
100
AcDbLine
 62
7
  6
BYLAYER
 10
383.979255944
 20
741.7573759959
 11
368.4792645096
 21
741.7573759959
  0
LINE
  5
38C
100
AcDbEntity
  8
0
100
AcDbLine
 62
7
  6
BYLAYER
 10
365.979255944
 20
741.7573759959
 11
350.4792645096
 21
741.7573759959
  0
LINE
  5
38D
100
AcDbEntity
  8
0
100
AcDbLine
 62
7
  6
BYLAYER
 10
236.3301250555
 20
741.7573759959
 11
220.8301336211
 21
741.7573759959
  0
LINE
  5
38E
100
AcDbEntity
  8
0
100
AcDbLine
 62
7
  6
BYLAYER
 10
218.3301250555
 20
741.7573759959
 11
202.8301336211
 21
741.7573759959
  0
LINE
  5
38F
100
AcDbEntity
  8
0
100
AcDbLine
 62
7
  6
BYLAYER
 10
202.8301293383
 20
743.2573759959
 11
218.3301293383
 21
743.2573759959
  0
LINE
  5
390
100
AcDbEntity
  8
0
100
AcDbLine
 62
7
  6
BYLAYER
 10
220.8301293383
 20
743.2573759959
 11
236.3301293383
 21
743.2573759959
  0
LINE
  5
391
100
AcDbEntity
  8
0
100
AcDbLine
 62
7
  6
BYLAYER
 10
350.4792602268
 20
743.2573759959
 11
365.9792602268
 21
743.2573759959
  0
LINE
  5
392
100
AcDbEntity
  8
0
100
AcDbLine
 62
7
  6
BYLAYER
 10
368.4792602268
 20
743.2573759959
 11
383.9792602268
 21
743.2573759959
  0
LINE
  5
393
100
AcDbEntity
  8
0
100
AcDbLine
 62
7
  6
BYLAYER
 10
203.3301333411
 20
743.7573759959
 11
217.8301253355
 21
743.7573759959
  0
LINE
  5
394
100
AcDbEntity
  8
0
100
AcDbLine
 62
7
  6
BYLAYER
 10
221.3301333411
 20
743.7573759959
 11
235.8301253355
 21
743.7573759959
  0
LINE
  5
395
100
AcDbEntity
  8
0
100
AcDbLine
 62
7
  6
BYLAYER
 10
350.9792642296
 20
743.7573759959
 11
365.479256224
 21
743.7573759959
  0
LINE
  5
396
100
AcDbEntity
  8
0
100
AcDbLine
 62
7
  6
BYLAYER
 10
368.9792642296
 20
743.7573759959
 11
383.479256224
 21
743.7573759959
  0
LINE
  5
397
100
AcDbEntity
  8
0
100
AcDbLine
 62
7
  6
BYLAYER
 10
206.4559093383
 20
744.9573759959
 11
214.7059093383
 21
744.9573759959
  0
LINE
  5
398
100
AcDbEntity
  8
0
100
AcDbLine
 62
7
  6
BYLAYER
 10
224.4568893383
 20
744.9573759959
 11
232.7068893383
 21
744.9573759959
  0
LINE
  5
399
100
AcDbEntity
  8
0
100
AcDbLine
 62
7
  6
BYLAYER
 10
354.1050402268
 20
744.9573759959
 11
362.3550402268
 21
744.9573759959
  0
LINE
  5
39A
100
AcDbEntity
  8
0
100
AcDbLine
 62
7
  6
BYLAYER
 10
372.1060202268
 20
744.9573759959
 11
380.3560202268
 21
744.9573759959
  0
LINE
  5
39B
100
AcDbEntity
  8
0
100
AcDbLine
 62
7
  6
BYLAYER
 10
206.7559968143
 20
745.2573759959
 11
214.4059279554
 21
745.2573759959
  0
LINE
  5
39C
100
AcDbEntity
  8
0
100
AcDbLine
 62
7
  6
BYLAYER
 10
224.7568289704
 20
745.2573759959
 11
232.4069112296
 21
745.2573759959
  0
LINE
  5
39D
100
AcDbEntity
  8
0
100
AcDbLine
 62
7
  6
BYLAYER
 10
354.4051277029
 20
745.2573759959
 11
362.0550588439
 21
745.2573759959
  0
LINE
  5
39E
100
AcDbEntity
  8
0
100
AcDbLine
 62
7
  6
BYLAYER
 10
372.4059598589
 20
745.2573759959
 11
380.0560421181
 21
745.2573759959
  0
LINE
  5
39F
100
AcDbEntity
  8
0
100
AcDbLine
 62
7
  6
BYLAYER
 10
204.5801293383
 20
747.2573750584
 11
216.5801293383
 21
747.2573750584
  0
LINE
  5
3A0
100
AcDbEntity
  8
0
100
AcDbLine
 62
7
  6
BYLAYER
 10
352.2292602268
 20
747.2573750584
 11
364.2292602268
 21
747.2573750584
  0
LINE
  5
3A1
100
AcDbEntity
  8
0
100
AcDbLine
 62
7
  6
BYLAYER
 10
205.0801346396
 20
747.7573759959
 11
216.0801299025
 21
747.7573759959
  0
LINE
  5
3A2
100
AcDbEntity
  8
0
100
AcDbLine
 62
7
  6
BYLAYER
 10
352.7292655281
 20
747.7573759959
 11
363.7292607911
 21
747.7573759959
  0
ARC
  5
3A3
100
AcDbEntity
  8
0
100
AcDbCircle
 62
7
  6
BYLAYER
 10
195.7803821093
 20
54.6573759959
 40
1.0
100
AcDbArc
 50
234.2503109332
 51
270.0
  0
ARC
  5
3A4
100
AcDbEntity
  8
0
100
AcDbCircle
 62
7
  6
BYLAYER
 10
201.3808571493
 20
54.6573759959
 40
1.0
100
AcDbArc
 50
270.0
 51
360.0
  0
ARC
  5
3A5
100
AcDbEntity
  8
0
100
AcDbCircle
 62
7
  6
BYLAYER
 10
196.7808571493
 20
54.6573759959
 40
1.0
100
AcDbArc
 50
180.0
 51
270.0
  0
ARC
  5
3A6
100
AcDbEntity
  8
0
100
AcDbCircle
 62
7
  6
BYLAYER
 10
203.5808571493
 20
54.7572658574
 40
1.0
100
AcDbArc
 50
180.0
 51
270.0
  0
ARC
  5
3A7
100
AcDbEntity
  8
0
100
AcDbCircle
 62
7
  6
BYLAYER
 10
195.5808571493
 20
54.7572658574
 40
1.0
100
AcDbArc
 50
180.0
 51
270.0
  0
ARC
  5
3A8
100
AcDbEntity
  8
0
100
AcDbCircle
 62
7
  6
BYLAYER
 10
214.5808571493
 20
54.7572658574
 40
1.0
100
AcDbArc
 50
270.0
 51
360.0
  0
ARC
  5
3A9
100
AcDbEntity
  8
0
100
AcDbCircle
 62
7
  6
BYLAYER
 10
195.0808571493
 20
56.7572658574
 40
0.5
100
AcDbArc
 50
180.0
 51
270.0
  0
ARC
  5
3AA
100
AcDbEntity
  8
0
100
AcDbCircle
 62
7
  6
BYLAYER
 10
202.0808571493
 20
55.7572658574
 40
0.5
100
AcDbArc
 50
0.0
 51
90.0
  0
ARC
  5
3AB
100
AcDbEntity
  8
4
100
AcDbCircle
 62
7
  6
BYLAYER
 10
212.6916364228
 20
108.6055511191
 40
3.25
100
AcDbArc
 50
90.0
 51
270.0
  0
ARC
  5
3AC
100
AcDbEntity
  8
4
100
AcDbCircle
 62
7
  6
BYLAYER
 10
212.6916364228
 20
138.6055511191
 40
3.25
100
AcDbArc
 50
90.0
 51
270.0
  0
ARC
  5
3AD
100
AcDbEntity
  8
0
100
AcDbCircle
 62
7
  6
BYLAYER
 10
243.3803821063
 20
54.6573759959
 40
1.0
100
AcDbArc
 50
270.0
 51
305.7190868306
  0
ARC
  5
3AE
100
AcDbEntity
  8
0
100
AcDbCircle
 62
7
  6
BYLAYER
 10
242.3808571464
 20
54.6573759959
 40
1.0
100
AcDbArc
 50
270.0
 51
360.0
  0
ARC
  5
3AF
100
AcDbEntity
  8
0
100
AcDbCircle
 62
7
  6
BYLAYER
 10
237.7808571464
 20
54.6573759959
 40
1.0
100
AcDbArc
 50
180.0
 51
270.0
  0
ARC
  5
3B0
100
AcDbEntity
  8
0
100
AcDbCircle
 62
7
  6
BYLAYER
 10
224.5808571493
 20
54.7572658574
 40
1.0
100
AcDbArc
 50
179.9999999984
 51
270.0
  0
ARC
  5
3B1
100
AcDbEntity
  8
0
100
AcDbCircle
 62
7
  6
BYLAYER
 10
235.5808571493
 20
54.7572658574
 40
1.0
100
AcDbArc
 50
270.0
 51
360.0
  0
ARC
  5
3B2
100
AcDbEntity
  8
0
100
AcDbCircle
 62
7
  6
BYLAYER
 10
243.5808571493
 20
54.7572658574
 40
1.0
100
AcDbArc
 50
270.0
 51
360.0
  0
ARC
  5
3B3
100
AcDbEntity
  8
0
100
AcDbCircle
 62
7
  6
BYLAYER
 10
237.0808571493
 20
55.7572658574
 40
0.5
100
AcDbArc
 50
90.0
 51
180.0
  0
ARC
  5
3B4
100
AcDbEntity
  8
0
100
AcDbCircle
 62
7
  6
BYLAYER
 10
244.0808571493
 20
56.7572658574
 40
0.5
100
AcDbArc
 50
270.0
 51
360.0
  0
CIRCLE
  5
3B5
100
AcDbEntity
  8
4
100
AcDbCircle
 62
7
  6
BYLAYER
 10
219.5808571479
 20
108.6055511191
 40
6.3525
  0
CIRCLE
  5
3B6
100
AcDbEntity
  8
4
100
AcDbCircle
 62
7
  6
BYLAYER
 10
219.5808571479
 20
138.6055511191
 40
6.3525
  0
ARC
  5
3B7
100
AcDbEntity
  8
4
100
AcDbCircle
 62
7
  6
BYLAYER
 10
229.3916364228
 20
103.6055511191
 40
5.0
100
AcDbArc
 50
270.0
 51
360.0
  0
ARC
  5
3B8
100
AcDbEntity
  8
4
100
AcDbCircle
 62
7
  6
BYLAYER
 10
229.3916364228
 20
143.6055511191
 40
5.0
100
AcDbArc
 50
0.0
 51
90.0
  0
ARC
  5
3B9
100
AcDbEntity
  8
4
100
AcDbCircle
 62
7
  6
BYLAYER
 10
226.1916364228
 20
108.6055511191
 40
3.25
100
AcDbArc
 50
270.0
 51
90.0
  0
ARC
  5
3BA
100
AcDbEntity
  8
4
100
AcDbCircle
 62
7
  6
BYLAYER
 10
226.1916364228
 20
138.6055511191
 40
3.25
100
AcDbArc
 50
270.0
 51
90.0
  0
CIRCLE
  5
3BB
100
AcDbEntity
  8
4
100
AcDbCircle
 62
7
  6
BYLAYER
 10
219.5808571479
 20
108.6055511191
 40
3.0
  0
CIRCLE
  5
3BC
100
AcDbEntity
  8
4
100
AcDbCircle
 62
7
  6
BYLAYER
 10
219.5808571479
 20
138.6055511191
 40
3.0
  0
ARC
  5
3BD
100
AcDbEntity
  8
4
100
AcDbCircle
 62
7
  6
BYLAYER
 10
212.6916364228
 20
654.9404535799
 40
3.25
100
AcDbArc
 50
90.0
 51
270.0
  0
ARC
  5
3BE
100
AcDbEntity
  8
4
100
AcDbCircle
 62
7
  6
BYLAYER
 10
212.6916364228
 20
684.9404535799
 40
3.25
100
AcDbArc
 50
90.0
 51
270.0
  0
ARC
  5
3BF
100
AcDbEntity
  8
0
100
AcDbCircle
 62
7
  6
BYLAYER
 10
195.7801293383
 20
736.3573759959
 40
1.0
100
AcDbArc
 50
90.0
 51
125.746880854
  0
ARC
  5
3C0
100
AcDbEntity
  8
0
100
AcDbCircle
 62
7
  6
BYLAYER
 10
196.7801293383
 20
736.3573759959
 40
1.0
100
AcDbArc
 50
90.0
 51
180.0
  0
ARC
  5
3C1
100
AcDbEntity
  8
0
100
AcDbCircle
 62
7
  6
BYLAYER
 10
201.3801293383
 20
736.3573759959
 40
1.0
100
AcDbArc
 50
0.0
 51
90.0
  0
ARC
  5
3C2
100
AcDbEntity
  8
0
100
AcDbCircle
 62
7
  6
BYLAYER
 10
195.5801293383
 20
736.2573759959
 40
1.0
100
AcDbArc
 50
90.0
 51
180.0
  0
ARC
  5
3C3
100
AcDbEntity
  8
0
100
AcDbCircle
 62
7
  6
BYLAYER
 10
203.5801293383
 20
736.2573759959
 40
1.0
100
AcDbArc
 50
90.0
 51
180.0
  0
ARC
  5
3C4
100
AcDbEntity
  8
0
100
AcDbCircle
 62
7
  6
BYLAYER
 10
202.0801293383
 20
735.2573759959
 40
0.5
100
AcDbArc
 50
270.0
 51
360.0
  0
ARC
  5
3C5
100
AcDbEntity
  8
0
100
AcDbCircle
 62
7
  6
BYLAYER
 10
195.0801293383
 20
734.2573759959
 40
0.5
100
AcDbArc
 50
90.0
 51
180.0
  0
ARC
  5
3C6
100
AcDbEntity
  8
0
100
AcDbCircle
 62
7
  6
BYLAYER
 10
202.5801470002
 20
733.7573761789
 40
0.4999999532
100
AcDbArc
 50
102.1804098124
 51
282.180210997
  0
ARC
  5
3C7
100
AcDbEntity
  8
0
100
AcDbCircle
 62
7
  6
BYLAYER
 10
206.7559093383
 20
744.9573759959
 40
0.3
100
AcDbArc
 50
90.0
 51
180.0
  0
ARC
  5
3C8
100
AcDbEntity
  8
0
100
AcDbCircle
 62
7
  6
BYLAYER
 10
214.5801293383
 20
736.2573759959
 40
1.0
100
AcDbArc
 50
0.0
 51
90.0
  0
ARC
  5
3C9
100
AcDbEntity
  8
0
100
AcDbCircle
 62
7
  6
BYLAYER
 10
218.5801116764
 20
733.7573761789
 40
0.4999999532
100
AcDbArc
 50
257.819789003
 51
77.8195901876
  0
ARC
  5
3CA
100
AcDbEntity
  8
0
100
AcDbCircle
 62
7
  6
BYLAYER
 10
214.4059093383
 20
744.9573759959
 40
0.3
100
AcDbArc
 50
0.0
 51
90.0
  0
CIRCLE
  5
3CB
100
AcDbEntity
  8
4
100
AcDbCircle
 62
7
  6
BYLAYER
 10
219.5808571479
 20
654.9404535799
 40
6.3525
  0
CIRCLE
  5
3CC
100
AcDbEntity
  8
4
100
AcDbCircle
 62
7
  6
BYLAYER
 10
219.5808571479
 20
684.9404535799
 40
6.3525
  0
ARC
  5
3CD
100
AcDbEntity
  8
4
100
AcDbCircle
 62
7
  6
BYLAYER
 10
229.3916364228
 20
649.9404535799
 40
5.0
100
AcDbArc
 50
270.0
 51
360.0
  0
ARC
  5
3CE
100
AcDbEntity
  8
4
100
AcDbCircle
 62
7
  6
BYLAYER
 10
229.3916364228
 20
689.9404535799
 40
5.0
100
AcDbArc
 50
0.0
 51
90.0
  0
ARC
  5
3CF
100
AcDbEntity
  8
4
100
AcDbCircle
 62
7
  6
BYLAYER
 10
226.1916364228
 20
654.9404535799
 40
3.25
100
AcDbArc
 50
270.0
 51
90.0
  0
ARC
  5
3D0
100
AcDbEntity
  8
4
100
AcDbCircle
 62
7
  6
BYLAYER
 10
226.1916364228
 20
684.9404535799
 40
3.25
100
AcDbArc
 50
270.0
 51
90.0
  0
CIRCLE
  5
3D1
100
AcDbEntity
  8
4
100
AcDbCircle
 62
7
  6
BYLAYER
 10
219.5808571479
 20
654.9404535799
 40
3.0
  0
CIRCLE
  5
3D2
100
AcDbEntity
  8
4
100
AcDbCircle
 62
7
  6
BYLAYER
 10
219.5808571479
 20
684.9404535799
 40
3.0
  0
ARC
  5
3D3
100
AcDbEntity
  8
0
100
AcDbCircle
 62
7
  6
BYLAYER
 10
224.5801293383
 20
736.2573759959
 40
1.0
100
AcDbArc
 50
90.0
 51
180.0000000008
  0
ARC
  5
3D4
100
AcDbEntity
  8
0
100
AcDbCircle
 62
7
  6
BYLAYER
 10
220.5801470007
 20
733.7573761787
 40
0.4999999534
100
AcDbArc
 50
102.1571786862
 51
282.1569797606
  0
ARC
  5
3D5
100
AcDbEntity
  8
0
100
AcDbCircle
 62
7
  6
BYLAYER
 10
224.7568893383
 20
744.9573759959
 40
0.3
100
AcDbArc
 50
90.0
 51
180.0
  0
ARC
  5
3D6
100
AcDbEntity
  8
0
100
AcDbCircle
 62
7
  6
BYLAYER
 10
243.3801293383
 20
736.3573759959
 40
1.0
100
AcDbArc
 50
54.2529864704
 51
90.0
  0
ARC
  5
3D7
100
AcDbEntity
  8
0
100
AcDbCircle
 62
7
  6
BYLAYER
 10
237.7801293383
 20
736.3573759959
 40
1.0
100
AcDbArc
 50
90.0
 51
180.0
  0
ARC
  5
3D8
100
AcDbEntity
  8
0
100
AcDbCircle
 62
7
  6
BYLAYER
 10
242.3801293383
 20
736.3573759959
 40
1.0
100
AcDbArc
 50
0.0
 51
90.0
  0
ARC
  5
3D9
100
AcDbEntity
  8
0
100
AcDbCircle
 62
7
  6
BYLAYER
 10
235.5801293383
 20
736.2573759959
 40
1.0
100
AcDbArc
 50
0.0
 51
90.0
  0
ARC
  5
3DA
100
AcDbEntity
  8
0
100
AcDbCircle
 62
7
  6
BYLAYER
 10
243.5801293383
 20
736.2573759959
 40
1.0
100
AcDbArc
 50
0.0
 51
90.0
  0
ARC
  5
3DB
100
AcDbEntity
  8
0
100
AcDbCircle
 62
7
  6
BYLAYER
 10
244.0801293383
 20
734.2573759959
 40
0.5
100
AcDbArc
 50
0.0
 51
90.0
  0
ARC
  5
3DC
100
AcDbEntity
  8
0
100
AcDbCircle
 62
7
  6
BYLAYER
 10
237.0801293383
 20
735.2573759959
 40
0.5
100
AcDbArc
 50
180.0
 51
270.0
  0
ARC
  5
3DD
100
AcDbEntity
  8
0
100
AcDbCircle
 62
7
  6
BYLAYER
 10
236.5801116758
 20
733.7573761787
 40
0.4999999534
100
AcDbArc
 50
257.8430202394
 51
77.8428213138
  0
ARC
  5
3DE
100
AcDbEntity
  8
0
100
AcDbCircle
 62
7
  6
BYLAYER
 10
232.4068893383
 20
744.9573759959
 40
0.3
100
AcDbArc
 50
0.0
 51
90.0
  0
ARC
  5
3DF
100
AcDbEntity
  8
0
100
AcDbCircle
 62
7
  6
BYLAYER
 10
343.4295129979
 20
54.6573759959
 40
1.0
100
AcDbArc
 50
234.2503109332
 51
270.0
  0
ARC
  5
3E0
100
AcDbEntity
  8
0
100
AcDbCircle
 62
7
  6
BYLAYER
 10
349.0299880378
 20
54.6573759959
 40
1.0
100
AcDbArc
 50
270.0
 51
360.0
  0
ARC
  5
3E1
100
AcDbEntity
  8
0
100
AcDbCircle
 62
7
  6
BYLAYER
 10
344.4299880378
 20
54.6573759959
 40
1.0
100
AcDbArc
 50
180.0
 51
270.0
  0
ARC
  5
3E2
100
AcDbEntity
  8
0
100
AcDbCircle
 62
7
  6
BYLAYER
 10
351.2299880378
 20
54.7572658574
 40
1.0
100
AcDbArc
 50
180.0
 51
270.0
  0
ARC
  5
3E3
100
AcDbEntity
  8
0
100
AcDbCircle
 62
7
  6
BYLAYER
 10
343.2299880378
 20
54.7572658574
 40
1.0
100
AcDbArc
 50
180.0
 51
270.0
  0
ARC
  5
3E4
100
AcDbEntity
  8
0
100
AcDbCircle
 62
7
  6
BYLAYER
 10
362.2299880378
 20
54.7572658574
 40
1.0
100
AcDbArc
 50
270.0
 51
360.0
  0
ARC
  5
3E5
100
AcDbEntity
  8
0
100
AcDbCircle
 62
7
  6
BYLAYER
 10
342.7299880378
 20
56.7572658574
 40
0.5
100
AcDbArc
 50
180.0
 51
270.0
  0
ARC
  5
3E6
100
AcDbEntity
  8
0
100
AcDbCircle
 62
7
  6
BYLAYER
 10
349.7299880378
 20
55.7572658574
 40
0.5
100
AcDbArc
 50
0.0
 51
90.0
  0
ARC
  5
3E7
100
AcDbEntity
  8
3
100
AcDbCircle
 62
7
  6
BYLAYER
 10
360.3407673113
 20
108.6055511191
 40
3.25
100
AcDbArc
 50
90.0
 51
270.0
  0
ARC
  5
3E8
100
AcDbEntity
  8
3
100
AcDbCircle
 62
7
  6
BYLAYER
 10
360.3407673113
 20
138.6055511191
 40
3.25
100
AcDbArc
 50
90.0
 51
270.0
  0
ARC
  5
3E9
100
AcDbEntity
  8
0
100
AcDbCircle
 62
7
  6
BYLAYER
 10
391.0295129948
 20
54.6573759959
 40
1.0
100
AcDbArc
 50
270.0
 51
305.7190868306
  0
ARC
  5
3EA
100
AcDbEntity
  8
0
100
AcDbCircle
 62
7
  6
BYLAYER
 10
390.0299880349
 20
54.6573759959
 40
1.0
100
AcDbArc
 50
270.0
 51
360.0
  0
ARC
  5
3EB
100
AcDbEntity
  8
0
100
AcDbCircle
 62
7
  6
BYLAYER
 10
385.4299880349
 20
54.6573759959
 40
1.0
100
AcDbArc
 50
180.0
 51
270.0
  0
ARC
  5
3EC
100
AcDbEntity
  8
0
100
AcDbCircle
 62
7
  6
BYLAYER
 10
372.2299880378
 20
54.7572658574
 40
1.0
100
AcDbArc
 50
179.9999999984
 51
270.0
  0
ARC
  5
3ED
100
AcDbEntity
  8
0
100
AcDbCircle
 62
7
  6
BYLAYER
 10
383.2299880378
 20
54.7572658574
 40
1.0
100
AcDbArc
 50
270.0
 51
360.0
  0
ARC
  5
3EE
100
AcDbEntity
  8
0
100
AcDbCircle
 62
7
  6
BYLAYER
 10
391.2299880378
 20
54.7572658574
 40
1.0
100
AcDbArc
 50
270.0
 51
360.0
  0
ARC
  5
3EF
100
AcDbEntity
  8
0
100
AcDbCircle
 62
7
  6
BYLAYER
 10
384.7299880378
 20
55.7572658574
 40
0.5
100
AcDbArc
 50
90.0
 51
180.0
  0
ARC
  5
3F0
100
AcDbEntity
  8
0
100
AcDbCircle
 62
7
  6
BYLAYER
 10
391.7299880378
 20
56.7572658574
 40
0.5
100
AcDbArc
 50
270.0
 51
360.0
  0
CIRCLE
  5
3F1
100
AcDbEntity
  8
3
100
AcDbCircle
 62
7
  6
BYLAYER
 10
367.2299880364
 20
138.6055511191
 40
6.3525
  0
CIRCLE
  5
3F2
100
AcDbEntity
  8
3
100
AcDbCircle
 62
7
  6
BYLAYER
 10
367.2299880364
 20
108.6055511191
 40
6.3525
  0
ARC
  5
3F3
100
AcDbEntity
  8
3
100
AcDbCircle
 62
7
  6
BYLAYER
 10
377.0407673113
 20
103.6055511191
 40
5.0
100
AcDbArc
 50
270.0
 51
360.0
  0
ARC
  5
3F4
100
AcDbEntity
  8
3
100
AcDbCircle
 62
7
  6
BYLAYER
 10
377.0407673113
 20
143.6055511191
 40
5.0
100
AcDbArc
 50
0.0
 51
90.0
  0
ARC
  5
3F5
100
AcDbEntity
  8
3
100
AcDbCircle
 62
7
  6
BYLAYER
 10
373.8407673113
 20
108.6055511191
 40
3.25
100
AcDbArc
 50
270.0
 51
90.0
  0
ARC
  5
3F6
100
AcDbEntity
  8
3
100
AcDbCircle
 62
7
  6
BYLAYER
 10
373.8407673113
 20
138.6055511191
 40
3.25
100
AcDbArc
 50
270.0
 51
90.0
  0
CIRCLE
  5
3F7
100
AcDbEntity
  8
3
100
AcDbCircle
 62
7
  6
BYLAYER
 10
367.2299880364
 20
108.6055511191
 40
3.0
  0
CIRCLE
  5
3F8
100
AcDbEntity
  8
3
100
AcDbCircle
 62
7
  6
BYLAYER
 10
367.2299880364
 20
138.6055511191
 40
3.0
  0
ARC
  5
3F9
100
AcDbEntity
  8
3
100
AcDbCircle
 62
7
  6
BYLAYER
 10
360.3407673113
 20
654.9404535799
 40
3.25
100
AcDbArc
 50
90.0
 51
270.0
  0
ARC
  5
3FA
100
AcDbEntity
  8
3
100
AcDbCircle
 62
7
  6
BYLAYER
 10
360.3407673113
 20
684.9404535799
 40
3.25
100
AcDbArc
 50
90.0
 51
270.0
  0
ARC
  5
3FB
100
AcDbEntity
  8
0
100
AcDbCircle
 62
7
  6
BYLAYER
 10
343.4292602268
 20
736.3573759959
 40
1.0
100
AcDbArc
 50
90.0
 51
125.746880854
  0
ARC
  5
3FC
100
AcDbEntity
  8
0
100
AcDbCircle
 62
7
  6
BYLAYER
 10
344.4292602268
 20
736.3573759959
 40
1.0
100
AcDbArc
 50
90.0
 51
180.0
  0
ARC
  5
3FD
100
AcDbEntity
  8
0
100
AcDbCircle
 62
7
  6
BYLAYER
 10
349.0292602268
 20
736.3573759959
 40
1.0
100
AcDbArc
 50
0.0
 51
90.0
  0
ARC
  5
3FE
100
AcDbEntity
  8
0
100
AcDbCircle
 62
7
  6
BYLAYER
 10
343.2292602268
 20
736.2573759959
 40
1.0
100
AcDbArc
 50
90.0
 51
180.0
  0
ARC
  5
3FF
100
AcDbEntity
  8
0
100
AcDbCircle
 62
7
  6
BYLAYER
 10
351.2292602268
 20
736.2573759959
 40
1.0
100
AcDbArc
 50
90.0
 51
180.0
  0
ARC
  5
400
100
AcDbEntity
  8
0
100
AcDbCircle
 62
7
  6
BYLAYER
 10
349.7292602268
 20
735.2573759959
 40
0.5
100
AcDbArc
 50
270.0
 51
360.0
  0
ARC
  5
401
100
AcDbEntity
  8
0
100
AcDbCircle
 62
7
  6
BYLAYER
 10
342.7292602268
 20
734.2573759959
 40
0.5
100
AcDbArc
 50
90.0
 51
180.0
  0
ARC
  5
402
100
AcDbEntity
  8
0
100
AcDbCircle
 62
7
  6
BYLAYER
 10
350.2292778887
 20
733.7573761789
 40
0.4999999532
100
AcDbArc
 50
102.1804098124
 51
282.180210997
  0
ARC
  5
403
100
AcDbEntity
  8
0
100
AcDbCircle
 62
7
  6
BYLAYER
 10
354.4050402268
 20
744.9573759959
 40
0.3
100
AcDbArc
 50
90.0
 51
180.0
  0
ARC
  5
404
100
AcDbEntity
  8
0
100
AcDbCircle
 62
7
  6
BYLAYER
 10
362.2292602268
 20
736.2573759959
 40
1.0
100
AcDbArc
 50
0.0
 51
90.0
  0
ARC
  5
405
100
AcDbEntity
  8
0
100
AcDbCircle
 62
7
  6
BYLAYER
 10
366.2292425649
 20
733.7573761789
 40
0.4999999532
100
AcDbArc
 50
257.819789003
 51
77.8195901876
  0
ARC
  5
406
100
AcDbEntity
  8
0
100
AcDbCircle
 62
7
  6
BYLAYER
 10
362.0550402268
 20
744.9573759959
 40
0.3
100
AcDbArc
 50
0.0
 51
90.0
  0
CIRCLE
  5
407
100
AcDbEntity
  8
3
100
AcDbCircle
 62
7
  6
BYLAYER
 10
367.2299880364
 20
684.9404535799
 40
6.3525
  0
CIRCLE
  5
408
100
AcDbEntity
  8
3
100
AcDbCircle
 62
7
  6
BYLAYER
 10
367.2299880364
 20
654.9404535799
 40
6.3525
  0
ARC
  5
409
100
AcDbEntity
  8
3
100
AcDbCircle
 62
7
  6
BYLAYER
 10
377.0407673113
 20
649.9404535799
 40
5.0
100
AcDbArc
 50
270.0
 51
360.0
  0
ARC
  5
40A
100
AcDbEntity
  8
3
100
AcDbCircle
 62
7
  6
BYLAYER
 10
377.0407673113
 20
689.9404535799
 40
5.0
100
AcDbArc
 50
0.0
 51
90.0
  0
ARC
  5
40B
100
AcDbEntity
  8
3
100
AcDbCircle
 62
7
  6
BYLAYER
 10
373.8407673113
 20
654.9404535799
 40
3.25
100
AcDbArc
 50
270.0
 51
90.0
  0
ARC
  5
40C
100
AcDbEntity
  8
3
100
AcDbCircle
 62
7
  6
BYLAYER
 10
373.8407673113
 20
684.9404535799
 40
3.25
100
AcDbArc
 50
270.0
 51
90.0
  0
CIRCLE
  5
40D
100
AcDbEntity
  8
3
100
AcDbCircle
 62
7
  6
BYLAYER
 10
367.2299880364
 20
654.9404535799
 40
3.0
  0
CIRCLE
  5
40E
100
AcDbEntity
  8
3
100
AcDbCircle
 62
7
  6
BYLAYER
 10
367.2299880364
 20
684.9404535799
 40
3.0
  0
ARC
  5
40F
100
AcDbEntity
  8
0
100
AcDbCircle
 62
7
  6
BYLAYER
 10
372.2292602268
 20
736.2573759959
 40
1.0
100
AcDbArc
 50
90.0
 51
180.0000000008
  0
ARC
  5
410
100
AcDbEntity
  8
0
100
AcDbCircle
 62
7
  6
BYLAYER
 10
368.2292778892
 20
733.7573761787
 40
0.4999999534
100
AcDbArc
 50
102.1571786862
 51
282.1569797606
  0
ARC
  5
411
100
AcDbEntity
  8
0
100
AcDbCircle
 62
7
  6
BYLAYER
 10
372.4060202268
 20
744.9573759959
 40
0.3
100
AcDbArc
 50
90.0
 51
180.0
  0
ARC
  5
412
100
AcDbEntity
  8
0
100
AcDbCircle
 62
7
  6
BYLAYER
 10
391.0292602268
 20
736.3573759959
 40
1.0
100
AcDbArc
 50
54.2529864704
 51
90.0
  0
ARC
  5
413
100
AcDbEntity
  8
0
100
AcDbCircle
 62
7
  6
BYLAYER
 10
385.4292602268
 20
736.3573759959
 40
1.0
100
AcDbArc
 50
90.0
 51
180.0
  0
ARC
  5
414
100
AcDbEntity
  8
0
100
AcDbCircle
 62
7
  6
BYLAYER
 10
390.0292602268
 20
736.3573759959
 40
1.0
100
AcDbArc
 50
0.0
 51
90.0
  0
ARC
  5
415
100
AcDbEntity
  8
0
100
AcDbCircle
 62
7
  6
BYLAYER
 10
383.2292602268
 20
736.2573759959
 40
1.0
100
AcDbArc
 50
0.0
 51
90.0
  0
ARC
  5
416
100
AcDbEntity
  8
0
100
AcDbCircle
 62
7
  6
BYLAYER
 10
391.2292602268
 20
736.2573759959
 40
1.0
100
AcDbArc
 50
0.0
 51
90.0
  0
ARC
  5
417
100
AcDbEntity
  8
0
100
AcDbCircle
 62
7
  6
BYLAYER
 10
391.7292602268
 20
734.2573759959
 40
0.5
100
AcDbArc
 50
0.0
 51
90.0
  0
ARC
  5
418
100
AcDbEntity
  8
0
100
AcDbCircle
 62
7
  6
BYLAYER
 10
384.7292602268
 20
735.2573759959
 40
0.5
100
AcDbArc
 50
180.0
 51
270.0
  0
ARC
  5
419
100
AcDbEntity
  8
0
100
AcDbCircle
 62
7
  6
BYLAYER
 10
384.2292425644
 20
733.7573761787
 40
0.4999999534
100
AcDbArc
 50
257.8430202394
 51
77.8428213138
  0
ARC
  5
41A
100
AcDbEntity
  8
0
100
AcDbCircle
 62
7
  6
BYLAYER
 10
380.0560202268
 20
744.9573759959
 40
0.3
100
AcDbArc
 50
0.0
 51
90.0
  0
SPLINE
  5
41B
100
AcDbEntity
  8
0
100
AcDbSpline
 62
7
  6
BYLAYER
 70
0
 71
3
 72
13
 73
9
 74
0
 42
0.0000001
 43
0.0000001
 44
0.0000000001
 40
0.0
 40
0.0
 40
0.0
 40
0.0
 40
0.0769117591
 40
0.1615599831
 40
0.2599401278
 40
0.3754978976
 40
0.6607031278
 40
1.0
 40
1.0
 40
1.0
 40
1.0
 10
372.229262261
 20
737.2573759962
 30
0.0
 10
372.1982965592
 20
737.2573696571
 30
0.0
 10
372.1327777069
 20
737.2447134711
 30
0.0
 10
372.041464333
 20
737.1904932486
 30
0.0
 10
371.9570411528
 20
737.1034026569
 30
0.0
 10
371.8487956967
 20
736.9328510575
 30
0.0
 10
371.7543830182
 20
736.6459974163
 30
0.0
 10
371.7292614126
 20
736.3939814529
 30
0.0
 10
371.7292607676
 20
736.2573759959
 30
0.0
  0
SPLINE
  5
41C
100
AcDbEntity
  8
0
100
AcDbSpline
 62
7
  6
BYLAYER
 70
0
 71
3
 72
14
 73
10
 74
0
 42
0.0000001
 43
0.0000001
 44
0.0000000001
 40
0.0
 40
0.0
 40
0.0
 40
0.0
 40
0.1247554493
 40
0.2497373879
 40
0.3748457258
 40
0.5000187559
 40
0.7495153736
 40
0.8747430248
 40
1.0
 40
1.0
 40
1.0
 40
1.0
 10
351.2292602268
 20
735.2573759959
 30
0.0
 10
351.2292600065
 20
735.1743675421
 30
0.0
 10
351.197127755
 20
735.0071425104
 30
0.0
 10
351.074623523
 20
734.786555282
 30
0.0
 10
350.9035099555
 20
734.6019349261
 30
0.0
 10
350.6314397513
 20
734.4076166159
 30
0.0
 10
350.3107030766
 20
734.2937282049
 30
0.0
 10
349.9794490008
 20
734.2573584598
 30
0.0
 10
349.8126023805
 20
734.2573759752
 30
0.0
 10
349.7292602268
 20
734.2573759959
 30
0.0
  0
SPLINE
  5
41D
100
AcDbEntity
  8
0
100
AcDbSpline
 62
7
  6
BYLAYER
 70
0
 71
3
 72
18
 73
14
 74
0
 42
0.0000001
 43
0.0000001
 44
0.0000000001
 40
0.0
 40
0.0
 40
0.0
 40
0.0
 40
0.1238083169
 40
0.2666959178
 40
0.4203007162
 40
0.5759591545
 40
0.7251509571
 40
0.7939305468
 40
0.856923801
 40
0.9124064077
 40
0.9574411998
 40
0.9883991012
 40
1.0
 40
1.0
 40
1.0
 40
1.0
 10
343.2292602385
 20
735.2573759959
 30
0.0
 10
343.2292601654
 20
735.2275263173
 30
0.0
 10
343.2055773446
 20
735.1640656427
 30
0.0
 10
343.1409007325
 20
735.0859723019
 30
0.0
 10
343.0629626014
 20
735.0094761464
 30
0.0
 10
342.9786784454
 20
734.9379285883
 30
0.0
 10
342.9083920707
 20
734.881565784
 30
0.0
 10
342.8545082259
 20
734.8405125858
 30
0.0
 10
342.8179456843
 20
734.8140072303
 30
0.0
 10
342.7857730676
 20
734.791276912
 30
0.0
 10
342.7584698677
 20
734.7748709138
 30
0.0
 10
342.7417163327
 20
734.7623999521
 30
0.0
 10
342.7309971575
 20
734.7595682381
 30
0.0
 10
342.7292602351
 20
734.7573759987
 30
0.0
  0
SPLINE
  5
41E
100
AcDbEntity
  8
0
100
AcDbSpline
 62
7
  6
BYLAYER
 70
0
 71
3
 72
18
 73
14
 74
0
 42
0.0000001
 43
0.0000001
 44
0.0000000001
 40
0.0
 40
0.0
 40
0.0
 40
0.0
 40
0.0116008988
 40
0.0425588002
 40
0.0875935924
 40
0.1430761991
 40
0.2060694533
 40
0.2748490431
 40
0.4240408459
 40
0.5796992842
 40
0.7333040827
 40
0.8761916833
 40
1.0
 40
1.0
 40
1.0
 40
1.0
 10
391.7292602194
 20
734.7573759987
 30
0.0
 10
391.7275241708
 20
734.7595689302
 30
0.0
 10
391.7168030081
 20
734.7623990701
 30
0.0
 10
391.7000511902
 20
734.7748713917
 30
0.0
 10
391.6727471537
 20
734.7912767273
 30
0.0
 10
391.640574848
 20
734.814007292
 30
0.0
 10
391.6040122051
 20
734.8405125672
 30
0.0
 10
391.5501283994
 20
734.8815657964
 30
0.0
 10
391.4798420038
 20
734.9379285842
 30
0.0
 10
391.395557855
 20
735.009476148
 30
0.0
 10
391.3176197222
 20
735.085972302
 30
0.0
 10
391.2529431107
 20
735.164065643
 30
0.0
 10
391.2292602899
 20
735.2275263173
 30
0.0
 10
391.2292602169
 20
735.2573759959
 30
0.0
  0
SPLINE
  5
41F
100
AcDbEntity
  8
0
100
AcDbSpline
 62
7
  6
BYLAYER
 70
0
 71
3
 72
13
 73
9
 74
0
 42
0.0000001
 43
0.0000001
 44
0.0000000001
 40
0.0
 40
0.0
 40
0.0
 40
0.0
 40
0.33928585
 40
0.6244968196
 40
0.74005726
 40
0.8384380635
 40
0.9230857437
 40
1.0
 40
1.0
 40
1.0
 40
1.0
 10
362.7292588036
 20
736.2573759959
 30
0.0
 10
362.7292588032
 20
736.393977014
 30
0.0
 10
362.7041371423
 20
736.6459907326
 30
0.0
 10
362.6097272135
 20
736.9328440345
 30
0.0
 10
362.5014810579
 20
737.1033996499
 30
0.0
 10
362.4170574465
 20
737.1904912789
 30
0.0
 10
362.3257436379
 20
737.2447130995
 30
0.0
 10
362.2602239928
 20
737.2573689993
 30
0.0
 10
362.229257286
 20
737.2573759963
 30
0.0
  0
SPLINE
  5
420
100
AcDbEntity
  8
0
100
AcDbSpline
 62
7
  6
BYLAYER
 70
0
 71
3
 72
14
 73
10
 74
0
 42
0.0000001
 43
0.0000001
 44
0.0000000001
 40
0.0
 40
0.0
 40
0.0
 40
0.0
 40
0.124755068
 40
0.2497371838
 40
0.3748455004
 40
0.5000186091
 40
0.7495154875
 40
0.8747430736
 40
1.0
 40
1.0
 40
1.0
 40
1.0
 10
383.2292602268
 20
735.2573759959
 30
0.0
 10
383.2292604471
 20
735.1743677966
 30
0.0
 10
383.2613925736
 20
735.0071429098
 30
0.0
 10
383.3838965905
 20
734.7865557177
 30
0.0
 10
383.5550101941
 20
734.6019351826
 30
0.0
 10
383.8270805149
 20
734.4076166851
 30
0.0
 10
384.147817375
 20
734.2937281022
 30
0.0
 10
384.4790715702
 20
734.2573586608
 30
0.0
 10
384.6459181063
 20
734.2573759752
 30
0.0
 10
384.7292602268
 20
734.2573759959
 30
0.0
  0
SPLINE
  5
421
100
AcDbEntity
  8
0
100
AcDbSpline
 62
7
  6
BYLAYER
 70
0
 71
3
 72
13
 73
9
 74
0
 42
0.0000001
 43
0.0000001
 44
0.0000000001
 40
0.0
 40
0.0
 40
0.0
 40
0.0
 40
0.0769117591
 40
0.1615599831
 40
0.2599401278
 40
0.3754978976
 40
0.6607031278
 40
1.0
 40
1.0
 40
1.0
 40
1.0
 10
224.5801313725
 20
737.2573759962
 30
0.0
 10
224.5491656707
 20
737.2573696571
 30
0.0
 10
224.4836468183
 20
737.2447134711
 30
0.0
 10
224.3923334445
 20
737.1904932486
 30
0.0
 10
224.3079102643
 20
737.1034026569
 30
0.0
 10
224.1996648082
 20
736.9328510575
 30
0.0
 10
224.1052521296
 20
736.6459974163
 30
0.0
 10
224.0801305241
 20
736.3939814529
 30
0.0
 10
224.0801298791
 20
736.2573759959
 30
0.0
  0
SPLINE
  5
422
100
AcDbEntity
  8
0
100
AcDbSpline
 62
7
  6
BYLAYER
 70
0
 71
3
 72
14
 73
10
 74
0
 42
0.0000001
 43
0.0000001
 44
0.0000000001
 40
0.0
 40
0.0
 40
0.0
 40
0.0
 40
0.1247554493
 40
0.2497373879
 40
0.3748457258
 40
0.5000187559
 40
0.7495153736
 40
0.8747430248
 40
1.0
 40
1.0
 40
1.0
 40
1.0
 10
203.5801293383
 20
735.2573759959
 30
0.0
 10
203.580129118
 20
735.1743675421
 30
0.0
 10
203.5479968665
 20
735.0071425104
 30
0.0
 10
203.4254926345
 20
734.786555282
 30
0.0
 10
203.254379067
 20
734.6019349261
 30
0.0
 10
202.9823088628
 20
734.4076166159
 30
0.0
 10
202.6615721881
 20
734.2937282049
 30
0.0
 10
202.3303181123
 20
734.2573584598
 30
0.0
 10
202.163471492
 20
734.2573759752
 30
0.0
 10
202.0801293383
 20
734.2573759959
 30
0.0
  0
SPLINE
  5
423
100
AcDbEntity
  8
0
100
AcDbSpline
 62
7
  6
BYLAYER
 70
0
 71
3
 72
18
 73
14
 74
0
 42
0.0000001
 43
0.0000001
 44
0.0000000001
 40
0.0
 40
0.0
 40
0.0
 40
0.0
 40
0.1238083169
 40
0.2666959178
 40
0.4203007162
 40
0.5759591545
 40
0.7251509571
 40
0.7939305468
 40
0.856923801
 40
0.9124064077
 40
0.9574411998
 40
0.9883991012
 40
1.0
 40
1.0
 40
1.0
 40
1.0
 10
195.5801293499
 20
735.2573759959
 30
0.0
 10
195.5801292769
 20
735.2275263173
 30
0.0
 10
195.5564464561
 20
735.1640656427
 30
0.0
 10
195.491769844
 20
735.085972302
 30
0.0
 10
195.4138317129
 20
735.0094761464
 30
0.0
 10
195.3295475568
 20
734.9379285884
 30
0.0
 10
195.2592611825
 20
734.8815657837
 30
0.0
 10
195.2053773369
 20
734.8405125862
 30
0.0
 10
195.1688147974
 20
734.8140072291
 30
0.0
 10
195.1366421742
 20
734.7912769158
 30
0.0
 10
195.1093389916
 20
734.7748709039
 30
0.0
 10
195.0925854213
 20
734.7623999702
 30
0.0
 10
195.081866287
 20
734.7595682239
 30
0.0
 10
195.0801293466
 20
734.7573759987
 30
0.0
  0
SPLINE
  5
424
100
AcDbEntity
  8
0
100
AcDbSpline
 62
7
  6
BYLAYER
 70
0
 71
3
 72
18
 73
14
 74
0
 42
0.0000001
 43
0.0000001
 44
0.0000000001
 40
0.0
 40
0.0
 40
0.0
 40
0.0
 40
0.0116008988
 40
0.0425588002
 40
0.0875935924
 40
0.1430761991
 40
0.2060694533
 40
0.2748490431
 40
0.4240408459
 40
0.5796992842
 40
0.7333040827
 40
0.8761916833
 40
1.0
 40
1.0
 40
1.0
 40
1.0
 10
244.0801293309
 20
734.7573759987
 30
0.0
 10
244.0783932823
 20
734.7595689302
 30
0.0
 10
244.0676721196
 20
734.7623990701
 30
0.0
 10
244.0509203017
 20
734.7748713917
 30
0.0
 10
244.0236162652
 20
734.7912767273
 30
0.0
 10
243.9914439595
 20
734.814007292
 30
0.0
 10
243.9548813166
 20
734.8405125672
 30
0.0
 10
243.9009975109
 20
734.8815657964
 30
0.0
 10
243.8307111153
 20
734.9379285842
 30
0.0
 10
243.7464269665
 20
735.009476148
 30
0.0
 10
243.6684888337
 20
735.085972302
 30
0.0
 10
243.6038122222
 20
735.164065643
 30
0.0
 10
243.5801294014
 20
735.2275263173
 30
0.0
 10
243.5801293284
 20
735.2573759959
 30
0.0
  0
SPLINE
  5
425
100
AcDbEntity
  8
0
100
AcDbSpline
 62
7
  6
BYLAYER
 70
0
 71
3
 72
13
 73
9
 74
0
 42
0.0000001
 43
0.0000001
 44
0.0000000001
 40
0.0
 40
0.0
 40
0.0
 40
0.0
 40
0.3392858511
 40
0.6244968217
 40
0.7400572221
 40
0.83843806
 40
0.9230857453
 40
1.0
 40
1.0
 40
1.0
 40
1.0
 10
215.0801279151
 20
736.2573759959
 30
0.0
 10
215.0801279147
 20
736.393977014
 30
0.0
 10
215.0550062366
 20
736.6459907203
 30
0.0
 10
214.9605963676
 20
736.9328440457
 30
0.0
 10
214.8523501317
 20
737.1033995997
 30
0.0
 10
214.7679265755
 20
737.1904912763
 30
0.0
 10
214.6766127522
 20
737.2447131168
 30
0.0
 10
214.6110931036
 20
737.2573689993
 30
0.0
 10
214.5801263974
 20
737.2573759963
 30
0.0
  0
SPLINE
  5
426
100
AcDbEntity
  8
0
100
AcDbSpline
 62
7
  6
BYLAYER
 70
0
 71
3
 72
14
 73
10
 74
0
 42
0.0000001
 43
0.0000001
 44
0.0000000001
 40
0.0
 40
0.0
 40
0.0
 40
0.0
 40
0.124755068
 40
0.2497371838
 40
0.3748455004
 40
0.5000186091
 40
0.7495154875
 40
0.8747430736
 40
1.0
 40
1.0
 40
1.0
 40
1.0
 10
235.5801293383
 20
735.2573759959
 30
0.0
 10
235.5801295586
 20
735.1743677966
 30
0.0
 10
235.6122616851
 20
735.0071429098
 30
0.0
 10
235.734765702
 20
734.7865557177
 30
0.0
 10
235.9058793056
 20
734.6019351826
 30
0.0
 10
236.1779496264
 20
734.4076166851
 30
0.0
 10
236.4986864865
 20
734.2937281022
 30
0.0
 10
236.8299406817
 20
734.2573586608
 30
0.0
 10
236.9967872178
 20
734.2573759752
 30
0.0
 10
237.0801293383
 20
734.2573759959
 30
0.0
  0
SPLINE
  5
427
100
AcDbEntity
  8
0
100
AcDbSpline
 62
7
  6
BYLAYER
 70
0
 71
3
 72
13
 73
9
 74
0
 42
0.0000001
 43
0.0000001
 44
0.0000000001
 40
0.0
 40
0.0
 40
0.0
 40
0.0
 40
0.3392858503
 40
0.6244968202
 40
0.7400572498
 40
0.8384380626
 40
0.9230857442
 40
1.0
 40
1.0
 40
1.0
 40
1.0
 10
224.0808585725
 20
54.7572658574
 30
0.0
 10
224.0808585729
 20
54.6206648392
 30
0.0
 10
224.1059802384
 20
54.368651124
 30
0.0
 10
224.2003901512
 20
54.0817978157
 30
0.0
 10
224.3086363283
 20
53.9112422169
 30
0.0
 10
224.3930599249
 20
53.824150575
 30
0.0
 10
224.4843737375
 20
53.7699287491
 30
0.0
 10
224.5498933835
 20
53.757272854
 30
0.0
 10
224.5808600901
 20
53.7572658569
 30
0.0
  0
SPLINE
  5
428
100
AcDbEntity
  8
0
100
AcDbSpline
 62
7
  6
BYLAYER
 70
0
 71
3
 72
13
 73
9
 74
0
 42
0.0000001
 43
0.0000001
 44
0.0000000001
 40
0.0
 40
0.0
 40
0.0
 40
0.0
 40
0.0769117555
 40
0.161559974
 40
0.2599401127
 40
0.3754978776
 40
0.6607031082
 40
1.0
 40
1.0
 40
1.0
 40
1.0
 10
214.5808552074
 20
53.757265857
 30
0.0
 10
214.6118209083
 20
53.7572721932
 30
0.0
 10
214.6773397593
 20
53.7699283721
 30
0.0
 10
214.7686531336
 20
53.8241485856
 30
0.0
 10
214.8530763153
 20
53.9112391696
 30
0.0
 10
214.961321777
 20
54.0817907644
 30
0.0
 10
215.0557344637
 20
54.3686444148
 30
0.0
 10
215.0808560724
 20
54.6206603902
 30
0.0
 10
215.0808567173
 20
54.7572658573
 30
0.0
  0
SPLINE
  5
429
100
AcDbEntity
  8
0
100
AcDbSpline
 62
7
  6
BYLAYER
 70
0
 71
3
 72
18
 73
14
 74
0
 42
0.0000001
 43
0.0000001
 44
0.0000000001
 40
0.0
 40
0.0
 40
0.0
 40
0.0
 40
0.0116008988
 40
0.0425588002
 40
0.0875935924
 40
0.1430761991
 40
0.2060694533
 40
0.2748490431
 40
0.4240408459
 40
0.5796992842
 40
0.7333040827
 40
0.8761916833
 40
1.0
 40
1.0
 40
1.0
 40
1.0
 10
195.0808571567
 20
56.2572658545
 30
0.0
 10
195.0825931667
 20
56.2550728925
 30
0.0
 10
195.0933144171
 20
56.252242822
 30
0.0
 10
195.1100661592
 20
56.2397704404
 30
0.0
 10
195.1373702327
 20
56.2233651341
 30
0.0
 10
195.1695425246
 20
56.2006345585
 30
0.0
 10
195.206105172
 20
56.1741292868
 30
0.0
 10
195.259988976
 20
56.1330760563
 30
0.0
 10
195.3302753726
 20
56.0767132692
 30
0.0
 10
195.414559521
 20
56.0051657052
 30
0.0
 10
195.4924976539
 20
55.9286695512
 30
0.0
 10
195.5571742654
 20
55.8505762103
 30
0.0
 10
195.5808570862
 20
55.7871155359
 30
0.0
 10
195.5808571592
 20
55.7572658574
 30
0.0
  0
SPLINE
  5
42A
100
AcDbEntity
  8
0
100
AcDbSpline
 62
7
  6
BYLAYER
 70
0
 71
3
 72
14
 73
10
 74
0
 42
0.0000001
 43
0.0000001
 44
0.0000000001
 40
0.0
 40
0.0
 40
0.0
 40
0.0
 40
0.124755068
 40
0.2497371838
 40
0.3748455004
 40
0.5000186091
 40
0.7495154875
 40
0.8747430736
 40
1.0
 40
1.0
 40
1.0
 40
1.0
 10
203.5808571493
 20
55.7572658574
 30
0.0
 10
203.580856929
 20
55.8402740566
 30
0.0
 10
203.5487248025
 20
56.0074989435
 30
0.0
 10
203.4262207856
 20
56.2280861356
 30
0.0
 10
203.255107182
 20
56.4127066706
 30
0.0
 10
202.9830368612
 20
56.6070251682
 30
0.0
 10
202.6623000011
 20
56.7209137511
 30
0.0
 10
202.3310458059
 20
56.7572831925
 30
0.0
 10
202.1641992698
 20
56.7572658781
 30
0.0
 10
202.0808571493
 20
56.7572658574
 30
0.0
  0
SPLINE
  5
42B
100
AcDbEntity
  8
0
100
AcDbSpline
 62
7
  6
BYLAYER
 70
0
 71
3
 72
14
 73
10
 74
0
 42
0.0000001
 43
0.0000001
 44
0.0000000001
 40
0.0
 40
0.0
 40
0.0
 40
0.0
 40
0.1247554493
 40
0.2497373879
 40
0.3748457258
 40
0.5000187559
 40
0.7495153736
 40
0.8747430248
 40
1.0
 40
1.0
 40
1.0
 40
1.0
 10
235.5808571493
 20
55.7572658574
 30
0.0
 10
235.5808573696
 20
55.8402743111
 30
0.0
 10
235.6129896211
 20
56.0074993428
 30
0.0
 10
235.7354938531
 20
56.2280865713
 30
0.0
 10
235.9066074206
 20
56.4127069271
 30
0.0
 10
236.1786776248
 20
56.6070252373
 30
0.0
 10
236.4994142995
 20
56.7209136484
 30
0.0
 10
236.8306683753
 20
56.7572833935
 30
0.0
 10
236.9975149956
 20
56.7572658781
 30
0.0
 10
237.0808571493
 20
56.7572658574
 30
0.0
  0
SPLINE
  5
42C
100
AcDbEntity
  8
0
100
AcDbSpline
 62
7
  6
BYLAYER
 70
0
 71
3
 72
18
 73
14
 74
0
 42
0.0000001
 43
0.0000001
 44
0.0000000001
 40
0.0
 40
0.0
 40
0.0
 40
0.0
 40
0.1238083169
 40
0.2666959178
 40
0.4203007162
 40
0.5759591545
 40
0.7251509571
 40
0.7939305468
 40
0.856923801
 40
0.9124064077
 40
0.9574411998
 40
0.9883991012
 40
1.0
 40
1.0
 40
1.0
 40
1.0
 10
243.5808571376
 20
55.7572658574
 30
0.0
 10
243.5808572107
 20
55.787115536
 30
0.0
 10
243.6045400315
 20
55.8505762106
 30
0.0
 10
243.6692166436
 20
55.9286695513
 30
0.0
 10
243.7471547747
 20
56.0051657068
 30
0.0
 10
243.8314389307
 20
56.0767132649
 30
0.0
 10
243.9017253054
 20
56.1330760693
 30
0.0
 10
243.9556091503
 20
56.1741292674
 30
0.0
 10
243.9921716917
 20
56.200634623
 30
0.0
 10
244.0243443088
 20
56.2233649411
 30
0.0
 10
244.0516475078
 20
56.2397709399
 30
0.0
 10
244.0684010445
 20
56.2522419003
 30
0.0
 10
244.0791202178
 20
56.2550736158
 30
0.0
 10
244.080857141
 20
56.2572658545
 30
0.0
  0
SPLINE
  5
42D
100
AcDbEntity
  8
0
100
AcDbSpline
 62
7
  6
BYLAYER
 70
0
 71
3
 72
13
 73
9
 74
0
 42
0.0000001
 43
0.0000001
 44
0.0000000001
 40
0.0
 40
0.0
 40
0.0
 40
0.0
 40
0.3392858497
 40
0.6244968192
 40
0.7400572682
 40
0.8384380643
 40
0.9230857436
 40
1.0
 40
1.0
 40
1.0
 40
1.0
 10
371.729989461
 20
54.7572658574
 30
0.0
 10
371.7299894614
 20
54.6206648392
 30
0.0
 10
371.7551111185
 20
54.368651118
 30
0.0
 10
371.8495210605
 20
54.0817978212
 30
0.0
 10
371.9577671985
 20
53.9112421925
 30
0.0
 10
372.0421908219
 20
53.8241505737
 30
0.0
 10
372.1335046275
 20
53.7699287576
 30
0.0
 10
372.1990242717
 20
53.757272854
 30
0.0
 10
372.2299909787
 20
53.7572658569
 30
0.0
  0
SPLINE
  5
42E
100
AcDbEntity
  8
0
100
AcDbSpline
 62
7
  6
BYLAYER
 70
0
 71
3
 72
13
 73
9
 74
0
 42
0.0000001
 43
0.0000001
 44
0.0000000001
 40
0.0
 40
0.0
 40
0.0
 40
0.0
 40
0.0769117554
 40
0.161559974
 40
0.2599401127
 40
0.3754978776
 40
0.6607031082
 40
1.0
 40
1.0
 40
1.0
 40
1.0
 10
362.2299860959
 20
53.757265857
 30
0.0
 10
362.2609517968
 20
53.7572721932
 30
0.0
 10
362.3264706478
 20
53.7699283722
 30
0.0
 10
362.4177840221
 20
53.8241485856
 30
0.0
 10
362.5022072038
 20
53.9112391696
 30
0.0
 10
362.6104526655
 20
54.0817907644
 30
0.0
 10
362.7048653522
 20
54.3686444148
 30
0.0
 10
362.7299869609
 20
54.6206603902
 30
0.0
 10
362.7299876058
 20
54.7572658573
 30
0.0
  0
SPLINE
  5
42F
100
AcDbEntity
  8
0
100
AcDbSpline
 62
7
  6
BYLAYER
 70
0
 71
3
 72
18
 73
14
 74
0
 42
0.0000001
 43
0.0000001
 44
0.0000000001
 40
0.0
 40
0.0
 40
0.0
 40
0.0
 40
0.0116008988
 40
0.0425588002
 40
0.0875935924
 40
0.1430761991
 40
0.2060694533
 40
0.2748490431
 40
0.4240408459
 40
0.5796992842
 40
0.7333040827
 40
0.8761916833
 40
1.0
 40
1.0
 40
1.0
 40
1.0
 10
342.7299880452
 20
56.2572658545
 30
0.0
 10
342.7317240368
 20
56.2550728779
 30
0.0
 10
342.7424453291
 20
56.2522428406
 30
0.0
 10
342.759197035
 20
56.2397704304
 30
0.0
 10
342.7865011261
 20
56.223365138
 30
0.0
 10
342.8186734115
 20
56.2006345572
 30
0.0
 10
342.855236061
 20
56.1741292872
 30
0.0
 10
342.9091198642
 20
56.1330760561
 30
0.0
 10
342.9794062612
 20
56.0767132693
 30
0.0
 10
343.0636904095
 20
56.0051657052
 30
0.0
 10
343.1416285424
 20
55.9286695512
 30
0.0
 10
343.2063051539
 20
55.8505762103
 30
0.0
 10
343.2299879747
 20
55.7871155359
 30
0.0
 10
343.2299880478
 20
55.7572658574
 30
0.0
  0
SPLINE
  5
430
100
AcDbEntity
  8
0
100
AcDbSpline
 62
7
  6
BYLAYER
 70
0
 71
3
 72
14
 73
10
 74
0
 42
0.0000001
 43
0.0000001
 44
0.0000000001
 40
0.0
 40
0.0
 40
0.0
 40
0.0
 40
0.124755068
 40
0.2497371838
 40
0.3748455004
 40
0.5000186091
 40
0.7495154875
 40
0.8747430736
 40
1.0
 40
1.0
 40
1.0
 40
1.0
 10
351.2299880378
 20
55.7572658574
 30
0.0
 10
351.2299878175
 20
55.8402740566
 30
0.0
 10
351.197855691
 20
56.0074989435
 30
0.0
 10
351.0753516742
 20
56.2280861356
 30
0.0
 10
350.9042380705
 20
56.4127066706
 30
0.0
 10
350.6321677497
 20
56.6070251682
 30
0.0
 10
350.3114308896
 20
56.7209137511
 30
0.0
 10
349.9801766944
 20
56.7572831925
 30
0.0
 10
349.8133301583
 20
56.7572658781
 30
0.0
 10
349.7299880378
 20
56.7572658574
 30
0.0
  0
SPLINE
  5
431
100
AcDbEntity
  8
0
100
AcDbSpline
 62
7
  6
BYLAYER
 70
0
 71
3
 72
14
 73
10
 74
0
 42
0.0000001
 43
0.0000001
 44
0.0000000001
 40
0.0
 40
0.0
 40
0.0
 40
0.0
 40
0.1247554493
 40
0.2497373879
 40
0.3748457258
 40
0.5000187559
 40
0.7495153736
 40
0.8747430248
 40
1.0
 40
1.0
 40
1.0
 40
1.0
 10
383.2299880378
 20
55.7572658574
 30
0.0
 10
383.2299882581
 20
55.8402743111
 30
0.0
 10
383.2621205096
 20
56.0074993428
 30
0.0
 10
383.3846247416
 20
56.2280865713
 30
0.0
 10
383.5557383091
 20
56.4127069271
 30
0.0
 10
383.8278085133
 20
56.6070252373
 30
0.0
 10
384.1485451881
 20
56.7209136484
 30
0.0
 10
384.4797992638
 20
56.7572833935
 30
0.0
 10
384.6466458841
 20
56.7572658781
 30
0.0
 10
384.7299880378
 20
56.7572658574
 30
0.0
  0
SPLINE
  5
432
100
AcDbEntity
  8
0
100
AcDbSpline
 62
7
  6
BYLAYER
 70
0
 71
3
 72
18
 73
14
 74
0
 42
0.0000001
 43
0.0000001
 44
0.0000000001
 40
0.0
 40
0.0
 40
0.0
 40
0.0
 40
0.1238083169
 40
0.2666959178
 40
0.4203007162
 40
0.5759591545
 40
0.7251509571
 40
0.7939305468
 40
0.856923801
 40
0.9124064077
 40
0.9574411998
 40
0.9883991012
 40
1.0
 40
1.0
 40
1.0
 40
1.0
 10
391.2299880262
 20
55.7572658574
 30
0.0
 10
391.2299880992
 20
55.787115536
 30
0.0
 10
391.25367092
 20
55.8505762106
 30
0.0
 10
391.3183475321
 20
55.9286695513
 30
0.0
 10
391.3962856632
 20
56.0051657068
 30
0.0
 10
391.4805698192
 20
56.0767132649
 30
0.0
 10
391.5508561939
 20
56.1330760693
 30
0.0
 10
391.6047400388
 20
56.1741292674
 30
0.0
 10
391.6413025802
 20
56.200634623
 30
0.0
 10
391.6734751973
 20
56.2233649411
 30
0.0
 10
391.7007783963
 20
56.2397709399
 30
0.0
 10
391.717531933
 20
56.2522419003
 30
0.0
 10
391.7282511063
 20
56.2550736158
 30
0.0
 10
391.7299880295
 20
56.2572658545
 30
0.0
  0
ENDSEC
  0
SECTION
  2
OBJECTS
  0
DICTIONARY
  5
C
100
AcDbDictionary
280
0
281
1
  3
ACAD_GROUP
350
D
  3
ACAD_MLINESTYLE
350
17
  3
ACAD_LAYOUT
350
1A
  3
ACAD_PLOTSETTINGS
350
19
  3
ACAD_PLOTSTYLENAME
350
E
  0
DICTIONARY
  5
D
102
{ACAD_REACTORS
330
C
102
}
100
AcDbDictionary
280
0
281
1
  0
ACDBDICTIONARYWDFLT
  5
E
102
{ACAD_REACTORS
330
C
102
}
100
AcDbDictionary
281
1
  3
Normal
350
F
100
AcDbDictionaryWithDefault
340
F
  0
DICTIONARY
  5
17
102
{ACAD_REACTORS
330
C
102
}
100
AcDbDictionary
280
0
281
1
  3
Standard
350
18
  0
DICTIONARY
  5
19
102
{ACAD_REACTORS
330
C
102
}
100
AcDbDictionary
281
1
  0
DICTIONARY
  5
1A
102
{ACAD_REACTORS
330
C
102
}
100
AcDbDictionary
281
1
  3
Model
350
433
  3
Layout1
350
434
  0
ACDBPLACEHOLDER
  5
F
102
{ACAD_REACTORS
330
E
102
}
  0
MLINESTYLE
  5
18
102
{ACAD_REACTORS
330
17
102
}
100
AcDbMlineStyle
  2
STANDARD
 70
0
  3

 62
256
 51
90.0
 52
90.0
 71
2
 49
0.5
 62
256
  6
BYLAYER
 49
-0.5
 62
256
  6
BYLAYER
  0
LAYOUT
  5
433
102
{ACAD_REACTORS
330
1A
102
}
100
AcDbPlotSettings
  1

  2
none_device
  4

  6

 40
0.0
 41
0.0
 42
0.0
 43
0.0
 44
210.0
 45
297.0
 46
0.0
 47
0.0
 48
0.0
 49
0.0
140
0.0
141
0.0
142
1.0
143
1.0
 70
1024
 72
1
 73
0
 74
0
  7

 75
0
147
1.0
148
0.0
149
0.0
100
AcDbLayout
  1
Model
 70
0
 71
0
 10
0.0
 20
0.0
 11
210.0
 21
297.0
 12
0.0
 22
0.0
 32
0.0
 14
0.0
 24
0.0
 34
0.0
 15
0.0
 25
0.0
 35
0.0
146
0.0
 13
0.0
 23
0.0
 33
0.0
 16
1.0
 26
0.0
 36
0.0
 17
0.0
 27
1.0
 37
0.0
 76
0
330
212
345
0
346
0
  0
LAYOUT
  5
434
102
{ACAD_REACTORS
330
1A
102
}
100
AcDbPlotSettings
  1

  2
none_device
  4

  6

 40
0.0
 41
0.0
 42
0.0
 43
0.0
 44
210.0
 45
297.0
 46
0.0
 47
0.0
 48
0.0
 49
0.0
140
0.0
141
0.0
142
1.0
143
1.0
 70
0
 72
1
 73
0
 74
0
  7

 75
0
147
1.0
148
0.0
149
0.0
100
AcDbLayout
  1
Layout1
 70
0
 71
1
 10
0.0
 20
0.0
 11
210.0
 21
297.0
 12
0.0
 22
0.0
 32
0.0
 14
0.0
 24
0.0
 34
0.0
 15
0.0
 25
0.0
 35
0.0
146
0.0
 13
0.0
 23
0.0
 33
0.0
 16
1.0
 26
0.0
 36
0.0
 17
0.0
 27
1.0
 37
0.0
 76
0
330
213
345
0
346
0
  0
ENDSEC
  0
EOF
