999
DXF file: C:\Users\sesa63760\Dev\_Creo\CAD\MCADID0003882_3D-CAD\drw0001_3.dxf
999
Pro/ENGINEER 2019471 by Parametric Technology Corporation
  0
SECTION
  2
HEADER
  9
$ACADVER
  1
AC1024
  9
$DWGCODEPAGE
  3
ANSI_1252
  9
$EXTMAX
 10
33.4885082711
 20
47.3623188406
 30
0.0
  9
$EXTMIN
 10
0.0
 20
0.0
 30
0.0
  9
$LIMMIN
 10
0.0
 20
0.0
  9
$LIMMAX
 10
33.4885082711
 20
47.3623188406
  9
$VIEWCTR
 10
16.7442541356
 20
23.6811594203
  9
$VIEWSIZE
 40
47.3623188406
  9
$CLAYER
  8
0
  9
$LTSCALE
 40
3.0873215244
  9
$CELTYPE
  6
BYLAYER
  9
$DIMSCALE
 40
1.0
  9
$DIMASZ
 40
0.3986727175
  9
$DIMEXO
 40
1.0
  9
$DIMDLI
 40
2.1330585078
  9
$DIMEXE
 40
1.0
  9
$DIMCEN
 40
0.5051980676
  9
$DIMLFAC
 40
1.0
  9
$DIMBLK
  1
_FILLED
  9
$DIMALT
 70
0
  9
$DIMALTF
 40
0.0393700787
  9
$DIMTXT
 40
0.5581418045
  9
$DIMTOL
 70
1
  9
$DIMLIM
 70
0
  9
$DIMTFAC
 40
1.0
  9
$DIMTP
 40
0.01
  9
$DIMTM
 40
0.01
  9
$DIMGAP
 40
0.625
  9
$DIMDSEP
 70
46
  9
$AUNITS
 70
0
  9
$PDMODE
 70
3
  9
$PDSIZE
 40
0.3125
  9
$HANDSEED
  5
26B
  9
$TILEMODE
 70
1
  9
$MEASUREMENT
 70
1
  9
$INSUNITS
 70
4
  0
ENDSEC
  0
SECTION
  2
CLASSES
  0
CLASS
  1
ACDBDICTIONARYWDFLT
  2
AcDbDictionaryWithDefault
  3
AutoCAD 2000
 90
0
 91
1
280
0
281
0
  0
CLASS
  1
ACDBPLACEHOLDER
  2
AcDbPlaceHolder
  3
AutoCAD 2000
 90
0
 91
1
280
0
281
0
  0
CLASS
  1
LAYOUT
  2
AcDbLayout
  3
AutoCAD 2000
 90
0
 91
0
280
0
281
0
  0
ENDSEC
  0
SECTION
  2
TABLES
  0
TABLE
  2
VPORT
  5
8
100
AcDbSymbolTable
 70
2
  0
VPORT
  5
1F4
100
AcDbSymbolTableRecord
100
AcDbViewportTableRecord
  2
*ACTIVE
 70
0
 10
0.0
 20
0.0
 11
1.0
 21
1.0
 12
16.7442541356
 22
23.6811594203
 13
0.0
 23
0.0
 14
1.0
 24
1.0
 15
0.0
 25
0.0
 16
0.0
 26
0.0
 36
1.0
 17
0.0
 27
0.0
 37
0.0
 40
47.3623188406
 41
0.7070707071
 42
50.0
 43
0.0
 44
0.0
 50
0.0
 51
0.0
 71
0
 72
100
 73
1
 74
1
 75
0
 76
0
 77
0
 78
0
  0
ENDTAB
  0
TABLE
  2
LTYPE
  5
5
100
AcDbSymbolTable
 70
6
  0
LTYPE
  5
14
100
AcDbSymbolTableRecord
100
AcDbLinetypeTableRecord
  2
BYBLOCK
 70
0
  3

 72
65
 73
0
 40
0.0
  0
LTYPE
  5
15
100
AcDbSymbolTableRecord
100
AcDbLinetypeTableRecord
  2
BYLAYER
 70
0
  3

 72
65
 73
0
 40
0.0
  0
LTYPE
  5
16
100
AcDbSymbolTableRecord
100
AcDbLinetypeTableRecord
  2
CONTINUOUS
 70
64
  3
Solid line
 72
65
 73
0
 40
0.0
  0
LTYPE
  5
1F5
100
AcDbSymbolTableRecord
100
AcDbLinetypeTableRecord
  2
CENTER
 70
64
  3
____ _ ____ _ ____ _ ____ _ ____ _ ____ _ ____
 72
65
 73
4
 40
0.6
 49
0.375
 74
0
 49
-0.075
 74
0
 49
0.075
 74
0
 49
-0.075
 74
0
  0
LTYPE
  5
1F6
100
AcDbSymbolTableRecord
100
AcDbLinetypeTableRecord
  2
HIDDEN
 70
64
  3
- - - - - - - - - - - - - - - - - - - -
 72
65
 73
2
 40
0.2
 49
0.1
 74
0
 49
-0.1
 74
0
  0
LTYPE
  5
1F7
100
AcDbSymbolTableRecord
100
AcDbLinetypeTableRecord
  2
PHANTOM
 70
64
  3
_____ _ _ _____ _ _ _____ _ _ _____
 72
65
 73
6
 40
0.8
 49
0.45
 74
0
 49
-0.05
 74
0
 49
0.1
 74
0
 49
-0.05
 74
0
 49
0.1
 74
0
 49
-0.05
 74
0
  0
LTYPE
  5
1F8
100
AcDbSymbolTableRecord
100
AcDbLinetypeTableRecord
  2
DOT
 70
64
  3
. . . . . . . . . . . . . . . . . . . .
 72
65
 73
2
 40
0.2
 49
0.1
 74
0
 49
-0.1
 74
0
  0
LTYPE
  5
1F9
100
AcDbSymbolTableRecord
100
AcDbLinetypeTableRecord
  2
DASHED
 70
64
  3
- - - - - - - - - - - - - - - - - - - -
 72
65
 73
2
 40
0.2
 49
0.1
 74
0
 49
-0.1
 74
0
  0
ENDTAB
  0
TABLE
  2
LAYER
  5
2
100
AcDbSymbolTable
 70
36
  0
LAYER
  5
10
100
AcDbSymbolTableRecord
100
AcDbLayerTableRecord
  2
0
 70
0
 62
7
  6
CONTINUOUS
370
-3
390
F
  0
LAYER
  5
1FA
100
AcDbSymbolTableRecord
100
AcDbLayerTableRecord
  2
DEFAULT_1
 70
0
 62
7
  6
CENTER
370
-3
390
F
  0
LAYER
  5
1FB
100
AcDbSymbolTableRecord
100
AcDbLayerTableRecord
  2
DEFAULT_2
 70
0
 62
7
  6
HIDDEN
370
-3
390
F
  0
LAYER
  5
1FC
100
AcDbSymbolTableRecord
100
AcDbLayerTableRecord
  2
DEFAULT_3
 70
0
 62
7
  6
PHANTOM
370
-3
390
F
  0
LAYER
  5
1FD
100
AcDbSymbolTableRecord
100
AcDbLayerTableRecord
  2
00_COMPONENTS
 70
0
 62
7
  6
CONTINUOUS
370
-3
390
F
  0
LAYER
  5
1FE
100
AcDbSymbolTableRecord
100
AcDbLayerTableRecord
  2
01_1_DEFAULT_DATUMS
 70
0
 62
7
  6
CONTINUOUS
370
-3
390
F
  0
LAYER
  5
1FF
100
AcDbSymbolTableRecord
100
AcDbLayerTableRecord
  2
01_PLANES
 70
0
 62
7
  6
CONTINUOUS
370
-3
390
F
  0
LAYER
  5
200
100
AcDbSymbolTableRecord
100
AcDbLayerTableRecord
  2
02_COORD_SYS
 70
0
 62
7
  6
CONTINUOUS
370
-3
390
F
  0
LAYER
  5
201
100
AcDbSymbolTableRecord
100
AcDbLayerTableRecord
  2
03_AXES
 70
0
 62
7
  6
CONTINUOUS
370
-3
390
F
  0
LAYER
  5
202
100
AcDbSymbolTableRecord
100
AcDbLayerTableRecord
  2
04_POINTS
 70
0
 62
7
  6
CONTINUOUS
370
-3
390
F
  0
LAYER
  5
203
100
AcDbSymbolTableRecord
100
AcDbLayerTableRecord
  2
05_CURVES
 70
0
 62
7
  6
CONTINUOUS
370
-3
390
F
  0
LAYER
  5
204
100
AcDbSymbolTableRecord
100
AcDbLayerTableRecord
  2
06_SURFS
 70
0
 62
7
  6
CONTINUOUS
370
-3
390
F
  0
LAYER
  5
205
100
AcDbSymbolTableRecord
100
AcDbLayerTableRecord
  2
07_COSMETICS
 70
0
 62
7
  6
CONTINUOUS
370
-3
390
F
  0
LAYER
  5
206
100
AcDbSymbolTableRecord
100
AcDbLayerTableRecord
  2
10_NOTES
 70
0
 62
7
  6
CONTINUOUS
370
-3
390
F
  0
LAYER
  5
207
100
AcDbSymbolTableRecord
100
AcDbLayerTableRecord
  2
11_NOTES_PUB
 70
0
 62
7
  6
CONTINUOUS
370
-3
390
F
  0
LAYER
  5
208
100
AcDbSymbolTableRecord
100
AcDbLayerTableRecord
  2
13_REF_GTOL
 70
0
 62
7
  6
CONTINUOUS
370
-3
390
F
  0
LAYER
  5
209
100
AcDbSymbolTableRecord
100
AcDbLayerTableRecord
  2
16_MISC
 70
0
 62
7
  6
CONTINUOUS
370
-3
390
F
  0
LAYER
  5
20A
100
AcDbSymbolTableRecord
100
AcDbLayerTableRecord
  2
17_NO_PRINT
 70
0
 62
7
  6
CONTINUOUS
370
-3
390
F
  0
LAYER
  5
20B
100
AcDbSymbolTableRecord
100
AcDbLayerTableRecord
  2
18_DATUM_CAMS_JOINTS
 70
0
 62
7
  6
CONTINUOUS
370
-3
390
F
  0
LAYER
  5
20C
100
AcDbSymbolTableRecord
100
AcDbLayerTableRecord
  2
19_DATUM_FUNCTIONAL
 70
0
 62
7
  6
CONTINUOUS
370
-3
390
F
  0
LAYER
  5
20D
100
AcDbSymbolTableRecord
100
AcDbLayerTableRecord
  2
20_DATUM_KINEMATIC_SCHEME
 70
0
 62
7
  6
CONTINUOUS
370
-3
390
F
  0
ENDTAB
  0
TABLE
  2
STYLE
  5
3
100
AcDbSymbolTable
 70
1
  0
STYLE
  5
11
100
AcDbSymbolTableRecord
100
AcDbTextStyleTableRecord
  2
STANDARD
 70
0
 40
0.0
 41
1.0
 50
0.0
 71
0
 42
0.2
  3
ARIAL.TTF
  4

  0
STYLE
  5
20E
100
AcDbSymbolTableRecord
100
AcDbTextStyleTableRecord
  2
TEXTSTYLE_1
 70
0
 40
0.0
 41
0.8
 50
0.0
 71
0
 42
0.2
  3
gdt
  4

  0
ENDTAB
  0
TABLE
  2
VIEW
  5
6
100
AcDbSymbolTable
 70
0
  0
ENDTAB
  0
TABLE
  2
UCS
  5
7
100
AcDbSymbolTable
 70
0
  0
ENDTAB
  0
TABLE
  2
APPID
  5
9
100
AcDbSymbolTable
 70
1
  0
APPID
  5
20F
100
AcDbSymbolTableRecord
100
AcDbRegAppTableRecord
  2
ACAD
 70
0
  0
ENDTAB
  0
TABLE
  2
BLOCK_RECORD
  5
1
100
AcDbSymbolTable
 70
0
  0
BLOCK_RECORD
  5
210
100
AcDbSymbolTableRecord
100
AcDbBlockTableRecord
  2
*Model_Space
  0
BLOCK_RECORD
  5
211
100
AcDbSymbolTableRecord
100
AcDbBlockTableRecord
  2
*Paper_Space
  0
BLOCK_RECORD
  5
212
100
AcDbSymbolTableRecord
100
AcDbBlockTableRecord
  2
_FILLED
  0
ENDTAB
  0
TABLE
  2
DIMSTYLE
  5
A
100
AcDbSymbolTable
 70
1
100
AcDbDimStyleTable
 71
0
  0
DIMSTYLE
105
213
100
AcDbSymbolTableRecord
100
AcDbDimStyleTableRecord
  2
STANDARD
 70
0
  3

  4

 40
1.0
 41
0.3986727175
 42
1.0
 43
0.38
 44
1.0
 45
0.0
 46
0.0
 47
0.01
 48
0.01
140
0.5581418045
141
0.09
142
0.0
143
25.4
144
1.0
145
0.0
146
1.0
147
0.625
 71
1
 72
0
 73
0
 74
0
 75
0
 76
0
 77
1
 78
8
 79
2
170
0
171
1
172
0
173
0
174
0
175
0
176
0
177
0
178
0
270
2
179
2
271
2
272
2
273
2
274
2
275
0
280
0
281
0
282
0
283
1
284
8
285
0
286
0
287
3
288
0
340
11
278
46
341
212
342
212
343
212
344
212
  0
ENDTAB
  0
ENDSEC
  0
SECTION
  2
BLOCKS
  0
BLOCK
  5
20
100
AcDbEntity
  8
0
100
AcDbBlockBegin
  2
*Model_Space
 70
0
 10
0.0
 20
0.0
 30
0.0
  3
*Model_Space
  1

  0
ENDBLK
  5
21
100
AcDbEntity
  8
0
100
AcDbBlockEnd
  0
BLOCK
  5
1C
100
AcDbEntity
  8
0
100
AcDbBlockBegin
  2
*Paper_Space
 70
0
 10
0.0
 20
0.0
 30
0.0
  3
*Paper_Space
  1

  0
ENDBLK
  5
1D
100
AcDbEntity
  8
0
100
AcDbBlockEnd
  0
BLOCK
  5
214
100
AcDbEntity
  8
0
100
AcDbBlockBegin
  2
_FILLED
 70
64
 10
0.0
 20
0.0
  3
_FILLED
  1

  0
SOLID
  5
215
100
AcDbEntity
  8
0
  6
BYBLOCK
 62
0
100
AcDbTrace
 10
0.0
 20
0.0
 11
-1.0
 21
0.25
 12
-1.0
 22
-0.25
 13
-1.0
 23
-0.25
  0
ENDBLK
  5
216
100
AcDbEntity
  8
0
  6
BYBLOCK
 62
0
100
AcDbBlockEnd
  0
ENDSEC
  0
SECTION
  2
ENTITIES
  0
LINE
  5
217
100
AcDbEntity
  8
0
100
AcDbLine
 62
7
  6
BYLAYER
 10
19.0079678099
 20
3.7971014493
 11
15.4079838002
 21
3.7971014493
  0
LINE
  5
218
100
AcDbEntity
  8
0
100
AcDbLine
 62
7
  6
BYLAYER
 10
19.2079838002
 20
3.9971014493
 11
17.8324836
 21
3.9971014493
  0
LINE
  5
219
100
AcDbEntity
  8
0
100
AcDbLine
 62
7
  6
BYLAYER
 10
16.5834840004
 20
3.9971014493
 11
15.2079838002
 21
3.9971014493
  0
LINE
  5
21A
100
AcDbEntity
  8
0
100
AcDbLine
 62
7
  6
BYLAYER
 10
19.5078852964
 20
4.1971014493
 11
14.9079838002
 21
4.1971014493
  0
LINE
  5
21B
100
AcDbEntity
  8
0
100
AcDbLine
 62
7
  6
BYLAYER
 10
19.7079838002
 20
4.3971014493
 11
14.7079838002
 21
4.3971014493
  0
LINE
  5
21C
100
AcDbEntity
  8
0
100
AcDbLine
 62
7
  6
BYLAYER
 10
21.2079838002
 20
6.7971014493
 11
13.2079838002
 21
6.7971014493
  0
LINE
  5
21D
100
AcDbEntity
  8
0
100
AcDbLine
 62
7
  6
BYLAYER
 10
14.9079838002
 20
4.1971014493
 11
14.7079838002
 21
4.3971014493
  0
LINE
  5
21E
100
AcDbEntity
  8
0
100
AcDbLine
 62
7
  6
BYLAYER
 10
13.2079838002
 20
10.7971014493
 11
21.2079838002
 21
10.7971014493
  0
LINE
  5
21F
100
AcDbEntity
  8
0
100
AcDbLine
 62
7
  6
BYLAYER
 10
21.2079838002
 20
12.7971014493
 11
13.2079838002
 21
12.7971014493
  0
LINE
  5
220
100
AcDbEntity
  8
0
100
AcDbLine
 62
7
  6
BYLAYER
 10
13.2079838002
 20
16.7971014493
 11
21.2079838002
 21
16.7971014493
  0
LINE
  5
221
100
AcDbEntity
  8
0
100
AcDbLine
 62
7
  6
BYLAYER
 10
13.2079838002
 20
10.7971014493
 11
13.2079838002
 21
6.7971014493
  0
LINE
  5
222
100
AcDbEntity
  8
0
100
AcDbLine
 62
7
  6
BYLAYER
 10
13.2079838002
 20
12.7971014493
 11
13.2079838002
 21
16.7971014493
  0
LINE
  5
223
100
AcDbEntity
  8
0
100
AcDbLine
 62
7
  6
BYLAYER
 10
14.9079838002
 20
27.6971014493
 11
14.7079838002
 21
27.4971014493
  0
LINE
  5
224
100
AcDbEntity
  8
0
100
AcDbLine
 62
7
  6
BYLAYER
 10
13.6409965021
 20
10.5718144677
 11
13.6409965021
 21
7.0223884308
  0
LINE
  5
225
100
AcDbEntity
  8
0
100
AcDbLine
 62
7
  6
BYLAYER
 10
13.6409965021
 20
13.0223880471
 11
13.6409965021
 21
16.5718148515
  0
LINE
  5
226
100
AcDbEntity
  8
0
100
AcDbLine
 62
7
  6
BYLAYER
 10
14.5579838002
 20
20.9971014493
 11
14.5579838002
 21
21.9971014493
  0
LINE
  5
227
100
AcDbEntity
  8
0
100
AcDbLine
 62
7
  6
BYLAYER
 10
14.7079838002
 20
20.9971014493
 11
14.5579838002
 21
20.9971014493
  0
LINE
  5
228
100
AcDbEntity
  8
0
100
AcDbLine
 62
7
  6
BYLAYER
 10
14.7079838002
 20
4.3971014493
 11
14.7079838002
 21
6.7971014493
  0
LINE
  5
229
100
AcDbEntity
  8
0
100
AcDbLine
 62
7
  6
BYLAYER
 10
14.7079838002
 20
10.7971014493
 11
14.7079838002
 21
12.7971014493
  0
LINE
  5
22A
100
AcDbEntity
  8
0
100
AcDbLine
 62
7
  6
BYLAYER
 10
14.7079838002
 20
16.7971014493
 11
14.7079838002
 21
20.9971014493
  0
LINE
  5
22B
100
AcDbEntity
  8
0
100
AcDbLine
 62
7
  6
BYLAYER
 10
14.7079838002
 20
21.9971014493
 11
14.7079838002
 21
27.4971014493
  0
LINE
  5
22C
100
AcDbEntity
  8
0
100
AcDbLine
 62
7
  6
BYLAYER
 10
15.1479838002
 20
27.6971014493
 11
15.1479838002
 21
31.7971014493
  0
LINE
  5
22D
100
AcDbEntity
  8
0
100
AcDbLine
 62
7
  6
BYLAYER
 10
15.2079838002
 20
3.9971014493
 11
15.2079838002
 21
4.1971014493
  0
LINE
  5
22E
100
AcDbEntity
  8
0
100
AcDbLine
 62
7
  6
BYLAYER
 10
15.6079838002
 20
43.7971014493
 11
15.6079838002
 21
31.7971014493
  0
LINE
  5
22F
100
AcDbEntity
  8
0
100
AcDbLine
 62
7
  6
BYLAYER
 10
14.7079838002
 20
21.9971014493
 11
14.5579838002
 21
21.9971014493
  0
LINE
  5
230
100
AcDbEntity
  8
0
100
AcDbLine
 62
7
  6
BYLAYER
 10
16.5834840004
 20
3.9971014493
 11
16.5834840004
 21
4.1971014493
  0
LINE
  5
231
100
AcDbEntity
  8
0
100
AcDbLine
 62
7
  6
BYLAYER
 10
16.7749710983
 20
10.5718148695
 11
16.7749710983
 21
7.0223880291
  0
LINE
  5
232
100
AcDbEntity
  8
0
100
AcDbLine
 62
7
  6
BYLAYER
 10
16.7749710983
 20
13.0223884197
 11
16.7749710983
 21
16.5718144789
  0
LINE
  5
233
100
AcDbEntity
  8
0
100
AcDbLine
 62
7
  6
BYLAYER
 10
17.4677914213
 20
10.5220817347
 11
17.4677914213
 21
7.0721211639
  0
LINE
  5
234
100
AcDbEntity
  8
0
100
AcDbLine
 62
7
  6
BYLAYER
 10
17.4677914213
 20
13.0721209036
 11
17.4677914213
 21
16.522081995
  0
LINE
  5
235
100
AcDbEntity
  8
0
100
AcDbLine
 62
7
  6
BYLAYER
 10
17.8324836
 20
4.1971014493
 11
17.8324836
 21
3.9971014493
  0
LINE
  5
236
100
AcDbEntity
  8
0
100
AcDbLine
 62
7
  6
BYLAYER
 10
18.8079838002
 20
43.7971014493
 11
18.8079838002
 21
31.7971014493
  0
LINE
  5
237
100
AcDbEntity
  8
0
100
AcDbLine
 62
7
  6
BYLAYER
 10
19.2079838002
 20
3.9971014493
 11
19.2079838002
 21
4.1971014493
  0
LINE
  5
238
100
AcDbEntity
  8
0
100
AcDbLine
 62
7
  6
BYLAYER
 10
19.2679838002
 20
27.6971014493
 11
19.2679838002
 21
31.7971014493
  0
LINE
  5
239
100
AcDbEntity
  8
0
100
AcDbLine
 62
7
  6
BYLAYER
 10
19.7079838002
 20
4.3971014493
 11
19.7079838002
 21
6.7971014493
  0
LINE
  5
23A
100
AcDbEntity
  8
0
100
AcDbLine
 62
7
  6
BYLAYER
 10
19.7079838002
 20
10.7971014493
 11
19.7079838002
 21
12.7971014493
  0
LINE
  5
23B
100
AcDbEntity
  8
0
100
AcDbLine
 62
7
  6
BYLAYER
 10
19.7079838002
 20
16.7971014493
 11
19.7079838002
 21
27.4971014493
  0
LINE
  5
23C
100
AcDbEntity
  8
0
100
AcDbLine
 62
7
  6
BYLAYER
 10
20.9481761791
 20
10.5220820025
 11
20.9481761791
 21
7.072120896
  0
LINE
  5
23D
100
AcDbEntity
  8
0
100
AcDbLine
 62
7
  6
BYLAYER
 10
20.9481761791
 20
13.0721211591
 11
20.9481761791
 21
16.5220817395
  0
LINE
  5
23E
100
AcDbEntity
  8
0
100
AcDbLine
 62
7
  6
BYLAYER
 10
21.2079838002
 20
6.7971014493
 11
21.2079838002
 21
10.7971014493
  0
LINE
  5
23F
100
AcDbEntity
  8
0
100
AcDbLine
 62
7
  6
BYLAYER
 10
21.2079838002
 20
12.7971014493
 11
21.2079838002
 21
16.7971014493
  0
LINE
  5
240
100
AcDbEntity
  8
0
100
AcDbLine
 62
7
  6
BYLAYER
 10
14.7079838002
 20
27.4971014493
 11
19.7079838002
 21
27.4971014493
  0
LINE
  5
241
100
AcDbEntity
  8
0
100
AcDbLine
 62
7
  6
BYLAYER
 10
14.9080592021
 20
27.6971014493
 11
19.5079083983
 21
27.6971014493
  0
LINE
  5
242
100
AcDbEntity
  8
0
100
AcDbLine
 62
7
  6
BYLAYER
 10
19.5079838002
 20
27.6971014493
 11
19.7079838002
 21
27.4971014493
  0
LINE
  5
243
100
AcDbEntity
  8
0
100
AcDbLine
 62
7
  6
BYLAYER
 10
15.1480591741
 20
31.7971014493
 11
19.2679084263
 21
31.7971014493
  0
LINE
  5
244
100
AcDbEntity
  8
0
100
AcDbLine
 62
7
  6
BYLAYER
 10
19.5079838002
 20
4.1971014493
 11
19.7079838002
 21
4.3971014493
  0
LINE
  5
245
100
AcDbEntity
  8
0
100
AcDbLine
 62
7
  6
BYLAYER
 10
15.6079838002
 20
43.7971014493
 11
18.8079791805
 21
43.7971014493
  0
ARC
  5
246
100
AcDbEntity
  8
0
100
AcDbCircle
 62
7
  6
BYLAYER
 10
16.5680973372
 20
2.8400474121
 40
7.7345487639
100
AcDbArc
 50
83.3201408642
 51
88.4673405977
  0
ARC
  5
247
100
AcDbEntity
  8
0
100
AcDbCircle
 62
7
  6
BYLAYER
 10
16.5710882327
 20
8.8821809231
 40
7.6923396187
100
AcDbArc
 50
83.3057621031
 51
88.481216195
  0
ARC
  5
248
100
AcDbEntity
  8
0
100
AcDbCircle
 62
7
  6
BYLAYER
 10
16.5710882354
 20
20.712021939
 40
7.6923395821
100
AcDbArc
 50
271.5187837927
 51
276.6942379093
  0
ARC
  5
249
100
AcDbEntity
  8
0
100
AcDbCircle
 62
7
  6
BYLAYER
 10
16.5712151148
 20
14.7097295223
 40
7.6900393989
100
AcDbArc
 50
271.5182914907
 51
276.6952900476
  0
ARC
  5
24A
100
AcDbEntity
  8
0
100
AcDbCircle
 62
7
  6
BYLAYER
 10
19.0079838002
 20
3.9971014493
 40
0.2
100
AcDbArc
 50
270.0
 51
360.0
  0
ARC
  5
24B
100
AcDbEntity
  8
0
100
AcDbCircle
 62
7
  6
BYLAYER
 10
15.4079838002
 20
3.9971014493
 40
0.2
100
AcDbArc
 50
180.0
 51
270.0
  0
SPLINE
  5
24C
100
AcDbEntity
  8
0
100
AcDbSpline
 62
7
  6
BYLAYER
 70
0
 71
3
 72
50
 73
46
 74
0
 42
0.0000001
 43
0.0000001
 44
0.0000000001
 40
0.0
 40
0.0
 40
0.0
 40
0.0
 40
0.0156397712
 40
0.0234814912
 40
0.0313141856
 40
0.0391564772
 40
0.0469853788
 40
0.0626184974
 40
0.0782446985
 40
0.0938788786
 40
0.125113146
 40
0.1407364485
 40
0.156359596
 40
0.1875991865
 40
0.218839288
 40
0.2500793512
 40
0.281319232
 40
0.3125590172
 40
0.343798764
 40
0.3750384907
 40
0.4062780805
 40
0.4375176893
 40
0.4687572219
 40
0.4999967784
 40
0.5312362968
 40
0.5624758892
 40
0.6249531944
 40
0.6561928693
 40
0.6874327167
 40
0.7186724854
 40
0.7499124249
 40
0.7811524126
 40
0.8123926332
 40
0.8436326296
 40
0.8748725261
 40
0.8904967787
 40
0.906121552
 40
0.9217517279
 40
0.9373801692
 40
0.9530164404
 40
0.9608424388
 40
0.9686827581
 40
0.9765169178
 40
0.9843612361
 40
1.0
 40
1.0
 40
1.0
 40
1.0
 10
16.5834840004
 20
3.9971014493
 30
0.0
 10
16.5834840004
 20
3.9899716105
 30
0.0
 10
16.5854216829
 20
3.9791870531
 30
0.0
 10
16.5910461804
 20
3.9660382969
 30
0.0
 10
16.5965618903
 20
3.9568089103
 30
0.0
 10
16.6030304389
 20
3.9482478509
 30
0.0
 10
16.6125925043
 20
3.9376345254
 30
0.0
 10
16.6260282986
 20
3.925830316
 30
0.0
 10
16.643720397
 20
3.9137658883
 30
0.0
 10
16.6685993736
 20
3.899834998
 30
0.0
 10
16.6947372255
 20
3.8883328835
 30
0.0
 10
16.7215435293
 20
3.8786930997
 30
0.0
 10
16.7487005031
 20
3.8700721825
 30
0.0
 10
16.7831412185
 20
3.8609543393
 30
0.0
 10
16.8249672682
 20
3.8521640883
 30
0.0
 10
16.86712402
 20
3.8451606967
 30
0.0
 10
16.9094709231
 20
3.8394524026
 30
0.0
 10
16.951949517
 20
3.834834157
 30
0.0
 10
16.9945215723
 20
3.8311880415
 30
0.0
 10
17.0371578938
 20
3.8284051664
 30
0.0
 10
17.0798349697
 20
3.826357412
 30
0.0
 10
17.1225365698
 20
3.8249221258
 30
0.0
 10
17.1652538124
 20
3.8240723217
 30
0.0
 10
17.2079785158
 20
3.8238009064
 30
0.0
 10
17.2507031774
 20
3.8240944546
 30
0.0
 10
17.3076581781
 20
3.8251950829
 30
0.0
 10
17.3645900954
 20
3.8274413615
 30
0.0
 10
17.4214337192
 20
3.8312049567
 30
0.0
 10
17.4640052708
 20
3.834854756
 30
0.0
 10
17.5064856688
 20
3.8394565018
 30
0.0
 10
17.5488313841
 20
3.8451788672
 30
0.0
 10
17.5909790011
 20
3.8522318101
 30
0.0
 10
17.6328136802
 20
3.8609847144
 30
0.0
 10
17.6741443124
 20
3.8718944846
 30
0.0
 10
17.7079408621
 20
3.8832264723
 30
0.0
 10
17.7342905434
 20
3.8940826958
 30
0.0
 10
17.7535826092
 20
3.9033068957
 30
0.0
 10
17.7722226227
 20
3.913808355
 30
0.0
 10
17.789880542
 20
3.9259152511
 30
0.0
 10
17.8033793557
 20
3.9376443076
 30
0.0
 10
17.8129799708
 20
3.9482239626
 30
0.0
 10
17.8194447962
 20
3.9567873087
 30
0.0
 10
17.8249397191
 20
3.9660305446
 30
0.0
 10
17.8305415231
 20
3.9791893384
 30
0.0
 10
17.8324836
 20
3.9899720697
 30
0.0
 10
17.8324836
 20
3.9971014493
 30
0.0
  0
SPLINE
  5
24D
100
AcDbEntity
  8
0
100
AcDbSpline
 62
7
  6
BYLAYER
 70
0
 71
3
 72
11
 73
7
 74
0
 42
0.0000001
 43
0.0000001
 44
0.0000000001
 40
0.0
 40
0.0
 40
0.0
 40
0.0
 40
0.2490878497
 40
0.4985977472
 40
0.7488451431
 40
1.0
 40
1.0
 40
1.0
 40
1.0
 10
19.2079836947
 20
10.7971003774
 30
0.0
 10
19.3547595226
 20
10.797101115
 30
0.0
 10
19.6487054381
 20
10.7845655825
 30
0.0
 10
20.086956442
 20
10.7294902632
 30
0.0
 10
20.520987028
 20
10.64164794
 30
0.0
 10
20.8063950381
 20
10.5645114272
 30
0.0
 10
20.9481761791
 20
10.5220817395
 30
0.0
  0
SPLINE
  5
24E
100
AcDbEntity
  8
0
100
AcDbSpline
 62
7
  6
BYLAYER
 70
0
 71
3
 72
11
 73
7
 74
0
 42
0.0000001
 43
0.0000001
 44
0.0000000001
 40
0.0
 40
0.0
 40
0.0
 40
0.0
 40
0.2511548908
 40
0.5014023137
 40
0.7509121935
 40
1.0
 40
1.0
 40
1.0
 40
1.0
 10
20.9481761791
 20
7.0721211591
 30
0.0
 10
20.806395019
 20
7.0296914656
 30
0.0
 10
20.5209869789
 20
6.9525549248
 30
0.0
 10
20.0869563595
 20
6.8647126363
 30
0.0
 10
19.6487053767
 20
6.8096373193
 30
0.0
 10
19.3547594971
 20
6.7971017831
 30
0.0
 10
19.2079836947
 20
6.7971025211
 30
0.0
  0
SPLINE
  5
24F
100
AcDbEntity
  8
0
100
AcDbSpline
 62
7
  6
BYLAYER
 70
0
 71
3
 72
10
 73
6
 74
0
 42
0.0000001
 43
0.0000001
 44
0.0000000001
 40
0.0
 40
0.0
 40
0.0
 40
0.0
 40
0.4951205864
 40
0.746034804
 40
1.0
 40
1.0
 40
1.0
 40
1.0
 10
21.2079838002
 20
7.0223885385
 30
0.0
 10
21.1643480674
 20
7.0254118664
 30
0.0
 10
21.0988030139
 20
7.0340968245
 30
0.0
 10
21.0125463362
 20
7.0533089542
 30
0.0
 10
20.9695987656
 20
7.0654540495
 30
0.0
 10
20.9481761791
 20
7.072120896
 30
0.0
  0
SPLINE
  5
250
100
AcDbEntity
  8
0
100
AcDbSpline
 62
7
  6
BYLAYER
 70
0
 71
3
 72
11
 73
7
 74
0
 42
0.0000001
 43
0.0000001
 44
0.0000000001
 40
0.0
 40
0.0
 40
0.0
 40
0.0
 40
0.2490878495
 40
0.4985977472
 40
0.7488451436
 40
1.0
 40
1.0
 40
1.0
 40
1.0
 10
19.2079836947
 20
6.7971025211
 30
0.0
 10
19.0612078843
 20
6.7971017895
 30
0.0
 10
18.7672620025
 20
6.8096372991
 30
0.0
 10
18.3290110535
 20
6.8647126524
 30
0.0
 10
17.8949805256
 20
6.9525549924
 30
0.0
 10
17.6095725453
 20
7.0296914811
 30
0.0
 10
17.4677914213
 20
7.0721211639
 30
0.0
  0
SPLINE
  5
251
100
AcDbEntity
  8
0
100
AcDbSpline
 62
7
  6
BYLAYER
 70
0
 71
3
 72
11
 73
7
 74
0
 42
0.0000001
 43
0.0000001
 44
0.0000000001
 40
0.0
 40
0.0
 40
0.0
 40
0.0
 40
0.2509833123
 40
0.5011812377
 40
0.7507630403
 40
1.0
 40
1.0
 40
1.0
 40
1.0
 10
16.7749710983
 20
7.0223884197
 30
0.0
 10
16.6468939097
 20
6.9871975687
 30
0.0
 10
16.3892377231
 20
6.9235794282
 30
0.0
 10
15.9981668337
 20
6.8518860511
 30
0.0
 10
15.6039707864
 20
6.8072489457
 30
0.0
 10
15.3398833024
 20
6.7971017885
 30
0.0
 10
15.2079836947
 20
6.7971025214
 30
0.0
  0
SPLINE
  5
252
100
AcDbEntity
  8
0
100
AcDbSpline
 62
7
  6
BYLAYER
 70
0
 71
3
 72
11
 73
7
 74
0
 42
0.0000001
 43
0.0000001
 44
0.0000000001
 40
0.0
 40
0.0
 40
0.0
 40
0.0
 40
0.2511548903
 40
0.5014023136
 40
0.7509121937
 40
1.0
 40
1.0
 40
1.0
 40
1.0
 10
17.4677914213
 20
10.5220817347
 30
0.0
 10
17.6095725644
 20
10.5645114232
 30
0.0
 10
17.8949805747
 20
10.6416479399
 30
0.0
 10
18.3290111361
 20
10.7294902452
 30
0.0
 10
18.7672620639
 20
10.7845655962
 30
0.0
 10
19.0612079098
 20
10.7971011095
 30
0.0
 10
19.2079836947
 20
10.7971003774
 30
0.0
  0
SPLINE
  5
253
100
AcDbEntity
  8
0
100
AcDbSpline
 62
7
  6
BYLAYER
 70
0
 71
3
 72
11
 73
7
 74
0
 42
0.0000001
 43
0.0000001
 44
0.0000000001
 40
0.0
 40
0.0
 40
0.0
 40
0.0
 40
0.2492369842
 40
0.4988187978
 40
0.7490167077
 40
1.0
 40
1.0
 40
1.0
 40
1.0
 10
15.2079836947
 20
10.7971003771
 30
0.0
 10
15.3398833154
 20
10.7971011098
 30
0.0
 10
15.6039708183
 20
10.7869539544
 30
0.0
 10
15.9981668766
 20
10.7423168473
 30
0.0
 10
16.3892377504
 20
10.6706234577
 30
0.0
 10
16.6468939199
 20
10.607005327
 30
0.0
 10
16.7749710983
 20
10.5718144788
 30
0.0
  0
SPLINE
  5
254
100
AcDbEntity
  8
0
100
AcDbSpline
 62
7
  6
BYLAYER
 70
0
 71
3
 72
11
 73
7
 74
0
 42
0.0000001
 43
0.0000001
 44
0.0000000001
 40
0.0
 40
0.0
 40
0.0
 40
0.0
 40
0.2492369839
 40
0.4988187976
 40
0.7490167077
 40
1.0
 40
1.0
 40
1.0
 40
1.0
 10
15.2079836947
 20
6.7971025214
 30
0.0
 10
15.0760840914
 20
6.7971017941
 30
0.0
 10
14.8119966227
 20
6.807248937
 30
0.0
 10
14.4178006177
 20
6.8518860614
 30
0.0
 10
14.0267297991
 20
6.9235794631
 30
0.0
 10
13.7690736636
 20
6.9871975868
 30
0.0
 10
13.6409965021
 20
7.0223884308
 30
0.0
  0
SPLINE
  5
255
100
AcDbEntity
  8
0
100
AcDbSpline
 62
7
  6
BYLAYER
 70
0
 71
3
 72
10
 73
6
 74
0
 42
0.0000001
 43
0.0000001
 44
0.0000000001
 40
0.0
 40
0.0
 40
0.0
 40
0.0
 40
0.4986977969
 40
0.7489432563
 40
1.0
 40
1.0
 40
1.0
 40
1.0
 10
13.6409965021
 20
7.0223880471
 30
0.0
 10
13.5685528785
 20
7.0253995968
 30
0.0
 10
13.4598741559
 20
7.0339992841
 30
0.0
 10
13.3157433423
 20
7.0532371765
 30
0.0
 10
13.2438650472
 20
7.0654215995
 30
0.0
 10
13.2079838002
 20
7.0721214843
 30
0.0
  0
SPLINE
  5
256
100
AcDbEntity
  8
0
100
AcDbSpline
 62
7
  6
BYLAYER
 70
0
 71
3
 72
11
 73
7
 74
0
 42
0.0000001
 43
0.0000001
 44
0.0000000001
 40
0.0
 40
0.0
 40
0.0
 40
0.0
 40
0.2509833123
 40
0.5011812379
 40
0.7507630406
 40
1.0
 40
1.0
 40
1.0
 40
1.0
 10
13.6409965021
 20
10.5718144677
 30
0.0
 10
13.7690736738
 20
10.6070053146
 30
0.0
 10
14.0267298264
 20
10.6706234481
 30
0.0
 10
14.4178006605
 20
10.7423168373
 30
0.0
 10
14.8119966546
 20
10.7869539599
 30
0.0
 10
15.0760841043
 20
10.7971011047
 30
0.0
 10
15.2079836947
 20
10.7971003771
 30
0.0
  0
SPLINE
  5
257
100
AcDbEntity
  8
0
100
AcDbSpline
 62
7
  6
BYLAYER
 70
0
 71
3
 72
10
 73
6
 74
0
 42
0.0000001
 43
0.0000001
 44
0.0000000001
 40
0.0
 40
0.0
 40
0.0
 40
0.0
 40
0.253965196
 40
0.5048794136
 40
1.0
 40
1.0
 40
1.0
 40
1.0
 10
20.9481761791
 20
10.5220820025
 30
0.0
 10
20.9695987656
 20
10.5287488491
 30
0.0
 10
21.0125463362
 20
10.5408939444
 30
0.0
 10
21.0988030139
 20
10.560106074
 30
0.0
 10
21.1643480674
 20
10.5687910322
 30
0.0
 10
21.2079838002
 20
10.5718143601
 30
0.0
  0
SPLINE
  5
258
100
AcDbEntity
  8
0
100
AcDbSpline
 62
7
  6
BYLAYER
 70
0
 71
3
 72
10
 73
6
 74
0
 42
0.0000001
 43
0.0000001
 44
0.0000000001
 40
0.0
 40
0.0
 40
0.0
 40
0.0
 40
0.2510567437
 40
0.5013022031
 40
1.0
 40
1.0
 40
1.0
 40
1.0
 10
13.2079838002
 20
10.5220814143
 30
0.0
 10
13.2438650472
 20
10.5287812991
 30
0.0
 10
13.3157433423
 20
10.540965722
 30
0.0
 10
13.4598741559
 20
10.5602036144
 30
0.0
 10
13.5685528785
 20
10.5688033018
 30
0.0
 10
13.6409965021
 20
10.5718148515
 30
0.0
  0
SPLINE
  5
259
100
AcDbEntity
  8
0
100
AcDbSpline
 62
7
  6
BYLAYER
 70
0
 71
3
 72
11
 73
7
 74
0
 42
0.0000001
 43
0.0000001
 44
0.0000000001
 40
0.0
 40
0.0
 40
0.0
 40
0.0
 40
0.2511548908
 40
0.5014023137
 40
0.7509121935
 40
1.0
 40
1.0
 40
1.0
 40
1.0
 10
20.9481761791
 20
13.0721211591
 30
0.0
 10
20.806395019
 20
13.0296914656
 30
0.0
 10
20.5209869789
 20
12.9525549248
 30
0.0
 10
20.0869563595
 20
12.8647126363
 30
0.0
 10
19.6487053767
 20
12.8096373193
 30
0.0
 10
19.3547594971
 20
12.7971017831
 30
0.0
 10
19.2079836947
 20
12.7971025211
 30
0.0
  0
SPLINE
  5
25A
100
AcDbEntity
  8
0
100
AcDbSpline
 62
7
  6
BYLAYER
 70
0
 71
3
 72
11
 73
7
 74
0
 42
0.0000001
 43
0.0000001
 44
0.0000000001
 40
0.0
 40
0.0
 40
0.0
 40
0.0
 40
0.2539262675
 40
0.5047681695
 40
0.7532163486
 40
1.0
 40
1.0
 40
1.0
 40
1.0
 10
20.9481761791
 20
13.072120896
 30
0.0
 10
20.9696002618
 20
13.0654535838
 30
0.0
 10
21.0125355003
 20
13.0532766338
 30
0.0
 10
21.0775444229
 20
13.0388345953
 30
0.0
 10
21.1426617574
 20
13.0283239972
 30
0.0
 10
21.1862295268
 20
13.0238957964
 30
0.0
 10
21.2079838002
 20
13.0223885385
 30
0.0
  0
SPLINE
  5
25B
100
AcDbEntity
  8
0
100
AcDbSpline
 62
7
  6
BYLAYER
 70
0
 71
3
 72
11
 73
7
 74
0
 42
0.0000001
 43
0.0000001
 44
0.0000000001
 40
0.0
 40
0.0
 40
0.0
 40
0.0
 40
0.2467836514
 40
0.4952318305
 40
0.7460737325
 40
1.0
 40
1.0
 40
1.0
 40
1.0
 10
21.2079838002
 20
16.5718143601
 30
0.0
 10
21.1862295268
 20
16.5703071022
 30
0.0
 10
21.1426617574
 20
16.5658789014
 30
0.0
 10
21.0775444229
 20
16.5553683033
 30
0.0
 10
21.0125355003
 20
16.5409262648
 30
0.0
 10
20.9696002618
 20
16.5287493148
 30
0.0
 10
20.9481761791
 20
16.5220820026
 30
0.0
  0
SPLINE
  5
25C
100
AcDbEntity
  8
0
100
AcDbSpline
 62
7
  6
BYLAYER
 70
0
 71
3
 72
11
 73
7
 74
0
 42
0.0000001
 43
0.0000001
 44
0.0000000001
 40
0.0
 40
0.0
 40
0.0
 40
0.0
 40
0.2511548903
 40
0.5014023136
 40
0.7509121937
 40
1.0
 40
1.0
 40
1.0
 40
1.0
 10
17.4677914213
 20
16.5220817347
 30
0.0
 10
17.6095725644
 20
16.5645114232
 30
0.0
 10
17.8949805747
 20
16.6416479399
 30
0.0
 10
18.3290111361
 20
16.7294902452
 30
0.0
 10
18.7672620639
 20
16.7845655962
 30
0.0
 10
19.0612079098
 20
16.7971011095
 30
0.0
 10
19.2079836947
 20
16.7971003775
 30
0.0
  0
SPLINE
  5
25D
100
AcDbEntity
  8
0
100
AcDbSpline
 62
7
  6
BYLAYER
 70
0
 71
3
 72
11
 73
7
 74
0
 42
0.0000001
 43
0.0000001
 44
0.0000000001
 40
0.0
 40
0.0
 40
0.0
 40
0.0
 40
0.2490878497
 40
0.4985977472
 40
0.7488451431
 40
1.0
 40
1.0
 40
1.0
 40
1.0
 10
19.2079836947
 20
16.7971003775
 30
0.0
 10
19.3547595226
 20
16.7971011151
 30
0.0
 10
19.648705438
 20
16.7845655825
 30
0.0
 10
20.086956442
 20
16.7294902632
 30
0.0
 10
20.520987028
 20
16.64164794
 30
0.0
 10
20.8063950381
 20
16.5645114273
 30
0.0
 10
20.9481761791
 20
16.5220817395
 30
0.0
  0
SPLINE
  5
25E
100
AcDbEntity
  8
0
100
AcDbSpline
 62
7
  6
BYLAYER
 70
0
 71
3
 72
11
 73
7
 74
0
 42
0.0000001
 43
0.0000001
 44
0.0000000001
 40
0.0
 40
0.0
 40
0.0
 40
0.0
 40
0.2492369842
 40
0.4988187978
 40
0.7490167077
 40
1.0
 40
1.0
 40
1.0
 40
1.0
 10
15.2079836947
 20
16.7971003772
 30
0.0
 10
15.3398833154
 20
16.7971011098
 30
0.0
 10
15.6039708183
 20
16.7869539544
 30
0.0
 10
15.9981668766
 20
16.7423168473
 30
0.0
 10
16.3892377504
 20
16.6706234577
 30
0.0
 10
16.6468939199
 20
16.6070053271
 30
0.0
 10
16.7749710983
 20
16.5718144789
 30
0.0
  0
SPLINE
  5
25F
100
AcDbEntity
  8
0
100
AcDbSpline
 62
7
  6
BYLAYER
 70
0
 71
3
 72
11
 73
7
 74
0
 42
0.0000001
 43
0.0000001
 44
0.0000000001
 40
0.0
 40
0.0
 40
0.0
 40
0.0
 40
0.2509833123
 40
0.5011812377
 40
0.7507630403
 40
1.0
 40
1.0
 40
1.0
 40
1.0
 10
16.7749710983
 20
13.0223884197
 30
0.0
 10
16.6468939097
 20
12.9871975687
 30
0.0
 10
16.3892377231
 20
12.9235794282
 30
0.0
 10
15.9981668337
 20
12.8518860511
 30
0.0
 10
15.6039707864
 20
12.8072489457
 30
0.0
 10
15.3398833024
 20
12.7971017885
 30
0.0
 10
15.2079836947
 20
12.7971025214
 30
0.0
  0
SPLINE
  5
260
100
AcDbEntity
  8
0
100
AcDbSpline
 62
7
  6
BYLAYER
 70
0
 71
3
 72
11
 73
7
 74
0
 42
0.0000001
 43
0.0000001
 44
0.0000000001
 40
0.0
 40
0.0
 40
0.0
 40
0.0
 40
0.2490878495
 40
0.4985977472
 40
0.7488451436
 40
1.0
 40
1.0
 40
1.0
 40
1.0
 10
19.2079836947
 20
12.7971025211
 30
0.0
 10
19.0612078843
 20
12.7971017895
 30
0.0
 10
18.7672620025
 20
12.8096372991
 30
0.0
 10
18.3290110535
 20
12.8647126524
 30
0.0
 10
17.8949805256
 20
12.9525549924
 30
0.0
 10
17.6095725453
 20
13.0296914811
 30
0.0
 10
17.4677914213
 20
13.0721211639
 30
0.0
  0
SPLINE
  5
261
100
AcDbEntity
  8
0
100
AcDbSpline
 62
7
  6
BYLAYER
 70
0
 71
3
 72
11
 73
7
 74
0
 42
0.0000001
 43
0.0000001
 44
0.0000000001
 40
0.0
 40
0.0
 40
0.0
 40
0.0
 40
0.2510409416
 40
0.5012607194
 40
0.7508501781
 40
1.0
 40
1.0
 40
1.0
 40
1.0
 10
13.2079838002
 20
13.0721214843
 30
0.0
 10
13.2438657592
 20
13.0654214665
 30
0.0
 10
13.3157363974
 20
13.0532035657
 30
0.0
 10
13.4239806594
 20
13.0387913892
 30
0.0
 10
13.5323971124
 20
13.0283032453
 30
0.0
 10
13.6048006128
 20
13.0238927443
 30
0.0
 10
13.6409965021
 20
13.0223880471
 30
0.0
  0
SPLINE
  5
262
100
AcDbEntity
  8
0
100
AcDbSpline
 62
7
  6
BYLAYER
 70
0
 71
3
 72
11
 73
7
 74
0
 42
0.0000001
 43
0.0000001
 44
0.0000000001
 40
0.0
 40
0.0
 40
0.0
 40
0.0
 40
0.2491498219
 40
0.4987392806
 40
0.7489590584
 40
1.0
 40
1.0
 40
1.0
 40
1.0
 10
13.6409965021
 20
16.5718148515
 30
0.0
 10
13.6048006128
 20
16.5703101543
 30
0.0
 10
13.5323971124
 20
16.5658996532
 30
0.0
 10
13.4239806594
 20
16.5554115093
 30
0.0
 10
13.3157363974
 20
16.5409993328
 30
0.0
 10
13.2438657592
 20
16.528781432
 30
0.0
 10
13.2079838002
 20
16.5220814143
 30
0.0
  0
SPLINE
  5
263
100
AcDbEntity
  8
0
100
AcDbSpline
 62
7
  6
BYLAYER
 70
0
 71
3
 72
11
 73
7
 74
0
 42
0.0000001
 43
0.0000001
 44
0.0000000001
 40
0.0
 40
0.0
 40
0.0
 40
0.0
 40
0.2509833123
 40
0.5011812379
 40
0.7507630406
 40
1.0
 40
1.0
 40
1.0
 40
1.0
 10
13.6409965021
 20
16.5718144677
 30
0.0
 10
13.7690736738
 20
16.6070053146
 30
0.0
 10
14.0267298264
 20
16.6706234481
 30
0.0
 10
14.4178006605
 20
16.7423168374
 30
0.0
 10
14.8119966546
 20
16.7869539599
 30
0.0
 10
15.0760841043
 20
16.7971011047
 30
0.0
 10
15.2079836947
 20
16.7971003772
 30
0.0
  0
SPLINE
  5
264
100
AcDbEntity
  8
0
100
AcDbSpline
 62
7
  6
BYLAYER
 70
0
 71
3
 72
11
 73
7
 74
0
 42
0.0000001
 43
0.0000001
 44
0.0000000001
 40
0.0
 40
0.0
 40
0.0
 40
0.0
 40
0.2492369839
 40
0.4988187976
 40
0.7490167077
 40
1.0
 40
1.0
 40
1.0
 40
1.0
 10
15.2079836947
 20
12.7971025214
 30
0.0
 10
15.0760840914
 20
12.7971017941
 30
0.0
 10
14.8119966227
 20
12.807248937
 30
0.0
 10
14.4178006177
 20
12.8518860614
 30
0.0
 10
14.0267297991
 20
12.9235794631
 30
0.0
 10
13.7690736636
 20
12.9871975868
 30
0.0
 10
13.6409965021
 20
13.0223884308
 30
0.0
  0
SPLINE
  5
265
100
AcDbEntity
  8
0
100
AcDbSpline
 62
7
  6
BYLAYER
 70
0
 71
3
 72
19
 73
15
 74
0
 42
0.0000001
 43
0.0000001
 44
0.0000000001
 40
0.0
 40
0.0
 40
0.0
 40
0.0
 40
0.0194515705
 40
0.0435929555
 40
0.0769912144
 40
0.1193330466
 40
0.1701449416
 40
0.2288750446
 40
0.2949590251
 40
0.3677175631
 40
0.4464247221
 40
0.6187382777
 40
0.8057470806
 40
1.0
 40
1.0
 40
1.0
 40
1.0
 10
14.5579904417
 20
20.9971394727
 30
0.0
 10
14.5573603582
 20
20.9939399492
 30
0.0
 10
14.5606474242
 20
21.0112067246
 30
0.0
 10
14.5619772357
 20
21.018696326
 30
0.0
 10
14.5653124279
 20
21.03730729
 30
0.0
 10
14.5687327053
 20
21.0574078586
 30
0.0
 10
14.5728686646
 20
21.0828280091
 30
0.0
 10
14.5772762569
 20
21.1118415584
 30
0.0
 10
14.581889281
 20
21.1446731191
 30
0.0
 10
14.5865058579
 20
21.1808425661
 30
0.0
 10
14.5926309198
 20
21.2347812474
 30
0.0
 10
14.5992095533
 20
21.3079320956
 30
0.0
 10
14.6043586235
 20
21.4006126609
 30
0.0
 10
14.6055810643
 20
21.4645357572
 30
0.0
 10
14.6055810643
 20
21.4971014493
 30
0.0
  0
SPLINE
  5
266
100
AcDbEntity
  8
0
100
AcDbSpline
 62
7
  6
BYLAYER
 70
0
 71
3
 72
32
 73
28
 74
0
 42
0.0000001
 43
0.0000001
 44
0.0000000001
 40
0.0
 40
0.0
 40
0.0
 40
0.0
 40
0.1941773917
 40
0.3811426919
 40
0.4695107771
 40
0.5534054698
 40
0.6320613298
 40
0.7047666964
 40
0.7708113785
 40
0.8295349619
 40
0.8803746442
 40
0.9026638517
 40
0.9227737878
 40
0.9406524067
 40
0.956258122
 40
0.9695494045
 40
0.9804846315
 40
0.985055696
 40
0.9890221061
 40
0.9923790411
 40
0.9951249467
 40
0.9972598816
 40
0.9987839206
 40
0.9993168829
 40
0.9996971621
 40
0.9999247957
 40
1.0
 40
1.0
 40
1.0
 40
1.0
 10
14.758492703
 20
21.4971014493
 30
0.0
 10
14.758492703
 20
21.5296789426
 30
0.0
 10
14.7570203551
 20
21.5936289724
 30
0.0
 10
14.7522853079
 20
21.6722728211
 30
0.0
 10
14.747133703
 20
21.7323229731
 30
0.0
 10
14.7428496084
 20
21.7742034444
 30
0.0
 10
14.7382011565
 20
21.8133996639
 30
0.0
 10
14.7333653046
 20
21.8495535384
 30
0.0
 10
14.7285101531
 20
21.8823274318
 30
0.0
 10
14.7238075738
 20
21.9114125338
 30
0.0
 10
14.7200293971
 20
21.933209041
 30
0.0
 10
14.7172492333
 20
21.9486028808
 30
0.0
 10
14.7154164258
 20
21.9585483405
 30
0.0
 10
14.7137593768
 20
21.967385953
 30
0.0
 10
14.7122908624
 20
21.9750949761
 30
0.0
 10
14.7110240489
 20
21.9816565129
 30
0.0
 10
14.7100989607
 20
21.9863986005
 30
0.0
 10
14.7094713333
 20
21.9896046237
 30
0.0
 10
14.7090877721
 20
21.9915631784
 30
0.0
 10
14.7087650152
 20
21.9932207624
 30
0.0
 10
14.7085007252
 20
21.9945790761
 30
0.0
 10
14.7083018952
 20
21.9956306056
 30
0.0
 10
14.7081634038
 20
21.9963294295
 30
0.0
 10
14.7080995433
 20
21.9967210746
 30
0.0
 10
14.7080488814
 20
21.9969266743
 30
0.0
 10
14.7080595414
 20
21.9970094167
 30
0.0
 10
14.7080216757
 20
21.9970908967
 30
0.0
 10
14.7080342929
 20
21.9970908747
 30
0.0
  0
SPLINE
  5
267
100
AcDbEntity
  8
0
100
AcDbSpline
 62
7
  6
BYLAYER
 70
0
 71
3
 72
15
 73
11
 74
0
 42
0.0000001
 43
0.0000001
 44
0.0000000001
 40
0.0
 40
0.0
 40
0.0
 40
0.0
 40
0.3812191241
 40
0.5537101799
 40
0.7052423739
 40
0.8299193164
 40
0.9229217878
 40
0.9563260943
 40
0.9805032795
 40
1.0
 40
1.0
 40
1.0
 40
1.0
 10
14.6055810643
 20
21.4971014493
 30
0.0
 10
14.6055810643
 20
21.5610067264
 30
0.0
 10
14.6020526696
 20
21.6538697195
 30
0.0
 10
14.5915557665
 20
21.7716368983
 30
0.0
 10
14.5825652907
 20
21.8463267189
 30
0.0
 10
14.5736172323
 20
21.9075743294
 30
0.0
 10
14.5666756768
 20
21.9490899439
 30
0.0
 10
14.5622757625
 20
21.9739468192
 30
0.0
 10
14.5599195113
 20
21.9866509522
 30
0.0
 10
14.5586222679
 20
21.9938567535
 30
0.0
 10
14.5579904423
 20
21.9970634129
 30
0.0
  0
SPLINE
  5
268
100
AcDbEntity
  8
0
100
AcDbSpline
 62
7
  6
BYLAYER
 70
0
 71
3
 72
32
 73
28
 74
0
 42
0.0000001
 43
0.0000001
 44
0.0000000001
 40
0.0
 40
0.0
 40
0.0
 40
0.0
 40
0.0000750312
 40
0.000302438
 40
0.0006826167
 40
0.0012156386
 40
0.0027403459
 40
0.0048767681
 40
0.0076250722
 40
0.0109854037
 40
0.0149561903
 40
0.0195324164
 40
0.0304794743
 40
0.0437832141
 40
0.0594004282
 40
0.0772881069
 40
0.0974032945
 40
0.1196932794
 40
0.1705247951
 40
0.2292343066
 40
0.2952660117
 40
0.367961801
 40
0.4466117224
 40
0.5305031057
 40
0.6188687339
 40
0.8058290382
 40
1.0
 40
1.0
 40
1.0
 40
1.0
 10
14.7080095575
 20
20.9971125399
 30
0.0
 10
14.7079969691
 20
20.9971125433
 30
0.0
 10
14.7080321296
 20
20.9971940552
 30
0.0
 10
14.7080230081
 20
20.9972767615
 30
0.0
 10
14.7080725086
 20
20.9974823619
 30
0.0
 10
14.7081377297
 20
20.9978739718
 30
0.0
 10
14.7082782281
 20
20.9985727382
 30
0.0
 10
14.7084823685
 20
20.9996240766
 30
0.0
 10
14.7087543243
 20
21.0009821518
 30
0.0
 10
14.7090878137
 20
21.0026393969
 30
0.0
 10
14.709485033
 20
21.0045974927
 30
0.0
 10
14.7101354144
 20
21.0078027204
 30
0.0
 10
14.7110931662
 20
21.012543486
 30
0.0
 10
14.7123997765
 20
21.019103515
 30
0.0
 10
14.7139063432
 20
21.0268110491
 30
0.0
 10
14.7155952956
 20
21.0356472762
 30
0.0
 10
14.7174489994
 20
21.0455917188
 30
0.0
 10
14.7202393313
 20
21.0609837841
 30
0.0
 10
14.7240005557
 20
21.0827802601
 30
0.0
 10
14.7286568314
 20
21.111867633
 30
0.0
 10
14.7334538394
 20
21.1446447217
 30
0.0
 10
14.7382326561
 20
21.1808022346
 30
0.0
 10
14.7428365591
 20
21.2200014152
 30
0.0
 10
14.747102215
 20
21.2618827194
 30
0.0
 10
14.7522561583
 20
21.3219322832
 30
0.0
 10
14.7570136079
 20
21.4005743614
 30
0.0
 10
14.758492703
 20
21.4645242099
 30
0.0
 10
14.758492703
 20
21.4971014493
 30
0.0
  0
ENDSEC
  0
SECTION
  2
OBJECTS
  0
DICTIONARY
  5
C
100
AcDbDictionary
280
0
281
1
  3
ACAD_GROUP
350
D
  3
ACAD_MLINESTYLE
350
17
  3
ACAD_LAYOUT
350
1A
  3
ACAD_PLOTSETTINGS
350
19
  3
ACAD_PLOTSTYLENAME
350
E
  0
DICTIONARY
  5
D
102
{ACAD_REACTORS
330
C
102
}
100
AcDbDictionary
280
0
281
1
  0
ACDBDICTIONARYWDFLT
  5
E
102
{ACAD_REACTORS
330
C
102
}
100
AcDbDictionary
281
1
  3
Normal
350
F
100
AcDbDictionaryWithDefault
340
F
  0
DICTIONARY
  5
17
102
{ACAD_REACTORS
330
C
102
}
100
AcDbDictionary
280
0
281
1
  3
Standard
350
18
  0
DICTIONARY
  5
19
102
{ACAD_REACTORS
330
C
102
}
100
AcDbDictionary
281
1
  0
DICTIONARY
  5
1A
102
{ACAD_REACTORS
330
C
102
}
100
AcDbDictionary
281
1
  3
Model
350
269
  3
Layout1
350
26A
  0
ACDBPLACEHOLDER
  5
F
102
{ACAD_REACTORS
330
E
102
}
  0
MLINESTYLE
  5
18
102
{ACAD_REACTORS
330
17
102
}
100
AcDbMlineStyle
  2
STANDARD
 70
0
  3

 62
256
 51
90.0
 52
90.0
 71
2
 49
0.5
 62
256
  6
BYLAYER
 49
-0.5
 62
256
  6
BYLAYER
  0
LAYOUT
  5
269
102
{ACAD_REACTORS
330
1A
102
}
100
AcDbPlotSettings
  1

  2
none_device
  4

  6

 40
0.0
 41
0.0
 42
0.0
 43
0.0
 44
210.0
 45
297.0
 46
0.0
 47
0.0
 48
0.0
 49
0.0
140
0.0
141
0.0
142
1.0
143
1.0
 70
1024
 72
1
 73
0
 74
0
  7

 75
0
147
1.0
148
0.0
149
0.0
100
AcDbLayout
  1
Model
 70
0
 71
0
 10
0.0
 20
0.0
 11
210.0
 21
297.0
 12
0.0
 22
0.0
 32
0.0
 14
0.0
 24
0.0
 34
0.0
 15
0.0
 25
0.0
 35
0.0
146
0.0
 13
0.0
 23
0.0
 33
0.0
 16
1.0
 26
0.0
 36
0.0
 17
0.0
 27
1.0
 37
0.0
 76
0
330
210
345
0
346
0
  0
LAYOUT
  5
26A
102
{ACAD_REACTORS
330
1A
102
}
100
AcDbPlotSettings
  1

  2
none_device
  4

  6

 40
0.0
 41
0.0
 42
0.0
 43
0.0
 44
210.0
 45
297.0
 46
0.0
 47
0.0
 48
0.0
 49
0.0
140
0.0
141
0.0
142
1.0
143
1.0
 70
0
 72
1
 73
0
 74
0
  7

 75
0
147
1.0
148
0.0
149
0.0
100
AcDbLayout
  1
Layout1
 70
0
 71
1
 10
0.0
 20
0.0
 11
210.0
 21
297.0
 12
0.0
 22
0.0
 32
0.0
 14
0.0
 24
0.0
 34
0.0
 15
0.0
 25
0.0
 35
0.0
146
0.0
 13
0.0
 23
0.0
 33
0.0
 16
1.0
 26
0.0
 36
0.0
 17
0.0
 27
1.0
 37
0.0
 76
0
330
211
345
0
346
0
  0
ENDSEC
  0
EOF
