999
DXF file: C:\Users\sesa63760\Dev\_Creo\CAD\MCADID0005528_3D-CAD\drw0001_7.dxf
999
Pro/ENGINEER 2019471 by Parametric Technology Corporation
  0
SECTION
  2
HEADER
  9
$ACADVER
  1
AC1024
  9
$DWGCODEPAGE
  3
ANSI_1252
  9
$EXTMAX
 10
38.2776253904
 20
54.1354987664
 30
0.0
  9
$EXTMIN
 10
0.0
 20
0.0
 30
0.0
  9
$LIMMIN
 10
0.0
 20
0.0
  9
$LIMMAX
 10
38.2776253904
 20
54.1354987664
  9
$VIEWCTR
 10
19.1388126952
 20
27.0677493832
  9
$VIEWSIZE
 40
54.1354987664
  9
$CLAYER
  8
0
  9
$LTSCALE
 40
3.5288325122
  9
$CELTYPE
  6
BYLAYER
  9
$DIMSCALE
 40
1.0
  9
$DIMASZ
 40
0.4556860166
  9
$DIMEXO
 40
1.0
  9
$DIMDLI
 40
2.438102463
  9
$DIMEXE
 40
1.0
  9
$DIMCEN
 40
0.5774453202
  9
$DIMLFAC
 40
1.0
  9
$DIMBLK
  1
_FILLED
  9
$DIMALT
 70
0
  9
$DIMALTF
 40
0.0393700787
  9
$DIMTXT
 40
0.6379604232
  9
$DIMTOL
 70
1
  9
$DIMLIM
 70
0
  9
$DIMTFAC
 40
1.0
  9
$DIMTP
 40
0.01
  9
$DIMTM
 40
0.01
  9
$DIMGAP
 40
0.625
  9
$DIMDSEP
 70
46
  9
$AUNITS
 70
0
  9
$PDMODE
 70
3
  9
$PDSIZE
 40
0.3125
  9
$HANDSEED
  5
2FB
  9
$TILEMODE
 70
1
  9
$MEASUREMENT
 70
1
  9
$INSUNITS
 70
4
  0
ENDSEC
  0
SECTION
  2
CLASSES
  0
CLASS
  1
ACDBDICTIONARYWDFLT
  2
AcDbDictionaryWithDefault
  3
AutoCAD 2000
 90
0
 91
1
280
0
281
0
  0
CLASS
  1
ACDBPLACEHOLDER
  2
AcDbPlaceHolder
  3
AutoCAD 2000
 90
0
 91
1
280
0
281
0
  0
CLASS
  1
LAYOUT
  2
AcDbLayout
  3
AutoCAD 2000
 90
0
 91
0
280
0
281
0
  0
ENDSEC
  0
SECTION
  2
TABLES
  0
TABLE
  2
VPORT
  5
8
100
AcDbSymbolTable
 70
2
  0
VPORT
  5
1F4
100
AcDbSymbolTableRecord
100
AcDbViewportTableRecord
  2
*ACTIVE
 70
0
 10
0.0
 20
0.0
 11
1.0
 21
1.0
 12
19.1388126952
 22
27.0677493832
 13
0.0
 23
0.0
 14
1.0
 24
1.0
 15
0.0
 25
0.0
 16
0.0
 26
0.0
 36
1.0
 17
0.0
 27
0.0
 37
0.0
 40
54.1354987664
 41
0.7070707071
 42
50.0
 43
0.0
 44
0.0
 50
0.0
 51
0.0
 71
0
 72
100
 73
1
 74
1
 75
0
 76
0
 77
0
 78
0
  0
ENDTAB
  0
TABLE
  2
LTYPE
  5
5
100
AcDbSymbolTable
 70
6
  0
LTYPE
  5
14
100
AcDbSymbolTableRecord
100
AcDbLinetypeTableRecord
  2
BYBLOCK
 70
0
  3

 72
65
 73
0
 40
0.0
  0
LTYPE
  5
15
100
AcDbSymbolTableRecord
100
AcDbLinetypeTableRecord
  2
BYLAYER
 70
0
  3

 72
65
 73
0
 40
0.0
  0
LTYPE
  5
16
100
AcDbSymbolTableRecord
100
AcDbLinetypeTableRecord
  2
CONTINUOUS
 70
64
  3
Solid line
 72
65
 73
0
 40
0.0
  0
LTYPE
  5
1F5
100
AcDbSymbolTableRecord
100
AcDbLinetypeTableRecord
  2
CENTER
 70
64
  3
____ _ ____ _ ____ _ ____ _ ____ _ ____ _ ____
 72
65
 73
4
 40
0.6
 49
0.375
 74
0
 49
-0.075
 74
0
 49
0.075
 74
0
 49
-0.075
 74
0
  0
LTYPE
  5
1F6
100
AcDbSymbolTableRecord
100
AcDbLinetypeTableRecord
  2
HIDDEN
 70
64
  3
- - - - - - - - - - - - - - - - - - - -
 72
65
 73
2
 40
0.2
 49
0.1
 74
0
 49
-0.1
 74
0
  0
LTYPE
  5
1F7
100
AcDbSymbolTableRecord
100
AcDbLinetypeTableRecord
  2
PHANTOM
 70
64
  3
_____ _ _ _____ _ _ _____ _ _ _____
 72
65
 73
6
 40
0.8
 49
0.45
 74
0
 49
-0.05
 74
0
 49
0.1
 74
0
 49
-0.05
 74
0
 49
0.1
 74
0
 49
-0.05
 74
0
  0
LTYPE
  5
1F8
100
AcDbSymbolTableRecord
100
AcDbLinetypeTableRecord
  2
DOT
 70
64
  3
. . . . . . . . . . . . . . . . . . . .
 72
65
 73
2
 40
0.2
 49
0.1
 74
0
 49
-0.1
 74
0
  0
LTYPE
  5
1F9
100
AcDbSymbolTableRecord
100
AcDbLinetypeTableRecord
  2
DASHED
 70
64
  3
- - - - - - - - - - - - - - - - - - - -
 72
65
 73
2
 40
0.2
 49
0.1
 74
0
 49
-0.1
 74
0
  0
ENDTAB
  0
TABLE
  2
LAYER
  5
2
100
AcDbSymbolTable
 70
36
  0
LAYER
  5
10
100
AcDbSymbolTableRecord
100
AcDbLayerTableRecord
  2
0
 70
0
 62
7
  6
CONTINUOUS
370
-3
390
F
  0
LAYER
  5
1FA
100
AcDbSymbolTableRecord
100
AcDbLayerTableRecord
  2
DEFAULT_1
 70
0
 62
7
  6
CENTER
370
-3
390
F
  0
LAYER
  5
1FB
100
AcDbSymbolTableRecord
100
AcDbLayerTableRecord
  2
DEFAULT_2
 70
0
 62
7
  6
HIDDEN
370
-3
390
F
  0
LAYER
  5
1FC
100
AcDbSymbolTableRecord
100
AcDbLayerTableRecord
  2
DEFAULT_3
 70
0
 62
7
  6
PHANTOM
370
-3
390
F
  0
LAYER
  5
1FD
100
AcDbSymbolTableRecord
100
AcDbLayerTableRecord
  2
00_COMPONENTS
 70
0
 62
7
  6
CONTINUOUS
370
-3
390
F
  0
LAYER
  5
1FE
100
AcDbSymbolTableRecord
100
AcDbLayerTableRecord
  2
01_1_DEFAULT_DATUMS
 70
0
 62
7
  6
CONTINUOUS
370
-3
390
F
  0
LAYER
  5
1FF
100
AcDbSymbolTableRecord
100
AcDbLayerTableRecord
  2
01_PLANES
 70
0
 62
7
  6
CONTINUOUS
370
-3
390
F
  0
LAYER
  5
200
100
AcDbSymbolTableRecord
100
AcDbLayerTableRecord
  2
02_COORD_SYS
 70
0
 62
7
  6
CONTINUOUS
370
-3
390
F
  0
LAYER
  5
201
100
AcDbSymbolTableRecord
100
AcDbLayerTableRecord
  2
03_AXES
 70
0
 62
7
  6
CONTINUOUS
370
-3
390
F
  0
LAYER
  5
202
100
AcDbSymbolTableRecord
100
AcDbLayerTableRecord
  2
04_POINTS
 70
0
 62
7
  6
CONTINUOUS
370
-3
390
F
  0
LAYER
  5
203
100
AcDbSymbolTableRecord
100
AcDbLayerTableRecord
  2
05_CURVES
 70
0
 62
7
  6
CONTINUOUS
370
-3
390
F
  0
LAYER
  5
204
100
AcDbSymbolTableRecord
100
AcDbLayerTableRecord
  2
06_SURFS
 70
0
 62
7
  6
CONTINUOUS
370
-3
390
F
  0
LAYER
  5
205
100
AcDbSymbolTableRecord
100
AcDbLayerTableRecord
  2
07_COSMETICS
 70
0
 62
7
  6
CONTINUOUS
370
-3
390
F
  0
LAYER
  5
206
100
AcDbSymbolTableRecord
100
AcDbLayerTableRecord
  2
10_NOTES
 70
0
 62
7
  6
CONTINUOUS
370
-3
390
F
  0
LAYER
  5
207
100
AcDbSymbolTableRecord
100
AcDbLayerTableRecord
  2
11_NOTES_PUB
 70
0
 62
7
  6
CONTINUOUS
370
-3
390
F
  0
LAYER
  5
208
100
AcDbSymbolTableRecord
100
AcDbLayerTableRecord
  2
13_REF_GTOL
 70
0
 62
7
  6
CONTINUOUS
370
-3
390
F
  0
LAYER
  5
209
100
AcDbSymbolTableRecord
100
AcDbLayerTableRecord
  2
16_MISC
 70
0
 62
7
  6
CONTINUOUS
370
-3
390
F
  0
LAYER
  5
20A
100
AcDbSymbolTableRecord
100
AcDbLayerTableRecord
  2
17_NO_PRINT
 70
0
 62
7
  6
CONTINUOUS
370
-3
390
F
  0
LAYER
  5
20B
100
AcDbSymbolTableRecord
100
AcDbLayerTableRecord
  2
18_DATUM_CAMS_JOINTS
 70
0
 62
7
  6
CONTINUOUS
370
-3
390
F
  0
LAYER
  5
20C
100
AcDbSymbolTableRecord
100
AcDbLayerTableRecord
  2
19_DATUM_FUNCTIONAL
 70
0
 62
7
  6
CONTINUOUS
370
-3
390
F
  0
LAYER
  5
20D
100
AcDbSymbolTableRecord
100
AcDbLayerTableRecord
  2
20_DATUM_KINEMATIC_SCHEME
 70
0
 62
7
  6
CONTINUOUS
370
-3
390
F
  0
ENDTAB
  0
TABLE
  2
STYLE
  5
3
100
AcDbSymbolTable
 70
1
  0
STYLE
  5
11
100
AcDbSymbolTableRecord
100
AcDbTextStyleTableRecord
  2
STANDARD
 70
0
 40
0.0
 41
1.0
 50
0.0
 71
0
 42
0.2
  3
ARIAL.TTF
  4

  0
STYLE
  5
20E
100
AcDbSymbolTableRecord
100
AcDbTextStyleTableRecord
  2
TEXTSTYLE_1
 70
0
 40
0.0
 41
0.8
 50
0.0
 71
0
 42
0.2
  3
gdt
  4

  0
ENDTAB
  0
TABLE
  2
VIEW
  5
6
100
AcDbSymbolTable
 70
0
  0
ENDTAB
  0
TABLE
  2
UCS
  5
7
100
AcDbSymbolTable
 70
0
  0
ENDTAB
  0
TABLE
  2
APPID
  5
9
100
AcDbSymbolTable
 70
1
  0
APPID
  5
20F
100
AcDbSymbolTableRecord
100
AcDbRegAppTableRecord
  2
ACAD
 70
0
  0
ENDTAB
  0
TABLE
  2
BLOCK_RECORD
  5
1
100
AcDbSymbolTable
 70
0
  0
BLOCK_RECORD
  5
210
100
AcDbSymbolTableRecord
100
AcDbBlockTableRecord
  2
*Model_Space
  0
BLOCK_RECORD
  5
211
100
AcDbSymbolTableRecord
100
AcDbBlockTableRecord
  2
*Paper_Space
  0
BLOCK_RECORD
  5
212
100
AcDbSymbolTableRecord
100
AcDbBlockTableRecord
  2
_FILLED
  0
ENDTAB
  0
TABLE
  2
DIMSTYLE
  5
A
100
AcDbSymbolTable
 70
1
100
AcDbDimStyleTable
 71
0
  0
DIMSTYLE
105
213
100
AcDbSymbolTableRecord
100
AcDbDimStyleTableRecord
  2
STANDARD
 70
0
  3

  4

 40
1.0
 41
0.4556860166
 42
1.0
 43
0.38
 44
1.0
 45
0.0
 46
0.0
 47
0.01
 48
0.01
140
0.6379604232
141
0.09
142
0.0
143
25.4
144
1.0
145
0.0
146
1.0
147
0.625
 71
1
 72
0
 73
0
 74
0
 75
0
 76
0
 77
1
 78
8
 79
2
170
0
171
1
172
0
173
0
174
0
175
0
176
0
177
0
178
0
270
2
179
2
271
2
272
2
273
2
274
2
275
0
280
0
281
0
282
0
283
1
284
8
285
0
286
0
287
3
288
0
340
11
278
46
341
212
342
212
343
212
344
212
  0
ENDTAB
  0
ENDSEC
  0
SECTION
  2
BLOCKS
  0
BLOCK
  5
20
100
AcDbEntity
  8
0
100
AcDbBlockBegin
  2
*Model_Space
 70
0
 10
0.0
 20
0.0
 30
0.0
  3
*Model_Space
  1

  0
ENDBLK
  5
21
100
AcDbEntity
  8
0
100
AcDbBlockEnd
  0
BLOCK
  5
1C
100
AcDbEntity
  8
0
100
AcDbBlockBegin
  2
*Paper_Space
 70
0
 10
0.0
 20
0.0
 30
0.0
  3
*Paper_Space
  1

  0
ENDBLK
  5
1D
100
AcDbEntity
  8
0
100
AcDbBlockEnd
  0
BLOCK
  5
214
100
AcDbEntity
  8
0
100
AcDbBlockBegin
  2
_FILLED
 70
64
 10
0.0
 20
0.0
  3
_FILLED
  1

  0
SOLID
  5
215
100
AcDbEntity
  8
0
  6
BYBLOCK
 62
0
100
AcDbTrace
 10
0.0
 20
0.0
 11
-1.0
 21
0.25
 12
-1.0
 22
-0.25
 13
-1.0
 23
-0.25
  0
ENDBLK
  5
216
100
AcDbEntity
  8
0
  6
BYBLOCK
 62
0
100
AcDbBlockEnd
  0
ENDSEC
  0
SECTION
  2
ENTITIES
  0
LINE
  5
217
100
AcDbEntity
  8
0
100
AcDbLine
 62
7
  6
BYLAYER
 10
8.9561355023
 20
5.811924488
 11
8.9276605046
 21
5.8220779323
  0
LINE
  5
218
100
AcDbEntity
  8
0
100
AcDbLine
 62
7
  6
BYLAYER
 10
8.9559709009
 20
5.8110760367
 11
8.9276605046
 21
5.8220779323
  0
LINE
  5
219
100
AcDbEntity
  8
0
100
AcDbLine
 62
7
  6
BYLAYER
 10
20.5069141398
 20
4.0262503667
 11
20.3315094486
 21
4.0254198405
  0
LINE
  5
21A
100
AcDbEntity
  8
0
100
AcDbLine
 62
7
  6
BYLAYER
 10
20.3315094486
 20
4.0254198405
 11
20.053602153
 21
4.0236498927
  0
LINE
  5
21B
100
AcDbEntity
  8
0
100
AcDbLine
 62
7
  6
BYLAYER
 10
17.4363203595
 20
4.0408512768
 11
17.5070190345
 21
4.0383456434
  0
LINE
  5
21C
100
AcDbEntity
  8
0
100
AcDbLine
 62
7
  6
BYLAYER
 10
17.4363289303
 20
4.0413188702
 11
17.5070190345
 21
4.0383456434
  0
LINE
  5
21D
100
AcDbEntity
  8
0
100
AcDbLine
 62
7
  6
BYLAYER
 10
17.5183074739
 20
4.1535829919
 11
17.4252273998
 21
4.1627009453
  0
LINE
  5
21E
100
AcDbEntity
  8
0
100
AcDbLine
 62
7
  6
BYLAYER
 10
17.5182798815
 20
4.1530416115
 11
17.4252273998
 21
4.1627009453
  0
LINE
  5
21F
100
AcDbEntity
  8
0
100
AcDbLine
 62
7
  6
BYLAYER
 10
10.6910405517
 20
5.8099390186
 11
10.6567199481
 21
5.8220770411
  0
LINE
  5
220
100
AcDbEntity
  8
0
100
AcDbLine
 62
7
  6
BYLAYER
 10
10.6908241539
 20
5.8088232362
 11
10.6567199481
 21
5.8220770411
  0
LINE
  5
221
100
AcDbEntity
  8
0
100
AcDbLine
 62
7
  6
BYLAYER
 10
7.3125540599
 20
5.821917863
 11
8.9276284306
 21
5.821917863
  0
LINE
  5
222
100
AcDbEntity
  8
0
100
AcDbLine
 62
7
  6
BYLAYER
 10
8.9597221199
 20
5.821917863
 11
10.6566911531
 21
5.821917863
  0
LINE
  5
223
100
AcDbEntity
  8
0
100
AcDbLine
 62
7
  6
BYLAYER
 10
10.6953044756
 20
5.821917863
 11
13.1545313851
 21
5.821917863
  0
LINE
  5
224
100
AcDbEntity
  8
0
100
AcDbLine
 62
7
  6
BYLAYER
 10
7.1471935094
 20
5.940087308
 11
8.6919238099
 21
5.940087308
  0
LINE
  5
225
100
AcDbEntity
  8
0
100
AcDbLine
 62
7
  6
BYLAYER
 10
8.7240978659
 20
5.940087308
 11
10.4210666876
 21
5.940087308
  0
LINE
  5
226
100
AcDbEntity
  8
0
100
AcDbLine
 62
7
  6
BYLAYER
 10
10.4595995734
 20
5.940087308
 11
12.7538458769
 21
5.940087308
  0
LINE
  5
227
100
AcDbEntity
  8
0
100
AcDbLine
 62
7
  6
BYLAYER
 10
12.4018529749
 20
6.3363610111
 11
10.301532688
 21
6.3363610111
  0
LINE
  5
228
100
AcDbEntity
  8
0
100
AcDbLine
 62
7
  6
BYLAYER
 10
10.2629928618
 20
6.3363610111
 11
8.5660808778
 21
6.3363610111
  0
LINE
  5
229
100
AcDbEntity
  8
0
100
AcDbLine
 62
7
  6
BYLAYER
 10
8.5338560482
 20
6.3363610111
 11
7.0861741096
 21
6.3363610111
  0
LINE
  5
22A
100
AcDbEntity
  8
0
100
AcDbLine
 62
7
  6
BYLAYER
 10
4.9550740118
 20
20.4066583417
 11
4.9550740118
 21
29.0927341638
  0
LINE
  5
22B
100
AcDbEntity
  8
0
100
AcDbLine
 62
7
  6
BYLAYER
 10
6.6050740156
 20
31.5427341638
 11
6.6050740156
 21
30.2927341638
  0
LINE
  5
22C
100
AcDbEntity
  8
0
100
AcDbLine
 62
7
  6
BYLAYER
 10
6.7300740156
 20
19.7627339564
 11
6.7300740156
 21
19.9927342264
  0
LINE
  5
22D
100
AcDbEntity
  8
0
100
AcDbLine
 62
7
  6
BYLAYER
 10
7.0815158474
 20
19.2588098841
 11
7.0815158474
 21
8.9437967479
  0
LINE
  5
22E
100
AcDbEntity
  8
0
100
AcDbLine
 62
7
  6
BYLAYER
 10
7.3864303599
 20
19.2375318664
 11
7.3864303599
 21
19.2588098841
  0
LINE
  5
22F
100
AcDbEntity
  8
0
100
AcDbLine
 62
7
  6
BYLAYER
 10
8.3300740156
 20
34.2417341638
 11
8.3300740156
 21
31.5427341638
  0
LINE
  5
230
100
AcDbEntity
  8
0
100
AcDbLine
 62
7
  6
BYLAYER
 10
7.9506398499
 20
19.2588098901
 11
7.9508169434
 21
19.762733872
  0
LINE
  5
231
100
AcDbEntity
  8
0
100
AcDbLine
 62
7
  6
BYLAYER
 10
10.2618168945
 20
6.4027341638
 11
10.2630508451
 21
6.3363412281
  0
LINE
  5
232
100
AcDbEntity
  8
0
100
AcDbLine
 62
7
  6
BYLAYER
 10
8.6808166109
 20
34.9027341638
 11
8.6808166109
 21
43.1027341638
  0
LINE
  5
233
100
AcDbEntity
  8
0
100
AcDbLine
 62
7
  6
BYLAYER
 10
8.7050740156
 20
34.9027341638
 11
8.7050740156
 21
34.4917341638
  0
LINE
  5
234
100
AcDbEntity
  8
0
100
AcDbLine
 62
7
  6
BYLAYER
 10
8.8785903683
 20
46.6917592187
 11
8.8785903683
 21
45.7917341638
  0
LINE
  5
235
100
AcDbEntity
  8
0
100
AcDbLine
 62
7
  6
BYLAYER
 10
9.0070349884
 20
34.9027341638
 11
9.0070349884
 21
43.1027341638
  0
LINE
  5
236
100
AcDbEntity
  8
0
100
AcDbLine
 62
7
  6
BYLAYER
 10
9.3050740156
 20
38.2867517101
 11
9.3050740156
 21
39.2991238184
  0
LINE
  5
237
100
AcDbEntity
  8
0
100
AcDbLine
 62
7
  6
BYLAYER
 10
9.3785791974
 20
45.7917341638
 11
9.3785791974
 21
46.0900031026
  0
LINE
  5
238
100
AcDbEntity
  8
0
100
AcDbLine
 62
7
  6
BYLAYER
 10
31.6800737786
 20
19.762733872
 11
28.3196770894
 21
19.262418615
  0
LINE
  5
239
100
AcDbEntity
  8
0
100
AcDbLine
 62
7
  6
BYLAYER
 10
8.3262717808
 20
17.5027350458
 11
8.3585615561
 21
17.5027350458
  0
LINE
  5
23A
100
AcDbEntity
  8
0
100
AcDbLine
 62
7
  6
BYLAYER
 10
10.0555329427
 20
17.5027353563
 11
10.0939502569
 21
17.5027353563
  0
LINE
  5
23B
100
AcDbEntity
  8
0
100
AcDbLine
 62
7
  6
BYLAYER
 10
6.3450738821
 20
19.9927342264
 11
4.9550740156
 21
20.4066583406
  0
LINE
  5
23C
100
AcDbEntity
  8
0
100
AcDbLine
 62
7
  6
BYLAYER
 10
10.5050740156
 20
49.1917341638
 11
10.5050740156
 21
43.1027341638
  0
LINE
  5
23D
100
AcDbEntity
  8
0
100
AcDbLine
 62
7
  6
BYLAYER
 10
10.9291109724
 20
32.3273846398
 11
10.9290758885
 21
31.5427341638
  0
LINE
  5
23E
100
AcDbEntity
  8
0
100
AcDbLine
 62
7
  6
BYLAYER
 10
11.269845258
 20
19.2271153397
 11
11.269845258
 21
19.258809885
  0
LINE
  5
23F
100
AcDbEntity
  8
0
100
AcDbLine
 62
7
  6
BYLAYER
 10
9.566324709
 20
19.1527341638
 11
9.5544855097
 21
19.1080857695
  0
LINE
  5
240
100
AcDbEntity
  8
0
100
AcDbLine
 62
7
  6
BYLAYER
 10
8.7261815881
 20
19.1027341905
 11
9.6116638522
 21
19.1027341905
  0
LINE
  5
241
100
AcDbEntity
  8
0
100
AcDbLine
 62
7
  6
BYLAYER
 10
9.5967935854
 20
19.1527341638
 11
8.704115679
 21
19.1527341638
  0
LINE
  5
242
100
AcDbEntity
  8
0
100
AcDbLine
 62
7
  6
BYLAYER
 10
7.0815158474
 20
19.258809886
 11
13.8220329492
 21
19.2588098864
  0
LINE
  5
243
100
AcDbEntity
  8
0
100
AcDbLine
 62
7
  6
BYLAYER
 10
30.4588011034
 20
19.2588098848
 11
31.3286322814
 21
19.2588098847
  0
LINE
  5
244
100
AcDbEntity
  8
0
100
AcDbLine
 62
7
  6
BYLAYER
 10
28.3196770894
 20
19.262418615
 11
15.9342780074
 21
19.262418615
  0
LINE
  5
245
100
AcDbEntity
  8
0
100
AcDbLine
 62
7
  6
BYLAYER
 10
31.6800737786
 20
19.762733872
 11
13.8224222926
 21
19.762733872
  0
LINE
  5
246
100
AcDbEntity
  8
0
100
AcDbLine
 62
7
  6
BYLAYER
 10
7.9506398499
 20
19.762733872
 11
6.7300740156
 21
19.762733872
  0
LINE
  5
247
100
AcDbEntity
  8
0
100
AcDbLine
 62
7
  6
BYLAYER
 10
7.6413019363
 20
19.9888098842
 11
13.8220329492
 21
19.9888098842
  0
LINE
  5
248
100
AcDbEntity
  8
0
100
AcDbLine
 62
7
  6
BYLAYER
 10
32.065047997
 20
19.9927342264
 11
13.5777575297
 21
19.9927342264
  0
LINE
  5
249
100
AcDbEntity
  8
0
100
AcDbLine
 62
7
  6
BYLAYER
 10
7.6370064084
 20
19.9927342264
 11
6.3451000341
 21
19.9927342264
  0
LINE
  5
24A
100
AcDbEntity
  8
0
100
AcDbLine
 62
7
  6
BYLAYER
 10
12.2045107949
 20
43.1027341638
 11
12.2045107949
 21
34.9027341638
  0
LINE
  5
24B
100
AcDbEntity
  8
0
100
AcDbLine
 62
7
  6
BYLAYER
 10
12.2050740156
 20
48.9917341638
 11
12.2050740156
 21
45.7917341638
  0
LINE
  5
24C
100
AcDbEntity
  8
0
100
AcDbLine
 62
7
  6
BYLAYER
 10
12.343687877
 20
45.7917341638
 11
12.343687877
 21
47.5917341638
  0
LINE
  5
24D
100
AcDbEntity
  8
0
100
AcDbLine
 62
7
  6
BYLAYER
 10
12.3560174118
 20
34.9027341638
 11
12.3560174118
 21
43.1027341638
  0
LINE
  5
24E
100
AcDbEntity
  8
0
100
AcDbLine
 62
7
  6
BYLAYER
 10
13.7238406609
 20
5.6327552329
 11
13.7238406609
 21
19.2588098842
  0
LINE
  5
24F
100
AcDbEntity
  8
0
100
AcDbLine
 62
7
  6
BYLAYER
 10
13.8224222926
 20
19.9927342264
 11
13.8220329492
 21
19.2588098797
  0
LINE
  5
250
100
AcDbEntity
  8
0
100
AcDbLine
 62
7
  6
BYLAYER
 10
17.2050740156
 20
36.0927341638
 11
18.9316590192
 21
39.9162017294
  0
LINE
  5
251
100
AcDbEntity
  8
0
100
AcDbLine
 62
7
  6
BYLAYER
 10
11.2754192353
 20
20.4020571996
 11
7.3837453992
 21
20.40206971
  0
LINE
  5
252
100
AcDbEntity
  8
0
100
AcDbLine
 62
7
  6
BYLAYER
 10
33.4550740193
 20
20.4066583406
 11
4.9550740118
 21
20.4066583406
  0
LINE
  5
253
100
AcDbEntity
  8
0
100
AcDbLine
 62
7
  6
BYLAYER
 10
14.3617515328
 20
31.5427341638
 11
14.3617031124
 21
32.3273846398
  0
LINE
  5
254
100
AcDbEntity
  8
0
100
AcDbLine
 62
7
  6
BYLAYER
 10
14.8473223017
 20
34.9027341638
 11
14.8473223017
 21
43.1027341638
  0
LINE
  5
255
100
AcDbEntity
  8
0
100
AcDbLine
 62
7
  6
BYLAYER
 10
14.9050740156
 20
48.8917341638
 11
14.9050740156
 21
49.1917341638
  0
LINE
  5
256
100
AcDbEntity
  8
0
100
AcDbLine
 62
7
  6
BYLAYER
 10
16.3345339967
 20
36.0927341638
 11
16.3345339967
 21
34.9027341638
  0
LINE
  5
257
100
AcDbEntity
  8
0
100
AcDbLine
 62
7
  6
BYLAYER
 10
16.3345339967
 20
45.7917341638
 11
16.3345339967
 21
47.5917341638
  0
LINE
  5
258
100
AcDbEntity
  8
0
100
AcDbLine
 62
7
  6
BYLAYER
 10
16.9550740156
 20
31.5427341638
 11
16.9550740156
 21
33.7927341638
  0
LINE
  5
259
100
AcDbEntity
  8
0
100
AcDbLine
 62
7
  6
BYLAYER
 10
4.9550760673
 20
29.0927341638
 11
4.993810873
 21
29.0927341638
  0
LINE
  5
25A
100
AcDbEntity
  8
0
100
AcDbLine
 62
7
  6
BYLAYER
 10
33.4163371581
 20
29.0927341638
 11
33.4550719639
 21
29.0927341638
  0
LINE
  5
25B
100
AcDbEntity
  8
0
100
AcDbLine
 62
7
  6
BYLAYER
 10
21.4550740156
 20
33.7927341638
 11
21.4550740156
 21
31.5427341638
  0
LINE
  5
25C
100
AcDbEntity
  8
0
100
AcDbLine
 62
7
  6
BYLAYER
 10
22.0756140344
 20
47.5917341638
 11
22.0756140344
 21
45.7917341638
  0
LINE
  5
25D
100
AcDbEntity
  8
0
100
AcDbLine
 62
7
  6
BYLAYER
 10
22.0756140345
 20
34.9027341638
 11
22.0756140345
 21
36.0927341638
  0
LINE
  5
25E
100
AcDbEntity
  8
0
100
AcDbLine
 62
7
  6
BYLAYER
 10
5.0019590342
 20
30.2927339589
 11
33.4081890011
 21
30.2927339589
  0
LINE
  5
25F
100
AcDbEntity
  8
0
100
AcDbLine
 62
7
  6
BYLAYER
 10
23.5050740156
 20
49.1917341638
 11
23.5050740156
 21
48.8917341638
  0
LINE
  5
260
100
AcDbEntity
  8
0
100
AcDbLine
 62
7
  6
BYLAYER
 10
23.5628257295
 20
43.1027341638
 11
23.5628257295
 21
34.9027341638
  0
LINE
  5
261
100
AcDbEntity
  8
0
100
AcDbLine
 62
7
  6
BYLAYER
 10
24.0484449188
 20
32.3273846398
 11
24.0483964983
 21
31.5427341638
  0
LINE
  5
262
100
AcDbEntity
  8
0
100
AcDbLine
 62
7
  6
BYLAYER
 10
6.6050740156
 20
31.5427341638
 11
31.8050740156
 21
31.5427341638
  0
LINE
  5
263
100
AcDbEntity
  8
0
100
AcDbLine
 62
7
  6
BYLAYER
 10
10.9291460565
 20
32.3273846398
 11
14.3616546914
 21
32.3273846398
  0
LINE
  5
264
100
AcDbEntity
  8
0
100
AcDbLine
 62
7
  6
BYLAYER
 10
24.0484933397
 20
32.3273846398
 11
27.4810019746
 21
32.3273846398
  0
LINE
  5
265
100
AcDbEntity
  8
0
100
AcDbLine
 62
7
  6
BYLAYER
 10
27.4404768688
 20
32.5264368539
 11
24.1041389037
 21
32.5264368539
  0
LINE
  5
266
100
AcDbEntity
  8
0
100
AcDbLine
 62
7
  6
BYLAYER
 10
14.3060091259
 20
32.5264368539
 11
10.9696711622
 21
32.5264368539
  0
LINE
  5
267
100
AcDbEntity
  8
0
100
AcDbLine
 62
7
  6
BYLAYER
 10
19.4784890119
 20
39.9162017294
 11
21.2050740156
 21
36.0927341638
  0
LINE
  5
268
100
AcDbEntity
  8
0
100
AcDbLine
 62
7
  6
BYLAYER
 10
26.0541306193
 20
34.9027341638
 11
26.0541306193
 21
43.1027341638
  0
LINE
  5
269
100
AcDbEntity
  8
0
100
AcDbLine
 62
7
  6
BYLAYER
 10
26.0664601542
 20
45.7917341638
 11
26.0664601542
 21
47.5917341638
  0
LINE
  5
26A
100
AcDbEntity
  8
0
100
AcDbLine
 62
7
  6
BYLAYER
 10
26.2050740156
 20
45.7917341638
 11
26.2050740156
 21
48.9917341638
  0
LINE
  5
26B
100
AcDbEntity
  8
0
100
AcDbLine
 62
7
  6
BYLAYER
 10
26.2056372363
 20
34.9027341638
 11
26.2056372363
 21
43.1027341638
  0
LINE
  5
26C
100
AcDbEntity
  8
0
100
AcDbLine
 62
7
  6
BYLAYER
 10
21.4550740156
 20
33.7927341638
 11
16.9550740156
 21
33.7927341638
  0
LINE
  5
26D
100
AcDbEntity
  8
0
100
AcDbLine
 62
7
  6
BYLAYER
 10
26.0322531981
 20
34.1517341633
 11
25.7669260911
 21
34.1517341633
  0
LINE
  5
26E
100
AcDbEntity
  8
0
100
AcDbLine
 62
7
  6
BYLAYER
 10
12.6432207355
 20
34.1517341633
 11
12.3778936573
 21
34.1517341633
  0
LINE
  5
26F
100
AcDbEntity
  8
0
100
AcDbLine
 62
7
  6
BYLAYER
 10
8.3300740156
 20
34.2417341638
 11
30.0800740156
 21
34.2417341638
  0
LINE
  5
270
100
AcDbEntity
  8
0
100
AcDbLine
 62
7
  6
BYLAYER
 10
8.5800740156
 20
34.4917341638
 11
29.8300740156
 21
34.4917341638
  0
LINE
  5
271
100
AcDbEntity
  8
0
100
AcDbLine
 62
7
  6
BYLAYER
 10
27.4810721426
 20
31.5427341638
 11
27.4810370588
 21
32.3273846398
  0
LINE
  5
272
100
AcDbEntity
  8
0
100
AcDbLine
 62
7
  6
BYLAYER
 10
27.9050740156
 20
43.1027341638
 11
27.9050740156
 21
49.1917341638
  0
LINE
  5
273
100
AcDbEntity
  8
0
100
AcDbLine
 62
7
  6
BYLAYER
 10
26.2056372363
 20
34.9027341638
 11
22.0756140345
 21
34.9027341638
  0
LINE
  5
274
100
AcDbEntity
  8
0
100
AcDbLine
 62
7
  6
BYLAYER
 10
16.3345339967
 20
34.9027341638
 11
12.2045107949
 21
34.9027341638
  0
LINE
  5
275
100
AcDbEntity
  8
0
100
AcDbLine
 62
7
  6
BYLAYER
 10
8.6808166109
 20
34.9027341638
 11
9.0070349884
 21
34.9027341638
  0
LINE
  5
276
100
AcDbEntity
  8
0
100
AcDbLine
 62
7
  6
BYLAYER
 10
29.4031130428
 20
34.9027341638
 11
29.7293314203
 21
34.9027341638
  0
LINE
  5
277
100
AcDbEntity
  8
0
100
AcDbLine
 62
7
  6
BYLAYER
 10
16.3345339967
 20
36.0927341638
 11
17.2050740156
 21
36.0927341638
  0
LINE
  5
278
100
AcDbEntity
  8
0
100
AcDbLine
 62
7
  6
BYLAYER
 10
21.2050740156
 20
36.0927341638
 11
22.0756140345
 21
36.0927341638
  0
LINE
  5
279
100
AcDbEntity
  8
0
100
AcDbLine
 62
7
  6
BYLAYER
 10
29.0315688128
 20
46.0900031027
 11
29.0315688128
 21
45.7917341638
  0
LINE
  5
27A
100
AcDbEntity
  8
0
100
AcDbLine
 62
7
  6
BYLAYER
 10
29.1050740156
 20
39.2987166175
 11
29.1050740156
 21
38.2863445091
  0
LINE
  5
27B
100
AcDbEntity
  8
0
100
AcDbLine
 62
7
  6
BYLAYER
 10
29.4031130428
 20
34.9027341638
 11
29.4031130428
 21
43.1027341638
  0
LINE
  5
27C
100
AcDbEntity
  8
0
100
AcDbLine
 62
7
  6
BYLAYER
 10
29.5315807444
 20
45.7917341638
 11
29.5315807444
 21
46.6917073589
  0
LINE
  5
27D
100
AcDbEntity
  8
0
100
AcDbLine
 62
7
  6
BYLAYER
 10
29.7050740156
 20
34.4917341638
 11
29.7050740156
 21
34.9027341638
  0
LINE
  5
27E
100
AcDbEntity
  8
0
100
AcDbLine
 62
7
  6
BYLAYER
 10
29.7293314203
 20
43.1027341638
 11
29.7293314203
 21
34.9027341638
  0
LINE
  5
27F
100
AcDbEntity
  8
0
100
AcDbLine
 62
7
  6
BYLAYER
 10
30.0800740156
 20
31.5427341638
 11
30.0800740156
 21
34.2417341638
  0
LINE
  5
280
100
AcDbEntity
  8
0
100
AcDbLine
 62
7
  6
BYLAYER
 10
32.0650741491
 20
19.9927342264
 11
33.4550740156
 21
20.4066583406
  0
LINE
  5
281
100
AcDbEntity
  8
0
100
AcDbLine
 62
7
  6
BYLAYER
 10
30.4588011034
 20
19.2588098781
 11
30.4588011034
 21
19.5809037463
  0
LINE
  5
282
100
AcDbEntity
  8
0
100
AcDbLine
 62
7
  6
BYLAYER
 10
30.5939942631
 20
5.6331034342
 11
30.5939942631
 21
19.2588098781
  0
LINE
  5
283
100
AcDbEntity
  8
0
100
AcDbLine
 62
7
  6
BYLAYER
 10
31.3286322772
 20
8.9770034807
 11
31.3286322814
 21
19.2588098842
  0
LINE
  5
284
100
AcDbEntity
  8
0
100
AcDbLine
 62
7
  6
BYLAYER
 10
31.6800737786
 20
19.762733872
 11
31.6800737786
 21
19.9927342264
  0
LINE
  5
285
100
AcDbEntity
  8
0
100
AcDbLine
 62
7
  6
BYLAYER
 10
31.8050740156
 20
30.2927341638
 11
31.8050740156
 21
31.5427341638
  0
LINE
  5
286
100
AcDbEntity
  8
0
100
AcDbLine
 62
7
  6
BYLAYER
 10
33.4550740193
 20
20.4066583417
 11
33.4550740193
 21
29.0927341638
  0
LINE
  5
287
100
AcDbEntity
  8
0
100
AcDbLine
 62
7
  6
BYLAYER
 10
8.6808166109
 20
43.1027341638
 11
29.7293314203
 21
43.1027341638
  0
LINE
  5
288
100
AcDbEntity
  8
0
100
AcDbLine
 62
7
  6
BYLAYER
 10
29.5315807444
 20
45.7917341638
 11
27.9050740156
 21
45.7917341638
  0
LINE
  5
289
100
AcDbEntity
  8
0
100
AcDbLine
 62
7
  6
BYLAYER
 10
26.2050740156
 20
45.7917341638
 11
12.2050740156
 21
45.7917341638
  0
LINE
  5
28A
100
AcDbEntity
  8
0
100
AcDbLine
 62
7
  6
BYLAYER
 10
10.5050740156
 20
45.7917341638
 11
8.8785903683
 21
45.7917341638
  0
LINE
  5
28B
100
AcDbEntity
  8
0
100
AcDbLine
 62
7
  6
BYLAYER
 10
9.3785791974
 20
46.0900031026
 11
10.5050740156
 21
46.0900031026
  0
LINE
  5
28C
100
AcDbEntity
  8
0
100
AcDbLine
 62
7
  6
BYLAYER
 10
27.9050740156
 20
46.0900031027
 11
29.0315688128
 21
46.0900031027
  0
LINE
  5
28D
100
AcDbEntity
  8
0
100
AcDbLine
 62
7
  6
BYLAYER
 10
29.3080091166
 20
46.2750835837
 11
27.9050740156
 21
46.2750835837
  0
LINE
  5
28E
100
AcDbEntity
  8
0
100
AcDbLine
 62
7
  6
BYLAYER
 10
10.5050740156
 20
46.2750835837
 11
9.1021982179
 21
46.2750835837
  0
LINE
  5
28F
100
AcDbEntity
  8
0
100
AcDbLine
 62
7
  6
BYLAYER
 10
12.343687877
 20
47.5917341638
 11
16.3345339967
 21
47.5917341638
  0
LINE
  5
290
100
AcDbEntity
  8
0
100
AcDbLine
 62
7
  6
BYLAYER
 10
22.0756140344
 20
47.5917341638
 11
26.0664601542
 21
47.5917341638
  0
LINE
  5
291
100
AcDbEntity
  8
0
100
AcDbLine
 62
7
  6
BYLAYER
 10
14.9050740156
 20
48.8917341638
 11
23.5050740156
 21
48.8917341638
  0
LINE
  5
292
100
AcDbEntity
  8
0
100
AcDbLine
 62
7
  6
BYLAYER
 10
10.5050740156
 20
48.9917341638
 11
12.2050740156
 21
48.9917341638
  0
LINE
  5
293
100
AcDbEntity
  8
0
100
AcDbLine
 62
7
  6
BYLAYER
 10
26.2050740156
 20
48.9917341638
 11
27.9050740156
 21
48.9917341638
  0
LINE
  5
294
100
AcDbEntity
  8
0
100
AcDbLine
 62
7
  6
BYLAYER
 10
10.1187998739
 20
49.1917341638
 11
14.9050740156
 21
49.1917341638
  0
LINE
  5
295
100
AcDbEntity
  8
0
100
AcDbLine
 62
7
  6
BYLAYER
 10
23.5050740156
 20
49.1917341638
 11
28.2862407027
 21
49.1917341638
  0
LINE
  5
296
100
AcDbEntity
  8
0
100
AcDbLine
 62
7
  6
BYLAYER
 10
11.1670163479
 20
50.3917341638
 11
13.4664858613
 21
50.3917341638
  0
LINE
  5
297
100
AcDbEntity
  8
0
100
AcDbLine
 62
7
  6
BYLAYER
 10
24.9436612634
 20
50.3917341638
 11
27.2431316833
 21
50.3917341638
  0
ARC
  5
298
100
AcDbEntity
  8
0
100
AcDbCircle
 62
7
  6
BYLAYER
 10
13.7947023064
 20
1684.1471826296
 40
1664.9219817661
100
AcDbArc
 50
269.7794684393
 51
269.9131108185
  0
ARC
  5
299
100
AcDbEntity
  8
0
100
AcDbCircle
 62
7
  6
BYLAYER
 10
-713.9991671893
 20
9.0200425594
 40
745.3278007091
100
AcDbArc
 50
359.7936757364
 51
359.9966914456
  0
ARC
  5
29A
100
AcDbEntity
  8
0
100
AcDbCircle
 62
7
  6
BYLAYER
 10
750.8016067006
 20
8.9810996541
 40
743.7200920352
100
AcDbArc
 50
180.0032361236
 51
180.2037701778
  0
ARC
  5
29B
100
AcDbEntity
  8
0
100
AcDbCircle
 62
7
  6
BYLAYER
 10
19.1842147733
 20
54.1623139217
 40
50.1535083753
100
AcDbArc
 50
270.0238297702
 51
271.0943997169
  0
ARC
  5
29C
100
AcDbEntity
  8
0
100
AcDbCircle
 62
7
  6
BYLAYER
 10
19.2259332578
 20
54.1623139217
 40
50.1535083753
100
AcDbArc
 50
268.035909021
 51
269.9761702298
  0
ARC
  5
29D
100
AcDbEntity
  8
0
100
AcDbCircle
 62
7
  6
BYLAYER
 10
19.1842147733
 20
54.1623139217
 40
50.1535083753
100
AcDbArc
 50
271.5112376413
 51
275.4037147272
  0
ARC
  5
29E
100
AcDbEntity
  8
0
100
AcDbCircle
 62
7
  6
BYLAYER
 10
19.2259332578
 20
54.1623139217
 40
50.1535083753
100
AcDbArc
 50
264.5938383031
 51
267.5375143822
  0
ARC
  5
29F
100
AcDbEntity
  8
0
100
AcDbCircle
 62
7
  6
BYLAYER
 10
18.3534200459
 20
29.9350796903
 40
25.9104767786
100
AcDbArc
 50
267.4883133623
 51
267.971570109
  0
ARC
  5
2A0
100
AcDbEntity
  8
0
100
AcDbCircle
 62
7
  6
BYLAYER
 10
18.3451356244
 20
29.2790949536
 40
25.2547981605
100
AcDbArc
 50
261.2741907373
 51
267.1622847384
  0
ARC
  5
2A1
100
AcDbEntity
  8
0
100
AcDbCircle
 62
7
  6
BYLAYER
 10
18.3699333385
 20
29.1791809031
 40
25.1556409075
100
AcDbArc
 50
261.1835963515
 51
267.8730683173
  0
ARC
  5
2A2
100
AcDbEntity
  8
0
100
AcDbCircle
 62
7
  6
BYLAYER
 10
20.0967237063
 20
29.0849312182
 40
25.0600314815
100
AcDbArc
 50
264.0980027683
 51
270.1034953879
  0
ARC
  5
2A3
100
AcDbEntity
  8
0
100
AcDbCircle
 62
7
  6
BYLAYER
 10
20.0563944137
 20
28.9826207715
 40
24.9589668584
100
AcDbArc
 50
264.1634176661
 51
269.9935900892
  0
ARC
  5
2A4
100
AcDbEntity
  8
0
100
AcDbCircle
 62
7
  6
BYLAYER
 10
18.2354905658
 20
27.0741376667
 40
23.0471164483
100
AcDbArc
 50
267.1631530661
 51
267.4695206255
  0
ARC
  5
2A5
100
AcDbEntity
  8
0
100
AcDbCircle
 62
7
  6
BYLAYER
 10
10.0904709417
 20
30.797726706
 40
11.5353080911
100
AcDbArc
 50
253.0633606013
 51
259.215669074
  0
ARC
  5
2A6
100
AcDbEntity
  8
0
100
AcDbCircle
 62
7
  6
BYLAYER
 10
9.3755449214
 20
6.9973289065
 40
1.258956979
100
AcDbArc
 50
237.1087110864
 51
241.1066550413
  0
ARC
  5
2A7
100
AcDbEntity
  8
0
100
AcDbCircle
 62
7
  6
BYLAYER
 10
11.1046389757
 20
6.9968997144
 40
1.2585707533
100
AcDbArc
 50
237.0997668436
 51
241.0982226754
  0
ARC
  5
2A8
100
AcDbEntity
  8
0
100
AcDbCircle
 62
7
  6
BYLAYER
 10
9.3281795155
 20
6.9144573925
 40
1.1635160828
100
AcDbArc
 50
241.1769491743
 51
245.5025442362
  0
ARC
  5
2A9
100
AcDbEntity
  8
0
100
AcDbCircle
 62
7
  6
BYLAYER
 10
11.057218742
 20
6.9139696116
 40
1.1630518649
100
AcDbArc
 50
241.1688225129
 51
245.4948824863
  0
ARC
  5
2AA
100
AcDbEntity
  8
0
100
AcDbCircle
 62
7
  6
BYLAYER
 10
9.3225910979
 20
6.9017432872
 40
1.1496292672
100
AcDbArc
 50
245.4932447081
 51
249.9079948883
  0
ARC
  5
2AB
100
AcDbEntity
  8
0
100
AcDbCircle
 62
7
  6
BYLAYER
 10
11.0515734213
 20
6.9011168703
 40
1.1490153255
100
AcDbArc
 50
245.4851999027
 51
249.9008911448
  0
ARC
  5
2AC
100
AcDbEntity
  8
0
100
AcDbCircle
 62
7
  6
BYLAYER
 10
29.0316163055
 20
46.6917026593
 40
0.4999644389
100
AcDbArc
 50
303.5610323694
 51
0.0005385766
  0
ARC
  5
2AD
100
AcDbEntity
  8
0
100
AcDbCircle
 62
7
  6
BYLAYER
 10
11.3861718878
 20
32.3380168852
 40
0.4571465538
100
AcDbArc
 50
155.6401969085
 51
180.013780289
  0
ARC
  5
2AE
100
AcDbEntity
  8
0
100
AcDbCircle
 62
7
  6
BYLAYER
 10
27.0239762978
 20
32.338016911
 40
0.4571463994
100
AcDbArc
 50
359.9862164803
 51
24.3598380326
  0
ARC
  5
2AF
100
AcDbEntity
  8
0
100
AcDbCircle
 62
7
  6
BYLAYER
 10
19.2050740156
 20
39.7912124923
 40
0.3006294557
100
AcDbArc
 50
24.567088894
 51
155.432911106
  0
ARC
  5
2B0
100
AcDbEntity
  8
0
100
AcDbCircle
 62
7
  6
BYLAYER
 10
8.5800740156
 20
34.2417341638
 40
0.25
100
AcDbArc
 50
90.0
 51
180.0
  0
ARC
  5
2B1
100
AcDbEntity
  8
0
100
AcDbCircle
 62
7
  6
BYLAYER
 10
29.8300740156
 20
34.2417341638
 40
0.25
100
AcDbArc
 50
0.0
 51
90.0
  0
SPLINE
  5
2B2
100
AcDbEntity
  8
0
100
AcDbSpline
 62
7
  6
BYLAYER
 70
0
 71
3
 72
31
 73
27
 74
0
 42
0.0000001
 43
0.0000001
 44
0.0000000001
 40
0.0
 40
0.0
 40
0.0
 40
0.0
 40
0.0120617163
 40
0.0265770638
 40
0.0439323074
 40
0.064288555
 40
0.0876616181
 40
0.1139961912
 40
0.1750920845
 40
0.2095416036
 40
0.246330272
 40
0.3258554176
 40
0.4113582553
 40
0.499999961
 40
0.5886399495
 40
0.6741393623
 40
0.7536652404
 40
0.7904556909
 40
0.8249072679
 40
0.8860076171
 40
0.91234292
 40
0.9357154439
 40
0.9560708159
 40
0.9734247602
 40
0.9879387512
 40
1.0
 40
1.0
 40
1.0
 40
1.0
 10
29.4031130428
 20
40.0387277432
 30
0.0
 10
29.3929262607
 20
40.0353927276
 30
0.0
 10
29.3717928372
 20
40.0240456349
 30
0.0
 10
29.3422790654
 20
39.9982176245
 30
0.0
 10
29.3123640853
 20
39.9625481521
 30
0.0
 10
29.2823508706
 20
39.9172190521
 30
0.0
 10
29.2525057895
 20
39.862505029
 30
0.0
 10
29.2113937811
 20
39.7729672225
 30
0.0
 10
29.1750063282
 20
39.6707143436
 30
0.0
 10
29.1426084009
 20
39.5576505209
 30
0.0
 10
29.1110968763
 20
39.4273915325
 30
0.0
 10
29.0793359781
 20
39.2506906434
 30
0.0
 10
29.0557531207
 20
39.0263118719
 30
0.0
 10
29.0476727715
 20
38.7927347143
 30
0.0
 10
29.0557521065
 20
38.5591605994
 30
0.0
 10
29.0793334648
 20
38.3347855494
 30
0.0
 10
29.1110958706
 20
38.1580857718
 30
0.0
 10
29.1426076088
 20
38.0278226574
 30
0.0
 10
29.1750089866
 20
37.914752107
 30
0.0
 10
29.2113996225
 20
37.8124936665
 30
0.0
 10
29.2525109333
 20
37.7229510234
 30
0.0
 10
29.282354226
 20
37.6682367259
 30
0.0
 10
29.3123650701
 20
37.6229088974
 30
0.0
 10
29.3422791637
 20
37.5872426162
 30
0.0
 10
29.3717937276
 20
37.5614194327
 30
0.0
 10
29.3929266556
 20
37.5500754707
 30
0.0
 10
29.4031130428
 20
37.5467405843
 30
0.0
  0
SPLINE
  5
2B3
100
AcDbEntity
  8
0
100
AcDbSpline
 62
7
  6
BYLAYER
 70
0
 71
3
 72
31
 73
27
 74
0
 42
0.0000001
 43
0.0000001
 44
0.0000000001
 40
0.0
 40
0.0
 40
0.0
 40
0.0
 40
0.0120617163
 40
0.0265770638
 40
0.0439323074
 40
0.064288555
 40
0.0876616181
 40
0.1139961912
 40
0.1750920845
 40
0.2095416036
 40
0.246330272
 40
0.3258554176
 40
0.4113582553
 40
0.499999961
 40
0.5886399495
 40
0.6741393623
 40
0.7536652404
 40
0.7904556909
 40
0.8249072679
 40
0.8860076171
 40
0.91234292
 40
0.9357154439
 40
0.9560708159
 40
0.9734247602
 40
0.9879387512
 40
1.0
 40
1.0
 40
1.0
 40
1.0
 10
9.0070349884
 20
37.5467405843
 30
0.0
 10
9.0172217704
 20
37.5500755999
 30
0.0
 10
9.038355194
 20
37.5614226927
 30
0.0
 10
9.0678689657
 20
37.5872507031
 30
0.0
 10
9.0977839458
 20
37.6229201755
 30
0.0
 10
9.1277971606
 20
37.6682492755
 30
0.0
 10
9.1576422417
 20
37.7229632986
 30
0.0
 10
9.1987542501
 20
37.812501105
 30
0.0
 10
9.2351417029
 20
37.914753984
 30
0.0
 10
9.2675396303
 20
38.0278178066
 30
0.0
 10
9.2990511548
 20
38.1580767951
 30
0.0
 10
9.330812053
 20
38.3347776842
 30
0.0
 10
9.3543949104
 20
38.5591564557
 30
0.0
 10
9.3624752596
 20
38.7927336133
 30
0.0
 10
9.3543959247
 20
39.0263077281
 30
0.0
 10
9.3308145664
 20
39.2506827782
 30
0.0
 10
9.2990521606
 20
39.4273825558
 30
0.0
 10
9.2675404223
 20
39.5576456702
 30
0.0
 10
9.2351390446
 20
39.6707162205
 30
0.0
 10
9.1987484086
 20
39.7729746611
 30
0.0
 10
9.1576370979
 20
39.8625173042
 30
0.0
 10
9.1277938052
 20
39.9172316017
 30
0.0
 10
9.0977829611
 20
39.9625594301
 30
0.0
 10
9.0678688675
 20
39.9982257114
 30
0.0
 10
9.0383543036
 20
40.0240488948
 30
0.0
 10
9.0172213756
 20
40.0353928569
 30
0.0
 10
9.0070349884
 20
40.0387277432
 30
0.0
  0
SPLINE
  5
2B4
100
AcDbEntity
  8
0
100
AcDbSpline
 62
7
  6
BYLAYER
 70
0
 71
3
 72
10
 73
6
 74
0
 42
0.0000001
 43
0.0000001
 44
0.0000000001
 40
0.0
 40
0.0
 40
0.0
 40
0.0
 40
0.5534763564
 40
0.7913639378
 40
1.0
 40
1.0
 40
1.0
 40
1.0
 10
30.5939942631
 20
5.6331034342
 30
0.0
 10
30.6885138709
 20
5.6631799911
 30
0.0
 10
30.8229197096
 20
5.7087117698
 30
0.0
 10
30.9898270762
 20
5.7740394362
 30
0.0
 10
31.0632088083
 20
5.8060393779
 30
0.0
 10
31.0970597919
 20
5.821917863
 30
0.0
  0
SPLINE
  5
2B5
100
AcDbEntity
  8
0
100
AcDbSpline
 62
7
  6
BYLAYER
 70
0
 71
3
 72
9
 73
5
 74
0
 42
0.0000001
 43
0.0000001
 44
0.0000000001
 40
0.0
 40
0.0
 40
0.0
 40
0.0
 40
0.2781894365
 40
1.0
 40
1.0
 40
1.0
 40
1.0
 10
31.0970597919
 20
5.821917863
 30
0.0
 10
31.1144007178
 20
5.8295537969
 30
0.0
 10
31.1753435701
 20
5.859851174
 30
0.0
 10
31.2308285661
 20
5.9025599257
 30
0.0
 10
31.2625886551
 20
5.940087308
 30
0.0
  0
SPLINE
  5
2B6
100
AcDbEntity
  8
0
100
AcDbSpline
 62
7
  6
BYLAYER
 70
0
 71
3
 72
11
 73
7
 74
0
 42
0.0000001
 43
0.0000001
 44
0.0000000001
 40
0.0
 40
0.0
 40
0.0
 40
0.0
 40
0.181261293
 40
0.401360842
 40
0.6728975347
 40
1.0
 40
1.0
 40
1.0
 40
1.0
 10
31.2625886551
 20
5.940087308
 30
0.0
 10
31.27489915
 20
5.9611909445
 30
0.0
 10
31.2951652447
 20
6.0119800705
 30
0.0
 10
31.3128468365
 20
6.1011827712
 30
0.0
 10
31.3218965476
 20
6.2113139535
 30
0.0
 10
31.3235657922
 20
6.2920060964
 30
0.0
 10
31.3238010161
 20
6.3360948305
 30
0.0
  0
LINE
  5
2B7
100
AcDbEntity
  8
0
100
AcDbLine
 62
7
  6
BYLAYER
 10
7.6414678181
 20
19.9907701215
 11
7.6359367905
 21
19.9928175541
  0
SPLINE
  5
2B8
100
AcDbEntity
  8
0
100
AcDbSpline
 62
7
  6
BYLAYER
 70
0
 71
3
 72
17
 73
13
 74
0
 42
0.0000001
 43
0.0000001
 44
0.0000000001
 40
0.0
 40
0.0
 40
0.0
 40
0.0
 40
0.2011710328
 40
0.382682642
 40
0.5430767525
 40
0.6809477722
 40
0.7950362219
 40
0.8430296707
 40
0.8850349673
 40
0.9212272434
 40
0.9519775762
 40
1.0
 40
1.0
 40
1.0
 40
1.0
 10
7.6359367905
 20
19.9928175541
 30
0.0
 10
7.5946800154
 20
20.0081012018
 30
0.0
 10
7.5163496705
 20
20.0375904791
 30
0.0
 10
7.4063201928
 20
20.0823913882
 30
0.0
 10
7.3111361774
 20
20.1266811118
 30
0.0
 10
7.2316038347
 20
20.1692836919
 30
0.0
 10
7.1758923743
 20
20.2040981063
 30
0.0
 10
7.1401537859
 20
20.2308951078
 30
0.0
 10
7.1193031502
 20
20.2489997688
 30
0.0
 10
7.1028583009
 20
20.2663792288
 30
0.0
 10
7.0881161648
 20
20.2866317517
 30
0.0
 10
7.0815158474
 20
20.3036549885
 30
0.0
 10
7.0815158474
 20
20.3141576394
 30
0.0
  0
LINE
  5
2B9
100
AcDbEntity
  8
0
100
AcDbLine
 62
7
  6
BYLAYER
 10
10.0939502784
 20
17.5027350458
 11
10.3015309482
 21
6.3364545951
  0
SPLINE
  5
2BA
100
AcDbEntity
  8
0
100
AcDbSpline
 62
7
  6
BYLAYER
 70
0
 71
3
 72
12
 73
8
 74
0
 42
0.0000001
 43
0.0000001
 44
0.0000000001
 40
0.0
 40
0.0
 40
0.0
 40
0.0
 40
0.1267094691
 40
0.2528477976
 40
0.5035568427
 40
0.7524897191
 40
1.0
 40
1.0
 40
1.0
 40
1.0
 10
8.9597519817
 20
5.8220667846
 30
0.0
 10
9.1866430703
 20
5.7337234979
 30
0.0
 10
9.6416847344
 20
5.5632104382
 30
0.0
 10
10.5567178677
 20
5.2482647956
 30
0.0
 10
11.7091560148
 20
4.902676009
 30
0.0
 10
13.105470217
 20
4.565757022
 30
0.0
 10
14.0443357515
 20
4.393463178
 30
0.0
 10
14.5143548313
 20
4.3207352462
 30
0.0
  0
SPLINE
  5
2BB
100
AcDbEntity
  8
0
100
AcDbSpline
 62
7
  6
BYLAYER
 70
0
 71
3
 72
9
 73
5
 74
0
 42
0.0000001
 43
0.0000001
 44
0.0000000001
 40
0.0
 40
0.0
 40
0.0
 40
0.0
 40
0.493755245
 40
1.0
 40
1.0
 40
1.0
 40
1.0
 10
8.9597519817
 20
5.8220667846
 30
0.0
 10
8.9189262828
 20
5.8369892937
 30
0.0
 10
8.8379085153
 20
5.8719896185
 30
0.0
 10
8.7614395221
 20
5.916008054
 30
0.0
 10
8.7240106413
 20
5.940200868
 30
0.0
  0
SPLINE
  5
2BC
100
AcDbEntity
  8
0
100
AcDbSpline
 62
7
  6
BYLAYER
 70
0
 71
3
 72
11
 73
7
 74
0
 42
0.0000001
 43
0.0000001
 44
0.0000000001
 40
0.0
 40
0.0
 40
0.0
 40
0.0
 40
0.227119791
 40
0.472340312
 40
0.7320113682
 40
1.0
 40
1.0
 40
1.0
 40
1.0
 10
8.7240106413
 20
5.940200868
 30
0.0
 10
8.6998999943
 20
5.9628110283
 30
0.0
 10
8.6559450892
 20
6.0166404608
 30
0.0
 10
8.6072665379
 20
6.1121356317
 30
0.0
 10
8.5757425295
 20
6.2207300223
 30
0.0
 10
8.5671923466
 20
6.2974690405
 30
0.0
 10
8.5660791387
 20
6.3364545857
 30
0.0
  0
LINE
  5
2BD
100
AcDbEntity
  8
0
100
AcDbLine
 62
7
  6
BYLAYER
 10
8.358561593
 20
17.5027350458
 11
8.5660791387
 21
6.3364545857
  0
SPLINE
  5
2BE
100
AcDbEntity
  8
0
100
AcDbSpline
 62
7
  6
BYLAYER
 70
0
 71
3
 72
9
 73
5
 74
0
 42
0.0000001
 43
0.0000001
 44
0.0000000001
 40
0.0
 40
0.0
 40
0.0
 40
0.0
 40
0.4937532809
 40
1.0
 40
1.0
 40
1.0
 40
1.0
 10
10.6953329775
 20
5.8220759746
 30
0.0
 10
10.6544954445
 20
5.8369977772
 30
0.0
 10
10.573446564
 20
5.8719824778
 30
0.0
 10
10.4969545855
 20
5.9160070439
 30
0.0
 10
10.4595125091
 20
5.9402006228
 30
0.0
  0
SPLINE
  5
2BF
100
AcDbEntity
  8
0
100
AcDbSpline
 62
7
  6
BYLAYER
 70
0
 71
3
 72
11
 73
7
 74
0
 42
0.0000001
 43
0.0000001
 44
0.0000000001
 40
0.0
 40
0.0
 40
0.0
 40
0.0
 40
0.2271141924
 40
0.4723306645
 40
0.7320036461
 40
1.0
 40
1.0
 40
1.0
 40
1.0
 10
10.4595125091
 20
5.9402006228
 30
0.0
 10
10.4353975268
 20
5.9628075936
 30
0.0
 10
10.3914315709
 20
6.0166309759
 30
0.0
 10
10.3427360015
 20
6.1121231017
 30
0.0
 10
10.3111986371
 20
6.220721247
 30
0.0
 10
10.3026445942
 20
6.2974658183
 30
0.0
 10
10.3015309482
 20
6.3364545951
 30
0.0
  0
SPLINE
  5
2C0
100
AcDbEntity
  8
0
100
AcDbSpline
 62
7
  6
BYLAYER
 70
0
 71
3
 72
9
 73
5
 74
0
 42
0.0000001
 43
0.0000001
 44
0.0000000001
 40
0.0
 40
0.0
 40
0.0
 40
0.0
 40
0.5132959385
 40
1.0
 40
1.0
 40
1.0
 40
1.0
 10
30.5939942631
 20
5.6331034342
 30
0.0
 10
29.4783634998
 20
5.2786244391
 30
0.0
 10
27.2709648675
 20
4.689313559
 30
0.0
 10
25.0123273537
 20
4.3362197628
 30
0.0
 10
23.907311261
 20
4.2316927374
 30
0.0
  0
SPLINE
  5
2C1
100
AcDbEntity
  8
0
100
AcDbSpline
 62
7
  6
BYLAYER
 70
0
 71
3
 72
12
 73
8
 74
0
 42
0.0000001
 43
0.0000001
 44
0.0000000001
 40
0.0
 40
0.0
 40
0.0
 40
0.0
 40
0.1269749493
 40
0.2532597158
 40
0.5039792127
 40
0.7527107273
 40
1.0
 40
1.0
 40
1.0
 40
1.0
 10
10.6953329775
 20
5.8220759746
 30
0.0
 10
10.9731919085
 20
5.7139241024
 30
0.0
 10
11.5308512652
 20
5.5069189854
 30
0.0
 10
12.6535121788
 20
5.1319785746
 30
0.0
 10
14.0696206309
 20
4.7354893992
 30
0.0
 10
15.7873947056
 20
4.3771302912
 30
0.0
 10
16.9422542213
 20
4.2174002282
 30
0.0
 10
17.5198705779
 20
4.157737116
 30
0.0
  0
SPLINE
  5
2C2
100
AcDbEntity
  8
0
100
AcDbSpline
 62
7
  6
BYLAYER
 70
0
 71
3
 72
9
 73
5
 74
0
 42
0.0000001
 43
0.0000001
 44
0.0000000001
 40
0.0
 40
0.0
 40
0.0
 40
0.0
 40
0.5132927208
 40
1.0
 40
1.0
 40
1.0
 40
1.0
 10
7.8161537672
 20
5.632877168
 30
0.0
 10
8.9314321324
 20
5.2785479237
 30
0.0
 10
11.1381326292
 20
4.689461331
 30
0.0
 10
13.3960379363
 20
4.336436626
 30
0.0
 10
14.5007039456
 20
4.2318950833
 30
0.0
  0
SPLINE
  5
2C3
100
AcDbEntity
  8
0
100
AcDbSpline
 62
7
  6
BYLAYER
 70
0
 71
3
 72
11
 73
7
 74
0
 42
0.0000001
 43
0.0000001
 44
0.0000000001
 40
0.0
 40
0.0
 40
0.0
 40
0.0
 40
0.1811775453
 40
0.4012143127
 40
0.6727476829
 40
1.0
 40
1.0
 40
1.0
 40
1.0
 10
7.1471935094
 20
5.940087308
 30
0.0
 10
7.1349073698
 20
5.9611886875
 30
0.0
 10
7.1146936957
 20
6.0119700086
 30
0.0
 10
7.097084243
 20
6.1011545457
 30
0.0
 10
7.0880979825
 20
6.2112883067
 30
0.0
 10
7.0864505968
 20
6.291990422
 30
0.0
 10
7.0862180993
 20
6.3360940853
 30
0.0
  0
SPLINE
  5
2C4
100
AcDbEntity
  8
0
100
AcDbSpline
 62
7
  6
BYLAYER
 70
0
 71
3
 72
9
 73
5
 74
0
 42
0.0000001
 43
0.0000001
 44
0.0000000001
 40
0.0
 40
0.0
 40
0.0
 40
0.0
 40
0.2782517624
 40
1.0
 40
1.0
 40
1.0
 40
1.0
 10
7.3125540599
 20
5.821917863
 30
0.0
 10
7.295222425
 20
5.8295543911
 30
0.0
 10
7.234328471
 20
5.8598480888
 30
0.0
 10
7.1788952454
 20
5.9025586338
 30
0.0
 10
7.1471935094
 20
5.940087308
 30
0.0
  0
SPLINE
  5
2C5
100
AcDbEntity
  8
0
100
AcDbSpline
 62
7
  6
BYLAYER
 70
0
 71
3
 72
10
 73
6
 74
0
 42
0.0000001
 43
0.0000001
 44
0.0000000001
 40
0.0
 40
0.0
 40
0.0
 40
0.0
 40
0.5535855568
 40
0.7914494053
 40
1.0
 40
1.0
 40
1.0
 40
1.0
 10
7.8161537672
 20
5.632877168
 30
0.0
 10
7.7215124642
 20
5.6629894466
 30
0.0
 10
7.5869459121
 20
5.7085734982
 30
0.0
 10
7.4198624145
 20
5.7739829084
 30
0.0
 10
7.3464239973
 20
5.8060207334
 30
0.0
 10
7.3125540599
 20
5.821917863
 30
0.0
  0
SPLINE
  5
2C6
100
AcDbEntity
  8
0
100
AcDbSpline
 62
7
  6
BYLAYER
 70
0
 71
3
 72
15
 73
11
 74
0
 42
0.0000001
 43
0.0000001
 44
0.0000000001
 40
0.0
 40
0.0
 40
0.0
 40
0.0
 40
0.1125950953
 40
0.2308613478
 40
0.3536309479
 40
0.4795698231
 40
0.6077050015
 40
0.737396877
 40
0.8682553521
 40
1.0
 40
1.0
 40
1.0
 40
1.0
 10
25.7669260911
 20
34.1517341633
 30
0.0
 10
25.6791679485
 20
34.1362161772
 30
0.0
 10
25.5043466182
 20
34.0737722293
 30
0.0
 10
25.2678409782
 20
33.9217673087
 30
0.0
 10
25.0478872058
 20
33.731040141
 30
0.0
 10
24.841685406
 20
33.5151479499
 30
0.0
 10
24.6462307507
 20
33.2824475544
 30
0.0
 10
24.4590629991
 20
33.0381950324
 30
0.0
 10
24.278481245
 20
32.7855517311
 30
0.0
 10
24.1618955134
 20
32.6134534982
 30
0.0
 10
24.1042278771
 20
32.5265740312
 30
0.0
  0
SPLINE
  5
2C7
100
AcDbEntity
  8
0
100
AcDbSpline
 62
7
  6
BYLAYER
 70
0
 71
3
 72
9
 73
5
 74
0
 42
0.0000001
 43
0.0000001
 44
0.0000000001
 40
0.0
 40
0.0
 40
0.0
 40
0.0
 40
0.4956275394
 40
1.0
 40
1.0
 40
1.0
 40
1.0
 10
24.1042278771
 20
32.5265740312
 30
0.0
 10
24.0869372451
 20
32.4986685603
 30
0.0
 10
24.0585844122
 20
32.437909864
 30
0.0
 10
24.0483267438
 20
32.371314215
 30
0.0
 10
24.0483267438
 20
32.3379069363
 30
0.0
  0
LINE
  5
2C8
100
AcDbEntity
  8
0
100
AcDbLine
 62
7
  6
BYLAYER
 10
24.0483267438
 20
32.3379069363
 11
24.0484449188
 21
32.3273846398
  0
LINE
  5
2C9
100
AcDbEntity
  8
0
100
AcDbLine
 62
7
  6
BYLAYER
 10
27.4810370588
 20
32.3273846398
 11
27.481122684
 21
32.3379069363
  0
SPLINE
  5
2CA
100
AcDbEntity
  8
0
100
AcDbSpline
 62
7
  6
BYLAYER
 70
0
 71
3
 72
14
 73
10
 74
0
 42
0.0000001
 43
0.0000001
 44
0.0000000001
 40
0.0
 40
0.0
 40
0.0
 40
0.0
 40
0.2401146239
 40
0.3537441713
 40
0.4666859324
 40
0.5830548361
 40
0.7081900615
 40
0.8465913403
 40
1.0
 40
1.0
 40
1.0
 40
1.0
 10
26.2050740156
 20
47.7259336946
 30
0.0
 10
26.2050740156
 20
47.7084100942
 30
0.0
 10
26.2019423837
 20
47.6821969564
 30
0.0
 10
26.188395517
 20
47.6507133362
 30
0.0
 10
26.1736011195
 20
47.6302463617
 30
0.0
 10
26.1537143487
 20
47.6133056658
 30
0.0
 10
26.1286759423
 20
47.6008253248
 30
0.0
 10
26.0990046844
 20
47.5932927054
 30
0.0
 10
26.0776559406
 20
47.5917341638
 30
0.0
 10
26.0664601542
 20
47.5917341638
 30
0.0
  0
SPLINE
  5
2CB
100
AcDbEntity
  8
0
100
AcDbSpline
 62
7
  6
BYLAYER
 70
0
 71
3
 72
14
 73
10
 74
0
 42
0.0000001
 43
0.0000001
 44
0.0000000001
 40
0.0
 40
0.0
 40
0.0
 40
0.0
 40
0.1534058907
 40
0.2918301429
 40
0.4170072677
 40
0.5333686284
 40
0.6462989958
 40
0.7599209622
 40
1.0
 40
1.0
 40
1.0
 40
1.0
 10
12.343687877
 20
47.5917341638
 30
0.0
 10
12.3324923283
 20
47.5917341638
 30
0.0
 10
12.3111418863
 20
47.5932952004
 30
0.0
 10
12.2814686944
 20
47.600834404
 30
0.0
 10
12.2564218433
 20
47.6133069098
 30
0.0
 10
12.2365348623
 20
47.6302517104
 30
0.0
 10
12.2217497012
 20
47.6507225901
 30
0.0
 10
12.2082069519
 20
47.6822028008
 30
0.0
 10
12.20507405
 20
47.7084123879
 30
0.0
 10
12.2050740156
 20
47.7259333353
 30
0.0
  0
SPLINE
  5
2CC
100
AcDbEntity
  8
0
100
AcDbSpline
 62
7
  6
BYLAYER
 70
0
 71
3
 72
17
 73
13
 74
0
 42
0.0000001
 43
0.0000001
 44
0.0000000001
 40
0.0
 40
0.0
 40
0.0
 40
0.0
 40
0.2352335398
 40
0.483728772
 40
0.6111915989
 40
0.740046643
 40
0.8048408448
 40
0.8698032564
 40
0.9023256842
 40
0.9348804484
 40
0.9674326027
 40
1.0
 40
1.0
 40
1.0
 40
1.0
 10
29.308003973
 20
46.275096095
 30
0.0
 10
29.2855459642
 20
46.2618115826
 30
0.0
 10
29.2401464989
 20
46.2331748781
 30
0.0
 10
29.1838542743
 20
46.1953905276
 30
0.0
 10
29.1377287251
 20
46.1636412172
 30
0.0
 10
29.1085285532
 20
46.1432438467
 30
0.0
 10
29.0850269342
 20
46.1267945486
 30
0.0
 10
29.0703504239
 20
46.1163729
 30
0.0
 10
29.0584880143
 20
46.1081640235
 30
0.0
 10
29.049708612
 20
46.1018276379
 30
0.0
 10
29.0408956522
 20
46.095509185
 30
0.0
 10
29.0345199709
 20
46.0920620412
 30
0.0
 10
29.0315688128
 20
46.0899785972
 30
0.0
  0
SPLINE
  5
2CD
100
AcDbEntity
  8
0
100
AcDbSpline
 62
7
  6
BYLAYER
 70
0
 71
3
 72
19
 73
15
 74
0
 42
0.0000001
 43
0.0000001
 44
0.0000000001
 40
0.0
 40
0.0
 40
0.0
 40
0.0
 40
0.104608677
 40
0.1617824155
 40
0.2217055419
 40
0.2840347678
 40
0.3484100871
 40
0.4815660146
 40
0.617427398
 40
0.685106873
 40
0.7519162482
 40
0.81733155
 40
0.8808414693
 40
1.0
 40
1.0
 40
1.0
 40
1.0
 10
13.5774517581
 20
19.9907701238
 30
0.0
 10
13.5014865857
 20
20.0220548212
 30
0.0
 10
13.3823470974
 20
20.0665311249
 30
0.0
 10
13.2164793072
 20
20.1195641573
 30
0.0
 10
13.0808784925
 20
20.1579823655
 30
0.0
 10
12.9388071762
 20
20.1940721264
 30
0.0
 10
12.7398880571
 20
20.2397494892
 30
0.0
 10
12.4828986207
 20
20.2903061887
 30
0.0
 10
12.2214655106
 20
20.330470967
 30
0.0
 10
12.0107817106
 20
20.3568578873
 30
0.0
 10
11.8546570419
 20
20.3734717076
 30
0.0
 10
11.701462792
 20
20.3863856597
 30
0.0
 10
11.5069240786
 20
20.3974974288
 30
0.0
 10
11.3634270347
 20
20.4001007913
 30
0.0
 10
11.269845258
 20
20.4001145375
 30
0.0
  0
SPLINE
  5
2CE
100
AcDbEntity
  8
0
100
AcDbSpline
 62
7
  6
BYLAYER
 70
0
 71
3
 72
11
 73
7
 74
0
 42
0.0000001
 43
0.0000001
 44
0.0000000001
 40
0.0
 40
0.0
 40
0.0
 40
0.0
 40
0.2499928716
 40
0.499998569
 40
0.7500064527
 40
1.0
 40
1.0
 40
1.0
 40
1.0
 10
16.3345339967
 20
47.5917341638
 30
0.0
 10
16.568161877
 20
47.6556044667
 30
0.0
 10
17.039206735
 20
47.7700708427
 30
0.0
 10
17.7552275646
 20
47.896784704
 30
0.0
 10
18.4782760819
 20
47.9743953715
 30
0.0
 10
18.9628722006
 20
47.9917341638
 30
0.0
 10
19.2050740156
 20
47.9917341638
 30
0.0
  0
SPLINE
  5
2CF
100
AcDbEntity
  8
0
100
AcDbSpline
 62
7
  6
BYLAYER
 70
0
 71
3
 72
11
 73
7
 74
0
 42
0.0000001
 43
0.0000001
 44
0.0000000001
 40
0.0
 40
0.0
 40
0.0
 40
0.0
 40
0.24999358
 40
0.5000014989
 40
0.7500071615
 40
1.0
 40
1.0
 40
1.0
 40
1.0
 10
19.2050740156
 20
47.9917341638
 30
0.0
 10
19.4472758622
 20
47.9917341638
 30
0.0
 10
19.9318720436
 20
47.974395309
 30
0.0
 10
20.6549205986
 20
47.8967847081
 30
0.0
 10
21.3709413955
 20
47.7700708339
 30
0.0
 10
21.8419861851
 20
47.6556044582
 30
0.0
 10
22.0756140344
 20
47.5917341638
 30
0.0
  0
SPLINE
  5
2D0
100
AcDbEntity
  8
0
100
AcDbSpline
 62
7
  6
BYLAYER
 70
0
 71
3
 72
19
 73
15
 74
0
 42
0.0000001
 43
0.0000001
 44
0.0000000001
 40
0.0
 40
0.0
 40
0.0
 40
0.0
 40
0.1192077
 40
0.1827662092
 40
0.2482028491
 40
0.3150089236
 40
0.3826862019
 40
0.51859047
 40
0.6518280393
 40
0.7162587385
 40
0.7786476933
 40
0.8386009198
 40
0.8957220079
 40
1.0
 40
1.0
 40
1.0
 40
1.0
 10
11.269845258
 20
20.4001145375
 30
0.0
 10
11.3633712751
 20
20.4000834959
 30
0.0
 10
11.5067542024
 20
20.3941572272
 30
0.0
 10
11.7009915404
 20
20.3804215879
 30
0.0
 10
11.8540348748
 20
20.3670061002
 30
0.0
 10
12.0100043438
 20
20.3503107906
 30
0.0
 10
12.2204162658
 20
20.3231992998
 30
0.0
 10
12.4814113292
 20
20.2813812006
 30
0.0
 10
12.7381944924
 20
20.2304705861
 30
0.0
 10
12.9369584297
 20
20.1843390527
 30
0.0
 10
13.0789505204
 20
20.1480928246
 30
0.0
 10
13.2146436424
 20
20.1104635931
 30
0.0
 10
13.3810509021
 20
20.0608154336
 30
0.0
 10
13.5012035564
 20
20.0204270348
 30
0.0
 10
13.5774517581
 20
19.9907701238
 30
0.0
  0
SPLINE
  5
2D1
100
AcDbEntity
  8
0
100
AcDbSpline
 62
7
  6
BYLAYER
 70
0
 71
3
 72
16
 73
12
 74
0
 42
0.0000001
 43
0.0000001
 44
0.0000000001
 40
0.0
 40
0.0
 40
0.0
 40
0.0
 40
0.0294583952
 40
0.0591685522
 40
0.1254977149
 40
0.2094071414
 40
0.3162347199
 40
0.4484236553
 40
0.6068147242
 40
0.7909674008
 40
1.0
 40
1.0
 40
1.0
 40
1.0
 10
7.0815158474
 20
20.3141576394
 30
0.0
 10
7.0815158474
 20
20.3174498671
 30
0.0
 10
7.0823193928
 20
20.3240962384
 30
0.0
 10
7.0875551193
 20
20.3372659105
 30
0.0
 10
7.1016979789
 20
20.3524215077
 30
0.0
 10
7.1271197446
 20
20.3663019696
 30
0.0
 10
7.1615429446
 20
20.3775418761
 30
0.0
 10
7.2050728699
 20
20.386593008
 30
0.0
 10
7.2576509453
 20
20.3939116011
 30
0.0
 10
7.3191155771
 20
20.3989869102
 30
0.0
 10
7.3630691807
 20
20.4001471003
 30
0.0
 10
7.3864303599
 20
20.4001573848
 30
0.0
  0
SPLINE
  5
2D2
100
AcDbEntity
  8
0
100
AcDbSpline
 62
7
  6
BYLAYER
 70
0
 71
3
 72
16
 73
12
 74
0
 42
0.0000001
 43
0.0000001
 44
0.0000000001
 40
0.0
 40
0.0
 40
0.0
 40
0.0
 40
0.2101522457
 40
0.3949531594
 40
0.5536165717
 40
0.6861851994
 40
0.7935081431
 40
0.8773771951
 40
0.9425552396
 40
0.9713952607
 40
1.0
 40
1.0
 40
1.0
 40
1.0
 10
7.3864303599
 20
20.4001573848
 30
0.0
 10
7.3630816342
 20
20.4001522692
 30
0.0
 10
7.3191980214
 20
20.399807711
 30
0.0
 10
7.2577211147
 20
20.3973270993
 30
0.0
 10
7.2050440617
 20
20.3920490117
 30
0.0
 10
7.1615031716
 20
20.3835538338
 30
0.0
 10
7.1271939896
 20
20.3723202687
 30
0.0
 10
7.1018987034
 20
20.3588374536
 30
0.0
 10
7.0876093277
 20
20.3443187053
 30
0.0
 10
7.0823167712
 20
20.3315953827
 30
0.0
 10
7.0815158474
 20
20.3251769176
 30
0.0
 10
7.0815158474
 20
20.3219988206
 30
0.0
  0
SPLINE
  5
2D3
100
AcDbEntity
  8
0
100
AcDbSpline
 62
7
  6
BYLAYER
 70
0
 71
3
 72
44
 73
40
 74
0
 42
0.0000001
 43
0.0000001
 44
0.0000000001
 40
0.0
 40
0.0
 40
0.0
 40
0.0
 40
0.1251922945
 40
0.1877886289
 40
0.2503849797
 40
0.312981233
 40
0.3755772326
 40
0.438172752
 40
0.5007674584
 40
0.5633608422
 40
0.6259520949
 40
0.6572465639
 40
0.6885399317
 40
0.7198318538
 40
0.7511218443
 40
0.7824091887
 40
0.8136927943
 40
0.8449708769
 40
0.8606070085
 40
0.8762404221
 40
0.8918702418
 40
0.9074951362
 40
0.9231129689
 40
0.9387199927
 40
0.9465175256
 40
0.95430913
 40
0.9620923141
 40
0.9698627551
 40
0.977611925
 40
0.981473534
 40
0.9853205654
 40
0.989143659
 40
0.9910409756
 40
0.9929228418
 40
0.9947808314
 40
0.9965990661
 40
0.9974857591
 40
0.9983517821
 40
1.0
 40
1.0
 40
1.0
 40
1.0
 10
12.4018148212
 20
6.3363624691
 30
0.0
 10
12.3761525204
 20
6.8776381131
 30
0.0
 10
12.3364489275
 20
7.689495897
 30
0.0
 10
12.2808007696
 20
8.7718356819
 30
0.0
 10
12.2375023865
 20
9.5835098213
 30
0.0
 10
12.1924917855
 20
10.3950894483
 30
0.0
 10
12.1455420256
 20
11.2065558138
 30
0.0
 10
12.0963842551
 20
12.0178849635
 30
0.0
 10
12.0446699105
 20
12.829044295
 30
0.0
 10
11.9899389451
 20
13.6399876322
 30
0.0
 10
11.9412977722
 20
14.3155478001
 30
0.0
 10
11.9001114396
 20
14.8558073821
 30
0.0
 10
11.867928131
 20
15.2608818366
 30
0.0
 10
11.834260873
 20
15.6658164549
 30
0.0
 10
11.7988638153
 20
16.0705777442
 30
0.0
 10
11.7614124714
 20
16.4751187103
 30
0.0
 10
11.7214620252
 20
16.8793694807
 30
0.0
 10
11.6855606213
 20
17.2159374888
 30
0.0
 10
11.6547802363
 20
17.4849151235
 30
0.0
 10
11.6304845832
 20
17.6864571805
 30
0.0
 10
11.6047459742
 20
17.8877715855
 30
0.0
 10
11.5772443631
 20
18.0887860262
 30
0.0
 10
11.5475195232
 20
18.2893853337
 30
0.0
 10
11.5203151606
 20
18.4560950736
 30
0.0
 10
11.4964920113
 20
18.5890096061
 30
0.0
 10
11.477358705
 20
18.6883522175
 30
0.0
 10
11.4566239066
 20
18.7872561584
 30
0.0
 10
11.4337742404
 20
18.8855069935
 30
0.0
 10
11.4122641163
 20
18.9666177125
 30
0.0
 10
11.392739055
 20
19.0306230527
 30
0.0
 10
11.3765808301
 20
19.0778599528
 30
0.0
 10
11.3613297244
 20
19.1163933
 30
0.0
 10
11.3474858019
 20
19.1462556441
 30
0.0
 10
11.3360856837
 20
19.1678475406
 30
0.0
 10
11.3233125585
 20
19.1882619337
 30
0.0
 10
11.3110094075
 20
19.2038149521
 30
0.0
 10
11.2997064668
 20
19.2144261139
 30
0.0
 10
11.2877652412
 20
19.2230284249
 30
0.0
 10
11.2769736099
 20
19.2268252829
 30
0.0
 10
11.269845258
 20
19.2271131852
 30
0.0
  0
SPLINE
  5
2D4
100
AcDbEntity
  8
0
100
AcDbSpline
 62
7
  6
BYLAYER
 70
0
 71
3
 72
42
 73
38
 74
0
 42
0.0000001
 43
0.0000001
 44
0.0000000001
 40
0.0
 40
0.0
 40
0.0
 40
0.0
 40
0.0011437669
 40
0.0018018576
 40
0.002507323
 40
0.0040184005
 40
0.0056463894
 40
0.0091082521
 40
0.0127195917
 40
0.0201230127
 40
0.027666511
 40
0.0352860336
 40
0.0429521123
 40
0.0506514896
 40
0.0583747204
 40
0.0738686011
 40
0.0894085395
 40
0.104981027
 40
0.1205752424
 40
0.1361869908
 40
0.1518131538
 40
0.1830974104
 40
0.2144125272
 40
0.2457512079
 40
0.2771074772
 40
0.3084778193
 40
0.3398600142
 40
0.3712520886
 40
0.4340591236
 40
0.4968898
 40
0.5597397243
 40
0.622605341
 40
0.685483612
 40
0.7483719288
 40
0.8112685269
 40
0.8741725306
 40
1.0
 40
1.0
 40
1.0
 40
1.0
 10
7.3864303599
 20
19.2375318664
 30
0.0
 10
7.3825010421
 20
19.2373214713
 30
0.0
 10
7.3765165811
 20
19.2344239792
 30
0.0
 10
7.3701587028
 20
19.2286469066
 30
0.0
 10
7.3637275751
 20
19.221081295
 30
0.0
 10
7.356778154
 20
19.2097599348
 30
0.0
 10
7.3473296441
 20
19.1890800133
 30
0.0
 10
7.3377722565
 20
19.1606467998
 30
0.0
 10
7.3251912761
 20
19.1124497843
 30
0.0
 10
7.3121688783
 20
19.049906677
 30
0.0
 10
7.2995233133
 20
18.9732977073
 30
0.0
 10
7.2886408122
 20
18.8955097476
 30
0.0
 10
7.2790220618
 20
18.8170180241
 30
0.0
 10
7.2704269967
 20
18.7380495393
 30
0.0
 10
7.260014038
 20
18.6321960016
 30
0.0
 10
7.2485035718
 20
18.4993518157
 30
0.0
 10
7.2365107501
 20
18.3394568913
 30
0.0
 10
7.2259317925
 20
18.1791172546
 30
0.0
 10
7.216348239
 20
18.0184682509
 30
0.0
 10
7.2076537383
 20
17.8575838439
 30
0.0
 10
7.1970655029
 20
17.6427465086
 30
0.0
 10
7.1853972187
 20
17.3738748829
 30
0.0
 10
7.1732330811
 20
17.0509237919
 30
0.0
 10
7.1626005922
 20
16.7276710575
 30
0.0
 10
7.1531745218
 20
16.4041912167
 30
0.0
 10
7.1447769912
 20
16.0805334158
 30
0.0
 10
7.1372738196
 20
15.7567305479
 30
0.0
 10
7.1283037429
 20
15.3247810291
 30
0.0
 10
7.1187592582
 20
14.7846282103
 30
0.0
 10
7.1094139968
 20
14.1362332091
 30
0.0
 10
7.101852494
 20
13.4876135799
 30
0.0
 10
7.0957893584
 20
12.8388146885
 30
0.0
 10
7.0910043789
 20
12.1898731449
 30
0.0
 10
7.0873206652
 20
11.5408179197
 30
0.0
 10
7.0846092577
 20
10.891669415
 30
0.0
 10
7.0821642979
 20
10.0259866871
 30
0.0
 10
7.0815158474
 20
9.3766859606
 30
0.0
 10
7.0815158474
 20
8.9437967479
 30
0.0
  0
LINE
  5
2D5
100
AcDbEntity
  8
0
100
AcDbLine
 62
7
  6
BYLAYER
 10
8.5338565666
 20
6.3363331256
 11
8.3262717628
 21
17.5027350458
  0
SPLINE
  5
2D6
100
AcDbEntity
  8
0
100
AcDbSpline
 62
7
  6
BYLAYER
 70
0
 71
3
 72
15
 73
11
 74
0
 42
0.0000001
 43
0.0000001
 44
0.0000000001
 40
0.0
 40
0.0
 40
0.0
 40
0.0
 40
0.1317442044
 40
0.2626022304
 40
0.3922935217
 40
0.520428201
 40
0.6463668851
 40
0.7691365253
 40
0.8874034019
 40
1.0
 40
1.0
 40
1.0
 40
1.0
 10
14.3059200157
 20
32.5265742472
 30
0.0
 10
14.2482525598
 20
32.6134534448
 30
0.0
 10
14.1316669674
 20
32.7855509758
 30
0.0
 10
13.9510862619
 20
33.0381937028
 30
0.0
 10
13.7639183243
 20
33.2824446371
 30
0.0
 10
13.5684643078
 20
33.5151444093
 30
0.0
 10
13.3622632251
 20
33.7310363639
 30
0.0
 10
13.1423121761
 20
33.9217679625
 30
0.0
 10
12.9058017208
 20
34.0737682985
 30
0.0
 10
12.7309800932
 20
34.1362160864
 30
0.0
 10
12.6432207355
 20
34.1517341633
 30
0.0
  0
SPLINE
  5
2D7
100
AcDbEntity
  8
0
100
AcDbSpline
 62
7
  6
BYLAYER
 70
0
 71
3
 72
15
 73
11
 74
0
 42
0.0000001
 43
0.0000001
 44
0.0000000001
 40
0.0
 40
0.0
 40
0.0
 40
0.0
 40
0.11575806
 40
0.2347351965
 40
0.3572665955
 40
0.48265129
 40
0.6101207854
 40
0.7390803011
 40
0.8691406588
 40
1.0
 40
1.0
 40
1.0
 40
1.0
 10
12.3778936573
 20
34.1517341633
 30
0.0
 10
12.2937955491
 20
34.1364991996
 30
0.0
 10
12.1281938346
 20
34.075226955
 30
0.0
 10
11.9111347441
 20
33.9224393441
 30
0.0
 10
11.7180227266
 20
33.7312801752
 30
0.0
 10
11.5438198809
 20
33.5152313468
 30
0.0
 10
11.3843868665
 20
33.2825007659
 30
0.0
 10
11.2366262874
 20
33.0382501276
 30
0.0
 10
11.0984754482
 20
32.7856317111
 30
0.0
 10
11.0119254487
 20
32.6134864274
 30
0.0
 10
10.9697236024
 20
32.5265740312
 30
0.0
  0
SPLINE
  5
2D8
100
AcDbEntity
  8
0
100
AcDbSpline
 62
7
  6
BYLAYER
 70
0
 71
3
 72
9
 73
5
 74
0
 42
0.0000001
 43
0.0000001
 44
0.0000000001
 40
0.0
 40
0.0
 40
0.0
 40
0.0
 40
0.5043750706
 40
1.0
 40
1.0
 40
1.0
 40
1.0
 10
14.3618212874
 20
32.3379069363
 30
0.0
 10
14.3618212874
 20
32.3713144306
 30
0.0
 10
14.3515635528
 20
32.4379101786
 30
0.0
 10
14.3232105784
 20
32.4986688874
 30
0.0
 10
14.3059200157
 20
32.5265742472
 30
0.0
  0
SPLINE
  5
2D9
100
AcDbEntity
  8
0
100
AcDbSpline
 62
7
  6
BYLAYER
 70
0
 71
3
 72
9
 73
5
 74
0
 42
0.0000001
 43
0.0000001
 44
0.0000000001
 40
0.0
 40
0.0
 40
0.0
 40
0.0
 40
0.2593823078
 40
1.0
 40
1.0
 40
1.0
 40
1.0
 10
10.2630508451
 20
6.3363412281
 30
0.0
 10
10.263795377
 20
6.3102668172
 30
0.0
 10
10.2722971352
 20
6.2100825018
 30
0.0
 10
10.3028717033
 20
6.1109919145
 30
0.0
 10
10.3393747054
 20
6.0460693227
 30
0.0
  0
SPLINE
  5
2DA
100
AcDbEntity
  8
0
100
AcDbSpline
 62
7
  6
BYLAYER
 70
0
 71
3
 72
9
 73
5
 74
0
 42
0.0000001
 43
0.0000001
 44
0.0000000001
 40
0.0
 40
0.0
 40
0.0
 40
0.0
 40
0.2605763782
 40
1.0
 40
1.0
 40
1.0
 40
1.0
 10
10.3393747054
 20
6.0460693227
 30
0.0
 10
10.3450784147
 20
6.0359249629
 30
0.0
 10
10.368293678
 20
5.9977741083
 30
0.0
 10
10.3969221254
 20
5.9627716268
 30
0.0
 10
10.4210111989
 20
5.9401814909
 30
0.0
  0
SPLINE
  5
2DB
100
AcDbEntity
  8
0
100
AcDbSpline
 62
7
  6
BYLAYER
 70
0
 71
3
 72
12
 73
8
 74
0
 42
0.0000001
 43
0.0000001
 44
0.0000000001
 40
0.0
 40
0.0
 40
0.0
 40
0.0
 40
0.2473152981
 40
0.4960652016
 40
0.7467808267
 40
0.8730501781
 40
1.0
 40
1.0
 40
1.0
 40
1.0
 10
17.4252273998
 20
4.1627009453
 30
0.0
 10
16.855290007
 20
4.2229303818
 30
0.0
 10
15.7158497998
 20
4.3827282158
 30
0.0
 10
14.0209559454
 20
4.7380294424
 30
0.0
 10
12.6235426292
 20
5.1294146835
 30
0.0
 10
11.5155310612
 20
5.4987277756
 30
0.0
 10
10.9650984172
 20
5.7024363153
 30
0.0
 10
10.6908241539
 20
5.8088232362
 30
0.0
  0
SPLINE
  5
2DC
100
AcDbEntity
  8
0
100
AcDbSpline
 62
7
  6
BYLAYER
 70
0
 71
3
 72
11
 73
7
 74
0
 42
0.0000001
 43
0.0000001
 44
0.0000000001
 40
0.0
 40
0.0
 40
0.0
 40
0.0
 40
0.2599479696
 40
0.5162807945
 40
0.7647728041
 40
1.0
 40
1.0
 40
1.0
 40
1.0
 10
9.3785791974
 20
46.0895497786
 30
0.0
 10
9.3550104791
 20
46.1061878415
 30
0.0
 10
9.3079366132
 20
46.1388558061
 30
0.0
 10
9.2383128419
 20
46.1874031575
 30
0.0
 10
9.1701119279
 20
46.2331759073
 30
0.0
 10
9.1246678916
 20
46.2617927175
 30
0.0
 10
9.1021982179
 20
46.2750835837
 30
0.0
  0
SPLINE
  5
2DD
100
AcDbEntity
  8
0
100
AcDbSpline
 62
7
  6
BYLAYER
 70
0
 71
3
 72
11
 73
7
 74
0
 42
0.0000001
 43
0.0000001
 44
0.0000000001
 40
0.0
 40
0.0
 40
0.0
 40
0.0
 40
0.252315236
 40
0.5015350767
 40
0.7500100119
 40
1.0
 40
1.0
 40
1.0
 40
1.0
 10
13.8223046265
 20
19.762733872
 30
0.0
 10
13.9866332457
 20
19.6796296371
 30
0.0
 10
14.3231971092
 20
19.533203456
 30
0.0
 10
14.8487642903
 20
19.3757580653
 30
0.0
 10
15.3876647793
 20
19.2824071278
 30
0.0
 10
15.7518280766
 20
19.2624249903
 30
0.0
 10
15.9342782887
 20
19.2624195326
 30
0.0
  0
LINE
  5
2DE
100
AcDbEntity
  8
0
100
AcDbLine
 62
7
  6
BYLAYER
 10
10.2618168512
 20
6.4027341638
 11
10.0555329427
 21
17.5027353563
  0
LINE
  5
2DF
100
AcDbEntity
  8
0
100
AcDbLine
 62
7
  6
BYLAYER
 10
10.9290253472
 20
32.3379069363
 11
10.9291109724
 21
32.3273846398
  0
LINE
  5
2E0
100
AcDbEntity
  8
0
100
AcDbLine
 62
7
  6
BYLAYER
 10
14.3617031124
 20
32.3273846398
 11
14.3618212874
 21
32.3379069363
  0
SPLINE
  5
2E1
100
AcDbEntity
  8
0
100
AcDbSpline
 62
7
  6
BYLAYER
 70
0
 71
3
 72
13
 73
9
 74
0
 42
0.0000001
 43
0.0000001
 44
0.0000000001
 40
0.0
 40
0.0
 40
0.0
 40
0.0
 40
0.1259896837
 40
0.2519769824
 40
0.3778736225
 40
0.5035367579
 40
0.7532446884
 40
1.0
 40
1.0
 40
1.0
 40
1.0
 10
12.4018148212
 20
6.3363624691
 30
0.0
 10
12.4035008759
 20
6.3132148909
 30
0.0
 10
12.4127609924
 20
6.2671814788
 30
0.0
 10
12.4415129264
 20
6.2033135577
 30
0.0
 10
12.4808121841
 20
6.1455920264
 30
0.0
 10
12.5428853929
 20
6.0769426011
 30
0.0
 10
12.6329748105
 20
6.004955335
 30
0.0
 10
12.7128163211
 20
5.9596519463
 30
0.0
 10
12.7538458769
 20
5.940087308
 30
0.0
  0
SPLINE
  5
2E2
100
AcDbEntity
  8
0
100
AcDbSpline
 62
7
  6
BYLAYER
 70
0
 71
3
 72
21
 73
17
 74
0
 42
0.0000001
 43
0.0000001
 44
0.0000000001
 40
0.0
 40
0.0
 40
0.0
 40
0.0
 40
0.0341638758
 40
0.0681146013
 40
0.1018532057
 40
0.135381614
 40
0.2018109044
 40
0.2674167858
 40
0.3322159941
 40
0.396229068
 40
0.4594799334
 40
0.5219951844
 40
0.6449307779
 40
0.7653401344
 40
0.8835649174
 40
1.0
 40
1.0
 40
1.0
 40
1.0
 10
23.907311261
 20
4.2316927374
 30
0.0
 10
23.7895316878
 20
4.2205515853
 30
0.0
 10
23.5545746973
 20
4.1997014574
 30
0.0
 10
23.2028365909
 20
4.1734429509
 30
0.0
 10
22.8529615128
 20
4.152259609
 30
0.0
 10
22.3905033316
 20
4.1302041984
 30
0.0
 10
21.8173073773
 20
4.1145471461
 30
0.0
 10
21.1356042777
 20
4.1156033093
 30
0.0
 10
20.4625630312
 20
4.1357118498
 30
0.0
 10
19.7985610635
 20
4.1754840626
 30
0.0
 10
19.1439464057
 20
4.234730432
 30
0.0
 10
18.2889156487
 20
4.3387448129
 30
0.0
 10
17.243958177
 20
4.5164287876
 30
0.0
 10
16.0252565449
 20
4.8076474273
 30
0.0
 10
14.8508317483
 20
5.1749091037
 30
0.0
 10
14.0935942044
 20
5.4719666699
 30
0.0
 10
13.7238406609
 20
5.6327552329
 30
0.0
  0
SPLINE
  5
2E3
100
AcDbEntity
  8
0
100
AcDbSpline
 62
7
  6
BYLAYER
 70
0
 71
3
 72
9
 73
5
 74
0
 42
0.0000001
 43
0.0000001
 44
0.0000000001
 40
0.0
 40
0.0
 40
0.0
 40
0.0
 40
0.5119763152
 40
1.0
 40
1.0
 40
1.0
 40
1.0
 10
12.7538458769
 20
5.940087308
 30
0.0
 10
12.8215853454
 20
5.9178233915
 30
0.0
 10
12.9543321849
 20
5.8756462085
 30
0.0
 10
13.088555403
 20
5.8382543233
 30
0.0
 10
13.1545313851
 20
5.821917863
 30
0.0
  0
SPLINE
  5
2E4
100
AcDbEntity
  8
0
100
AcDbSpline
 62
7
  6
BYLAYER
 70
0
 71
3
 72
9
 73
5
 74
0
 42
0.0000001
 43
0.0000001
 44
0.0000000001
 40
0.0
 40
0.0
 40
0.0
 40
0.0
 40
0.2593868077
 40
1.0
 40
1.0
 40
1.0
 40
1.0
 10
8.5338565666
 20
6.3363331256
 30
0.0
 10
8.5346013877
 20
6.3102571601
 30
0.0
 10
8.5431097791
 20
6.2100690366
 30
0.0
 10
8.573695919
 20
6.1109758669
 30
0.0
 10
8.6102110308
 20
6.0460569692
 30
0.0
  0
SPLINE
  5
2E5
100
AcDbEntity
  8
0
100
AcDbSpline
 62
7
  6
BYLAYER
 70
0
 71
3
 72
9
 73
5
 74
0
 42
0.0000001
 43
0.0000001
 44
0.0000000001
 40
0.0
 40
0.0
 40
0.0
 40
0.0
 40
0.2605759977
 40
1.0
 40
1.0
 40
1.0
 40
1.0
 10
8.6102110308
 20
6.0460569692
 30
0.0
 10
8.6159167106
 20
6.0359130472
 30
0.0
 10
8.6391402307
 20
5.9977644222
 30
0.0
 10
8.6677782174
 20
5.9627668952
 30
0.0
 10
8.6918723749
 20
5.9401796625
 30
0.0
  0
SPLINE
  5
2E6
100
AcDbEntity
  8
0
100
AcDbSpline
 62
7
  6
BYLAYER
 70
0
 71
3
 72
12
 73
8
 74
0
 42
0.0000001
 43
0.0000001
 44
0.0000000001
 40
0.0
 40
0.0
 40
0.0
 40
0.0
 40
0.2475212825
 40
0.4964572354
 40
0.7471622244
 40
0.8732958568
 40
1.0
 40
1.0
 40
1.0
 40
1.0
 10
14.5138292324
 20
4.316604664
 30
0.0
 10
14.0435770289
 20
4.3887047967
 30
0.0
 10
13.1042262207
 20
4.5597672643
 30
0.0
 10
11.7071132
 20
4.8949220293
 30
0.0
 10
10.5539715927
 20
5.2391269434
 30
0.0
 10
9.6383467166
 20
5.552979309
 30
0.0
 10
9.1830109283
 20
5.72298354
 30
0.0
 10
8.9559709009
 20
5.8110760367
 30
0.0
  0
SPLINE
  5
2E7
100
AcDbEntity
  8
0
100
AcDbSpline
 62
7
  6
BYLAYER
 70
0
 71
3
 72
15
 73
11
 74
0
 42
0.0000001
 43
0.0000001
 44
0.0000000001
 40
0.0
 40
0.0
 40
0.0
 40
0.0
 40
0.130858896
 40
0.2609187998
 40
0.3898776904
 40
0.5173466665
 40
0.6427312121
 40
0.7652627032
 40
0.8842404485
 40
1.0
 40
1.0
 40
1.0
 40
1.0
 10
27.4404243275
 20
32.5265742472
 30
0.0
 10
27.3982226142
 20
32.6134863699
 30
0.0
 10
27.3116726229
 20
32.7856309602
 30
0.0
 10
27.1735228034
 20
33.0382487521
 30
0.0
 10
27.025761882
 20
33.2824978713
 30
0.0
 10
26.8663294887
 20
33.5152278665
 30
0.0
 10
26.6921272884
 20
33.7312764191
 30
0.0
 10
26.4990182597
 20
33.9224399286
 30
0.0
 10
26.2819541946
 20
34.0752230125
 30
0.0
 10
26.1163524333
 20
34.1364991206
 30
0.0
 10
26.0322531981
 20
34.1517341633
 30
0.0
  0
SPLINE
  5
2E8
100
AcDbEntity
  8
0
100
AcDbSpline
 62
7
  6
BYLAYER
 70
0
 71
3
 72
10
 73
6
 74
0
 42
0.0000001
 43
0.0000001
 44
0.0000000001
 40
0.0
 40
0.0
 40
0.0
 40
0.0
 40
0.5418651352
 40
0.7825077403
 40
1.0
 40
1.0
 40
1.0
 40
1.0
 10
13.1545313851
 20
5.821917863
 30
0.0
 10
13.259386086
 20
5.7942606826
 30
0.0
 10
13.4098941912
 20
5.7504903435
 30
0.0
 10
13.5987369069
 20
5.6841312569
 30
0.0
 10
13.683899298
 20
5.6500518648
 30
0.0
 10
13.7238406609
 20
5.6327552329
 30
0.0
  0
ELLIPSE
  5
2E9
100
AcDbEntity
  8
0
100
AcDbEllipse
 62
7
  6
BYLAYER
 10
29.0316075478
 20
46.6917073589
 30
0.0
 11
0.4999731966
 21
0.0
 31
0.0
 40
1.0
 41
-0.0
 42
0.2182628097
  0
ELLIPSE
  5
2EA
100
AcDbEntity
  8
0
100
AcDbEllipse
 62
7
  6
BYLAYER
 10
19.2025202883
 20
42.9931431311
 30
0.0
 11
10.9971135921
 21
-0.0
 31
0.0
 40
1.0
 41
0.3534812045
 42
0.5988054662
  0
ELLIPSE
  5
2EB
100
AcDbEntity
  8
0
100
AcDbEllipse
 62
7
  6
BYLAYER
 10
19.2050740156
 20
-168.5101200329
 30
0.0
 11
-0.0
 21
509.8806585133
 31
0.0
 40
0.0174550649
 41
-1.1296610962
 42
-1.1270568421
  0
ELLIPSE
  5
2EC
100
AcDbEntity
  8
0
100
AcDbEllipse
 62
7
  6
BYLAYER
 10
13.9072034746
 20
64.1303847644
 30
0.0
 11
-0.0
 21
28.7445147379
 31
0.0
 40
0.0174550649
 41
-4.2140612684
 42
-4.1658840692
  0
ELLIPSE
  5
2ED
100
AcDbEntity
  8
0
100
AcDbEllipse
 62
7
  6
BYLAYER
 10
19.2050740156
 20
-168.5101200329
 30
0.0
 11
-0.0
 21
509.8806585133
 31
0.0
 40
0.0174550649
 41
1.1270568421
 42
1.1296610962
  0
ELLIPSE
  5
2EE
100
AcDbEntity
  8
0
100
AcDbEllipse
 62
7
  6
BYLAYER
 10
24.5029354036
 20
64.1306143382
 30
0.0
 11
-0.0
 21
28.7450394449
 31
0.0
 40
0.0174550649
 41
-2.1172994822
 42
-2.0691231986
  0
ELLIPSE
  5
2EF
100
AcDbEntity
  8
0
100
AcDbEllipse
 62
7
  6
BYLAYER
 10
19.2025202883
 20
42.9931431311
 30
0.0
 11
10.9971135921
 21
0.0
 31
0.0
 40
1.0
 41
2.5427871874
 42
2.7815134241
  0
ELLIPSE
  5
2F0
100
AcDbEntity
  8
0
100
AcDbEllipse
 62
7
  6
BYLAYER
 10
18.4966842232
 20
23.5056848916
 30
0.0
 11
-10.8244235791
 21
38.1649578147
 31
0.0
 40
0.2460158605
 41
-4.6680250813
 42
-4.6244924347
  0
ELLIPSE
  5
2F1
100
AcDbEntity
  8
0
100
AcDbEllipse
 62
7
  6
BYLAYER
 10
19.913295408
 20
23.3754875264
 30
0.0
 11
10.8218513724
 21
38.1558851298
 31
0.0
 40
0.2460158779
 41
-4.5307828036
 42
-4.4885751645
  0
ELLIPSE
  5
2F2
100
AcDbEntity
  8
0
100
AcDbEllipse
 62
7
  6
BYLAYER
 10
19.2050740156
 20
17.0927341638
 30
0.0
 11
-0.0
 21
162.8571428998
 31
0.0
 40
0.0875
 41
-1.4970452765
 42
-1.4896546856
  0
ELLIPSE
  5
2F3
100
AcDbEntity
  8
0
100
AcDbEllipse
 62
7
  6
BYLAYER
 10
19.2050740156
 20
17.0927341638
 30
0.0
 11
-0.0
 21
162.8571428998
 31
0.0
 40
0.0875
 41
1.4896546856
 42
1.4970452765
  0
ELLIPSE
  5
2F4
100
AcDbEntity
  8
0
100
AcDbEllipse
 62
7
  6
BYLAYER
 10
19.2050740156
 20
392.9315039463
 30
0.0
 11
-0.0
 21
509.8806585107
 31
0.0
 40
0.0174550649
 41
-2.3106194774
 42
-2.3074376171
  0
ELLIPSE
  5
2F5
100
AcDbEntity
  8
0
100
AcDbEllipse
 62
7
  6
BYLAYER
 10
19.2050740156
 20
392.9315039463
 30
0.0
 11
-0.0
 21
509.8806585107
 31
0.0
 40
0.0174550649
 41
-3.9757476901
 42
-3.9725658298
  0
ELLIPSE
  5
2F6
100
AcDbEntity
  8
0
100
AcDbEllipse
 62
7
  6
BYLAYER
 10
19.9134687079
 20
23.5094746049
 30
0.0
 11
10.8244984526
 21
38.165221805
 31
0.0
 40
0.2460158605
 41
1.7545843694
 42
1.7981173043
  0
ELLIPSE
  5
2F7
100
AcDbEntity
  8
0
100
AcDbEllipse
 62
7
  6
BYLAYER
 10
18.4968575231
 20
23.3716978134
 30
0.0
 11
-10.8217764989
 21
38.1556211395
 31
0.0
 40
0.2460158779
 41
-4.6702069846
 42
-4.6279996211
  0
ELLIPSE
  5
2F8
100
AcDbEntity
  8
0
100
AcDbEllipse
 62
7
  6
BYLAYER
 10
9.3786154244
 20
46.6917592187
 30
0.0
 11
0.5000250562
 21
0.0
 31
0.0
 40
1.0
 41
2.7814790576
 42
4.1266603418
  0
ENDSEC
  0
SECTION
  2
OBJECTS
  0
DICTIONARY
  5
C
100
AcDbDictionary
280
0
281
1
  3
ACAD_GROUP
350
D
  3
ACAD_MLINESTYLE
350
17
  3
ACAD_LAYOUT
350
1A
  3
ACAD_PLOTSETTINGS
350
19
  3
ACAD_PLOTSTYLENAME
350
E
  0
DICTIONARY
  5
D
102
{ACAD_REACTORS
330
C
102
}
100
AcDbDictionary
280
0
281
1
  0
ACDBDICTIONARYWDFLT
  5
E
102
{ACAD_REACTORS
330
C
102
}
100
AcDbDictionary
281
1
  3
Normal
350
F
100
AcDbDictionaryWithDefault
340
F
  0
DICTIONARY
  5
17
102
{ACAD_REACTORS
330
C
102
}
100
AcDbDictionary
280
0
281
1
  3
Standard
350
18
  0
DICTIONARY
  5
19
102
{ACAD_REACTORS
330
C
102
}
100
AcDbDictionary
281
1
  0
DICTIONARY
  5
1A
102
{ACAD_REACTORS
330
C
102
}
100
AcDbDictionary
281
1
  3
Model
350
2F9
  3
Layout1
350
2FA
  0
ACDBPLACEHOLDER
  5
F
102
{ACAD_REACTORS
330
E
102
}
  0
MLINESTYLE
  5
18
102
{ACAD_REACTORS
330
17
102
}
100
AcDbMlineStyle
  2
STANDARD
 70
0
  3

 62
256
 51
90.0
 52
90.0
 71
2
 49
0.5
 62
256
  6
BYLAYER
 49
-0.5
 62
256
  6
BYLAYER
  0
LAYOUT
  5
2F9
102
{ACAD_REACTORS
330
1A
102
}
100
AcDbPlotSettings
  1

  2
none_device
  4

  6

 40
0.0
 41
0.0
 42
0.0
 43
0.0
 44
210.0
 45
297.0
 46
0.0
 47
0.0
 48
0.0
 49
0.0
140
0.0
141
0.0
142
1.0
143
1.0
 70
1024
 72
1
 73
0
 74
0
  7

 75
0
147
1.0
148
0.0
149
0.0
100
AcDbLayout
  1
Model
 70
0
 71
0
 10
0.0
 20
0.0
 11
210.0
 21
297.0
 12
0.0
 22
0.0
 32
0.0
 14
0.0
 24
0.0
 34
0.0
 15
0.0
 25
0.0
 35
0.0
146
0.0
 13
0.0
 23
0.0
 33
0.0
 16
1.0
 26
0.0
 36
0.0
 17
0.0
 27
1.0
 37
0.0
 76
0
330
210
345
0
346
0
  0
LAYOUT
  5
2FA
102
{ACAD_REACTORS
330
1A
102
}
100
AcDbPlotSettings
  1

  2
none_device
  4

  6

 40
0.0
 41
0.0
 42
0.0
 43
0.0
 44
210.0
 45
297.0
 46
0.0
 47
0.0
 48
0.0
 49
0.0
140
0.0
141
0.0
142
1.0
143
1.0
 70
0
 72
1
 73
0
 74
0
  7

 75
0
147
1.0
148
0.0
149
0.0
100
AcDbLayout
  1
Layout1
 70
0
 71
1
 10
0.0
 20
0.0
 11
210.0
 21
297.0
 12
0.0
 22
0.0
 32
0.0
 14
0.0
 24
0.0
 34
0.0
 15
0.0
 25
0.0
 35
0.0
146
0.0
 13
0.0
 23
0.0
 33
0.0
 16
1.0
 26
0.0
 36
0.0
 17
0.0
 27
1.0
 37
0.0
 76
0
330
211
345
0
346
0
  0
ENDSEC
  0
EOF
