999
DXF file: C:\Users\sesa63760\Dev\_Creo\CAD\MCADID0005231_3D-CAD\drw0001_5.dxf
999
Pro/ENGINEER 2019471 by Parametric Technology Corporation
  0
SECTION
  2
HEADER
  9
$ACADVER
  1
AC1024
  9
$DWGCODEPAGE
  3
ANSI_1252
  9
$EXTMAX
 10
127.9983508565
 20
181.0262390685
 30
0.0
  9
$EXTMIN
 10
0.0
 20
0.0
 30
0.0
  9
$LIMMIN
 10
0.0
 20
0.0
  9
$LIMMAX
 10
127.9983508565
 20
181.0262390685
  9
$VIEWCTR
 10
63.9991754283
 20
90.5131195342
  9
$VIEWSIZE
 40
181.0262390685
  9
$CLAYER
  8
0
  9
$LTSCALE
 40
11.8002289171
  9
$CELTYPE
  6
BYLAYER
  9
$DIMSCALE
 40
1.0
  9
$DIMASZ
 40
1.5237898911
  9
$DIMEXO
 40
1.0
  9
$DIMDLI
 40
8.1528854336
  9
$DIMEXE
 40
1.0
  9
$DIMCEN
 40
1.9309465501
  9
$DIMLFAC
 40
1.0
  9
$DIMBLK
  1
_FILLED
  9
$DIMALT
 70
0
  9
$DIMALTF
 40
0.0393700787
  9
$DIMTXT
 40
2.1333058476
  9
$DIMTOL
 70
1
  9
$DIMLIM
 70
0
  9
$DIMTFAC
 40
1.0
  9
$DIMTP
 40
0.01
  9
$DIMTM
 40
0.01
  9
$DIMGAP
 40
0.625
  9
$DIMDSEP
 70
46
  9
$AUNITS
 70
0
  9
$PDMODE
 70
3
  9
$PDSIZE
 40
0.3125
  9
$HANDSEED
  5
2B8
  9
$TILEMODE
 70
1
  9
$MEASUREMENT
 70
1
  9
$INSUNITS
 70
4
  0
ENDSEC
  0
SECTION
  2
CLASSES
  0
CLASS
  1
ACDBDICTIONARYWDFLT
  2
AcDbDictionaryWithDefault
  3
AutoCAD 2000
 90
0
 91
1
280
0
281
0
  0
CLASS
  1
ACDBPLACEHOLDER
  2
AcDbPlaceHolder
  3
AutoCAD 2000
 90
0
 91
1
280
0
281
0
  0
CLASS
  1
LAYOUT
  2
AcDbLayout
  3
AutoCAD 2000
 90
0
 91
0
280
0
281
0
  0
ENDSEC
  0
SECTION
  2
TABLES
  0
TABLE
  2
VPORT
  5
8
100
AcDbSymbolTable
 70
2
  0
VPORT
  5
1F4
100
AcDbSymbolTableRecord
100
AcDbViewportTableRecord
  2
*ACTIVE
 70
0
 10
0.0
 20
0.0
 11
1.0
 21
1.0
 12
63.9991754283
 22
90.5131195342
 13
0.0
 23
0.0
 14
1.0
 24
1.0
 15
0.0
 25
0.0
 16
0.0
 26
0.0
 36
1.0
 17
0.0
 27
0.0
 37
0.0
 40
181.0262390685
 41
0.7070707071
 42
50.0
 43
0.0
 44
0.0
 50
0.0
 51
0.0
 71
0
 72
100
 73
1
 74
1
 75
0
 76
0
 77
0
 78
0
  0
ENDTAB
  0
TABLE
  2
LTYPE
  5
5
100
AcDbSymbolTable
 70
6
  0
LTYPE
  5
14
100
AcDbSymbolTableRecord
100
AcDbLinetypeTableRecord
  2
BYBLOCK
 70
0
  3

 72
65
 73
0
 40
0.0
  0
LTYPE
  5
15
100
AcDbSymbolTableRecord
100
AcDbLinetypeTableRecord
  2
BYLAYER
 70
0
  3

 72
65
 73
0
 40
0.0
  0
LTYPE
  5
16
100
AcDbSymbolTableRecord
100
AcDbLinetypeTableRecord
  2
CONTINUOUS
 70
64
  3
Solid line
 72
65
 73
0
 40
0.0
  0
LTYPE
  5
1F5
100
AcDbSymbolTableRecord
100
AcDbLinetypeTableRecord
  2
CENTER
 70
64
  3
____ _ ____ _ ____ _ ____ _ ____ _ ____ _ ____
 72
65
 73
4
 40
0.6
 49
0.375
 74
0
 49
-0.075
 74
0
 49
0.075
 74
0
 49
-0.075
 74
0
  0
LTYPE
  5
1F6
100
AcDbSymbolTableRecord
100
AcDbLinetypeTableRecord
  2
HIDDEN
 70
64
  3
- - - - - - - - - - - - - - - - - - - -
 72
65
 73
2
 40
0.2
 49
0.1
 74
0
 49
-0.1
 74
0
  0
LTYPE
  5
1F7
100
AcDbSymbolTableRecord
100
AcDbLinetypeTableRecord
  2
PHANTOM
 70
64
  3
_____ _ _ _____ _ _ _____ _ _ _____
 72
65
 73
6
 40
0.8
 49
0.45
 74
0
 49
-0.05
 74
0
 49
0.1
 74
0
 49
-0.05
 74
0
 49
0.1
 74
0
 49
-0.05
 74
0
  0
LTYPE
  5
1F8
100
AcDbSymbolTableRecord
100
AcDbLinetypeTableRecord
  2
DOT
 70
64
  3
. . . . . . . . . . . . . . . . . . . .
 72
65
 73
2
 40
0.2
 49
0.1
 74
0
 49
-0.1
 74
0
  0
LTYPE
  5
1F9
100
AcDbSymbolTableRecord
100
AcDbLinetypeTableRecord
  2
DASHED
 70
64
  3
- - - - - - - - - - - - - - - - - - - -
 72
65
 73
2
 40
0.2
 49
0.1
 74
0
 49
-0.1
 74
0
  0
ENDTAB
  0
TABLE
  2
LAYER
  5
2
100
AcDbSymbolTable
 70
36
  0
LAYER
  5
10
100
AcDbSymbolTableRecord
100
AcDbLayerTableRecord
  2
0
 70
0
 62
7
  6
CONTINUOUS
370
-3
390
F
  0
LAYER
  5
1FA
100
AcDbSymbolTableRecord
100
AcDbLayerTableRecord
  2
DEFAULT_1
 70
0
 62
7
  6
CENTER
370
-3
390
F
  0
LAYER
  5
1FB
100
AcDbSymbolTableRecord
100
AcDbLayerTableRecord
  2
DEFAULT_2
 70
0
 62
7
  6
HIDDEN
370
-3
390
F
  0
LAYER
  5
1FC
100
AcDbSymbolTableRecord
100
AcDbLayerTableRecord
  2
DEFAULT_3
 70
0
 62
7
  6
PHANTOM
370
-3
390
F
  0
LAYER
  5
1FD
100
AcDbSymbolTableRecord
100
AcDbLayerTableRecord
  2
00_COMPONENTS
 70
0
 62
7
  6
CONTINUOUS
370
-3
390
F
  0
LAYER
  5
1FE
100
AcDbSymbolTableRecord
100
AcDbLayerTableRecord
  2
00_COMPONENTS_1
 70
0
 62
7
  6
CONTINUOUS
370
-3
390
F
  0
LAYER
  5
1FF
100
AcDbSymbolTableRecord
100
AcDbLayerTableRecord
  2
00_COMPONENTS_3
 70
0
 62
7
  6
CONTINUOUS
370
-3
390
F
  0
LAYER
  5
200
100
AcDbSymbolTableRecord
100
AcDbLayerTableRecord
  2
00_COMPONENTS_4
 70
0
 62
7
  6
CONTINUOUS
370
-3
390
F
  0
LAYER
  5
201
100
AcDbSymbolTableRecord
100
AcDbLayerTableRecord
  2
01_1_DEFAULT_DATUMS
 70
0
 62
7
  6
CONTINUOUS
370
-3
390
F
  0
LAYER
  5
202
100
AcDbSymbolTableRecord
100
AcDbLayerTableRecord
  2
01_PLANES
 70
0
 62
7
  6
CONTINUOUS
370
-3
390
F
  0
LAYER
  5
203
100
AcDbSymbolTableRecord
100
AcDbLayerTableRecord
  2
02_COORD_SYS
 70
0
 62
7
  6
CONTINUOUS
370
-3
390
F
  0
LAYER
  5
204
100
AcDbSymbolTableRecord
100
AcDbLayerTableRecord
  2
03_AXES
 70
0
 62
7
  6
CONTINUOUS
370
-3
390
F
  0
LAYER
  5
205
100
AcDbSymbolTableRecord
100
AcDbLayerTableRecord
  2
04_POINTS
 70
0
 62
7
  6
CONTINUOUS
370
-3
390
F
  0
LAYER
  5
206
100
AcDbSymbolTableRecord
100
AcDbLayerTableRecord
  2
05_CURVES
 70
0
 62
7
  6
CONTINUOUS
370
-3
390
F
  0
LAYER
  5
207
100
AcDbSymbolTableRecord
100
AcDbLayerTableRecord
  2
06_SURFS
 70
0
 62
7
  6
CONTINUOUS
370
-3
390
F
  0
LAYER
  5
208
100
AcDbSymbolTableRecord
100
AcDbLayerTableRecord
  2
07_COSMETICS
 70
0
 62
7
  6
CONTINUOUS
370
-3
390
F
  0
LAYER
  5
209
100
AcDbSymbolTableRecord
100
AcDbLayerTableRecord
  2
10_NOTES
 70
0
 62
7
  6
CONTINUOUS
370
-3
390
F
  0
LAYER
  5
20A
100
AcDbSymbolTableRecord
100
AcDbLayerTableRecord
  2
11_NOTES_PUB
 70
0
 62
7
  6
CONTINUOUS
370
-3
390
F
  0
LAYER
  5
20B
100
AcDbSymbolTableRecord
100
AcDbLayerTableRecord
  2
13_REF_GTOL
 70
0
 62
7
  6
CONTINUOUS
370
-3
390
F
  0
LAYER
  5
20C
100
AcDbSymbolTableRecord
100
AcDbLayerTableRecord
  2
16_MISC
 70
0
 62
7
  6
CONTINUOUS
370
-3
390
F
  0
LAYER
  5
20D
100
AcDbSymbolTableRecord
100
AcDbLayerTableRecord
  2
17_NO_PRINT
 70
0
 62
7
  6
CONTINUOUS
370
-3
390
F
  0
LAYER
  5
20E
100
AcDbSymbolTableRecord
100
AcDbLayerTableRecord
  2
18_DATUM_CAMS_JOINTS
 70
0
 62
7
  6
CONTINUOUS
370
-3
390
F
  0
LAYER
  5
20F
100
AcDbSymbolTableRecord
100
AcDbLayerTableRecord
  2
19_DATUM_FUNCTIONAL
 70
0
 62
7
  6
CONTINUOUS
370
-3
390
F
  0
LAYER
  5
210
100
AcDbSymbolTableRecord
100
AcDbLayerTableRecord
  2
20_DATUM_KINEMATIC_SCHEME
 70
0
 62
7
  6
CONTINUOUS
370
-3
390
F
  0
LAYER
  5
211
100
AcDbSymbolTableRecord
100
AcDbLayerTableRecord
  2
INTF_BLANK
 70
0
 62
7
  6
CONTINUOUS
370
-3
390
F
  0
LAYER
  5
212
100
AcDbSymbolTableRecord
100
AcDbLayerTableRecord
  2
SHELL1
 70
0
 62
7
  6
CONTINUOUS
370
-3
390
F
  0
LAYER
  5
213
100
AcDbSymbolTableRecord
100
AcDbLayerTableRecord
  2
SHELL508
 70
0
 62
7
  6
CONTINUOUS
370
-3
390
F
  0
LAYER
  5
214
100
AcDbSymbolTableRecord
100
AcDbLayerTableRecord
  2
SHELL509
 70
0
 62
7
  6
CONTINUOUS
370
-3
390
F
  0
LAYER
  5
215
100
AcDbSymbolTableRecord
100
AcDbLayerTableRecord
  2
_BLACK_HOLE
 70
0
 62
7
  6
CONTINUOUS
370
-3
390
F
  0
LAYER
  5
216
100
AcDbSymbolTableRecord
100
AcDbLayerTableRecord
  2
black
 70
0
 62
7
  6
CONTINUOUS
370
-3
390
F
  0
ENDTAB
  0
TABLE
  2
STYLE
  5
3
100
AcDbSymbolTable
 70
1
  0
STYLE
  5
11
100
AcDbSymbolTableRecord
100
AcDbTextStyleTableRecord
  2
STANDARD
 70
0
 40
0.0
 41
1.0
 50
0.0
 71
0
 42
0.2
  3
ARIAL.TTF
  4

  0
STYLE
  5
217
100
AcDbSymbolTableRecord
100
AcDbTextStyleTableRecord
  2
TEXTSTYLE_1
 70
0
 40
0.0
 41
0.8
 50
0.0
 71
0
 42
0.2
  3
gdt
  4

  0
ENDTAB
  0
TABLE
  2
VIEW
  5
6
100
AcDbSymbolTable
 70
0
  0
ENDTAB
  0
TABLE
  2
UCS
  5
7
100
AcDbSymbolTable
 70
0
  0
ENDTAB
  0
TABLE
  2
APPID
  5
9
100
AcDbSymbolTable
 70
1
  0
APPID
  5
218
100
AcDbSymbolTableRecord
100
AcDbRegAppTableRecord
  2
ACAD
 70
0
  0
ENDTAB
  0
TABLE
  2
BLOCK_RECORD
  5
1
100
AcDbSymbolTable
 70
0
  0
BLOCK_RECORD
  5
219
100
AcDbSymbolTableRecord
100
AcDbBlockTableRecord
  2
*Model_Space
  0
BLOCK_RECORD
  5
21A
100
AcDbSymbolTableRecord
100
AcDbBlockTableRecord
  2
*Paper_Space
  0
BLOCK_RECORD
  5
21B
100
AcDbSymbolTableRecord
100
AcDbBlockTableRecord
  2
_FILLED
  0
ENDTAB
  0
TABLE
  2
DIMSTYLE
  5
A
100
AcDbSymbolTable
 70
1
100
AcDbDimStyleTable
 71
0
  0
DIMSTYLE
105
21C
100
AcDbSymbolTableRecord
100
AcDbDimStyleTableRecord
  2
STANDARD
 70
0
  3

  4

 40
1.0
 41
1.5237898911
 42
1.0
 43
0.38
 44
1.0
 45
0.0
 46
0.0
 47
0.01
 48
0.01
140
2.1333058476
141
0.09
142
0.0
143
25.4
144
1.0
145
0.0
146
1.0
147
0.625
 71
1
 72
0
 73
0
 74
0
 75
0
 76
0
 77
1
 78
8
 79
2
170
0
171
1
172
0
173
0
174
0
175
0
176
0
177
0
178
0
270
2
179
2
271
2
272
2
273
2
274
2
275
0
280
0
281
0
282
0
283
1
284
8
285
0
286
0
287
3
288
0
340
11
278
46
341
21B
342
21B
343
21B
344
21B
  0
ENDTAB
  0
ENDSEC
  0
SECTION
  2
BLOCKS
  0
BLOCK
  5
20
100
AcDbEntity
  8
0
100
AcDbBlockBegin
  2
*Model_Space
 70
0
 10
0.0
 20
0.0
 30
0.0
  3
*Model_Space
  1

  0
ENDBLK
  5
21
100
AcDbEntity
  8
0
100
AcDbBlockEnd
  0
BLOCK
  5
1C
100
AcDbEntity
  8
0
100
AcDbBlockBegin
  2
*Paper_Space
 70
0
 10
0.0
 20
0.0
 30
0.0
  3
*Paper_Space
  1

  0
ENDBLK
  5
1D
100
AcDbEntity
  8
0
100
AcDbBlockEnd
  0
BLOCK
  5
21D
100
AcDbEntity
  8
0
100
AcDbBlockBegin
  2
_FILLED
 70
64
 10
0.0
 20
0.0
  3
_FILLED
  1

  0
SOLID
  5
21E
100
AcDbEntity
  8
0
  6
BYBLOCK
 62
0
100
AcDbTrace
 10
0.0
 20
0.0
 11
-1.0
 21
0.25
 12
-1.0
 22
-0.25
 13
-1.0
 23
-0.25
  0
ENDBLK
  5
21F
100
AcDbEntity
  8
0
  6
BYBLOCK
 62
0
100
AcDbBlockEnd
  0
ENDSEC
  0
SECTION
  2
ENTITIES
  0
LINE
  5
220
100
AcDbEntity
  8
00_COMPONENTS_1
100
AcDbLine
 62
7
  6
BYLAYER
 10
49.5354671136
 20
158.860640741
 11
55.6061202514
 21
164.9312938789
  0
LINE
  5
221
100
AcDbEntity
  8
00_COMPONENTS_1
100
AcDbLine
 62
7
  6
BYLAYER
 10
54.2680620894
 20
161.7971844926
 11
51.7356298632
 21
159.2647522665
  0
LINE
  5
222
100
AcDbEntity
  8
00_COMPONENTS_1
100
AcDbLine
 62
7
  6
BYLAYER
 10
75.1471575708
 20
154.6578808764
 11
75.2262417618
 21
154.6830835306
  0
LINE
  5
223
100
AcDbEntity
  8
00_COMPONENTS_1
100
AcDbLine
 62
7
  6
BYLAYER
 10
59.6068204626
 20
164.9312938789
 11
55.3703865828
 21
160.6948599991
  0
LINE
  5
224
100
AcDbEntity
  8
00_COMPONENTS_1
100
AcDbLine
 62
7
  6
BYLAYER
 10
52.8379543567
 20
158.162427773
 11
51.5358172191
 21
156.8602906354
  0
LINE
  5
225
100
AcDbEntity
  8
00_COMPONENTS_1
100
AcDbLine
 62
7
  6
BYLAYER
 10
45.2249441754
 20
149.5930164241
 11
52.014017803
 21
156.3820900516
  0
LINE
  5
226
100
AcDbEntity
  8
00_COMPONENTS_1
100
AcDbLine
 62
7
  6
BYLAYER
 10
54.2141805526
 20
156.7862015771
 11
56.7466127788
 21
159.3186338032
  0
LINE
  5
227
100
AcDbEntity
  8
00_COMPONENTS_1
100
AcDbLine
 62
7
  6
BYLAYER
 10
55.5581784935
 20
156.8370426365
 11
54.9360080988
 21
156.2148722418
  0
LINE
  5
228
100
AcDbEntity
  8
00_COMPONENTS_1
100
AcDbLine
 62
7
  6
BYLAYER
 10
55.2918112872
 20
155.7085708425
 11
57.8242435133
 21
158.2410030687
  0
LINE
  5
229
100
AcDbEntity
  8
00_COMPONENTS_1
100
AcDbLine
 62
7
  6
BYLAYER
 10
54.0143679086
 20
154.381739946
 11
46.526794281
 21
146.8941663185
  0
LINE
  5
22A
100
AcDbEntity
  8
00_COMPONENTS_1
100
AcDbLine
 62
7
  6
BYLAYER
 10
56.3694420217
 20
154.630940108
 11
58.9018742478
 21
157.1633723341
  0
LINE
  5
22B
100
AcDbEntity
  8
00_COMPONENTS_1
100
AcDbLine
 62
7
  6
BYLAYER
 10
59.3508870539
 20
156.7143595281
 11
56.8184548277
 21
154.1819273019
  0
LINE
  5
22C
100
AcDbEntity
  8
00_COMPONENTS_1
100
AcDbLine
 62
7
  6
BYLAYER
 10
56.9980599502
 20
154.0023221795
 11
59.5304921763
 21
156.5347544057
  0
LINE
  5
22D
100
AcDbEntity
  8
00_COMPONENTS_1
100
AcDbLine
 62
7
  6
BYLAYER
 10
60.7967082894
 20
157.4417602739
 11
59.7100972987
 21
156.3551492832
  0
LINE
  5
22E
100
AcDbEntity
  8
00_COMPONENTS_1
100
AcDbLine
 62
7
  6
BYLAYER
 10
57.1776650726
 20
153.8227170571
 11
56.0910540819
 21
152.7361060665
  0
LINE
  5
22F
100
AcDbEntity
  8
00_COMPONENTS_1
100
AcDbLine
 62
7
  6
BYLAYER
 10
60.5991426547
 20
156.5257741495
 11
57.0070402063
 21
152.9336717011
  0
LINE
  5
230
100
AcDbEntity
  8
00_COMPONENTS_1
100
AcDbLine
 62
7
  6
BYLAYER
 10
57.9769078674
 20
150.850252281
 11
62.6825620748
 21
155.5559064885
  0
LINE
  5
231
100
AcDbEntity
  8
00_COMPONENTS
100
AcDbLine
 62
7
  6
BYLAYER
 10
60.7717701805
 20
38.6911331151
 11
70.7717701805
 21
38.6911331151
  0
LINE
  5
232
100
AcDbEntity
  8
00_COMPONENTS_1
100
AcDbLine
 62
7
  6
BYLAYER
 10
70.7468320715
 20
157.4417602739
 11
68.8609782861
 21
155.5559064885
  0
LINE
  5
233
100
AcDbEntity
  8
00_COMPONENTS_1
100
AcDbLine
 62
7
  6
BYLAYER
 10
68.9687413596
 20
155.448143415
 11
70.854595145
 21
157.3339972004
  0
LINE
  5
234
100
AcDbEntity
  8
00_COMPONENTS_1
100
AcDbLine
 62
7
  6
BYLAYER
 10
71.303607951
 20
156.8849843944
 11
69.4177541656
 21
154.999130609
  0
LINE
  5
235
100
AcDbEntity
  8
00_COMPONENTS_1
100
AcDbLine
 62
7
  6
BYLAYER
 10
71.8334430622
 20
156.3551492832
 11
77.2754782715
 21
161.7971844926
  0
LINE
  5
236
100
AcDbEntity
  8
00_COMPONENTS_1
100
AcDbLine
 62
7
  6
BYLAYER
 10
72.2195940754
 20
156.6874187597
 11
72.039988953
 21
156.5078136373
  0
LINE
  5
237
100
AcDbEntity
  8
00_COMPONENTS_1
100
AcDbLine
 62
7
  6
BYLAYER
 10
71.5011735857
 20
155.96899827
 11
69.9745300451
 21
154.4423547295
  0
LINE
  5
238
100
AcDbEntity
  8
00_COMPONENTS_1
100
AcDbLine
 62
7
  6
BYLAYER
 10
74.2255982469
 20
158.596806257
 11
74.8721766876
 21
159.2433846977
  0
LINE
  5
239
100
AcDbEntity
  8
00_COMPONENTS_1
100
AcDbLine
 62
7
  6
BYLAYER
 10
75.4943470823
 20
158.621214303
 11
74.8477686416
 21
157.9746358623
  0
LINE
  5
23A
100
AcDbEntity
  8
00_COMPONENTS_1
100
AcDbLine
 62
7
  6
BYLAYER
 10
72.4530807345
 20
151.96380404
 11
73.9797242751
 21
153.4904475806
  0
LINE
  5
23B
100
AcDbEntity
  8
00_COMPONENTS_1
100
AcDbLine
 62
7
  6
BYLAYER
 10
74.5185396424
 20
154.0292629479
 11
74.6981447648
 21
154.2088680703
  0
LINE
  5
23C
100
AcDbEntity
  8
00_COMPONENTS_1
100
AcDbLine
 62
7
  6
BYLAYER
 10
74.3658752883
 20
153.8227170571
 11
79.8079104977
 21
159.2647522665
  0
LINE
  5
23D
100
AcDbEntity
  8
00_COMPONENTS_1
100
AcDbLine
 62
7
  6
BYLAYER
 10
73.009856614
 20
151.4070281605
 11
74.8957103995
 21
153.292881946
  0
LINE
  5
23E
100
AcDbEntity
  8
00_COMPONENTS_1
100
AcDbLine
 62
7
  6
BYLAYER
 10
75.3447232055
 20
152.8438691399
 11
73.4588694201
 21
150.9580153545
  0
LINE
  5
23F
100
AcDbEntity
  8
00_COMPONENTS_1
100
AcDbLine
 62
7
  6
BYLAYER
 10
73.5666324935
 20
150.850252281
 11
75.452486279
 21
152.7361060665
  0
LINE
  5
240
100
AcDbEntity
  8
00_COMPONENTS_1
100
AcDbLine
 62
7
  6
BYLAYER
 10
82.0080732473
 20
158.860640741
 11
77.5291724523
 21
154.381739946
  0
LINE
  5
241
100
AcDbEntity
  8
00_COMPONENTS_1
100
AcDbLine
 62
7
  6
BYLAYER
 10
86.3185961855
 20
148.1960164241
 11
78.5416943846
 21
140.4191146232
  0
LINE
  5
242
100
AcDbEntity
  8
00_COMPONENTS
100
AcDbLine
 62
7
  6
BYLAYER
 10
53.2717873765
 20
61.4814938789
 11
78.2717529844
 21
61.4814938789
  0
LINE
  5
243
100
AcDbEntity
  8
00_COMPONENTS
100
AcDbLine
 62
7
  6
BYLAYER
 10
78.2717701804
 20
64.4814938789
 11
53.2717701805
 21
64.4814938789
  0
LINE
  5
244
100
AcDbEntity
  8
00_COMPONENTS_3
100
AcDbLine
 62
7
  6
BYLAYER
 10
43.2717701805
 20
103.6721938789
 11
43.2717701805
 21
105.2932938789
  0
LINE
  5
245
100
AcDbEntity
  8
00_COMPONENTS_1
100
AcDbLine
 62
7
  6
BYLAYER
 10
45.2249441754
 20
148.1960164241
 11
45.2249441754
 21
149.5930164241
  0
LINE
  5
246
100
AcDbEntity
  8
00_COMPONENTS
100
AcDbLine
 62
7
  6
BYLAYER
 10
50.0257701765
 20
76.4814938789
 11
49.7717701765
 21
76.7354938789
  0
LINE
  5
247
100
AcDbEntity
  8
00_COMPONENTS_1
100
AcDbLine
 62
7
  6
BYLAYER
 10
45.5787701805
 20
164.9312938789
 11
45.5787701805
 21
149.9468424291
  0
LINE
  5
248
100
AcDbEntity
  8
00_COMPONENTS_1
100
AcDbLine
 62
7
  6
BYLAYER
 10
45.5787701805
 20
147.8421904191
 11
45.5787701805
 21
140.2932938789
  0
LINE
  5
249
100
AcDbEntity
  8
00_COMPONENTS_3
100
AcDbLine
 62
7
  6
BYLAYER
 10
45.5787701805
 20
105.2932938789
 11
45.5787701805
 21
107.7932938789
  0
LINE
  5
24A
100
AcDbEntity
  8
00_COMPONENTS_3
100
AcDbLine
 62
7
  6
BYLAYER
 10
45.5787701805
 20
130.2932938789
 11
45.5787701805
 21
140.2932938789
  0
LINE
  5
24B
100
AcDbEntity
  8
00_COMPONENTS_3
100
AcDbLine
 62
7
  6
BYLAYER
 10
45.6041701805
 20
107.7932938789
 11
45.6041701805
 21
130.2932938789
  0
LINE
  5
24C
100
AcDbEntity
  8
00_COMPONENTS
100
AcDbLine
 62
7
  6
BYLAYER
 10
45.9280201805
 20
94.2106938789
 11
45.9280201805
 21
95.7346938789
  0
LINE
  5
24D
100
AcDbEntity
  8
00_COMPONENTS_3
100
AcDbLine
 62
7
  6
BYLAYER
 10
45.9280201805
 20
102.0846938789
 11
45.9280201805
 21
103.6721938789
  0
LINE
  5
24E
100
AcDbEntity
  8
00_COMPONENTS
100
AcDbLine
 62
7
  6
BYLAYER
 10
47.1027701805
 20
92.9406938789
 11
47.1027701805
 21
94.2106938789
  0
LINE
  5
24F
100
AcDbEntity
  8
00_COMPONENTS
100
AcDbLine
 62
7
  6
BYLAYER
 10
48.3092701805
 20
86.6476463423
 11
48.3092701805
 21
92.9406938789
  0
LINE
  5
250
100
AcDbEntity
  8
00_COMPONENTS
100
AcDbLine
 62
7
  6
BYLAYER
 10
49.7717701765
 20
76.7354938789
 11
49.7717701765
 21
85.3486882769
  0
LINE
  5
251
100
AcDbEntity
  8
00_COMPONENTS
100
AcDbLine
 62
7
  6
BYLAYER
 10
53.2717701805
 20
64.4814938789
 11
51.7717701805
 21
76.4814938789
  0
LINE
  5
252
100
AcDbEntity
  8
00_COMPONENTS_3
100
AcDbLine
 62
7
  6
BYLAYER
 10
50.7857701805
 20
95.7346938789
 11
50.7857701805
 21
102.0846938789
  0
LINE
  5
253
100
AcDbEntity
  8
00_COMPONENTS
100
AcDbLine
 62
7
  6
BYLAYER
 10
53.2717701805
 20
61.4814938789
 11
53.2717701805
 21
64.4814938789
  0
LINE
  5
254
100
AcDbEntity
  8
00_COMPONENTS_1
100
AcDbLine
 62
7
  6
BYLAYER
 10
72.6938095357
 20
157.2155157568
 11
72.6686068814
 21
157.1364315658
  0
LINE
  5
255
100
AcDbEntity
  8
00_COMPONENTS
100
AcDbLine
 62
7
  6
BYLAYER
 10
50.0260306356
 20
76.4814938789
 11
81.5175097253
 21
76.4814938789
  0
LINE
  5
256
100
AcDbEntity
  8
00_COMPONENTS
100
AcDbLine
 62
7
  6
BYLAYER
 10
49.7717701765
 20
76.7354938789
 11
81.7717701845
 21
76.7354938789
  0
LINE
  5
257
100
AcDbEntity
  8
00_COMPONENTS
100
AcDbLine
 62
7
  6
BYLAYER
 10
49.3780701765
 20
86.0305966798
 11
48.3092701805
 21
86.6476686452
  0
LINE
  5
258
100
AcDbEntity
  8
00_COMPONENTS_3
100
AcDbLine
 62
7
  6
BYLAYER
 10
58.2717701805
 20
130.2932938789
 11
58.2717701805
 21
135.2932938789
  0
LINE
  5
259
100
AcDbEntity
  8
00_COMPONENTS
100
AcDbLine
 62
7
  6
BYLAYER
 10
58.5385658475
 20
92.9406938789
 11
58.5385658475
 21
87.4783450846
  0
LINE
  5
25A
100
AcDbEntity
  8
00_COMPONENTS
100
AcDbLine
 62
7
  6
BYLAYER
 10
60.2155201805
 20
95.7346938789
 11
60.2155201805
 21
94.2106938789
  0
LINE
  5
25B
100
AcDbEntity
  8
00_COMPONENTS
100
AcDbLine
 62
7
  6
BYLAYER
 10
60.7717701805
 20
38.6911331151
 11
60.7717701805
 21
61.4814938789
  0
LINE
  5
25C
100
AcDbEntity
  8
00_COMPONENTS
100
AcDbLine
 62
7
  6
BYLAYER
 10
81.7717701845
 20
85.3486882769
 11
49.7717701765
 21
85.3486882769
  0
LINE
  5
25D
100
AcDbEntity
  8
00_COMPONENTS
100
AcDbLine
 62
7
  6
BYLAYER
 10
49.3780701765
 20
86.0305966798
 11
82.1654701845
 21
86.0305966798
  0
LINE
  5
25E
100
AcDbEntity
  8
00_COMPONENTS_1
100
AcDbLine
 62
7
  6
BYLAYER
 10
62.5332701805
 20
164.9312938789
 11
62.5332701805
 21
166.7346938789
  0
LINE
  5
25F
100
AcDbEntity
  8
00_COMPONENTS
100
AcDbLine
 62
7
  6
BYLAYER
 10
62.7026765032
 20
94.2106938789
 11
62.7026765032
 21
92.9406938789
  0
LINE
  5
260
100
AcDbEntity
  8
00_COMPONENTS
100
AcDbLine
 62
7
  6
BYLAYER
 10
68.8408638577
 20
92.9406938789
 11
68.8408638577
 21
94.2106938789
  0
LINE
  5
261
100
AcDbEntity
  8
00_COMPONENTS_1
100
AcDbLine
 62
7
  6
BYLAYER
 10
69.0102701805
 20
164.9312938789
 11
69.0102701805
 21
166.7346938789
  0
LINE
  5
262
100
AcDbEntity
  8
00_COMPONENTS
100
AcDbLine
 62
7
  6
BYLAYER
 10
70.7717701805
 20
38.6911331151
 11
70.7717701805
 21
61.4814938789
  0
LINE
  5
263
100
AcDbEntity
  8
00_COMPONENTS
100
AcDbLine
 62
7
  6
BYLAYER
 10
71.3280201805
 20
94.2106938789
 11
71.3280201805
 21
95.7346938789
  0
LINE
  5
264
100
AcDbEntity
  8
00_COMPONENTS
100
AcDbLine
 62
7
  6
BYLAYER
 10
47.1029702997
 20
92.9406938789
 11
84.1867701805
 21
92.9406938789
  0
LINE
  5
265
100
AcDbEntity
  8
00_COMPONENTS
100
AcDbLine
 62
7
  6
BYLAYER
 10
45.928253985
 20
94.2106938789
 11
85.615286376
 21
94.2106938789
  0
LINE
  5
266
100
AcDbEntity
  8
00_COMPONENTS
100
AcDbLine
 62
7
  6
BYLAYER
 10
45.928253985
 20
95.7346938789
 11
85.615286376
 21
95.7346938789
  0
LINE
  5
267
100
AcDbEntity
  8
00_COMPONENTS
100
AcDbLine
 62
7
  6
BYLAYER
 10
73.0049745134
 20
92.9406938789
 11
73.0049745134
 21
87.4783450846
  0
LINE
  5
268
100
AcDbEntity
  8
00_COMPONENTS_3
100
AcDbLine
 62
7
  6
BYLAYER
 10
73.2717701805
 20
135.2932938789
 11
73.2717701805
 21
130.2932938789
  0
LINE
  5
269
100
AcDbEntity
  8
00_COMPONENTS
100
AcDbLine
 62
7
  6
BYLAYER
 10
78.2717701804
 20
61.4814938789
 11
78.2717701804
 21
64.4814938789
  0
LINE
  5
26A
100
AcDbEntity
  8
00_COMPONENTS_3
100
AcDbLine
 62
7
  6
BYLAYER
 10
80.7577701805
 20
95.7346938789
 11
80.7577701805
 21
102.0846938789
  0
LINE
  5
26B
100
AcDbEntity
  8
00_COMPONENTS
100
AcDbLine
 62
7
  6
BYLAYER
 10
81.7717701845
 20
76.7354938789
 11
81.7717701845
 21
85.3486882769
  0
LINE
  5
26C
100
AcDbEntity
  8
00_COMPONENTS
100
AcDbLine
 62
7
  6
BYLAYER
 10
78.2717701804
 20
64.4814938789
 11
79.7717701804
 21
76.4814938789
  0
LINE
  5
26D
100
AcDbEntity
  8
00_COMPONENTS
100
AcDbLine
 62
7
  6
BYLAYER
 10
82.1654701845
 20
86.0305966798
 11
83.2342701805
 21
86.6476686452
  0
LINE
  5
26E
100
AcDbEntity
  8
00_COMPONENTS_3
100
AcDbLine
 62
7
  6
BYLAYER
 10
45.9282740423
 20
102.0846938789
 11
85.6152663186
 21
102.0846938789
  0
LINE
  5
26F
100
AcDbEntity
  8
00_COMPONENTS_3
100
AcDbLine
 62
7
  6
BYLAYER
 10
88.2717701805
 20
103.6721938789
 11
43.2717701805
 21
103.6721938789
  0
LINE
  5
270
100
AcDbEntity
  8
00_COMPONENTS_3
100
AcDbLine
 62
7
  6
BYLAYER
 10
88.2717701805
 20
105.2932938789
 11
43.2717701805
 21
105.2932938789
  0
LINE
  5
271
100
AcDbEntity
  8
00_COMPONENTS_1
100
AcDbLine
 62
7
  6
BYLAYER
 10
58.8749334795
 20
157.1364315658
 11
58.8497308252
 21
157.2155157568
  0
LINE
  5
272
100
AcDbEntity
  8
00_COMPONENTS
100
AcDbLine
 62
7
  6
BYLAYER
 10
83.2342701805
 20
92.9406938789
 11
83.2342701805
 21
86.6476463423
  0
LINE
  5
273
100
AcDbEntity
  8
00_COMPONENTS
100
AcDbLine
 62
7
  6
BYLAYER
 10
84.1867701805
 20
94.2106938789
 11
84.1867701805
 21
92.9406938789
  0
LINE
  5
274
100
AcDbEntity
  8
00_COMPONENTS
100
AcDbLine
 62
7
  6
BYLAYER
 10
85.6155201805
 20
94.2106938789
 11
85.6155201805
 21
95.7346938789
  0
LINE
  5
275
100
AcDbEntity
  8
00_COMPONENTS_3
100
AcDbLine
 62
7
  6
BYLAYER
 10
85.6155201805
 20
102.0846938789
 11
85.6155201805
 21
103.6721938789
  0
LINE
  5
276
100
AcDbEntity
  8
00_COMPONENTS_3
100
AcDbLine
 62
7
  6
BYLAYER
 10
85.9393701805
 20
130.2932938789
 11
85.9393701805
 21
107.7932938789
  0
LINE
  5
277
100
AcDbEntity
  8
00_COMPONENTS_3
100
AcDbLine
 62
7
  6
BYLAYER
 10
85.9647701805
 20
140.2932938789
 11
85.9647701805
 21
130.2932938789
  0
LINE
  5
278
100
AcDbEntity
  8
00_COMPONENTS_3
100
AcDbLine
 62
7
  6
BYLAYER
 10
85.9647701805
 20
107.7932938789
 11
85.9647701805
 21
105.2932938789
  0
LINE
  5
279
100
AcDbEntity
  8
00_COMPONENTS_1
100
AcDbLine
 62
7
  6
BYLAYER
 10
85.9647701805
 20
140.2932938789
 11
85.9647701805
 21
147.8421904191
  0
LINE
  5
27A
100
AcDbEntity
  8
00_COMPONENTS_1
100
AcDbLine
 62
7
  6
BYLAYER
 10
85.9647701805
 20
149.9468424291
 11
85.9647701805
 21
164.9312938789
  0
LINE
  5
27B
100
AcDbEntity
  8
00_COMPONENTS_1
100
AcDbLine
 62
7
  6
BYLAYER
 10
86.3185961855
 20
149.5930164241
 11
86.3185961855
 21
148.1960164241
  0
LINE
  5
27C
100
AcDbEntity
  8
00_COMPONENTS
100
AcDbLine
 62
7
  6
BYLAYER
 10
81.5177701845
 20
76.4814938789
 11
81.7717701845
 21
76.7354938789
  0
LINE
  5
27D
100
AcDbEntity
  8
00_COMPONENTS_3
100
AcDbLine
 62
7
  6
BYLAYER
 10
85.9647701805
 20
107.7932938789
 11
45.5787701805
 21
107.7932938789
  0
LINE
  5
27E
100
AcDbEntity
  8
00_COMPONENTS_3
100
AcDbLine
 62
7
  6
BYLAYER
 10
88.2717701805
 20
105.2932938789
 11
88.2717701805
 21
103.6721938789
  0
LINE
  5
27F
100
AcDbEntity
  8
00_COMPONENTS_1
100
AcDbLine
 62
7
  6
BYLAYER
 10
53.0018459763
 20
140.4191146232
 11
45.2249441754
 21
148.1960164241
  0
LINE
  5
280
100
AcDbEntity
  8
00_COMPONENTS_1
100
AcDbLine
 62
7
  6
BYLAYER
 10
54.0143679086
 20
154.381739946
 11
49.5354671136
 21
158.860640741
  0
LINE
  5
281
100
AcDbEntity
  8
00_COMPONENTS_1
100
AcDbLine
 62
7
  6
BYLAYER
 10
56.0910540819
 20
152.7361060665
 11
57.9769078674
 21
150.850252281
  0
LINE
  5
282
100
AcDbEntity
  8
00_COMPONENTS_1
100
AcDbLine
 62
7
  6
BYLAYER
 10
58.0846709408
 20
150.9580153545
 11
56.1988171554
 21
152.8438691399
  0
LINE
  5
283
100
AcDbEntity
  8
00_COMPONENTS_3
100
AcDbLine
 62
7
  6
BYLAYER
 10
85.9647701805
 20
130.2932938789
 11
73.2717701805
 21
130.2932938789
  0
LINE
  5
284
100
AcDbEntity
  8
00_COMPONENTS_3
100
AcDbLine
 62
7
  6
BYLAYER
 10
58.2717701805
 20
130.2932938789
 11
45.5787701805
 21
130.2932938789
  0
LINE
  5
285
100
AcDbEntity
  8
00_COMPONENTS_1
100
AcDbLine
 62
7
  6
BYLAYER
 10
56.6478299614
 20
153.292881946
 11
58.5336837469
 21
151.4070281605
  0
LINE
  5
286
100
AcDbEntity
  8
00_COMPONENTS_1
100
AcDbLine
 62
7
  6
BYLAYER
 10
57.1776650726
 20
153.8227170571
 11
51.7356298632
 21
159.2647522665
  0
LINE
  5
287
100
AcDbEntity
  8
00_COMPONENTS_1
100
AcDbLine
 62
7
  6
BYLAYER
 10
56.8453955961
 20
154.2088680703
 11
57.0250007185
 21
154.0292629479
  0
LINE
  5
288
100
AcDbEntity
  8
00_COMPONENTS_1
100
AcDbLine
 62
7
  6
BYLAYER
 10
57.5638160858
 20
153.4904475806
 11
59.0904596264
 21
151.96380404
  0
LINE
  5
289
100
AcDbEntity
  8
00_COMPONENTS_1
100
AcDbLine
 62
7
  6
BYLAYER
 10
54.9360080988
 20
156.2148722418
 11
54.2894296581
 21
156.8614506825
  0
LINE
  5
28A
100
AcDbEntity
  8
00_COMPONENTS_1
100
AcDbLine
 62
7
  6
BYLAYER
 10
54.9116000528
 20
157.4836210772
 11
55.5581784935
 21
156.8370426365
  0
LINE
  5
28B
100
AcDbEntity
  8
00_COMPONENTS_1
100
AcDbLine
 62
7
  6
BYLAYER
 10
61.5690103158
 20
154.4423547295
 11
60.0423667752
 21
155.96899827
  0
LINE
  5
28C
100
AcDbEntity
  8
00_COMPONENTS_1
100
AcDbLine
 62
7
  6
BYLAYER
 10
59.5035514079
 20
156.5078136373
 11
59.3239462855
 21
156.6874187597
  0
LINE
  5
28D
100
AcDbEntity
  8
00_COMPONENTS_1
100
AcDbLine
 62
7
  6
BYLAYER
 10
59.7100972987
 20
156.3551492832
 11
54.2680620894
 21
161.7971844926
  0
LINE
  5
28E
100
AcDbEntity
  8
00_COMPONENTS_1
100
AcDbLine
 62
7
  6
BYLAYER
 10
62.1257861953
 20
154.999130609
 11
60.2399324099
 21
156.8849843944
  0
LINE
  5
28F
100
AcDbEntity
  8
00_COMPONENTS_3
100
AcDbLine
 62
7
  6
BYLAYER
 10
58.2717701805
 20
135.2932938789
 11
73.2717701805
 21
135.2932938789
  0
LINE
  5
290
100
AcDbEntity
  8
00_COMPONENTS_1
100
AcDbLine
 62
7
  6
BYLAYER
 10
60.6889452159
 20
157.3339972004
 11
62.5747990014
 21
155.448143415
  0
LINE
  5
291
100
AcDbEntity
  8
00_COMPONENTS_1
100
AcDbLine
 62
7
  6
BYLAYER
 10
62.6825620748
 20
155.5559064885
 11
60.7967082894
 21
157.4417602739
  0
LINE
  5
292
100
AcDbEntity
  8
00_COMPONENTS_1
100
AcDbLine
 62
7
  6
BYLAYER
 10
68.8609782861
 20
155.5559064885
 11
73.5666324935
 21
150.850252281
  0
LINE
  5
293
100
AcDbEntity
  8
00_COMPONENTS_3
100
AcDbLine
 62
7
  6
BYLAYER
 10
85.9647701805
 20
140.2932938789
 11
45.5787701805
 21
140.2932938789
  0
LINE
  5
294
100
AcDbEntity
  8
00_COMPONENTS_1
100
AcDbLine
 62
7
  6
BYLAYER
 10
78.5416943846
 20
140.4191146232
 11
53.0018459763
 21
140.4191146232
  0
LINE
  5
295
100
AcDbEntity
  8
00_COMPONENTS_1
100
AcDbLine
 62
7
  6
BYLAYER
 10
74.5365001546
 20
152.9336717011
 11
70.9443977062
 21
156.5257741495
  0
LINE
  5
296
100
AcDbEntity
  8
00_COMPONENTS_1
100
AcDbLine
 62
7
  6
BYLAYER
 10
75.452486279
 20
152.7361060665
 11
74.3658752883
 21
153.8227170571
  0
LINE
  5
297
100
AcDbEntity
  8
00_COMPONENTS_1
100
AcDbLine
 62
7
  6
BYLAYER
 10
71.8334430622
 20
156.3551492832
 11
70.7468320715
 21
157.4417602739
  0
LINE
  5
298
100
AcDbEntity
  8
00_COMPONENTS_1
100
AcDbLine
 62
7
  6
BYLAYER
 10
72.0130481846
 20
156.5347544057
 11
74.5454804107
 21
154.0023221795
  0
LINE
  5
299
100
AcDbEntity
  8
00_COMPONENTS_1
100
AcDbLine
 62
7
  6
BYLAYER
 10
74.7250855332
 20
154.1819273019
 11
72.192653307
 21
156.7143595281
  0
LINE
  5
29A
100
AcDbEntity
  8
00_COMPONENTS_1
100
AcDbLine
 62
7
  6
BYLAYER
 10
72.6416661131
 20
157.1633723341
 11
75.1740983392
 21
154.630940108
  0
LINE
  5
29B
100
AcDbEntity
  8
00_COMPONENTS_1
100
AcDbLine
 62
7
  6
BYLAYER
 10
85.0167460799
 20
146.8941663185
 11
77.5291724523
 21
154.381739946
  0
LINE
  5
29C
100
AcDbEntity
  8
00_COMPONENTS_1
100
AcDbLine
 62
7
  6
BYLAYER
 10
73.7192968476
 20
158.2410030687
 11
76.2517290737
 21
155.7085708425
  0
LINE
  5
29D
100
AcDbEntity
  8
00_COMPONENTS_1
100
AcDbLine
 62
7
  6
BYLAYER
 10
56.3172985991
 20
154.6830835306
 11
56.3963827901
 21
154.6578808764
  0
LINE
  5
29E
100
AcDbEntity
  8
00_COMPONENTS_1
100
AcDbLine
 62
7
  6
BYLAYER
 10
74.8477686416
 20
157.9746358623
 11
74.2255982469
 21
158.596806257
  0
LINE
  5
29F
100
AcDbEntity
  8
00_COMPONENTS_1
100
AcDbLine
 62
7
  6
BYLAYER
 10
77.3293598083
 20
156.7862015771
 11
74.7969275821
 21
159.3186338032
  0
LINE
  5
2A0
100
AcDbEntity
  8
00_COMPONENTS_1
100
AcDbLine
 62
7
  6
BYLAYER
 10
79.5295225579
 20
156.3820900516
 11
86.3185961855
 21
149.5930164241
  0
LINE
  5
2A1
100
AcDbEntity
  8
00_COMPONENTS_1
100
AcDbLine
 62
7
  6
BYLAYER
 10
80.0077231418
 20
156.8602906354
 11
78.7055860042
 21
158.162427773
  0
LINE
  5
2A2
100
AcDbEntity
  8
00_COMPONENTS_1
100
AcDbLine
 62
7
  6
BYLAYER
 10
76.1731537781
 20
160.6948599991
 11
71.9367198983
 21
164.9312938789
  0
LINE
  5
2A3
100
AcDbEntity
  8
00_COMPONENTS_1
100
AcDbLine
 62
7
  6
BYLAYER
 10
79.8079104977
 20
159.2647522665
 11
77.2754782715
 21
161.7971844926
  0
LINE
  5
2A4
100
AcDbEntity
  8
00_COMPONENTS_1
100
AcDbLine
 62
7
  6
BYLAYER
 10
75.9374201095
 20
164.9312938789
 11
82.0080732473
 21
158.860640741
  0
LINE
  5
2A5
100
AcDbEntity
  8
00_COMPONENTS_1
100
AcDbLine
 62
7
  6
BYLAYER
 10
45.5787701805
 20
164.9312938789
 11
85.9647701805
 21
164.9312938789
  0
LINE
  5
2A6
100
AcDbEntity
  8
00_COMPONENTS_1
100
AcDbLine
 62
7
  6
BYLAYER
 10
69.0102701805
 20
166.7346938789
 11
62.5332701805
 21
166.7346938789
  0
ARC
  5
2A7
100
AcDbEntity
  8
00_COMPONENTS
100
AcDbCircle
 62
7
  6
BYLAYER
 10
65.7717701805
 20
27.2346938777
 40
12.5
100
AcDbArc
 50
113.5781784782
 51
66.4218215218
  0
ARC
  5
2A8
100
AcDbEntity
  8
00_COMPONENTS
100
AcDbCircle
 62
7
  6
BYLAYER
 10
48.9843701765
 20
85.3486882769
 40
0.7874
100
AcDbArc
 50
0.0
 51
60.0
  0
ARC
  5
2A9
100
AcDbEntity
  8
00_COMPONENTS
100
AcDbCircle
 62
7
  6
BYLAYER
 10
82.5591701845
 20
85.3486882769
 40
0.7874
100
AcDbArc
 50
120.0
 51
180.0
  0
SPLINE
  5
2AA
100
AcDbEntity
  8
00_COMPONENTS_1
100
AcDbSpline
 62
7
  6
BYLAYER
 70
0
 71
3
 72
15
 73
11
 74
0
 42
0.0000001
 43
0.0000001
 44
0.0000000001
 40
0.0
 40
0.0
 40
0.0
 40
0.0
 40
0.0762796551
 40
0.1604963053
 40
0.2581855293
 40
0.3724034092
 40
0.5042198134
 40
0.6535053273
 40
0.8193679375
 40
1.0
 40
1.0
 40
1.0
 40
1.0
 10
50.5937720179
 20
158.3950327406
 30
0.0
 10
50.6259065161
 20
158.3628982424
 30
0.0
 10
50.7068763029
 20
158.3077757838
 30
0.0
 10
50.8571494165
 20
158.2665657203
 30
0.0
 10
51.0347931337
 20
158.2625569406
 30
0.0
 10
51.2378772962
 20
158.2942182945
 30
0.0
 10
51.4643705561
 20
158.3606002114
 30
0.0
 10
51.7114317357
 20
158.4608879449
 30
0.0
 10
51.9755538358
 20
158.5936674356
 30
0.0
 10
52.1535731718
 20
158.6984769389
 30
0.0
 10
52.2447654149
 20
158.7556167148
 30
0.0
  0
SPLINE
  5
2AB
100
AcDbEntity
  8
00_COMPONENTS_1
100
AcDbSpline
 62
7
  6
BYLAYER
 70
0
 71
3
 72
15
 73
11
 74
0
 42
0.0000001
 43
0.0000001
 44
0.0000000001
 40
0.0
 40
0.0
 40
0.0
 40
0.0
 40
0.1806320625
 40
0.3464946727
 40
0.4957801866
 40
0.6275965908
 40
0.7418144707
 40
0.8395036947
 40
0.9237203449
 40
1.0
 40
1.0
 40
1.0
 40
1.0
 10
54.777197641
 20
161.288048941
 30
0.0
 10
54.8343374169
 20
161.3792411841
 30
0.0
 10
54.9391469202
 20
161.55726052
 30
0.0
 10
55.071926411
 20
161.8213826201
 30
0.0
 10
55.1722141445
 20
162.0684437998
 30
0.0
 10
55.2385960613
 20
162.2949370596
 30
0.0
 10
55.2702574152
 20
162.4980212222
 30
0.0
 10
55.2662486355
 20
162.6756649393
 30
0.0
 10
55.2250385721
 20
162.8259380529
 30
0.0
 10
55.1699161134
 20
162.9069078397
 30
0.0
 10
55.1377816152
 20
162.9390423379
 30
0.0
  0
SPLINE
  5
2AC
100
AcDbEntity
  8
00_COMPONENTS_1
100
AcDbSpline
 62
7
  6
BYLAYER
 70
0
 71
3
 72
15
 73
11
 74
0
 42
0.0000001
 43
0.0000001
 44
0.0000000001
 40
0.0
 40
0.0
 40
0.0
 40
0.0
 40
0.1806320625
 40
0.3464946727
 40
0.4957801866
 40
0.6275965908
 40
0.7418144707
 40
0.8395036947
 40
0.9237203449
 40
1.0
 40
1.0
 40
1.0
 40
1.0
 10
79.298774946
 20
158.7556167148
 30
0.0
 10
79.3899671891
 20
158.6984769389
 30
0.0
 10
79.5679865251
 20
158.5936674356
 30
0.0
 10
79.8321086252
 20
158.4608879449
 30
0.0
 10
80.0791698048
 20
158.3606002114
 30
0.0
 10
80.3056630647
 20
158.2942182945
 30
0.0
 10
80.5087472272
 20
158.2625569406
 30
0.0
 10
80.6863909444
 20
158.2665657203
 30
0.0
 10
80.836664058
 20
158.3077757838
 30
0.0
 10
80.9176338448
 20
158.3628982424
 30
0.0
 10
80.949768343
 20
158.3950327406
 30
0.0
  0
SPLINE
  5
2AD
100
AcDbEntity
  8
00_COMPONENTS_1
100
AcDbSpline
 62
7
  6
BYLAYER
 70
0
 71
3
 72
15
 73
11
 74
0
 42
0.0000001
 43
0.0000001
 44
0.0000000001
 40
0.0
 40
0.0
 40
0.0
 40
0.0
 40
0.0762796551
 40
0.1604963053
 40
0.2581855293
 40
0.3724034092
 40
0.5042198134
 40
0.6535053273
 40
0.8193679375
 40
1.0
 40
1.0
 40
1.0
 40
1.0
 10
76.4057587457
 20
162.9390423379
 30
0.0
 10
76.3736242475
 20
162.9069078397
 30
0.0
 10
76.3185017889
 20
162.8259380529
 30
0.0
 10
76.2772917254
 20
162.6756649393
 30
0.0
 10
76.2732829457
 20
162.4980212222
 30
0.0
 10
76.3049442996
 20
162.2949370596
 30
0.0
 10
76.3713262164
 20
162.0684437998
 30
0.0
 10
76.4716139499
 20
161.8213826201
 30
0.0
 10
76.6043934407
 20
161.55726052
 30
0.0
 10
76.709202944
 20
161.379241184
 30
0.0
 10
76.7663427199
 20
161.288048941
 30
0.0
  0
SPLINE
  5
2AE
100
AcDbEntity
  8
00_COMPONENTS_1
100
AcDbSpline
 62
7
  6
BYLAYER
 70
0
 71
3
 72
17
 73
13
 74
0
 42
0.0000001
 43
0.0000001
 44
0.0000000001
 40
0.0
 40
0.0
 40
0.0
 40
0.0
 40
0.032054835
 40
0.0658449008
 40
0.1027577396
 40
0.1438071405
 40
0.2404760319
 40
0.3580453726
 40
0.4956865762
 40
0.6509560843
 40
0.8204573595
 40
1.0
 40
1.0
 40
1.0
 40
1.0
 10
80.949768343
 20
158.3950327406
 30
0.0
 10
80.9721336445
 20
158.4173980421
 30
0.0
 10
81.0122777996
 20
158.4694947663
 30
0.0
 10
81.0535112403
 20
158.563009611
 30
0.0
 10
81.0764975851
 20
158.6715240798
 30
0.0
 10
81.0834879506
 20
158.8443235512
 30
0.0
 10
81.0413418802
 20
159.095017784
 30
0.0
 10
80.9269076135
 20
159.4237447338
 30
0.0
 10
80.7485388198
 20
159.7882792472
 30
0.0
 10
80.5110189641
 20
160.1784283042
 30
0.0
 10
80.2208020958
 20
160.5831396728
 30
0.0
 10
80.0020802506
 20
160.8495213105
 30
0.0
 10
79.8856585064
 20
160.983055482
 30
0.0
  0
SPLINE
  5
2AF
100
AcDbEntity
  8
00_COMPONENTS_1
100
AcDbSpline
 62
7
  6
BYLAYER
 70
0
 71
3
 72
17
 73
13
 74
0
 42
0.0000001
 43
0.0000001
 44
0.0000000001
 40
0.0
 40
0.0
 40
0.0
 40
0.0
 40
0.1795426405
 40
0.3490439157
 40
0.5043134238
 40
0.6419546274
 40
0.7595239681
 40
0.8561928595
 40
0.8972422604
 40
0.9341550992
 40
0.967945165
 40
1.0
 40
1.0
 40
1.0
 40
1.0
 10
51.6578818545
 20
160.983055482
 30
0.0
 10
51.5414601103
 20
160.8495213105
 30
0.0
 10
51.3227382651
 20
160.5831396728
 30
0.0
 10
51.0325213968
 20
160.1784283042
 30
0.0
 10
50.7950015412
 20
159.7882792472
 30
0.0
 10
50.6166327474
 20
159.4237447338
 30
0.0
 10
50.5021984807
 20
159.095017784
 30
0.0
 10
50.4600524104
 20
158.8443235512
 30
0.0
 10
50.4670427758
 20
158.6715240798
 30
0.0
 10
50.4900291206
 20
158.563009611
 30
0.0
 10
50.5312625613
 20
158.4694947663
 30
0.0
 10
50.5714067164
 20
158.4173980421
 30
0.0
 10
50.5937720179
 20
158.3950327406
 30
0.0
  0
SPLINE
  5
2B0
100
AcDbEntity
  8
00_COMPONENTS_1
100
AcDbSpline
 62
7
  6
BYLAYER
 70
0
 71
3
 72
17
 73
13
 74
0
 42
0.0000001
 43
0.0000001
 44
0.0000000001
 40
0.0
 40
0.0
 40
0.0
 40
0.0
 40
0.1795426405
 40
0.3490439157
 40
0.5043134238
 40
0.6419546274
 40
0.7595239681
 40
0.8561928595
 40
0.8972422604
 40
0.9341550992
 40
0.967945165
 40
1.0
 40
1.0
 40
1.0
 40
1.0
 10
78.9937814871
 20
161.8749325013
 30
0.0
 10
78.8602473156
 20
161.9913542455
 30
0.0
 10
78.5938656779
 20
162.2100760907
 30
0.0
 10
78.1891543093
 20
162.500292959
 30
0.0
 10
77.7990052523
 20
162.7378128147
 30
0.0
 10
77.4344707388
 20
162.9161816084
 30
0.0
 10
77.1057437891
 20
163.0306158751
 30
0.0
 10
76.8550495562
 20
163.0727619455
 30
0.0
 10
76.6822500848
 20
163.06577158
 30
0.0
 10
76.5737356161
 20
163.0427852352
 30
0.0
 10
76.4802207714
 20
163.0015517945
 30
0.0
 10
76.4281240472
 20
162.9614076394
 30
0.0
 10
76.4057587457
 20
162.9390423379
 30
0.0
  0
SPLINE
  5
2B1
100
AcDbEntity
  8
00_COMPONENTS_1
100
AcDbSpline
 62
7
  6
BYLAYER
 70
0
 71
3
 72
17
 73
13
 74
0
 42
0.0000001
 43
0.0000001
 44
0.0000000001
 40
0.0
 40
0.0
 40
0.0
 40
0.0
 40
0.032054835
 40
0.0658449008
 40
0.1027577396
 40
0.1438071405
 40
0.2404760319
 40
0.3580453726
 40
0.4956865762
 40
0.6509560843
 40
0.8204573595
 40
1.0
 40
1.0
 40
1.0
 40
1.0
 10
55.1377816152
 20
162.9390423379
 30
0.0
 10
55.1154163137
 20
162.9614076394
 30
0.0
 10
55.0633195895
 20
163.0015517945
 30
0.0
 10
54.9698047448
 20
163.0427852352
 30
0.0
 10
54.8612902761
 20
163.0657715801
 30
0.0
 10
54.6884908047
 20
163.0727619455
 30
0.0
 10
54.4377965718
 20
163.0306158751
 30
0.0
 10
54.1090696221
 20
162.9161816084
 30
0.0
 10
53.7445351086
 20
162.7378128147
 30
0.0
 10
53.3543860516
 20
162.5002929591
 30
0.0
 10
52.949674683
 20
162.2100760907
 30
0.0
 10
52.6832930453
 20
161.9913542455
 30
0.0
 10
52.5497588738
 20
161.8749325013
 30
0.0
  0
SPLINE
  5
2B2
100
AcDbEntity
  8
00_COMPONENTS
100
AcDbSpline
 62
7
  6
BYLAYER
 70
0
 71
3
 72
13
 73
9
 74
0
 42
0.0000001
 43
0.0000001
 44
0.0000000001
 40
0.0
 40
0.0
 40
0.0
 40
0.0
 40
0.2514376165
 40
0.3759332228
 40
0.5
 40
0.6240667772
 40
0.7485623835
 40
1.0
 40
1.0
 40
1.0
 40
1.0
 10
48.3092701805
 20
87.4783450846
 30
0.0
 10
49.1411097603
 20
87.2184287273
 30
0.0
 10
50.4111391217
 20
86.9031703867
 30
0.0
 10
52.1319361798
 20
86.684657835
 30
0.0
 10
53.423918014
 20
86.6291725227
 30
0.0
 10
54.7158998481
 20
86.684657835
 30
0.0
 10
56.4366969062
 20
86.9031703867
 30
0.0
 10
57.7067262677
 20
87.2184287273
 30
0.0
 10
58.5385658475
 20
87.4783450846
 30
0.0
  0
SPLINE
  5
2B3
100
AcDbEntity
  8
00_COMPONENTS
100
AcDbSpline
 62
7
  6
BYLAYER
 70
0
 71
3
 72
10
 73
6
 74
0
 42
0.0000001
 43
0.0000001
 44
0.0000000001
 40
0.0
 40
0.0
 40
0.0
 40
0.0
 40
0.4999178017
 40
0.7499636292
 40
1.0
 40
1.0
 40
1.0
 40
1.0
 10
58.5385658475
 20
87.4783450846
 30
0.0
 10
59.7252962967
 20
87.2161460315
 30
0.0
 10
61.5253952396
 20
86.9016802907
 30
0.0
 10
63.9478051676
 20
86.6845329142
 30
0.0
 10
65.1639064565
 20
86.6476686452
 30
0.0
 10
65.7717701805
 20
86.6476686452
 30
0.0
  0
SPLINE
  5
2B4
100
AcDbEntity
  8
00_COMPONENTS
100
AcDbSpline
 62
7
  6
BYLAYER
 70
0
 71
3
 72
10
 73
6
 74
0
 42
0.0000001
 43
0.0000001
 44
0.0000000001
 40
0.0
 40
0.0
 40
0.0
 40
0.0
 40
0.2500363762
 40
0.5000822131
 40
1.0
 40
1.0
 40
1.0
 40
1.0
 10
65.7717701805
 20
86.6476686452
 30
0.0
 10
66.3796339164
 20
86.6476686452
 30
0.0
 10
67.5957352215
 20
86.6845333321
 30
0.0
 10
70.0181451941
 20
86.9016800495
 30
0.0
 10
71.8182441014
 20
87.2161460398
 30
0.0
 10
73.0049745134
 20
87.4783450846
 30
0.0
  0
SPLINE
  5
2B5
100
AcDbEntity
  8
00_COMPONENTS
100
AcDbSpline
 62
7
  6
BYLAYER
 70
0
 71
3
 72
13
 73
9
 74
0
 42
0.0000001
 43
0.0000001
 44
0.0000000001
 40
0.0
 40
0.0
 40
0.0
 40
0.0
 40
0.2514376165
 40
0.3759332228
 40
0.5
 40
0.6240667772
 40
0.7485623835
 40
1.0
 40
1.0
 40
1.0
 40
1.0
 10
73.0049745134
 20
87.4783450846
 30
0.0
 10
73.8368140933
 20
87.2184287273
 30
0.0
 10
75.1068434547
 20
86.9031703867
 30
0.0
 10
76.8276405128
 20
86.684657835
 30
0.0
 10
78.1196223469
 20
86.6291725227
 30
0.0
 10
79.4116041811
 20
86.684657835
 30
0.0
 10
81.1324012392
 20
86.9031703867
 30
0.0
 10
82.4024306006
 20
87.2184287273
 30
0.0
 10
83.2342701805
 20
87.4783450846
 30
0.0
  0
ENDSEC
  0
SECTION
  2
OBJECTS
  0
DICTIONARY
  5
C
100
AcDbDictionary
280
0
281
1
  3
ACAD_GROUP
350
D
  3
ACAD_MLINESTYLE
350
17
  3
ACAD_LAYOUT
350
1A
  3
ACAD_PLOTSETTINGS
350
19
  3
ACAD_PLOTSTYLENAME
350
E
  0
DICTIONARY
  5
D
102
{ACAD_REACTORS
330
C
102
}
100
AcDbDictionary
280
0
281
1
  0
ACDBDICTIONARYWDFLT
  5
E
102
{ACAD_REACTORS
330
C
102
}
100
AcDbDictionary
281
1
  3
Normal
350
F
100
AcDbDictionaryWithDefault
340
F
  0
DICTIONARY
  5
17
102
{ACAD_REACTORS
330
C
102
}
100
AcDbDictionary
280
0
281
1
  3
Standard
350
18
  0
DICTIONARY
  5
19
102
{ACAD_REACTORS
330
C
102
}
100
AcDbDictionary
281
1
  0
DICTIONARY
  5
1A
102
{ACAD_REACTORS
330
C
102
}
100
AcDbDictionary
281
1
  3
Model
350
2B6
  3
Layout1
350
2B7
  0
ACDBPLACEHOLDER
  5
F
102
{ACAD_REACTORS
330
E
102
}
  0
MLINESTYLE
  5
18
102
{ACAD_REACTORS
330
17
102
}
100
AcDbMlineStyle
  2
STANDARD
 70
0
  3

 62
256
 51
90.0
 52
90.0
 71
2
 49
0.5
 62
256
  6
BYLAYER
 49
-0.5
 62
256
  6
BYLAYER
  0
LAYOUT
  5
2B6
102
{ACAD_REACTORS
330
1A
102
}
100
AcDbPlotSettings
  1

  2
none_device
  4

  6

 40
0.0
 41
0.0
 42
0.0
 43
0.0
 44
210.0
 45
297.0
 46
0.0
 47
0.0
 48
0.0
 49
0.0
140
0.0
141
0.0
142
1.0
143
1.0
 70
1024
 72
1
 73
0
 74
0
  7

 75
0
147
1.0
148
0.0
149
0.0
100
AcDbLayout
  1
Model
 70
0
 71
0
 10
0.0
 20
0.0
 11
210.0
 21
297.0
 12
0.0
 22
0.0
 32
0.0
 14
0.0
 24
0.0
 34
0.0
 15
0.0
 25
0.0
 35
0.0
146
0.0
 13
0.0
 23
0.0
 33
0.0
 16
1.0
 26
0.0
 36
0.0
 17
0.0
 27
1.0
 37
0.0
 76
0
330
219
345
0
346
0
  0
LAYOUT
  5
2B7
102
{ACAD_REACTORS
330
1A
102
}
100
AcDbPlotSettings
  1

  2
none_device
  4

  6

 40
0.0
 41
0.0
 42
0.0
 43
0.0
 44
210.0
 45
297.0
 46
0.0
 47
0.0
 48
0.0
 49
0.0
140
0.0
141
0.0
142
1.0
143
1.0
 70
0
 72
1
 73
0
 74
0
  7

 75
0
147
1.0
148
0.0
149
0.0
100
AcDbLayout
  1
Layout1
 70
0
 71
1
 10
0.0
 20
0.0
 11
210.0
 21
297.0
 12
0.0
 22
0.0
 32
0.0
 14
0.0
 24
0.0
 34
0.0
 15
0.0
 25
0.0
 35
0.0
146
0.0
 13
0.0
 23
0.0
 33
0.0
 16
1.0
 26
0.0
 36
0.0
 17
0.0
 27
1.0
 37
0.0
 76
0
330
21A
345
0
346
0
  0
ENDSEC
  0
EOF
